  0
SECTION
  2
HEADER
  9
$ACADVER
  1
AC1024
  9
$ACADMAINTVER
 70
   226
  9
$DWGCODEPAGE
  3
ANSI_1252
  9
$INSBASE
 10
0.0
 20
0.0
 30
0.0
  9
$EXTMIN
 10
1.000000000000000E+20
 20
1.000000000000000E+20
 30
1.000000000000000E+20
  9
$EXTMAX
 10
-1.000000000000000E+20
 20
-1.000000000000000E+20
 30
-1.000000000000000E+20
  9
$LIMMIN
 10
0.0
 20
0.0
  9
$LIMMAX
 10
12.0
 20
9.0
  9
$ORTHOMODE
 70
     0
  9
$REGENMODE
 70
     1
  9
$FILLMODE
 70
     1
  9
$QTEXTMODE
 70
     0
  9
$MIRRTEXT
 70
     0
  9
$LTSCALE
 40
1.0
  9
$ATTMODE
 70
     1
  9
$TEXTSIZE
 40
0.2
  9
$TRACEWID
 40
0.05
  9
$TEXTSTYLE
  7
Standard
  9
$CLAYER
  8
0
  9
$CELTYPE
  6
ByLayer
  9
$CECOLOR
 62
   256
  9
$CELTSCALE
 40
1.0
  9
$DISPSILH
 70
     0
  9
$DIMSCALE
 40
1.0
  9
$DIMASZ
 40
0.18
  9
$DIMEXO
 40
0.0625
  9
$DIMDLI
 40
0.38
  9
$DIMRND
 40
0.0
  9
$DIMDLE
 40
0.0
  9
$DIMEXE
 40
0.18
  9
$DIMTP
 40
0.0
  9
$DIMTM
 40
0.0
  9
$DIMTXT
 40
0.18
  9
$DIMCEN
 40
0.09
  9
$DIMTSZ
 40
0.0
  9
$DIMTOL
 70
     0
  9
$DIMLIM
 70
     0
  9
$DIMTIH
 70
     1
  9
$DIMTOH
 70
     1
  9
$DIMSE1
 70
     0
  9
$DIMSE2
 70
     0
  9
$DIMTAD
 70
     0
  9
$DIMZIN
 70
     0
  9
$DIMBLK
  1

  9
$DIMASO
 70
     1
  9
$DIMSHO
 70
     1
  9
$DIMPOST
  1

  9
$DIMAPOST
  1

  9
$DIMALT
 70
     0
  9
$DIMALTD
 70
     2
  9
$DIMALTF
 40
25.4
  9
$DIMLFAC
 40
1.0
  9
$DIMTOFL
 70
     0
  9
$DIMTVP
 40
0.0
  9
$DIMTIX
 70
     0
  9
$DIMSOXD
 70
     0
  9
$DIMSAH
 70
     0
  9
$DIMBLK1
  1

  9
$DIMBLK2
  1

  9
$DIMSTYLE
  2
Standard
  9
$DIMCLRD
 70
     0
  9
$DIMCLRE
 70
     0
  9
$DIMCLRT
 70
     0
  9
$DIMTFAC
 40
1.0
  9
$DIMGAP
 40
0.09
  9
$DIMJUST
 70
     0
  9
$DIMSD1
 70
     0
  9
$DIMSD2
 70
     0
  9
$DIMTOLJ
 70
     1
  9
$DIMTZIN
 70
     0
  9
$DIMALTZ
 70
     0
  9
$DIMALTTZ
 70
     0
  9
$DIMUPT
 70
     0
  9
$DIMDEC
 70
     4
  9
$DIMTDEC
 70
     4
  9
$DIMALTU
 70
     2
  9
$DIMALTTD
 70
     2
  9
$DIMTXSTY
  7
Standard
  9
$DIMAUNIT
 70
     0
  9
$DIMADEC
 70
     0
  9
$DIMALTRND
 40
0.0
  9
$DIMAZIN
 70
     0
  9
$DIMDSEP
 70
    46
  9
$DIMATFIT
 70
     3
  9
$DIMFRAC
 70
     0
  9
$DIMLDRBLK
  1

  9
$DIMLUNIT
 70
     2
  9
$DIMLWD
 70
    -2
  9
$DIMLWE
 70
    -2
  9
$DIMTMOVE
 70
     0
  9
$DIMFXL
 40
1.0
  9
$DIMFXLON
 70
     0
  9
$DIMJOGANG
 40
0.7853981633974483
  9
$DIMTFILL
 70
     0
  9
$DIMTFILLCLR
 70
     0
  9
$DIMARCSYM
 70
     0
  9
$DIMLTYPE
  6

  9
$DIMLTEX1
  6

  9
$DIMLTEX2
  6

  9
$DIMTXTDIRECTION
 70
     0
  9
$LUNITS
 70
     2
  9
$LUPREC
 70
     4
  9
$SKETCHINC
 40
0.1
  9
$FILLETRAD
 40
0.0
  9
$AUNITS
 70
     0
  9
$AUPREC
 70
     0
  9
$MENU
  1
.
  9
$ELEVATION
 40
0.0
  9
$PELEVATION
 40
0.0
  9
$THICKNESS
 40
0.0
  9
$LIMCHECK
 70
     0
  9
$CHAMFERA
 40
0.0
  9
$CHAMFERB
 40
0.0
  9
$CHAMFERC
 40
0.0
  9
$CHAMFERD
 40
0.0
  9
$SKPOLY
 70
     0
  9
$TDCREATE
 40
2459989.733020833
  9
$TDUCREATE
 40
2459989.691354167
  9
$TDUPDATE
 40
2459989.733020833
  9
$TDUUPDATE
 40
2459989.691354167
  9
$TDINDWG
 40
0.0000000000
  9
$TDUSRTIMER
 40
0.0000000000
  9
$USRTIMER
 70
     1
  9
$ANGBASE
 50
0.0
  9
$ANGDIR
 70
     0
  9
$PDMODE
 70
     0
  9
$PDSIZE
 40
0.0
  9
$PLINEWID
 40
0.0
  9
$SPLFRAME
 70
     0
  9
$SPLINETYPE
 70
     6
  9
$SPLINESEGS
 70
     8
  9
$HANDSEED
  5
377
  9
$SURFTAB1
 70
     6
  9
$SURFTAB2
 70
     6
  9
$SURFTYPE
 70
     6
  9
$SURFU
 70
     6
  9
$SURFV
 70
     6
  9
$UCSBASE
  2

  9
$UCSNAME
  2

  9
$UCSORG
 10
0.0
 20
0.0
 30
0.0
  9
$UCSXDIR
 10
1.0
 20
0.0
 30
0.0
  9
$UCSYDIR
 10
0.0
 20
1.0
 30
0.0
  9
$UCSORTHOREF
  2

  9
$UCSORTHOVIEW
 70
     0
  9
$UCSORGTOP
 10
0.0
 20
0.0
 30
0.0
  9
$UCSORGBOTTOM
 10
0.0
 20
0.0
 30
0.0
  9
$UCSORGLEFT
 10
0.0
 20
0.0
 30
0.0
  9
$UCSORGRIGHT
 10
0.0
 20
0.0
 30
0.0
  9
$UCSORGFRONT
 10
0.0
 20
0.0
 30
0.0
  9
$UCSORGBACK
 10
0.0
 20
0.0
 30
0.0
  9
$PUCSBASE
  2

  9
$PUCSNAME
  2

  9
$PUCSORG
 10
0.0
 20
0.0
 30
0.0
  9
$PUCSXDIR
 10
1.0
 20
0.0
 30
0.0
  9
$PUCSYDIR
 10
0.0
 20
1.0
 30
0.0
  9
$PUCSORTHOREF
  2

  9
$PUCSORTHOVIEW
 70
     0
  9
$PUCSORGTOP
 10
0.0
 20
0.0
 30
0.0
  9
$PUCSORGBOTTOM
 10
0.0
 20
0.0
 30
0.0
  9
$PUCSORGLEFT
 10
0.0
 20
0.0
 30
0.0
  9
$PUCSORGRIGHT
 10
0.0
 20
0.0
 30
0.0
  9
$PUCSORGFRONT
 10
0.0
 20
0.0
 30
0.0
  9
$PUCSORGBACK
 10
0.0
 20
0.0
 30
0.0
  9
$USERI1
 70
     0
  9
$USERI2
 70
     0
  9
$USERI3
 70
     0
  9
$USERI4
 70
     0
  9
$USERI5
 70
     0
  9
$USERR1
 40
0.0
  9
$USERR2
 40
0.0
  9
$USERR3
 40
0.0
  9
$USERR4
 40
0.0
  9
$USERR5
 40
0.0
  9
$WORLDVIEW
 70
     1
  9
$SHADEDGE
 70
     3
  9
$SHADEDIF
 70
    70
  9
$TILEMODE
 70
     1
  9
$MAXACTVP
 70
    64
  9
$PINSBASE
 10
0.0
 20
0.0
 30
0.0
  9
$PLIMCHECK
 70
     0
  9
$PEXTMIN
 10
1.000000000000000E+20
 20
1.000000000000000E+20
 30
1.000000000000000E+20
  9
$PEXTMAX
 10
-1.000000000000000E+20
 20
-1.000000000000000E+20
 30
-1.000000000000000E+20
  9
$PLIMMIN
 10
0.0
 20
0.0
  9
$PLIMMAX
 10
12.0
 20
9.0
  9
$UNITMODE
 70
     0
  9
$VISRETAIN
 70
     1
  9
$PLINEGEN
 70
     0
  9
$PSLTSCALE
 70
     1
  9
$TREEDEPTH
 70
  3020
  9
$CMLSTYLE
  2
Standard
  9
$CMLJUST
 70
     0
  9
$CMLSCALE
 40
1.0
  9
$PROXYGRAPHICS
 70
     1
  9
$MEASUREMENT
 70
     0
  9
$CELWEIGHT
370
    -1
  9
$ENDCAPS
280
     0
  9
$JOINSTYLE
280
     0
  9
$LWDISPLAY
290
     1
  9
$INSUNITS
 70
     4
  9
$HYPERLINKBASE
  1

  9
$STYLESHEET
  1

  9
$XEDIT
290
     1
  9
$CEPSNTYPE
380
     0
  9
$PSTYLEMODE
290
     1
  9
$FINGERPRINTGUID
  2
{8ADB0A19-5F00-A945-92CC-8B4FA6204ED5}
  9
$VERSIONGUID
  2
{6A9F01C4-4448-FC43-BBD3-245F9433EF5C}
  9
$EXTNAMES
290
     1
  9
$PSVPSCALE
 40
0.0
  9
$OLESTARTUP
290
     0
  9
$SORTENTS
280
   127
  9
$INDEXCTL
280
     0
  9
$HIDETEXT
280
     1
  9
$XCLIPFRAME
280
     2
  9
$HALOGAP
280
     0
  9
$OBSCOLOR
 70
   257
  9
$OBSLTYPE
280
     0
  9
$INTERSECTIONDISPLAY
280
     0
  9
$INTERSECTIONCOLOR
 70
   257
  9
$DIMASSOC
280
     2
  9
$PROJECTNAME
  1

  9
$CAMERADISPLAY
290
     0
  9
$LENSLENGTH
 40
50.0
  9
$CAMERAHEIGHT
 40
0.0
  9
$STEPSPERSEC
 40
2.0
  9
$STEPSIZE
 40
6.0
  9
$3DDWFPREC
 40
2.0
  9
$PSOLWIDTH
 40
0.25
  9
$PSOLHEIGHT
 40
4.0
  9
$LOFTANG1
 40
1.570796326794896
  9
$LOFTANG2
 40
1.570796326794896
  9
$LOFTMAG1
 40
0.0
  9
$LOFTMAG2
 40
0.0
  9
$LOFTPARAM
 70
     7
  9
$LOFTNORMALS
280
     1
  9
$LATITUDE
 40
37.795
  9
$LONGITUDE
 40
-122.394
  9
$NORTHDIRECTION
 40
0.0
  9
$TIMEZONE
 70
 -8000
  9
$LIGHTGLYPHDISPLAY
280
     1
  9
$TILEMODELIGHTSYNCH
280
     1
  9
$CMATERIAL
347
11
  9
$SOLIDHIST
280
     0
  9
$SHOWHIST
280
     1
  9
$DWFFRAME
280
     2
  9
$DGNFRAME
280
     0
  9
$REALWORLDSCALE
290
     1
  9
$INTERFERECOLOR
 62
     1
  9
$INTERFEREOBJVS
345
33
  9
$INTERFEREVPVS
346
30
  9
$CSHADOW
280
     0
  9
$SHADOWPLANELOCATION
 40
0.0
  0
ENDSEC
  0
SECTION
  2
CLASSES
  0
CLASS
  1
ACDBDICTIONARYWDFLT
  2
AcDbDictionaryWithDefault
  3
ObjectDBX Classes
 90
        0
 91
        1
280
     0
281
     0
  0
CLASS
  1
MATERIAL
  2
AcDbMaterial
  3
ObjectDBX Classes
 90
     1153
 91
        3
280
     0
281
     0
  0
CLASS
  1
VISUALSTYLE
  2
AcDbVisualStyle
  3
ObjectDBX Classes
 90
     4095
 91
       24
280
     0
281
     0
  0
CLASS
  1
SCALE
  2
AcDbScale
  3
ObjectDBX Classes
 90
     1153
 91
       17
280
     0
281
     0
  0
CLASS
  1
TABLESTYLE
  2
AcDbTableStyle
  3
ObjectDBX Classes
 90
     4095
 91
        1
280
     0
281
     0
  0
CLASS
  1
MLEADERSTYLE
  2
AcDbMLeaderStyle
  3
ACDB_MLEADERSTYLE_CLASS
 90
     4095
 91
        1
280
     0
281
     0
  0
CLASS
  1
ACDBSECTIONVIEWSTYLE
  2
AcDbSectionViewStyle
  3
ObjectDBX Classes
 90
     1025
 91
        1
280
     0
281
     0
  0
CLASS
  1
ACDBDETAILVIEWSTYLE
  2
AcDbDetailViewStyle
  3
ObjectDBX Classes
 90
     1025
 91
        1
280
     0
281
     0
  0
CLASS
  1
DICTIONARYVAR
  2
AcDbDictionaryVar
  3
ObjectDBX Classes
 90
        0
 91
        5
280
     0
281
     0
  0
CLASS
  1
CELLSTYLEMAP
  2
AcDbCellStyleMap
  3
ObjectDBX Classes
 90
     1152
 91
        1
280
     0
281
     0
  0
ENDSEC
  0
SECTION
  2
TABLES
  0
TABLE
  2
VPORT
  5
8
330
0
100
AcDbSymbolTable
 70
     1
  0
VPORT
  5
57
330
8
100
AcDbSymbolTableRecord
100
AcDbViewportTableRecord
  2
*Active
 70
     0
 10
0.0
 20
0.0
 11
1.0
 21
1.0
 12
0.0
 22
0.0
 13
0.0
 23
0.0
 14
1.0
 24
1.0
 15
0.0
 25
0.0
 16
0.0
 26
0.0
 36
1.0
 17
209.9997563363891
 27
-148.4681977906609
 37
0.0
 40
302.9401324222651
 41
1.414139155155224
 42
50.0
 43
0.0
 44
0.0
 50
0.0
 51
0.0
 71
     0
 72
   100
 73
     1
 74
     1
 75
     0
 76
     0
 77
     0
 78
     0
281
     0
 65
     1
110
0.0
120
0.0
130
0.0
111
1.0
121
0.0
131
0.0
112
0.0
122
1.0
132
0.0
 79
     0
146
0.0
 60
     3
 61
     5
292
     1
282
     1
141
0.0
142
0.0
 63
   250
421
  3355443
  0
ENDTAB
  0
TABLE
  2
LTYPE
  5
5
330
0
100
AcDbSymbolTable
 70
     1
  0
LTYPE
  5
5B
330
5
100
AcDbSymbolTableRecord
100
AcDbLinetypeTableRecord
  2
ByBlock
 70
     0
  3

 72
    65
 73
     0
 40
0.0
  0
LTYPE
  5
5C
330
5
100
AcDbSymbolTableRecord
100
AcDbLinetypeTableRecord
  2
ByLayer
 70
     0
  3

 72
    65
 73
     0
 40
0.0
  0
LTYPE
  5
5D
330
5
100
AcDbSymbolTableRecord
100
AcDbLinetypeTableRecord
  2
Continuous
 70
     0
  3
Solid line
 72
    65
 73
     0
 40
0.0
  0
ENDTAB
  0
TABLE
  2
LAYER
  5
2
330
0
100
AcDbSymbolTable
 70
     2
  0
LAYER
  5
54
330
2
100
AcDbSymbolTableRecord
100
AcDbLayerTableRecord
  2
0
 70
     0
 62
     7
  6
Continuous
370
    -3
390
F
347
21
  0
LAYER
  5
78
330
2
100
AcDbSymbolTableRecord
100
AcDbLayerTableRecord
  2
Ebene 1
 70
     0
 62
     7
  6
Continuous
370
     0
390
F
347
21
  0
ENDTAB
  0
TABLE
  2
STYLE
  5
3
330
0
100
AcDbSymbolTable
 70
     2
  0
STYLE
  5
55
330
3
100
AcDbSymbolTableRecord
100
AcDbTextStyleTableRecord
  2
Standard
 70
     0
 40
0.0
 41
1.0
 50
0.0
 71
     0
 42
0.2
  3
txt
  4

  0
STYLE
  5
5A
330
3
100
AcDbSymbolTableRecord
100
AcDbTextStyleTableRecord
  2
Annotative
 70
     0
 40
0.0
 41
1.0
 50
0.0
 71
     0
 42
0.2
  3
txt
  4

1001
AcadAnnotative
1000
AnnotativeData
1002
{
1070
     1
1070
     1
1002
}
  0
ENDTAB
  0
TABLE
  2
VIEW
  5
6
330
0
100
AcDbSymbolTable
 70
     0
  0
ENDTAB
  0
TABLE
  2
UCS
  5
7
330
0
100
AcDbSymbolTable
 70
     0
  0
ENDTAB
  0
TABLE
  2
APPID
  5
9
330
0
100
AcDbSymbolTable
 70
     2
  0
APPID
  5
56
330
9
100
AcDbSymbolTableRecord
100
AcDbRegAppTableRecord
  2
ACAD
 70
     0
  0
APPID
  5
5E
330
9
100
AcDbSymbolTableRecord
100
AcDbRegAppTableRecord
  2
AcadAnnotative
 70
     0
  0
ENDTAB
  0
TABLE
  2
DIMSTYLE
  5
A
330
0
100
AcDbSymbolTable
 70
     2
100
AcDbDimStyleTable
 71
     0
  0
DIMSTYLE
105
58
330
A
100
AcDbSymbolTableRecord
100
AcDbDimStyleTableRecord
  2
Standard
 70
     0
340
55
  0
DIMSTYLE
105
59
330
A
100
AcDbSymbolTableRecord
100
AcDbDimStyleTableRecord
  2
Annotative
 70
     0
340
55
1001
AcadAnnotative
1000
AnnotativeData
1002
{
1070
     1
1070
     1
1002
}
  0
ENDTAB
  0
TABLE
  2
BLOCK_RECORD
  5
1
330
0
100
AcDbSymbolTable
 70
     1
  0
BLOCK_RECORD
  5
70
330
1
100
AcDbSymbolTableRecord
100
AcDbBlockTableRecord
  2
*Model_Space
340
73
 70
     0
280
     1
281
     0
  0
BLOCK_RECORD
  5
6C
330
1
100
AcDbSymbolTableRecord
100
AcDbBlockTableRecord
  2
*Paper_Space
340
6F
 70
     0
280
     1
281
     0
  0
BLOCK_RECORD
  5
74
330
1
100
AcDbSymbolTableRecord
100
AcDbBlockTableRecord
  2
*Paper_Space0
340
77
 70
     0
280
     1
281
     0
  0
ENDTAB
  0
ENDSEC
  0
SECTION
  2
BLOCKS
  0
BLOCK
  5
71
330
70
100
AcDbEntity
  8
0
100
AcDbBlockBegin
  2
*Model_Space
 70
     0
 10
0.0
 20
0.0
 30
0.0
  3
*Model_Space
  1

  0
ENDBLK
  5
72
330
70
100
AcDbEntity
  8
0
100
AcDbBlockEnd
  0
BLOCK
  5
6D
330
6C
100
AcDbEntity
 67
     1
  8
0
100
AcDbBlockBegin
  2
*Paper_Space
 70
     0
 10
0.0
 20
0.0
 30
0.0
  3
*Paper_Space
  1

  0
ENDBLK
  5
6E
330
6C
100
AcDbEntity
 67
     1
  8
0
100
AcDbBlockEnd
  0
BLOCK
  5
75
330
74
100
AcDbEntity
 67
     1
  8
0
100
AcDbBlockBegin
  2
*Paper_Space0
 70
     0
 10
0.0
 20
0.0
 30
0.0
  3
*Paper_Space0
  1

  0
ENDBLK
  5
76
330
74
100
AcDbEntity
 67
     1
  8
0
100
AcDbBlockEnd
  0
ENDSEC
  0
SECTION
  2
ENTITIES
  0
MTEXT
  5
79
330
70
100
AcDbEntity
  8
Ebene 1
100
AcDbMText
 10
120.7981801416439
 20
-111.3448428839474
 30
0.0
 40
0.2
 41
0.0
 46
0.0
 71
     7
 72
     1
  1
\C18;\c0;\FArial Bold|b1|i0|c1;\H2.497667;\W1.000000;169
 11
0.0000000000000001
 21
1.0
 31
0.0
 73
     1
 44
1.0
  0
LWPOLYLINE
  5
7A
330
70
100
AcDbEntity
  8
Ebene 1
100
AcDbPolyline
 90
        3
 70
     1
 43
0.0
 10
121.5994630088503
 20
-71.27197664884883
 10
122.0001127208511
 20
-74.47537525915878
 10
121.1991307968414
 20
-74.47537525915878
  0
HATCH
  5
7B
330
70
100
AcDbEntity
  8
Ebene 1
 62
    18
420
        0
440
 33554687
100
AcDbHatch
 10
0.0
 20
0.0
 30
0.0
210
0.0
220
0.0
230
1.0
  2
SOLID
 70
     1
 71
     1
 91
        1
 92
        1
 93
        3
 72
     1
 10
121.5994630088503
 20
-71.27197664884883
 11
122.0001127208511
 21
-74.47537525915878
 72
     1
 10
122.0001127208511
 20
-74.47537525915878
 11
121.1991307968414
 21
-74.47537525915878
 72
     1
 10
121.1991307968414
 20
-74.47537525915878
 11
121.5994630088503
 21
-71.27197664884883
 97
        1
330
7A
 75
     2
 76
     1
 98
        1
 10
0.0
 20
0.0
450
        0
451
        0
460
0.0
461
0.0
452
        0
462
0.0
453
        0
470

  0
LWPOLYLINE
  5
7C
330
70
100
AcDbEntity
  8
Ebene 1
 62
    18
420
        0
370
     9
100
AcDbPolyline
 90
        3
 70
     1
 43
0.0
 10
121.5994630088503
 20
-71.27197664884883
 10
122.0001127208511
 20
-74.47537525915878
 10
121.1991307968414
 20
-74.47537525915878
  0
LWPOLYLINE
  5
7D
330
70
100
AcDbEntity
  8
Ebene 1
100
AcDbPolyline
 90
        3
 70
     1
 43
0.0
 10
121.5994630088503
 20
-144.5543280194169
 10
121.1991307968414
 20
-141.3508941313288
 10
122.0001127208511
 20
-141.3508941313288
  0
HATCH
  5
7E
330
70
100
AcDbEntity
  8
Ebene 1
 62
    18
420
        0
440
 33554687
100
AcDbHatch
 10
0.0
 20
0.0
 30
0.0
210
0.0
220
0.0
230
1.0
  2
SOLID
 70
     1
 71
     1
 91
        1
 92
        1
 93
        3
 72
     1
 10
121.5994630088503
 20
-144.5543280194169
 11
121.1991307968414
 21
-141.3508941313288
 72
     1
 10
121.1991307968414
 20
-141.3508941313288
 11
122.0001127208511
 21
-141.3508941313288
 72
     1
 10
122.0001127208511
 20
-141.3508941313288
 11
121.5994630088503
 21
-144.5543280194169
 97
        1
330
7D
 75
     2
 76
     1
 98
        1
 10
0.0
 20
0.0
450
        0
451
        0
460
0.0
461
0.0
452
        0
462
0.0
453
        0
470

  0
LWPOLYLINE
  5
7F
330
70
100
AcDbEntity
  8
Ebene 1
 62
    18
420
        0
370
     9
100
AcDbPolyline
 90
        3
 70
     1
 43
0.0
 10
121.5994630088503
 20
-144.5543280194169
 10
121.1991307968414
 20
-141.3508941313288
 10
122.0001127208511
 20
-141.3508941313288
  0
MTEXT
  5
80
330
70
100
AcDbEntity
  8
Ebene 1
100
AcDbMText
 10
181.1045766109423
 20
-64.95697668460692
 30
0.0
 40
0.2
 41
0.0
 46
0.0
 71
     7
 72
     1
  1
\C18;\c0;\FArial Bold|b1|i0|c1;\H2.497667;\W1.000000;259
 73
     1
 44
1.0
  0
LWPOLYLINE
  5
81
330
70
100
AcDbEntity
  8
Ebene 1
100
AcDbPolyline
 90
        3
 70
     1
 43
0.0
 10
127.5326206352606
 20
-65.75858915022692
 10
130.73552527577
 20
-65.35793942810494
 10
130.73552527577
 20
-66.15909776123789
  0
HATCH
  5
82
330
70
100
AcDbEntity
  8
Ebene 1
 62
    18
420
        0
440
 33554687
100
AcDbHatch
 10
0.0
 20
0.0
 30
0.0
210
0.0
220
0.0
230
1.0
  2
SOLID
 70
     1
 71
     1
 91
        1
 92
        1
 93
        3
 72
     1
 10
127.5326206352606
 20
-65.75858915022692
 11
130.73552527577
 21
-65.35793942810494
 72
     1
 10
130.73552527577
 20
-65.35793942810494
 11
130.73552527577
 21
-66.15909776123789
 72
     1
 10
130.73552527577
 20
-66.15909776123789
 11
127.5326206352606
 21
-65.75858915022692
 97
        1
330
81
 75
     2
 76
     1
 98
        1
 10
0.0
 20
0.0
450
        0
451
        0
460
0.0
461
0.0
452
        0
462
0.0
453
        0
470

  0
LWPOLYLINE
  5
83
330
70
100
AcDbEntity
  8
Ebene 1
 62
    18
420
        0
370
     9
100
AcDbPolyline
 90
        3
 70
     1
 43
0.0
 10
127.5326206352606
 20
-65.75858915022692
 10
130.73552527577
 20
-65.35793942810494
 10
130.73552527577
 20
-66.15909776123789
  0
LWPOLYLINE
  5
84
330
70
100
AcDbEntity
  8
Ebene 1
100
AcDbPolyline
 90
        3
 70
     1
 43
0.0
 10
241.9993404927491
 20
-65.75858915022692
 10
238.7967886300086
 20
-66.15909776123789
 10
238.7967886300086
 20
-65.35793942810494
  0
HATCH
  5
85
330
70
100
AcDbEntity
  8
Ebene 1
 62
    18
420
        0
440
 33554687
100
AcDbHatch
 10
0.0
 20
0.0
 30
0.0
210
0.0
220
0.0
230
1.0
  2
SOLID
 70
     1
 71
     1
 91
        1
 92
        1
 93
        3
 72
     1
 10
241.9993404927491
 20
-65.75858915022692
 11
238.7967886300086
 21
-66.15909776123789
 72
     1
 10
238.7967886300086
 20
-66.15909776123789
 11
238.7967886300086
 21
-65.35793942810494
 72
     1
 10
238.7967886300086
 20
-65.35793942810494
 11
241.9993404927491
 21
-65.75858915022692
 97
        1
330
84
 75
     2
 76
     1
 98
        1
 10
0.0
 20
0.0
450
        0
451
        0
460
0.0
461
0.0
452
        0
462
0.0
453
        0
470

  0
LWPOLYLINE
  5
86
330
70
100
AcDbEntity
  8
Ebene 1
 62
    18
420
        0
370
     9
100
AcDbPolyline
 90
        3
 70
     1
 43
0.0
 10
241.9993404927491
 20
-65.75858915022692
 10
238.7967886300086
 20
-66.15909776123789
 10
238.7967886300086
 20
-65.35793942810494
  0
MTEXT
  5
87
330
70
100
AcDbEntity
  8
Ebene 1
100
AcDbMText
 10
287.4202232857523
 20
-64.95697668460692
 30
0.0
 40
0.2
 41
0.0
 46
0.0
 71
     7
 72
     1
  1
\C18;\c0;\FArial Bold|b1|i0|c1;\H2.497667;\W1.000000;10
 73
     1
 44
1.0
  0
LWPOLYLINE
  5
88
330
70
100
AcDbEntity
  8
Ebene 1
100
AcDbPolyline
 90
        3
 70
     1
 43
0.0
 10
279.2236110413052
 20
-65.75858915022692
 10
276.021052124783
 20
-66.15909776123789
 10
276.021052124783
 20
-65.35793942810494
  0
HATCH
  5
89
330
70
100
AcDbEntity
  8
Ebene 1
 62
    18
420
        0
440
 33554687
100
AcDbHatch
 10
0.0
 20
0.0
 30
0.0
210
0.0
220
0.0
230
1.0
  2
SOLID
 70
     1
 71
     1
 91
        1
 92
        1
 93
        3
 72
     1
 10
279.2236110413052
 20
-65.75858915022692
 11
276.021052124783
 21
-66.15909776123789
 72
     1
 10
276.021052124783
 20
-66.15909776123789
 11
276.021052124783
 21
-65.35793942810494
 72
     1
 10
276.021052124783
 20
-65.35793942810494
 11
279.2236110413052
 21
-65.75858915022692
 97
        1
330
88
 75
     2
 76
     1
 98
        1
 10
0.0
 20
0.0
450
        0
451
        0
460
0.0
461
0.0
452
        0
462
0.0
453
        0
470

  0
LWPOLYLINE
  5
8A
330
70
100
AcDbEntity
  8
Ebene 1
 62
    18
420
        0
370
     9
100
AcDbPolyline
 90
        3
 70
     1
 43
0.0
 10
279.2236110413052
 20
-65.75858915022692
 10
276.021052124783
 20
-66.15909776123789
 10
276.021052124783
 20
-65.35793942810494
  0
LWPOLYLINE
  5
8B
330
70
100
AcDbEntity
  8
Ebene 1
100
AcDbPolyline
 90
        3
 70
     1
 43
0.0
 10
283.8000841485455
 20
-65.75858915022692
 10
287.0033062890467
 20
-65.35793942810494
 10
287.0033062890467
 20
-66.15909776123789
  0
HATCH
  5
8C
330
70
100
AcDbEntity
  8
Ebene 1
 62
    18
420
        0
440
 33554687
100
AcDbHatch
 10
0.0
 20
0.0
 30
0.0
210
0.0
220
0.0
230
1.0
  2
SOLID
 70
     1
 71
     1
 91
        1
 92
        1
 93
        3
 72
     1
 10
283.8000841485455
 20
-65.75858915022692
 11
287.0033062890467
 21
-65.35793942810494
 72
     1
 10
287.0033062890467
 20
-65.35793942810494
 11
287.0033062890467
 21
-66.15909776123789
 72
     1
 10
287.0033062890467
 20
-66.15909776123789
 11
283.8000841485455
 21
-65.75858915022692
 97
        1
330
8B
 75
     2
 76
     1
 98
        1
 10
0.0
 20
0.0
450
        0
451
        0
460
0.0
461
0.0
452
        0
462
0.0
453
        0
470

  0
LWPOLYLINE
  5
8D
330
70
100
AcDbEntity
  8
Ebene 1
 62
    18
420
        0
370
     9
100
AcDbPolyline
 90
        3
 70
     1
 43
0.0
 10
283.8000841485455
 20
-65.75858915022692
 10
287.0033062890467
 20
-65.35793942810494
 10
287.0033062890467
 20
-66.15909776123789
  0
MTEXT
  5
8E
330
70
100
AcDbEntity
  8
Ebene 1
100
AcDbMText
 10
271.5579701430165
 20
-58.06919728094692
 30
0.0
 40
0.2
 41
0.0
 46
0.0
 71
     7
 72
     1
  1
\C18;\c0;\FArial Bold|b1|i0|c1;\H2.497667;\W1.000000;23
 73
     1
 44
1.0
  0
LWPOLYLINE
  5
8F
330
70
100
AcDbEntity
  8
Ebene 1
100
AcDbPolyline
 90
        3
 70
     1
 43
0.0
 10
279.2236110413052
 20
-58.87014442972699
 10
282.4275388182821
 20
-58.46963581871603
 10
282.4275388182821
 20
-59.27044137407122
  0
HATCH
  5
90
330
70
100
AcDbEntity
  8
Ebene 1
 62
    18
420
        0
440
 33554687
100
AcDbHatch
 10
0.0
 20
0.0
 30
0.0
210
0.0
220
0.0
230
1.0
  2
SOLID
 70
     1
 71
     1
 91
        1
 92
        1
 93
        3
 72
     1
 10
279.2236110413052
 20
-58.87014442972699
 11
282.4275388182821
 21
-58.46963581871603
 72
     1
 10
282.4275388182821
 20
-58.46963581871603
 11
282.4275388182821
 21
-59.27044137407122
 72
     1
 10
282.4275388182821
 20
-59.27044137407122
 11
279.2236110413052
 21
-58.87014442972699
 97
        1
330
8F
 75
     2
 76
     1
 98
        1
 10
0.0
 20
0.0
450
        0
451
        0
460
0.0
461
0.0
452
        0
462
0.0
453
        0
470

  0
LWPOLYLINE
  5
91
330
70
100
AcDbEntity
  8
Ebene 1
 62
    18
420
        0
370
     9
100
AcDbPolyline
 90
        3
 70
     1
 43
0.0
 10
279.2236110413052
 20
-58.87014442972699
 10
282.4275388182821
 20
-58.46963581871603
 10
282.4275388182821
 20
-59.27044137407122
  0
LWPOLYLINE
  5
92
330
70
100
AcDbEntity
  8
Ebene 1
100
AcDbPolyline
 90
        3
 70
     1
 43
0.0
 10
268.6991915994917
 20
-58.87014442972699
 10
265.4955746155325
 20
-59.27044137407122
 10
265.4955746155325
 20
-58.46963581871603
  0
HATCH
  5
93
330
70
100
AcDbEntity
  8
Ebene 1
 62
    18
420
        0
440
 33554687
100
AcDbHatch
 10
0.0
 20
0.0
 30
0.0
210
0.0
220
0.0
230
1.0
  2
SOLID
 70
     1
 71
     1
 91
        1
 92
        1
 93
        3
 72
     1
 10
268.6991915994917
 20
-58.87014442972699
 11
265.4955746155325
 21
-59.27044137407122
 72
     1
 10
265.4955746155325
 20
-59.27044137407122
 11
265.4955746155325
 21
-58.46963581871603
 72
     1
 10
265.4955746155325
 20
-58.46963581871603
 11
268.6991915994917
 21
-58.87014442972699
 97
        1
330
92
 75
     2
 76
     1
 98
        1
 10
0.0
 20
0.0
450
        0
451
        0
460
0.0
461
0.0
452
        0
462
0.0
453
        0
470

  0
LWPOLYLINE
  5
94
330
70
100
AcDbEntity
  8
Ebene 1
 62
    18
420
        0
370
     9
100
AcDbPolyline
 90
        3
 70
     1
 43
0.0
 10
268.6991915994917
 20
-58.87014442972699
 10
265.4955746155325
 20
-59.27044137407122
 10
265.4955746155325
 20
-58.46963581871603
  0
LINE
  5
95
330
70
100
AcDbEntity
  8
Ebene 1
 62
    18
420
        0
370
     9
100
AcDbLine
 10
121.5994630088503
 20
-144.5543280194169
 30
0.0
 11
121.5994630088503
 21
-71.27197664884883
 31
0.0
  0
LINE
  5
96
330
70
100
AcDbEntity
  8
Ebene 1
 62
    18
420
        0
370
     9
100
AcDbLine
 10
127.5326206352606
 20
-139.0309569096868
 30
0.0
 11
127.5326206352606
 21
-76.79566525857893
 31
0.0
  0
LINE
  5
97
330
70
100
AcDbEntity
  8
Ebene 1
 62
    18
420
        0
370
     9
100
AcDbLine
 10
127.5326206352606
 20
-76.79566525857893
 30
0.0
 11
127.5326206352606
 21
-65.75858915022692
 31
0.0
  0
LINE
  5
98
330
70
100
AcDbEntity
  8
Ebene 1
 62
    18
420
        0
370
     9
100
AcDbLine
 10
127.562253967838
 20
-76.79566525857893
 30
0.0
 11
127.562253967838
 21
-139.0309569096868
 31
0.0
  0
LINE
  5
99
330
70
100
AcDbEntity
  8
Ebene 1
 62
    18
420
        0
370
     9
100
AcDbLine
 10
127.7916653508741
 20
-76.79566525857893
 30
0.0
 11
127.7916653508741
 21
-139.0309569096868
 31
0.0
  0
LINE
  5
9A
330
70
100
AcDbEntity
  8
Ebene 1
 62
    18
420
        0
370
     9
100
AcDbLine
 10
133.0564888556246
 20
-144.295071630593
 30
0.0
 11
133.0564888556246
 21
-144.5543280194169
 31
0.0
  0
LINE
  5
9B
330
70
100
AcDbEntity
  8
Ebene 1
 62
    18
420
        0
370
     9
100
AcDbLine
 10
133.0564888556246
 20
-71.53052748211752
 30
0.0
 11
133.0564888556246
 21
-71.27197664884883
 31
0.0
  0
LWPOLYLINE
  5
9C
330
70
100
AcDbEntity
  8
Ebene 1
 62
    18
420
        0
370
     9
100
AcDbPolyline
 90
        5
 70
     0
 43
0.0
 10
140.0258925387529
 20
-112.743332749592
 10
140.0265980942905
 20
-112.7483421940351
 10
140.0269508720593
 20
-112.760724694032
 10
140.0272683720512
 20
-112.7800216384715
 10
140.0272683720512
 20
-112.8072560829094
  0
LWPOLYLINE
  5
9D
330
70
100
AcDbEntity
  8
Ebene 1
 62
    18
420
        0
370
     9
100
AcDbPolyline
 90
        5
 70
     0
 43
0.0
 10
140.0155561501278
 20
-112.6618410829455
 10
140.0155561501278
 20
-112.6890755273834
 10
140.0162617056653
 20
-112.7083724718229
 10
140.016931983426
 20
-112.7207549718198
 10
140.016931983426
 20
-112.7262935829295
  0
LINE
  5
9E
330
70
100
AcDbEntity
  8
Ebene 1
 62
    18
420
        0
370
     9
100
AcDbLine
 10
140.0145330945983
 20
-112.5893452496303
 30
0.0
 11
140.0155561501278
 21
-112.6618410829455
 31
0.0
  0
LINE
  5
9F
330
70
100
AcDbEntity
  8
Ebene 1
 62
    18
420
        0
370
     9
100
AcDbLine
 10
140.0272683720512
 20
-112.8065505273539
 30
0.0
 11
140.0286442053494
 21
-112.8797519162246
 31
0.0
  0
LINE
  5
A0
330
70
100
AcDbEntity
  8
Ebene 1
 62
    18
420
        0
370
     9
100
AcDbLine
 10
140.0141803168295
 20
-112.494765527432
 30
0.0
 11
140.0145330945983
 21
-112.5893452496303
 31
0.0
  0
LINE
  5
A1
330
70
100
AcDbEntity
  8
Ebene 1
 62
    18
420
        0
370
     9
100
AcDbLine
 10
140.0286442053494
 20
-112.8797519162246
 30
0.0
 11
140.029349760887
 21
-112.974331638423
 31
0.0
  0
LINE
  5
A2
330
70
100
AcDbEntity
  8
Ebene 1
 62
    18
420
        0
370
     9
100
AcDbLine
 10
140.0135100390689
 20
-112.3855455274591
 30
0.0
 11
140.0141803168295
 21
-112.494765527432
 31
0.0
  0
LINE
  5
A3
330
70
100
AcDbEntity
  8
Ebene 1
 62
    18
420
        0
370
     9
100
AcDbLine
 10
140.029349760887
 20
-112.974331638423
 30
0.0
 11
140.0300200386477
 21
-113.0835516383958
 31
0.0
  0
LINE
  5
A4
330
70
100
AcDbEntity
  8
Ebene 1
 62
    18
420
        0
370
     9
100
AcDbLine
 10
140.0135100390689
 20
-112.2687760830438
 30
0.0
 11
140.0135100390689
 21
-112.3855455274591
 31
0.0
  0
LINE
  5
A5
330
70
100
AcDbEntity
  8
Ebene 1
 62
    18
420
        0
370
     9
100
AcDbLine
 10
140.0300200386477
 20
-113.0835516383958
 30
0.0
 11
140.0300200386477
 21
-113.2003210828111
 31
0.0
  0
LINE
  5
A6
330
70
100
AcDbEntity
  8
Ebene 1
 62
    18
420
        0
370
     9
100
AcDbLine
 10
139.3968192214686
 20
-128.9630319122038
 30
0.0
 11
139.3968192214686
 21
-112.0317446942144
 31
0.0
  0
LINE
  5
A7
330
70
100
AcDbEntity
  8
Ebene 1
 62
    18
420
        0
370
     9
100
AcDbLine
 10
139.6255956045209
 20
-128.9630319122038
 30
0.0
 11
139.6255956045209
 21
-112.0317446942144
 31
0.0
  0
LINE
  5
A8
330
70
100
AcDbEntity
  8
Ebene 1
 62
    18
420
        0
370
     9
100
AcDbLine
 10
139.6910358806292
 20
-112.0317446942144
 30
0.0
 11
139.6910358806292
 21
-128.9630319122038
 31
0.0
  0
LINE
  5
A9
330
70
100
AcDbEntity
  8
Ebene 1
 62
    18
420
        0
370
     9
100
AcDbLine
 10
140.0135100390689
 20
-112.2687760830438
 30
0.0
 11
140.0135100390689
 21
-111.9397755275705
 31
0.0
  0
LINE
  5
AA
330
70
100
AcDbEntity
  8
Ebene 1
 62
    18
420
        0
370
     9
100
AcDbLine
 10
140.0555258713303
 20
-111.9397755275705
 30
0.0
 11
140.0555258713303
 21
-129.0550010788474
 31
0.0
  0
LWPOLYLINE
  5
AB
330
70
100
AcDbEntity
  8
Ebene 1
 62
    18
420
        0
370
     9
100
AcDbPolyline
 90
        3
 70
     0
 43
0.0
 10
140.0300200386477
 20
-113.2003210828111
 10
140.0300200386477
 20
-121.4472071918603
 10
140.0300200386477
 20
-121.5050627474017
  0
LWPOLYLINE
  5
AC
330
70
100
AcDbEntity
  8
Ebene 1
 62
    18
420
        0
370
     9
100
AcDbPolyline
 90
        3
 70
     0
 43
0.0
 10
140.0135100390689
 20
-122.1469066361299
 10
140.0135100390689
 20
-122.2030335805603
 10
140.0135100390689
 20
-129.0550010788474
  0
LINE
  5
AD
330
70
100
AcDbEntity
  8
Ebene 1
 62
    18
420
        0
370
     9
100
AcDbLine
 10
140.283596698845
 20
-111.9397755275705
 30
0.0
 11
140.283596698845
 21
-129.0550010788474
 31
0.0
  0
LINE
  5
AE
330
70
100
AcDbEntity
  8
Ebene 1
 62
    18
420
        0
370
     9
100
AcDbLine
 10
142.3451277421913
 20
-131.3869680227087
 30
0.0
 11
142.3451277421913
 21
-131.1158583005545
 31
0.0
  0
LINE
  5
AF
330
70
100
AcDbEntity
  8
Ebene 1
 62
    18
420
        0
370
     9
100
AcDbLine
 10
142.3451277421913
 20
-109.8789183058637
 30
0.0
 11
142.3451277421913
 21
-109.6084788614869
 31
0.0
  0
LINE
  5
B0
330
70
100
AcDbEntity
  8
Ebene 1
 62
    18
420
        0
370
     9
100
AcDbLine
 10
142.4367758105795
 20
-108.99143525053
 30
0.0
 11
142.4367758105795
 21
-109.2674133060166
 31
0.0
  0
LINE
  5
B1
330
70
100
AcDbEntity
  8
Ebene 1
 62
    18
420
        0
370
     9
100
AcDbLine
 10
142.4367758105795
 20
-132.0040116336658
 30
0.0
 11
142.4367758105795
 21
-131.70651413374
 31
0.0
  0
LINE
  5
B2
330
70
100
AcDbEntity
  8
Ebene 1
 62
    18
420
        0
370
     9
100
AcDbLine
 10
142.5966194176127
 20
-131.6692960781939
 30
0.0
 11
142.5966194176127
 21
-131.3869680227087
 31
0.0
  0
LINE
  5
B3
330
70
100
AcDbEntity
  8
Ebene 1
 62
    18
420
        0
370
     9
100
AcDbLine
 10
140.0300200386477
 20
-121.5050627474017
 30
0.0
 11
140.029349760887
 21
-121.6142827473742
 31
0.0
  0
LINE
  5
B4
330
70
100
AcDbEntity
  8
Ebene 1
 62
    18
420
        0
370
     9
100
AcDbLine
 10
140.0145330945983
 20
-122.0442130250446
 30
0.0
 11
140.0135100390689
 21
-122.1469066361299
 31
0.0
  0
LINE
  5
B5
330
70
100
AcDbEntity
  8
Ebene 1
 62
    18
420
        0
370
     9
100
AcDbLine
 10
140.029349760887
 20
-121.6142827473742
 30
0.0
 11
140.0286442053494
 21
-121.7090388584618
 31
0.0
  0
LWPOLYLINE
  5
B6
330
70
100
AcDbEntity
  8
Ebene 1
 62
    18
420
        0
370
     9
100
AcDbPolyline
 90
        6
 70
     0
 43
0.0
 10
140.0286442053494
 20
-121.7090388584618
 10
140.0272683720512
 20
-121.781534691777
 10
140.0272683720512
 20
-121.8085927473256
 10
140.0269508720593
 20
-121.828066080654
 10
140.0265980942905
 20
-121.8404485806509
 10
140.0258925387529
 20
-121.8457755250943
  0
LWPOLYLINE
  5
B7
330
70
100
AcDbEntity
  8
Ebene 1
 62
    18
420
        0
370
     9
100
AcDbPolyline
 90
        7
 70
     0
 43
0.0
 10
140.016931983426
 20
-121.8630263584232
 10
140.016931983426
 20
-121.8675066361999
 10
140.0162617056653
 20
-121.8795716361966
 10
140.0155561501278
 20
-121.8995388584141
 10
140.0155561501278
 20
-121.926244136185
 10
140.0145330945983
 20
-121.9598285806213
 10
140.0145330945983
 20
-122.0442130250446
  0
LINE
  5
B8
330
70
100
AcDbEntity
  8
Ebene 1
 62
    18
420
        0
370
     9
100
AcDbLine
 10
140.016931983426
 20
-112.7262935829295
 30
0.0
 11
140.0258925387529
 21
-112.743332749592
 31
0.0
  0
LINE
  5
B9
330
70
100
AcDbEntity
  8
Ebene 1
 62
    18
420
        0
370
     9
100
AcDbLine
 10
144.8394040826167
 20
-109.6084788614869
 30
0.0
 11
144.8394040826167
 21
-109.2660374726833
 31
0.0
  0
LINE
  5
BA
330
70
100
AcDbEntity
  8
Ebene 1
 62
    18
420
        0
370
     9
100
AcDbLine
 10
144.8493876934731
 20
-109.6084788614869
 30
0.0
 11
144.8493876934731
 21
-109.2660374726833
 31
0.0
  0
LINE
  5
BB
330
70
100
AcDbEntity
  8
Ebene 1
 62
    18
420
        0
370
     9
100
AcDbLine
 10
145.0788343542861
 20
-109.6084788614869
 30
0.0
 11
145.0788343542861
 21
-109.2660374726833
 31
0.0
  0
LINE
  5
BC
330
70
100
AcDbEntity
  8
Ebene 1
 62
    18
420
        0
370
     9
100
AcDbLine
 10
145.7092835048687
 20
-131.3869680227087
 30
0.0
 11
145.7092835048687
 21
-131.6692960781939
 31
0.0
  0
LINE
  5
BD
330
70
100
AcDbEntity
  8
Ebene 1
 62
    18
420
        0
370
     9
100
AcDbLine
 10
147.4704206821606
 20
-131.3869680227087
 30
0.0
 11
147.4704206821606
 21
-131.7087719115173
 31
0.0
  0
LWPOLYLINE
  5
BE
330
70
100
AcDbEntity
  8
Ebene 1
 62
    18
420
        0
370
     9
100
AcDbPolyline
 90
       21
 70
     0
 43
0.0
 10
186.4375474658041
 20
-144.5460377416411
 10
186.4178977440832
 20
-144.5482955194184
 10
186.3589838566973
 20
-144.5506944083068
 10
186.2590771925795
 20
-144.5530932971951
 10
186.1233635849307
 20
-144.5548219083057
 10
185.9528308115036
 20
-144.5565505194164
 10
185.7533349832598
 20
-144.5584555194159
 10
185.5287213778791
 20
-144.5589494083047
 10
185.285163606315
 20
-144.5603252416376
 10
185.0288352795211
 20
-144.5606780194154
 10
184.7663333417736
 20
-144.5606780194154
 10
184.5034832872076
 20
-144.5606780194154
 10
184.246444743926
 20
-144.5603252416376
 10
184.0035971762213
 20
-144.5589494083047
 10
183.7786261447499
 20
-144.5584555194159
 10
183.579483094275
 20
-144.5565505194164
 10
183.4082800430872
 20
-144.5548219083057
 10
183.2728839354303
 20
-144.5530932971951
 10
183.1729772713124
 20
-144.5506944083068
 10
183.1144161616953
 20
-144.5482955194184
 10
183.0944136622057
 20
-144.5460377416411
  0
LWPOLYLINE
  5
BF
330
70
100
AcDbEntity
  8
Ebene 1
 62
    18
420
        0
370
     9
100
AcDbPolyline
 90
        5
 70
     0
 43
0.0
 10
188.4329290815643
 20
-144.5561977416386
 10
188.441894397334
 20
-144.5555274638612
 10
188.4642910252087
 20
-144.5548219083057
 10
188.5011610639857
 20
-144.5548219083057
 10
188.5480051897396
 20
-144.5543280194169
  0
LWPOLYLINE
  5
C0
330
70
100
AcDbEntity
  8
Ebene 1
 62
    18
420
        0
370
     9
100
AcDbPolyline
 90
        5
 70
     0
 43
0.0
 10
188.3144310290319
 20
-144.5620538527482
 10
188.3609271389568
 20
-144.5613835749709
 10
188.3977971751228
 20
-144.5606780194154
 10
188.4198410263427
 20
-144.5606780194154
 10
188.4288015816696
 20
-144.5603252416376
  0
LINE
  5
C1
330
70
100
AcDbEntity
  8
Ebene 1
 62
    18
420
        0
370
     9
100
AcDbLine
 10
188.1997076986254
 20
-144.5620538527482
 30
0.0
 11
188.3144310290319
 21
-144.5620538527482
 31
0.0
  0
LINE
  5
C2
330
70
100
AcDbEntity
  8
Ebene 1
 62
    18
420
        0
370
     9
100
AcDbLine
 10
188.5480051897396
 20
-144.5543280194169
 30
0.0
 11
188.6617054646167
 21
-144.5543280194169
 31
0.0
  0
LINE
  5
C3
330
70
100
AcDbEntity
  8
Ebene 1
 62
    18
420
        0
370
     9
100
AcDbLine
 10
133.0564888556246
 20
-144.5543280194169
 30
0.0
 11
121.5994630088503
 21
-144.5543280194169
 31
0.0
  0
LINE
  5
C4
330
70
100
AcDbEntity
  8
Ebene 1
 62
    18
420
        0
370
     9
100
AcDbLine
 10
188.6617054646167
 20
-144.5543280194169
 30
0.0
 11
236.4761811892122
 21
-144.5543280194169
 31
0.0
  0
LINE
  5
C5
330
70
100
AcDbEntity
  8
Ebene 1
 62
    18
420
        0
370
     9
100
AcDbLine
 10
133.0564888556246
 20
-144.5241655194244
 30
0.0
 11
236.4761811892122
 21
-144.5241655194244
 31
0.0
  0
LINE
  5
C6
330
70
100
AcDbEntity
  8
Ebene 1
 62
    18
420
        0
370
     9
100
AcDbLine
 10
133.0564888556246
 20
-144.295071630593
 30
0.0
 11
236.4761811892122
 21
-144.295071630593
 31
0.0
  0
LWPOLYLINE
  5
C7
330
70
100
AcDbEntity
  8
Ebene 1
 62
    18
420
        0
370
     9
100
AcDbPolyline
 90
        7
 70
     0
 43
0.0
 10
133.0564888556246
 20
-144.5543280194169
 10
180.930902732545
 20
-144.5543280194169
 10
180.9839559382701
 20
-144.5543280194169
 10
181.0311576037326
 20
-144.5548219083057
 10
181.0680228805699
 20
-144.5548219083057
 10
181.0900714911185
 20
-144.5555274638612
 10
181.0993495464373
 20
-144.5561977416386
  0
LWPOLYLINE
  5
C8
330
70
100
AcDbEntity
  8
Ebene 1
 62
    18
420
        0
370
     9
100
AcDbPolyline
 90
        6
 70
     0
 43
0.0
 10
181.1035123241089
 20
-144.5603252416376
 10
181.1127903794277
 20
-144.5606780194154
 10
181.1344862122076
 20
-144.5606780194154
 10
181.1713514890448
 20
-144.5613835749709
 10
181.2182356545154
 20
-144.5620538527482
 10
181.3326062071531
 20
-144.5620538527482
  0
LINE
  5
C9
330
70
100
AcDbEntity
  8
Ebene 1
 62
    18
420
        0
370
     9
100
AcDbLine
 10
149.7586431237831
 20
-131.3869680227087
 30
0.0
 11
149.7586431237831
 21
-131.7087719115173
 31
0.0
  0
LINE
  5
CA
330
70
100
AcDbEntity
  8
Ebene 1
 62
    18
420
        0
370
     9
100
AcDbLine
 10
150.4735119944342
 20
-109.2343227504691
 30
0.0
 11
150.4735119944342
 21
-109.6280933059263
 31
0.0
  0
LINE
  5
CB
330
70
100
AcDbEntity
  8
Ebene 1
 62
    18
420
        0
370
     9
100
AcDbLine
 10
150.7015475441721
 20
-109.2343227504691
 30
0.0
 11
150.7015475441721
 21
-109.6280933059263
 31
0.0
  0
LINE
  5
CC
330
70
100
AcDbEntity
  8
Ebene 1
 62
    18
420
        0
370
     9
100
AcDbLine
 10
150.7663175425197
 20
-109.6280933059263
 30
0.0
 11
150.7663175425197
 21
-109.2343227504691
 31
0.0
  0
LINE
  5
CD
330
70
100
AcDbEntity
  8
Ebene 1
 62
    18
420
        0
370
     9
100
AcDbLine
 10
150.9947411478032
 20
-109.6280933059263
 30
0.0
 11
150.9947411478032
 21
-109.2343227504691
 31
0.0
  0
LINE
  5
CE
330
70
100
AcDbEntity
  8
Ebene 1
 62
    18
420
        0
370
     9
100
AcDbLine
 10
140.016931983426
 20
-121.8630263584232
 30
0.0
 11
140.0258925387529
 21
-121.8457755250943
 31
0.0
  0
LINE
  5
CF
330
70
100
AcDbEntity
  8
Ebene 1
 62
    18
420
        0
370
     9
100
AcDbLine
 10
223.6786737379261
 20
-131.705314689296
 30
0.0
 11
223.8230360551556
 21
-131.6692960781939
 31
0.0
  0
LINE
  5
D0
330
70
100
AcDbEntity
  8
Ebene 1
 62
    18
420
        0
370
     9
100
AcDbLine
 10
127.7916653508741
 20
-139.0309569096868
 30
0.0
 11
127.5326206352606
 21
-139.0309569096868
 31
0.0
  0
LINE
  5
D1
330
70
100
AcDbEntity
  8
Ebene 1
 62
    18
420
        0
370
     9
100
AcDbLine
 10
241.7406193840092
 20
-139.0309569096868
 30
0.0
 11
241.9993404927491
 21
-139.0309569096868
 31
0.0
  0
LINE
  5
D2
330
70
100
AcDbEntity
  8
Ebene 1
 62
    18
420
        0
370
     9
100
AcDbLine
 10
145.8536401678525
 20
-131.705314689296
 30
0.0
 11
145.7092835048687
 21
-131.6692960781939
 31
0.0
  0
LINE
  5
D3
330
70
100
AcDbEntity
  8
Ebene 1
 62
    18
420
        0
370
     9
100
AcDbLine
 10
154.7981441063259
 20
-131.3869680227087
 30
0.0
 11
154.7981441063259
 21
-131.7087719115173
 31
0.0
  0
LINE
  5
D4
330
70
100
AcDbEntity
  8
Ebene 1
 62
    18
420
        0
370
     9
100
AcDbLine
 10
155.0272379893701
 20
-131.3869680227087
 30
0.0
 11
155.0272379893701
 21
-131.7087719115173
 31
0.0
  0
LINE
  5
D5
330
70
100
AcDbEntity
  8
Ebene 1
 62
    18
420
        0
370
     9
100
AcDbLine
 10
155.4730079779975
 20
-131.7087719115173
 30
0.0
 11
155.4730079779975
 21
-131.3869680227087
 31
0.0
  0
LINE
  5
D6
330
70
100
AcDbEntity
  8
Ebene 1
 62
    18
420
        0
370
     9
100
AcDbLine
 10
155.7014315832811
 20
-131.7087719115173
 30
0.0
 11
155.7014315832811
 21
-131.3869680227087
 31
0.0
  0
LINE
  5
D7
330
70
100
AcDbEntity
  8
Ebene 1
 62
    18
420
        0
370
     9
100
AcDbLine
 10
155.8209879691198
 20
-131.7087719115173
 30
0.0
 11
155.8209879691198
 21
-131.3869680227087
 31
0.0
  0
LINE
  5
D8
330
70
100
AcDbEntity
  8
Ebene 1
 62
    18
420
        0
370
     9
100
AcDbLine
 10
205.3745522604587
 20
-131.705314689296
 30
0.0
 11
205.5178505901362
 21
-131.6692960781939
 31
0.0
  0
LWPOLYLINE
  5
D9
330
70
100
AcDbEntity
  8
Ebene 1
 62
    18
420
        0
370
     9
100
AcDbPolyline
 90
        3
 70
     0
 43
0.0
 10
227.536827806163
 20
-131.6734588559704
 10
227.4624269747278
 20
-131.6846419115233
 10
227.3907778098891
 20
-131.6928969115213
  0
LWPOLYLINE
  5
DA
330
70
100
AcDbEntity
  8
Ebene 1
 62
    18
420
        0
370
     9
100
AcDbPolyline
 90
        7
 70
     0
 43
0.0
 10
227.3907778098891
 20
-131.6928969115213
 10
227.3208277209475
 20
-131.6992821892975
 10
227.2577805910599
 20
-131.7034096892965
 10
227.2029999431996
 20
-131.7056674670735
 10
227.1558278158831
 20
-131.70651413374
 10
227.1203383723441
 20
-131.7070433004067
 10
227.095538095199
 20
-131.70651413374
  0
LWPOLYLINE
  5
DB
330
70
100
AcDbEntity
  8
Ebene 1
 62
    18
420
        0
370
     9
100
AcDbPolyline
 90
        3
 70
     0
 43
0.0
 10
142.1418888736583
 20
-131.6928969115213
 10
142.0691813755132
 20
-131.6846419115233
 10
141.9951333218468
 20
-131.6734588559704
  0
LWPOLYLINE
  5
DC
330
70
100
AcDbEntity
  8
Ebene 1
 62
    18
420
        0
370
     9
100
AcDbPolyline
 90
        3
 70
     0
 43
0.0
 10
140.0272683720512
 20
-112.8144880273519
 10
139.9142736527117
 20
-112.7414277495925
 10
139.6910358806292
 20
-112.6348183051747
  0
LINE
  5
DD
330
70
100
AcDbEntity
  8
Ebene 1
 62
    18
420
        0
370
     9
100
AcDbLine
 10
140.0155561501278
 20
-112.670801638499
 30
0.0
 11
139.9731875400976
 21
-112.6430733051726
 31
0.0
  0
LINE
  5
DE
330
70
100
AcDbEntity
  8
Ebene 1
 62
    18
420
        0
370
     9
100
AcDbLine
 10
194.3908869851197
 20
-131.705314689296
 30
0.0
 11
194.5355964258723
 21
-131.6692960781939
 31
0.0
  0
LWPOLYLINE
  5
DF
330
70
100
AcDbEntity
  8
Ebene 1
 62
    18
420
        0
370
     9
100
AcDbPolyline
 90
        4
 70
     0
 43
0.0
 10
202.2925445613095
 20
-131.3886966338196
 10
202.2970248389729
 20
-131.3886966338196
 10
202.3097953942027
 20
-131.3882027449308
 10
202.3311384492137
 20
-131.3876735782642
  0
LWPOLYLINE
  5
E0
330
70
100
AcDbEntity
  8
Ebene 1
 62
    18
420
        0
370
     9
100
AcDbPolyline
 90
       11
 70
     0
 43
0.0
 10
199.0000696453075
 20
-131.3449521893859
 10
199.0352063110777
 20
-131.3422005227201
 10
199.0706957546167
 20
-131.3339455227221
 10
199.1037863093281
 20
-131.3197991338368
 10
199.1344426974349
 20
-131.3013841338413
 10
199.1616418634076
 20
-131.277606911625
 10
199.1850663072545
 20
-131.2505488560764
 10
199.2036929734459
 20
-131.2198924671951
 10
199.2171388390846
 20
-131.1868371894255
 10
199.2257415839945
 20
-131.1520180227676
 10
199.2291635283517
 20
-131.1158583005545
  0
LWPOLYLINE
  5
E1
330
70
100
AcDbEntity
  8
Ebene 1
 62
    18
420
        0
370
     9
100
AcDbPolyline
 90
        8
 70
     0
 43
0.0
 10
223.6786737379261
 20
-131.705314689296
 10
223.6662559604651
 20
-131.70651413374
 10
223.6394095722611
 20
-131.7070433004067
 10
223.5959826289246
 20
-131.7075371892951
 10
223.5391501303745
 20
-131.7080663559618
 10
223.470258277466
 20
-131.7080663559618
 10
223.3930648563237
 20
-131.7087719115173
 10
223.3104090250991
 20
-131.7087719115173
  0
LWPOLYLINE
  5
E2
330
70
100
AcDbEntity
  8
Ebene 1
 62
    18
420
        0
370
     9
100
AcDbPolyline
 90
        8
 70
     0
 43
0.0
 10
205.3745522604587
 20
-131.705314689296
 10
205.3621344829977
 20
-131.70651413374
 10
205.3345825392562
 20
-131.7070433004067
 10
205.2911555959196
 20
-131.7075371892951
 10
205.2343230973695
 20
-131.7080663559618
 10
205.165778376896
 20
-131.7080663559618
 10
205.087567545558
 20
-131.7087719115173
 10
205.0048764365565
 20
-131.7087719115173
  0
LWPOLYLINE
  5
E3
330
70
100
AcDbEntity
  8
Ebene 1
 62
    18
420
        0
370
     9
100
AcDbPolyline
 90
        8
 70
     0
 43
0.0
 10
194.3908869851197
 20
-131.705314689296
 10
194.3791747631963
 20
-131.70651413374
 10
194.3522930972154
 20
-131.7070433004067
 10
194.3089014316558
 20
-131.7075371892951
 10
194.2517161553369
 20
-131.7080663559618
 10
194.1834889348553
 20
-131.7080663559618
 10
194.1056308812861
 20
-131.7087719115173
 10
194.0229397722846
 20
-131.7087719115173
  0
LWPOLYLINE
  5
E4
330
70
100
AcDbEntity
  8
Ebene 1
 62
    18
420
        0
370
     9
100
AcDbPolyline
 90
        4
 70
     0
 43
0.0
 10
142.4367758105795
 20
-131.70651413374
 10
142.4119755334345
 20
-131.7070433004067
 10
142.3761333121267
 20
-131.70651413374
 10
142.329284424433
 20
-131.7056674670735
  0
LWPOLYLINE
  5
E5
330
70
100
AcDbEntity
  8
Ebene 1
 62
    18
420
        0
370
     9
100
AcDbPolyline
 90
        4
 70
     0
 43
0.0
 10
202.2546562289427
 20
-131.4057710782597
 10
202.2746638383204
 20
-131.4057710782597
 10
202.2877467836541
 20
-131.405241911593
 10
202.2925445613095
 20
-131.405241911593
  0
LINE
  5
E6
330
70
100
AcDbEntity
  8
Ebene 1
 62
    18
420
        0
370
     9
100
AcDbLine
 10
202.1905917861327
 20
-131.4066177449263
 30
0.0
 11
202.2546562289427
 21
-131.4057710782597
 31
0.0
  0
LINE
  5
E7
330
70
100
AcDbEntity
  8
Ebene 1
 62
    18
420
        0
370
     9
100
AcDbLine
 10
202.3311384492137
 20
-131.3876735782642
 30
0.0
 11
202.3941798364943
 21
-131.3876735782642
 31
0.0
  0
LINE
  5
E8
330
70
100
AcDbEntity
  8
Ebene 1
 62
    18
420
        0
370
     9
100
AcDbLine
 10
202.1092765104294
 20
-131.4069705227037
 30
0.0
 11
202.1905917861327
 21
-131.4066177449263
 31
0.0
  0
LINE
  5
E9
330
70
100
AcDbEntity
  8
Ebene 1
 62
    18
420
        0
370
     9
100
AcDbLine
 10
202.3941798364943
 20
-131.3876735782642
 30
0.0
 11
202.4758478899663
 21
-131.3869680227087
 31
0.0
  0
LINE
  5
EA
330
70
100
AcDbEntity
  8
Ebene 1
 62
    18
420
        0
370
     9
100
AcDbLine
 10
227.095538095199
 20
-132.0040116336658
 30
0.0
 11
142.4367758105795
 21
-132.0040116336658
 31
0.0
  0
LINE
  5
EB
330
70
100
AcDbEntity
  8
Ebene 1
 62
    18
420
        0
370
     9
100
AcDbLine
 10
227.095538095199
 20
-131.7749177448341
 30
0.0
 11
142.4367758105795
 21
-131.7749177448341
 31
0.0
  0
LINE
  5
EC
330
70
100
AcDbEntity
  8
Ebene 1
 62
    18
420
        0
370
     9
100
AcDbLine
 10
146.3108048784115
 20
-131.7087719115173
 30
0.0
 11
194.0229397722846
 21
-131.7087719115173
 31
0.0
  0
LINE
  5
ED
330
70
100
AcDbEntity
  8
Ebene 1
 62
    18
420
        0
370
     9
100
AcDbLine
 10
198.2497466088942
 20
-131.7087719115173
 30
0.0
 11
205.0048764365565
 21
-131.7087719115173
 31
0.0
  0
LINE
  5
EE
330
70
100
AcDbEntity
  8
Ebene 1
 62
    18
420
        0
370
     9
100
AcDbLine
 10
209.4614527254123
 20
-131.7087719115173
 30
0.0
 11
223.3104090250991
 21
-131.7087719115173
 31
0.0
  0
LINE
  5
EF
330
70
100
AcDbEntity
  8
Ebene 1
 62
    18
420
        0
370
     9
100
AcDbLine
 10
142.5966194176127
 20
-131.6692960781939
 30
0.0
 11
145.7092835048687
 21
-131.6692960781939
 31
0.0
  0
LINE
  5
F0
330
70
100
AcDbEntity
  8
Ebene 1
 62
    18
420
        0
370
     9
100
AcDbLine
 10
194.5355964258723
 20
-131.6692960781939
 30
0.0
 11
197.6482252353515
 21
-131.6692960781939
 31
0.0
  0
LINE
  5
F1
330
70
100
AcDbEntity
  8
Ebene 1
 62
    18
420
        0
370
     9
100
AcDbLine
 10
205.5192264234344
 20
-131.6692960781939
 30
0.0
 11
208.8599260604282
 21
-131.6692960781939
 31
0.0
  0
LINE
  5
F2
330
70
100
AcDbEntity
  8
Ebene 1
 62
    18
420
        0
370
     9
100
AcDbLine
 10
223.8230360551556
 20
-131.6692960781939
 30
0.0
 11
226.9360119881578
 21
-131.6692960781939
 31
0.0
  0
LINE
  5
F3
330
70
100
AcDbEntity
  8
Ebene 1
 62
    18
420
        0
370
     9
100
AcDbLine
 10
202.1092765104294
 20
-131.4069705227037
 30
0.0
 11
199.7583301815182
 21
-131.4069705227037
 31
0.0
  0
LINE
  5
F4
330
70
100
AcDbEntity
  8
Ebene 1
 62
    18
420
        0
370
     9
100
AcDbLine
 10
202.4758478899663
 20
-131.3869680227087
 30
0.0
 11
227.1868017039818
 21
-131.3869680227087
 31
0.0
  0
LINE
  5
F5
330
70
100
AcDbEntity
  8
Ebene 1
 62
    18
420
        0
370
     9
100
AcDbLine
 10
142.3451277421913
 20
-131.3449521893859
 30
0.0
 11
199.0000696453075
 21
-131.3449521893859
 31
0.0
  0
LINE
  5
F6
330
70
100
AcDbEntity
  8
Ebene 1
 62
    18
420
        0
370
     9
100
AcDbLine
 10
199.8196832833783
 20
-131.3449521893859
 30
0.0
 11
227.1868017039818
 21
-131.3449521893859
 31
0.0
  0
LINE
  5
F7
330
70
100
AcDbEntity
  8
Ebene 1
 62
    18
420
        0
370
     9
100
AcDbLine
 10
142.3451277421913
 20
-131.1158583005545
 30
0.0
 11
199.2291635283517
 21
-131.1158583005545
 31
0.0
  0
LINE
  5
F8
330
70
100
AcDbEntity
  8
Ebene 1
 62
    18
420
        0
370
     9
100
AcDbLine
 10
199.5909018524563
 20
-131.1158583005545
 30
0.0
 11
227.1868017039818
 21
-131.1158583005545
 31
0.0
  0
LINE
  5
F9
330
70
100
AcDbEntity
  8
Ebene 1
 62
    18
420
        0
370
     9
100
AcDbLine
 10
142.3451277421913
 20
-131.3869680227087
 30
0.0
 11
197.9593046718596
 21
-131.3869680227087
 31
0.0
  0
LWPOLYLINE
  5
FA
330
70
100
AcDbEntity
  8
Ebene 1
 62
    18
420
        0
370
     9
100
AcDbPolyline
 90
        9
 70
     0
 43
0.0
 10
146.3108048784115
 20
-131.7087719115173
 10
146.2219048806795
 20
-131.7087719115173
 10
146.1395665494468
 20
-131.7087719115173
 10
146.0617084958776
 20
-131.7080663559618
 10
145.993481275396
 20
-131.7080663559618
 10
145.9362959990771
 20
-131.7075371892951
 10
145.8929043335175
 20
-131.7070433004067
 10
145.8660226675366
 20
-131.70651413374
 10
145.8536401678525
 20
-131.705314689296
  0
LWPOLYLINE
  5
FB
330
70
100
AcDbEntity
  8
Ebene 1
 62
    18
420
        0
370
     9
100
AcDbPolyline
 90
        9
 70
     0
 43
0.0
 10
198.2497466088942
 20
-131.7087719115173
 10
198.161199388931
 20
-131.7087719115173
 10
198.0785082799296
 20
-131.7087719115173
 10
198.0006502263604
 20
-131.7080663559618
 10
197.9324582836556
 20
-131.7080663559618
 10
197.8755905073287
 20
-131.7075371892951
 10
197.8318460640002
 20
-131.7070433004067
 10
197.8049693949933
 20
-131.70651413374
 10
197.792934676104
 20
-131.705314689296
  0
LWPOLYLINE
  5
FC
330
70
100
AcDbEntity
  8
Ebene 1
 62
    18
420
        0
370
     9
100
AcDbPolyline
 90
        9
 70
     0
 43
0.0
 10
209.4614527254123
 20
-131.7087719115173
 10
209.372582714016
 20
-131.7087719115173
 10
209.2898916050145
 20
-131.7087719115173
 10
209.2123916143635
 20
-131.7080663559618
 10
209.143136053203
 20
-131.7080663559618
 10
209.0869738324136
 20
-131.7075371892951
 10
209.0435821668539
 20
-131.7070433004067
 10
209.016700500873
 20
-131.70651413374
 10
209.0042827234121
 20
-131.705314689296
  0
LINE
  5
FD
330
70
100
AcDbEntity
  8
Ebene 1
 62
    18
420
        0
370
     9
100
AcDbLine
 10
198.6962221530592
 20
-131.4066177449263
 30
0.0
 11
199.0620879770586
 21
-131.4069705227037
 31
0.0
  0
LINE
  5
FE
330
70
100
AcDbEntity
  8
Ebene 1
 62
    18
420
        0
370
     9
100
AcDbLine
 10
197.9593046718596
 20
-131.3869680227087
 30
0.0
 11
198.0743807800349
 21
-131.3876735782642
 31
0.0
  0
LINE
  5
FF
330
70
100
AcDbEntity
  8
Ebene 1
 62
    18
420
        0
370
     9
100
AcDbLine
 10
198.5856263225475
 20
-131.4066177449263
 30
0.0
 11
198.6962221530592
 21
-131.4066177449263
 31
0.0
  0
LINE
  5
100
330
70
100
AcDbEntity
  8
Ebene 1
 62
    18
420
        0
370
     9
100
AcDbLine
 10
198.0743807800349
 20
-131.3876735782642
 30
0.0
 11
198.1777446662867
 21
-131.3876735782642
 31
0.0
  0
LINE
  5
101
330
70
100
AcDbEntity
  8
Ebene 1
 62
    18
420
        0
370
     9
100
AcDbLine
 10
198.4915757693913
 20
-131.4057710782597
 30
0.0
 11
198.5856263225475
 21
-131.4066177449263
 31
0.0
  0
LWPOLYLINE
  5
102
330
70
100
AcDbEntity
  8
Ebene 1
 62
    18
420
        0
370
     9
100
AcDbPolyline
 90
        7
 70
     0
 43
0.0
 10
198.1777446662867
 20
-131.3876735782642
 10
198.2621291085783
 20
-131.3886966338196
 10
198.2955724410585
 20
-131.3886966338196
 10
198.3221013292705
 20
-131.3892258004859
 10
198.3424213287521
 20
-131.3900724671525
 10
198.3530752173692
 20
-131.3904252449303
 10
198.3572379950408
 20
-131.3911308004855
  0
LWPOLYLINE
  5
103
330
70
100
AcDbEntity
  8
Ebene 1
 62
    18
420
        0
370
     9
100
AcDbPolyline
 90
        3
 70
     0
 43
0.0
 10
198.3920218830423
 20
-131.4042188560379
 10
198.4189035490231
 20
-131.405241911593
 10
198.4915757693913
 20
-131.4057710782597
  0
LWPOLYLINE
  5
104
330
70
100
AcDbEntity
  8
Ebene 1
 62
    18
420
        0
370
     9
100
AcDbPolyline
 90
        4
 70
     0
 43
0.0
 10
227.095538095199
 20
-131.70651413374
 10
227.0893292064686
 20
-131.7056674670735
 10
227.084848928805
 20
-131.7056674670735
 10
227.0810389289023
 20
-131.705314689296
  0
LWPOLYLINE
  5
105
330
70
100
AcDbEntity
  8
Ebene 1
 62
    18
420
        0
370
     9
100
AcDbPolyline
 90
        4
 70
     0
 43
0.0
 10
142.329284424433
 20
-131.7056674670735
 10
142.2738277591811
 20
-131.7034096892965
 10
142.2114566496612
 20
-131.6992821892975
 10
142.1418888736583
 20
-131.6928969115213
  0
LINE
  5
106
330
70
100
AcDbEntity
  8
Ebene 1
 62
    18
420
        0
370
     9
100
AcDbLine
 10
139.9731875400976
 20
-112.6430733051726
 30
0.0
 11
139.6910358806292
 21
-112.5076771940952
 31
0.0
  0
LWPOLYLINE
  5
107
330
70
100
AcDbEntity
  8
Ebene 1
 62
    18
420
        0
370
     9
100
AcDbPolyline
 90
        3
 70
     0
 43
0.0
 10
140.0148858723671
 20
-112.6418738607283
 10
139.7792303228236
 20
-112.5102877496503
 10
139.6910358806292
 20
-112.4771971941028
  0
LINE
  5
108
330
70
100
AcDbEntity
  8
Ebene 1
 62
    18
420
        0
370
     9
100
AcDbLine
 10
165.2036771741919
 20
-131.3869680227087
 30
0.0
 11
165.2036771741919
 21
-131.7087719115173
 31
0.0
  0
LINE
  5
109
330
70
100
AcDbEntity
  8
Ebene 1
 62
    18
420
        0
370
     9
100
AcDbLine
 10
165.3235863377995
 20
-131.3869680227087
 30
0.0
 11
165.3235863377995
 21
-131.7087719115173
 31
0.0
  0
LINE
  5
10A
330
70
100
AcDbEntity
  8
Ebene 1
 62
    18
420
        0
370
     9
100
AcDbLine
 10
165.552009943083
 20
-131.3869680227087
 30
0.0
 11
165.552009943083
 21
-131.7087719115173
 31
0.0
  0
LINE
  5
10B
330
70
100
AcDbEntity
  8
Ebene 1
 62
    18
420
        0
370
     9
100
AcDbLine
 10
165.9977799317104
 20
-131.7087719115173
 30
0.0
 11
165.9977799317104
 21
-131.3869680227087
 31
0.0
  0
LINE
  5
10C
330
70
100
AcDbEntity
  8
Ebene 1
 62
    18
420
        0
370
     9
100
AcDbLine
 10
166.2265563147628
 20
-131.7087719115173
 30
0.0
 11
166.2265563147628
 21
-131.3869680227087
 31
0.0
  0
LWPOLYLINE
  5
10D
330
70
100
AcDbEntity
  8
Ebene 1
 62
    18
420
        0
370
     9
100
AcDbPolyline
 90
        5
 70
     0
 43
0.0
 10
142.451945254637
 20
-131.705314689296
 10
142.4512396990994
 20
-131.705314689296
 10
142.4474649769735
 20
-131.7056674670735
 10
142.44298469931
 20
-131.7056674670735
 10
142.4367758105795
 20
-131.70651413374
  0
LINE
  5
10E
330
70
100
AcDbEntity
  8
Ebene 1
 62
    18
420
        0
370
     9
100
AcDbLine
 10
140.0135100390689
 20
-129.0550010788474
 30
0.0
 11
140.283596698845
 21
-129.0550010788474
 31
0.0
  0
LINE
  5
10F
330
70
100
AcDbEntity
  8
Ebene 1
 62
    18
420
        0
370
     9
100
AcDbLine
 10
229.2483644291647
 20
-129.0550010788474
 30
0.0
 11
229.5184510889409
 21
-129.0550010788474
 31
0.0
  0
LINE
  5
110
330
70
100
AcDbEntity
  8
Ebene 1
 62
    18
420
        0
370
     9
100
AcDbLine
 10
139.3968192214686
 20
-128.9630319122038
 30
0.0
 11
139.6910358806292
 21
-128.9630319122038
 31
0.0
  0
LINE
  5
111
330
70
100
AcDbEntity
  8
Ebene 1
 62
    18
420
        0
370
     9
100
AcDbLine
 10
230.1351419065412
 20
-128.9630319122038
 30
0.0
 11
229.8409252473806
 21
-128.9630319122038
 31
0.0
  0
LWPOLYLINE
  5
112
330
70
100
AcDbEntity
  8
Ebene 1
 62
    18
420
        0
370
     9
100
AcDbPolyline
 90
        9
 70
     0
 43
0.0
 10
199.7583301815182
 20
-131.4069705227037
 10
199.712186849362
 20
-131.4024902449273
 10
199.6698182393318
 20
-131.3892258004859
 10
199.63051879589
 20
-131.3680238560469
 10
199.5964404634261
 20
-131.3396252449429
 10
199.568182964147
 20
-131.3049824671736
 10
199.5468046313591
 20
-131.2660710782947
 10
199.5333637983687
 20
-131.2233496894164
 10
199.5289187984821
 20
-131.1778766338723
  0
LWPOLYLINE
  5
113
330
70
100
AcDbEntity
  8
Ebene 1
 62
    18
420
        0
370
     9
100
AcDbPolyline
 90
        4
 70
     0
 43
0.0
 10
198.3572379950408
 20
-131.4028430227047
 10
198.3610127171667
 20
-131.4035133004824
 10
198.3727249390901
 20
-131.4035133004824
 10
198.3920218830423
 20
-131.4042188560379
  0
LINE
  5
114
330
70
100
AcDbEntity
  8
Ebene 1
 62
    18
420
        0
370
     9
100
AcDbLine
 10
227.0810389289023
 20
-131.705314689296
 30
0.0
 11
227.0800158733728
 21
-131.705314689296
 31
0.0
  0
LINE
  5
115
330
70
100
AcDbEntity
  8
Ebene 1
 62
    18
420
        0
370
     9
100
AcDbLine
 10
197.792934676104
 20
-131.705314689296
 30
0.0
 11
197.6482252353515
 21
-131.6692960781939
 31
0.0
  0
LINE
  5
116
330
70
100
AcDbEntity
  8
Ebene 1
 62
    18
420
        0
370
     9
100
AcDbLine
 10
139.6910358806292
 20
-125.0676596909553
 30
0.0
 11
140.0135100390689
 21
-125.0676596909553
 31
0.0
  0
LINE
  5
117
330
70
100
AcDbEntity
  8
Ebene 1
 62
    18
420
        0
370
     9
100
AcDbLine
 10
139.6910358806292
 20
-124.8388833021235
 30
0.0
 11
140.0135100390689
 21
-124.8388833021235
 31
0.0
  0
LINE
  5
118
330
70
100
AcDbEntity
  8
Ebene 1
 62
    18
420
        0
370
     9
100
AcDbLine
 10
140.0135100390689
 20
-124.3841527466817
 30
0.0
 11
139.6910358806292
 21
-124.3841527466817
 31
0.0
  0
LINE
  5
119
330
70
100
AcDbEntity
  8
Ebene 1
 62
    18
420
        0
370
     9
100
AcDbLine
 10
140.0135100390689
 20
-124.1553763578499
 30
0.0
 11
139.6910358806292
 21
-124.1553763578499
 31
0.0
  0
LINE
  5
11A
330
70
100
AcDbEntity
  8
Ebene 1
 62
    18
420
        0
370
     9
100
AcDbLine
 10
140.0135100390689
 20
-124.0358552467689
 30
0.0
 11
139.6910358806292
 21
-124.0358552467689
 31
0.0
  0
LINE
  5
11B
330
70
100
AcDbEntity
  8
Ebene 1
 62
    18
420
        0
370
     9
100
AcDbLine
 10
209.0042827234121
 20
-131.705314689296
 30
0.0
 11
208.8599260604282
 21
-131.6692960781939
 31
0.0
  0
LINE
  5
11C
330
70
100
AcDbEntity
  8
Ebene 1
 62
    18
420
        0
370
     9
100
AcDbLine
 10
150.2013439458222
 20
-109.6119008059303
 30
0.0
 11
150.2254386674297
 21
-109.6239658059274
 31
0.0
  0
LINE
  5
11D
330
70
100
AcDbEntity
  8
Ebene 1
 62
    18
420
        0
370
     9
100
AcDbLine
 10
139.8936008754613
 20
-121.2346233030245
 30
0.0
 11
140.0300200386477
 21
-121.1584938585992
 31
0.0
  0
LINE
  5
11E
330
70
100
AcDbEntity
  8
Ebene 1
 62
    18
420
        0
370
     9
100
AcDbLine
 10
142.2287110755538
 20
-109.2894619171222
 30
0.0
 11
142.2448999821414
 21
-109.2849816393454
 31
0.0
  0
LINE
  5
11F
330
70
100
AcDbEntity
  8
Ebene 1
 62
    18
420
        0
370
     9
100
AcDbLine
 10
142.2448999821414
 20
-109.2849816393454
 30
0.0
 11
142.2614099817201
 21
-109.2794783060136
 31
0.0
  0
LINE
  5
120
330
70
100
AcDbEntity
  8
Ebene 1
 62
    18
420
        0
370
     9
100
AcDbLine
 10
142.2614099817201
 20
-109.2794783060136
 30
0.0
 11
142.277602481307
 21
-109.2742924726813
 31
0.0
  0
LINE
  5
121
330
70
100
AcDbEntity
  8
Ebene 1
 62
    18
420
        0
370
     9
100
AcDbLine
 10
142.451945254637
 20
-131.705314689296
 30
0.0
 11
142.5966194176127
 21
-131.6692960781939
 31
0.0
  0
LINE
  5
122
330
70
100
AcDbEntity
  8
Ebene 1
 62
    18
420
        0
370
     9
100
AcDbLine
 10
227.0800158733728
 20
-131.705314689296
 30
0.0
 11
226.9360119881578
 21
-131.6692960781939
 31
0.0
  0
LWPOLYLINE
  5
123
330
70
100
AcDbEntity
  8
Ebene 1
 62
    18
420
        0
370
     9
100
AcDbPolyline
 90
        3
 70
     0
 43
0.0
 10
139.6910358806292
 20
-121.1655494141531
 10
139.9731875400976
 20
-121.0296594141871
 10
140.0300200386477
 20
-120.9938171919736
  0
LWPOLYLINE
  5
124
330
70
100
AcDbEntity
  8
Ebene 1
 62
    18
420
        0
370
     9
100
AcDbPolyline
 90
        3
 70
     0
 43
0.0
 10
139.6910358806292
 20
-121.0386199697403
 10
139.915331986018
 20
-120.9317988586561
 10
140.0300200386477
 20
-120.8577508031188
  0
LWPOLYLINE
  5
125
330
70
100
AcDbEntity
  8
Ebene 1
 62
    18
420
        0
370
     9
100
AcDbPolyline
 90
        3
 70
     0
 43
0.0
 10
139.6910358806292
 20
-121.1963821919233
 10
139.8447058767087
 20
-121.1314358030505
 10
140.0300200386477
 20
-121.027225247521
  0
LINE
  5
126
330
70
100
AcDbEntity
  8
Ebene 1
 62
    18
420
        0
370
     9
100
AcDbLine
 10
139.6910358806292
 20
-121.3204188585589
 30
0.0
 11
139.8936008754613
 21
-121.2346233030245
 31
0.0
  0
LINE
  5
127
330
70
100
AcDbEntity
  8
Ebene 1
 62
    18
420
        0
370
     9
100
AcDbLine
 10
201.3403268078248
 20
-109.2619099726844
 30
0.0
 11
201.4371290275774
 21
-109.238450250468
 31
0.0
  0
LWPOLYLINE
  5
128
330
70
100
AcDbEntity
  8
Ebene 1
 62
    18
420
        0
370
     9
100
AcDbPolyline
 90
        4
 70
     0
 43
0.0
 10
219.7378285606876
 20
-109.6262235837047
 10
219.7323252274947
 20
-109.6267174725934
 10
219.7192371722731
 20
-109.6267174725934
 10
219.6975060617163
 20
-109.6274230281486
  0
LINE
  5
129
330
70
100
AcDbEntity
  8
Ebene 1
 62
    18
420
        0
370
     9
100
AcDbLine
 10
230.1351419065412
 20
-112.0317446942144
 30
0.0
 11
229.8409252473806
 21
-112.0317446942144
 31
0.0
  0
LINE
  5
12A
330
70
100
AcDbEntity
  8
Ebene 1
 62
    18
420
        0
370
     9
100
AcDbLine
 10
139.6910358806292
 20
-112.0317446942144
 30
0.0
 11
139.3968192214686
 21
-112.0317446942144
 31
0.0
  0
LINE
  5
12B
330
70
100
AcDbEntity
  8
Ebene 1
 62
    18
420
        0
370
     9
100
AcDbLine
 10
140.0135100390689
 20
-111.9397755275705
 30
0.0
 11
140.283596698845
 21
-111.9397755275705
 31
0.0
  0
LINE
  5
12C
330
70
100
AcDbEntity
  8
Ebene 1
 62
    18
420
        0
370
     9
100
AcDbLine
 10
229.2483644291647
 20
-111.9397755275705
 30
0.0
 11
229.5184510889409
 21
-111.9397755275705
 31
0.0
  0
LWPOLYLINE
  5
12D
330
70
100
AcDbEntity
  8
Ebene 1
 62
    18
420
        0
370
     9
100
AcDbPolyline
 90
        6
 70
     0
 43
0.0
 10
150.2013439458222
 20
-109.6119008059303
 10
150.19651089039
 20
-109.6115833059304
 10
150.1841283907059
 20
-109.6108777503749
 10
150.1637731134474
 20
-109.6102074725975
 10
150.1372442252353
 20
-109.6102074725975
 10
150.0645720048671
 20
-109.6091491392643
  0
LINE
  5
12E
330
70
100
AcDbEntity
  8
Ebene 1
 62
    18
420
        0
370
     9
100
AcDbLine
 10
199.0000696453075
 20
-131.3449521893859
 30
0.0
 11
199.0620879770586
 21
-131.4069705227037
 31
0.0
  0
LINE
  5
12F
330
70
100
AcDbEntity
  8
Ebene 1
 62
    18
420
        0
370
     9
100
AcDbLine
 10
199.2291635283517
 20
-131.1158583005545
 30
0.0
 11
199.2905166168439
 21
-131.1778766338723
 31
0.0
  0
LINE
  5
130
330
70
100
AcDbEntity
  8
Ebene 1
 62
    18
420
        0
370
     9
100
AcDbLine
 10
182.4839317333359
 20
-131.7087719115173
 30
0.0
 11
182.4839317333359
 21
-131.3869680227087
 31
0.0
  0
LINE
  5
131
330
70
100
AcDbEntity
  8
Ebene 1
 62
    18
420
        0
370
     9
100
AcDbLine
 10
182.7127081163882
 20
-131.7087719115173
 30
0.0
 11
182.7127081163882
 21
-131.3869680227087
 31
0.0
  0
LINE
  5
132
330
70
100
AcDbEntity
  8
Ebene 1
 62
    18
420
        0
370
     9
100
AcDbLine
 10
183.1581606050238
 20
-131.7087719115173
 30
0.0
 11
183.1581606050238
 21
-131.3869680227087
 31
0.0
  0
LINE
  5
133
330
70
100
AcDbEntity
  8
Ebene 1
 62
    18
420
        0
370
     9
100
AcDbLine
 10
183.387254488068
 20
-131.7087719115173
 30
0.0
 11
183.387254488068
 21
-131.3869680227087
 31
0.0
  0
LINE
  5
134
330
70
100
AcDbEntity
  8
Ebene 1
 62
    18
420
        0
370
     9
100
AcDbLine
 10
183.4844094855894
 20
-131.3869680227087
 30
0.0
 11
183.4844094855894
 21
-131.7087719115173
 31
0.0
  0
LWPOLYLINE
  5
135
330
70
100
AcDbEntity
  8
Ebene 1
 62
    18
420
        0
370
     9
100
AcDbPolyline
 90
        5
 70
     0
 43
0.0
 10
192.9480964663728
 20
-109.6239658059274
 10
192.9432634109406
 20
-109.6243185837051
 10
192.9308456334796
 20
-109.625694417038
 10
192.9105305073278
 20
-109.625694417038
 10
192.8839967457859
 20
-109.6262235837047
  0
LWPOLYLINE
  5
136
330
70
100
AcDbEntity
  8
Ebene 1
 62
    18
420
        0
370
     9
100
AcDbPolyline
 90
        9
 70
     0
 43
0.0
 10
199.8196832833783
 20
-109.649824417032
 10
199.7748805056119
 20
-109.6546221948087
 10
199.7318012933061
 20
-109.6675691392497
 10
199.6925371276411
 20
-109.6887358059113
 10
199.6574055056411
 20
-109.7171696947928
 10
199.6294957403606
 20
-109.752129972562
 10
199.6077999075808
 20
-109.7910766392187
 10
199.5950646301279
 20
-109.8348210836525
 10
199.5909018524563
 20
-109.8789183058637
  0
LWPOLYLINE
  5
137
330
70
100
AcDbEntity
  8
Ebene 1
 62
    18
420
        0
370
     9
100
AcDbPolyline
 90
        8
 70
     0
 43
0.0
 10
201.4371290275774
 20
-109.2376035838018
 10
201.4491940272696
 20
-109.2370744171352
 10
201.4764284710192
 20
-109.2365805282464
 10
201.5198201365789
 20
-109.2356985838023
 10
201.5766526351289
 20
-109.2353810838024
 10
201.64590291114
 20
-109.2346755282468
 10
201.7234434647173
 20
-109.2343227504691
 10
201.8060992959419
 20
-109.2343227504691
  0
LWPOLYLINE
  5
138
330
70
100
AcDbEntity
  8
Ebene 1
 62
    18
420
        0
370
     9
100
AcDbPolyline
 90
        5
 70
     0
 43
0.0
 10
193.0362909085672
 20
-109.6102074725975
 10
193.0097620203552
 20
-109.6102074725975
 10
192.9894067430967
 20
-109.6108777503749
 10
192.9770242434126
 20
-109.6115833059304
 10
192.9721911879803
 20
-109.6119008059303
  0
LWPOLYLINE
  5
139
330
70
100
AcDbEntity
  8
Ebene 1
 62
    18
420
        0
370
     9
100
AcDbPolyline
 90
        4
 70
     0
 43
0.0
 10
219.8101888339366
 20
-109.6091491392643
 10
219.7884874482841
 20
-109.6096783059309
 10
219.7750466152937
 20
-109.6096783059309
 10
219.7698607820926
 20
-109.6102074725975
  0
LINE
  5
13A
330
70
100
AcDbEntity
  8
Ebene 1
 62
    18
420
        0
370
     9
100
AcDbLine
 10
192.8839967457859
 20
-109.6262235837047
 30
0.0
 11
192.8113245254177
 21
-109.6267174725934
 31
0.0
  0
LINE
  5
13B
330
70
100
AcDbEntity
  8
Ebene 1
 62
    18
420
        0
370
     9
100
AcDbLine
 10
193.1089631289355
 20
-109.6091491392643
 30
0.0
 11
193.0362909085672
 21
-109.6102074725975
 31
0.0
  0
LINE
  5
13C
330
70
100
AcDbEntity
  8
Ebene 1
 62
    18
420
        0
370
     9
100
AcDbLine
 10
219.6975060617163
 20
-109.6274230281486
 30
0.0
 11
219.6344646744358
 21
-109.6280933059263
 31
0.0
  0
LINE
  5
13D
330
70
100
AcDbEntity
  8
Ebene 1
 62
    18
420
        0
370
     9
100
AcDbLine
 10
219.8728718905757
 20
-109.6084788614869
 30
0.0
 11
219.8101888339366
 21
-109.6091491392643
 31
0.0
  0
LINE
  5
13E
330
70
100
AcDbEntity
  8
Ebene 1
 62
    18
420
        0
370
     9
100
AcDbLine
 10
142.4367758105795
 20
-109.2674133060166
 30
0.0
 11
142.5042974755236
 21
-109.2665313615722
 31
0.0
  0
LINE
  5
13F
330
70
100
AcDbEntity
  8
Ebene 1
 62
    18
420
        0
370
     9
100
AcDbLine
 10
192.8113245254177
 20
-109.6267174725934
 30
0.0
 11
192.7172739722616
 21
-109.6274230281486
 31
0.0
  0
LINE
  5
140
330
70
100
AcDbEntity
  8
Ebene 1
 62
    18
420
        0
370
     9
100
AcDbLine
 10
193.2037192376291
 20
-109.6084788614869
 30
0.0
 11
193.1089631289355
 21
-109.6091491392643
 31
0.0
  0
LINE
  5
141
330
70
100
AcDbEntity
  8
Ebene 1
 62
    18
420
        0
370
     9
100
AcDbLine
 10
192.7172739722616
 20
-109.6274230281486
 30
0.0
 11
192.6077011972792
 21
-109.6280933059263
 31
0.0
  0
LINE
  5
142
330
70
100
AcDbEntity
  8
Ebene 1
 62
    18
420
        0
370
     9
100
AcDbLine
 10
193.3125864570739
 20
-109.6084788614869
 30
0.0
 11
193.2037192376291
 21
-109.6084788614869
 31
0.0
  0
LINE
  5
143
330
70
100
AcDbEntity
  8
Ebene 1
 62
    18
420
        0
370
     9
100
AcDbLine
 10
219.6344646744358
 20
-109.6280933059263
 30
0.0
 11
219.5538549542701
 21
-109.6280933059263
 31
0.0
  0
LINE
  5
144
330
70
100
AcDbEntity
  8
Ebene 1
 62
    18
420
        0
370
     9
100
AcDbLine
 10
219.9534816107414
 20
-109.6084788614869
 30
0.0
 11
219.8728718905757
 21
-109.6084788614869
 31
0.0
  0
LWPOLYLINE
  5
145
330
70
100
AcDbEntity
  8
Ebene 1
 62
    18
420
        0
370
     9
100
AcDbPolyline
 90
        8
 70
     0
 43
0.0
 10
200.9720620949978
 20
-109.2660374726833
 10
201.0547179262224
 20
-109.2660374726833
 10
201.1329287575604
 20
-109.265508306017
 10
201.2011610608108
 20
-109.2646616393505
 10
201.2576356988233
 20
-109.2643088615727
 10
201.3017329199205
 20
-109.2636033060175
 10
201.3286145859014
 20
-109.2632858060176
 10
201.3403268078248
 20
-109.2619099726844
  0
LWPOLYLINE
  5
146
330
70
100
AcDbEntity
  8
Ebene 1
 62
    18
420
        0
370
     9
100
AcDbPolyline
 90
        8
 70
     0
 43
0.0
 10
149.2615086920216
 20
-109.2660374726833
 10
149.3441998010231
 20
-109.2660374726833
 10
149.4220578545924
 20
-109.265508306017
 10
149.4909553528346
 20
-109.2646616393505
 10
149.5474703513928
 20
-109.2643088615727
 10
149.5912147947213
 20
-109.2636033060175
 10
149.6180964607021
 20
-109.2632858060176
 10
149.6301261826174
 20
-109.2619099726844
  0
LINE
  5
147
330
70
100
AcDbEntity
  8
Ebene 1
 62
    18
420
        0
370
     9
100
AcDbLine
 10
142.5042974755236
 20
-109.2665313615722
 30
0.0
 11
142.6524288606333
 21
-109.2660374726833
 31
0.0
  0
LINE
  5
148
330
70
100
AcDbEntity
  8
Ebene 1
 62
    18
420
        0
370
     9
100
AcDbLine
 10
142.6524288606333
 20
-109.2660374726833
 30
0.0
 11
142.734767191866
 21
-109.2660374726833
 31
0.0
  0
LINE
  5
149
330
70
100
AcDbEntity
  8
Ebene 1
 62
    18
420
        0
370
     9
100
AcDbLine
 10
192.6077011972792
 20
-109.6280933059263
 30
0.0
 11
192.4905789780451
 21
-109.6280933059263
 31
0.0
  0
LINE
  5
14A
330
70
100
AcDbEntity
  8
Ebene 1
 62
    18
420
        0
370
     9
100
AcDbLine
 10
193.4303789540688
 20
-109.6084788614869
 30
0.0
 11
193.3125864570739
 21
-109.6084788614869
 31
0.0
  0
LINE
  5
14B
330
70
100
AcDbEntity
  8
Ebene 1
 62
    18
420
        0
370
     9
100
AcDbLine
 10
227.1868017039818
 20
-109.8789183058637
 30
0.0
 11
198.8853462970771
 21
-109.8789183058637
 31
0.0
  0
LINE
  5
14C
330
70
100
AcDbEntity
  8
Ebene 1
 62
    18
420
        0
370
     9
100
AcDbLine
 10
142.3451277421913
 20
-109.8789183058637
 30
0.0
 11
199.2291635283517
 21
-109.8789183058637
 31
0.0
  0
LINE
  5
14D
330
70
100
AcDbEntity
  8
Ebene 1
 62
    18
420
        0
370
     9
100
AcDbLine
 10
227.1868017039818
 20
-109.649824417032
 30
0.0
 11
199.8196832833783
 21
-109.649824417032
 31
0.0
  0
LINE
  5
14E
330
70
100
AcDbEntity
  8
Ebene 1
 62
    18
420
        0
370
     9
100
AcDbLine
 10
199.0000696453075
 20
-109.649824417032
 30
0.0
 11
142.3451277421913
 21
-109.649824417032
 31
0.0
  0
LINE
  5
14F
330
70
100
AcDbEntity
  8
Ebene 1
 62
    18
420
        0
370
     9
100
AcDbLine
 10
219.5538549542701
 20
-109.6280933059263
 30
0.0
 11
199.7969240694225
 21
-109.6280933059263
 31
0.0
  0
LINE
  5
150
330
70
100
AcDbEntity
  8
Ebene 1
 62
    18
420
        0
370
     9
100
AcDbLine
 10
193.4303789540688
 20
-109.6084788614869
 30
0.0
 11
199.041767977577
 21
-109.6084788614869
 31
0.0
  0
LINE
  5
151
330
70
100
AcDbEntity
  8
Ebene 1
 62
    18
420
        0
370
     9
100
AcDbLine
 10
219.9534816107414
 20
-109.6084788614869
 30
0.0
 11
227.1868017039818
 21
-109.6084788614869
 31
0.0
  0
LINE
  5
152
330
70
100
AcDbEntity
  8
Ebene 1
 62
    18
420
        0
370
     9
100
AcDbLine
 10
200.9720620949978
 20
-109.2660374726833
 30
0.0
 11
194.274787821415
 21
-109.2660374726833
 31
0.0
  0
LINE
  5
153
330
70
100
AcDbEntity
  8
Ebene 1
 62
    18
420
        0
370
     9
100
AcDbLine
 10
149.2615086920216
 20
-109.2660374726833
 30
0.0
 11
142.734767191866
 21
-109.2660374726833
 31
0.0
  0
LINE
  5
154
330
70
100
AcDbEntity
  8
Ebene 1
 62
    18
420
        0
370
     9
100
AcDbLine
 10
219.3478327373039
 20
-109.2343227504691
 30
0.0
 11
201.8060992959419
 21
-109.2343227504691
 31
0.0
  0
LINE
  5
155
330
70
100
AcDbEntity
  8
Ebene 1
 62
    18
420
        0
370
     9
100
AcDbLine
 10
193.2640138405729
 20
-109.2343227504691
 30
0.0
 11
150.0959339485115
 21
-109.2343227504691
 31
0.0
  0
LINE
  5
156
330
70
100
AcDbEntity
  8
Ebene 1
 62
    18
420
        0
370
     9
100
AcDbLine
 10
142.4367758105795
 20
-109.2200352504726
 30
0.0
 11
227.095538095199
 21
-109.2200352504726
 31
0.0
  0
LINE
  5
157
330
70
100
AcDbEntity
  8
Ebene 1
 62
    18
420
        0
370
     9
100
AcDbLine
 10
142.4367758105795
 20
-108.99143525053
 30
0.0
 11
227.095538095199
 21
-108.99143525053
 31
0.0
  0
LINE
  5
158
330
70
100
AcDbEntity
  8
Ebene 1
 62
    18
420
        0
370
     9
100
AcDbLine
 10
192.4905789780451
 20
-109.6280933059263
 30
0.0
 11
150.6230192128422
 21
-109.6280933059263
 31
0.0
  0
LWPOLYLINE
  5
159
330
70
100
AcDbEntity
  8
Ebene 1
 62
    18
420
        0
370
     9
100
AcDbPolyline
 90
        9
 70
     0
 43
0.0
 10
193.2640138405729
 20
-109.2343227504691
 10
193.3525209004995
 20
-109.2343227504691
 10
193.435212009501
 20
-109.2343227504691
 10
193.5130749516218
 20
-109.2346755282468
 10
193.5812972835519
 20
-109.2353810838024
 10
193.638129782102
 20
-109.2356985838023
 10
193.6818742254304
 20
-109.2365805282464
 10
193.7087558914112
 20
-109.2370744171352
 10
193.7208208911034
 20
-109.2376035838018
  0
LWPOLYLINE
  5
15A
330
70
100
AcDbEntity
  8
Ebene 1
 62
    18
420
        0
370
     9
100
AcDbPolyline
 90
        9
 70
     0
 43
0.0
 10
219.3478327373039
 20
-109.2343227504691
 10
219.4367327350359
 20
-109.2343227504691
 10
219.5194238440373
 20
-109.2343227504691
 10
219.5962235643003
 20
-109.2346755282468
 10
219.6654738403113
 20
-109.2353810838024
 10
219.7219943895142
 20
-109.2356985838023
 10
219.7657388339476
 20
-109.2365805282464
 10
219.7926149481788
 20
-109.2370744171352
 10
219.804679947871
 20
-109.2376035838018
  0
LINE
  5
15B
330
70
100
AcDbEntity
  8
Ebene 1
 62
    18
420
        0
370
     9
100
AcDbLine
 10
149.8609486767287
 20
-109.6084788614869
 30
0.0
 11
142.3451277421913
 21
-109.6084788614869
 31
0.0
  0
LWPOLYLINE
  5
15C
330
70
100
AcDbEntity
  8
Ebene 1
 62
    18
420
        0
370
     9
100
AcDbPolyline
 90
        4
 70
     0
 43
0.0
 10
226.7975114361357
 20
-109.2660374726833
 10
226.9559792098706
 20
-109.2660374726833
 10
227.0276693876874
 20
-109.2665313615722
 10
227.095538095199
 20
-109.2674133060166
  0
LINE
  5
15D
330
70
100
AcDbEntity
  8
Ebene 1
 62
    18
420
        0
370
     9
100
AcDbLine
 10
150.6230192128422
 20
-109.6280933059263
 30
0.0
 11
150.5100244935027
 21
-109.6280933059263
 31
0.0
  0
LINE
  5
15E
330
70
100
AcDbEntity
  8
Ebene 1
 62
    18
420
        0
370
     9
100
AcDbLine
 10
149.9698158961734
 20
-109.6084788614869
 30
0.0
 11
149.8609486767287
 21
-109.6084788614869
 31
0.0
  0
LINE
  5
15F
330
70
100
AcDbEntity
  8
Ebene 1
 62
    18
420
        0
370
     9
100
AcDbLine
 10
150.5100244935027
 20
-109.6280933059263
 30
0.0
 11
150.4073661627884
 21
-109.6274230281486
 31
0.0
  0
LINE
  5
160
330
70
100
AcDbEntity
  8
Ebene 1
 62
    18
420
        0
370
     9
100
AcDbLine
 10
150.0645720048671
 20
-109.6091491392643
 30
0.0
 11
149.9698158961734
 21
-109.6084788614869
 31
0.0
  0
LWPOLYLINE
  5
161
330
70
100
AcDbEntity
  8
Ebene 1
 62
    18
420
        0
370
     9
100
AcDbPolyline
 90
        7
 70
     0
 43
0.0
 10
150.4073661627884
 20
-109.6274230281486
 10
150.3229464427199
 20
-109.6267174725934
 10
150.2888328324791
 20
-109.6262235837047
 10
150.2626567220358
 20
-109.625694417038
 10
150.242689500323
 20
-109.625694417038
 10
150.230271722862
 20
-109.6243185837051
 10
150.2254386674297
 20
-109.6239658059274
  0
LWPOLYLINE
  5
162
330
70
100
AcDbEntity
  8
Ebene 1
 62
    18
420
        0
370
     9
100
AcDbPolyline
 90
        4
 70
     0
 43
0.0
 10
227.095538095199
 20
-109.2674133060166
 10
227.1399528162882
 20
-109.267766083794
 10
227.1781939264236
 20
-109.2687891393494
 10
227.209555870068
 20
-109.270694139349
  0
LWPOLYLINE
  5
163
330
70
100
AcDbEntity
  8
Ebene 1
 62
    18
420
        0
370
     9
100
AcDbPolyline
 90
        9
 70
     0
 43
0.0
 10
193.817623110856
 20
-109.2619099726844
 10
193.8293353327794
 20
-109.2632858060176
 10
193.856887276521
 20
-109.2636033060175
 10
193.9003142198575
 20
-109.2643088615727
 10
193.9567939406388
 20
-109.2646616393505
 10
194.0263969944186
 20
-109.265508306017
 10
194.1042550479879
 20
-109.2660374726833
 10
194.185887823683
 20
-109.2660374726833
 10
194.274787821415
 20
-109.2660374726833
  0
LWPOLYLINE
  5
164
330
70
100
AcDbEntity
  8
Ebene 1
 62
    18
420
        0
370
     9
100
AcDbPolyline
 90
       11
 70
     0
 43
0.0
 10
199.041767977577
 20
-109.6084788614869
 10
199.0776101988848
 20
-109.6115833059304
 10
199.1127468646551
 20
-109.6191327503729
 10
199.1458021415895
 20
-109.6325735837031
 10
199.1757882519356
 20
-109.6515177503648
 10
199.2029874179084
 20
-109.6752949725811
 10
199.2264118617552
 20
-109.7025294170189
 10
199.2457138390775
 20
-109.7331858058999
 10
199.2595024164666
 20
-109.7662410836695
 10
199.267757416256
 20
-109.8003546947721
 10
199.2708618606212
 20
-109.837043583652
  0
LINE
  5
165
330
70
100
AcDbEntity
  8
Ebene 1
 62
    18
420
        0
370
     9
100
AcDbLine
 10
188.1979790875584
 20
-131.3869680227087
 30
0.0
 11
188.1979790875584
 21
-131.7087719115173
 31
0.0
  0
LINE
  5
166
330
70
100
AcDbEntity
  8
Ebene 1
 62
    18
420
        0
370
     9
100
AcDbLine
 10
189.3417551694894
 20
-131.3869680227087
 30
0.0
 11
189.3417551694894
 21
-131.7087719115173
 31
0.0
  0
LWPOLYLINE
  5
167
330
70
100
AcDbEntity
  8
Ebene 1
 62
    18
420
        0
370
     9
100
AcDbPolyline
 90
        7
 70
     0
 43
0.0
 10
142.277602481307
 20
-109.2742924726813
 10
142.2841641478063
 20
-109.273763306015
 10
142.298980814095
 20
-109.2725638615706
 10
142.3224052579418
 20
-109.270694139349
 10
142.3540847015781
 20
-109.2687891393494
 10
142.3916555339529
 20
-109.267766083794
 10
142.4367758105795
 20
-109.2674133060166
  0
LWPOLYLINE
  5
168
330
70
100
AcDbEntity
  8
Ebene 1
 62
    18
420
        0
370
     9
100
AcDbPolyline
 90
        8
 70
     0
 43
0.0
 10
149.7272811801388
 20
-109.2376035838018
 10
149.7397027403428
 20
-109.2370744171352
 10
149.7668981235725
 20
-109.2365805282464
 10
149.8099722891403
 20
-109.2356985838023
 10
149.8664872876984
 20
-109.2353810838024
 10
149.9353847859407
 20
-109.2346755282468
 10
150.01324283951
 20
-109.2343227504691
 10
150.0959339485115
 20
-109.2343227504691
  0
LWPOLYLINE
  5
169
330
70
100
AcDbEntity
  8
Ebene 1
 62
    18
420
        0
370
     9
100
AcDbPolyline
 90
        9
 70
     0
 43
0.0
 10
219.9021524453843
 20
-109.2619099726844
 10
219.9135527227995
 20
-109.2632858060176
 10
219.9410991110573
 20
-109.2636033060175
 10
219.9848435543858
 20
-109.2643088615727
 10
220.0410057751752
 20
-109.2646616393505
 10
220.1099032734174
 20
-109.265508306017
 10
220.1877613269866
 20
-109.2660374726833
 10
220.2704524359881
 20
-109.2660374726833
 10
226.7975114361357
 20
-109.2660374726833
  0
LWPOLYLINE
  5
16A
330
70
100
AcDbEntity
  8
Ebene 1
 62
    18
420
        0
370
     9
100
AcDbPolyline
 90
        3
 70
     0
 43
0.0
 10
227.209555870068
 20
-109.270694139349
 10
227.2329860543029
 20
-109.2725638615706
 10
227.2474499431879
 20
-109.273763306015
  0
LWPOLYLINE
  5
16B
330
70
100
AcDbEntity
  8
Ebene 1
 62
    18
420
        0
370
     9
100
AcDbPolyline
 90
        4
 70
     0
 43
0.0
 10
227.3032536454553
 20
-109.2894619171222
 10
227.3149658673787
 20
-109.2913316393438
 10
227.3425178111203
 20
-109.294965250454
 10
227.3859447544568
 20
-109.2996219171196
  0
LWPOLYLINE
  5
16C
330
70
100
AcDbEntity
  8
Ebene 1
 62
    18
420
        0
370
     9
100
AcDbPolyline
 90
        6
 70
     0
 43
0.0
 10
227.3859447544568
 20
-109.2996219171196
 10
227.4427772530069
 20
-109.3068538615621
 10
227.5113572512573
 20
-109.3166610837819
 10
227.5895328048184
 20
-109.3304546948895
 10
227.6743110541926
 20
-109.3473174726632
 10
227.7614471652817
 20
-109.3679902504359
  0
LINE
  5
16D
330
70
100
AcDbEntity
  8
Ebene 1
 62
    18
420
        0
370
     9
100
AcDbLine
 10
227.2474499431879
 20
-109.273763306015
 30
0.0
 11
227.2546761466947
 21
-109.2742924726813
 31
0.0
  0
LINE
  5
16E
330
70
100
AcDbEntity
  8
Ebene 1
 62
    18
420
        0
370
     9
100
AcDbLine
 10
193.817623110856
 20
-109.2619099726844
 30
0.0
 11
193.7208208911034
 21
-109.238450250468
 31
0.0
  0
LINE
  5
16F
330
70
100
AcDbEntity
  8
Ebene 1
 62
    18
420
        0
370
     9
100
AcDbLine
 10
191.6306831666495
 20
-131.3869680227087
 30
0.0
 11
191.6306831666495
 21
-131.7087719115173
 31
0.0
  0
LINE
  5
170
330
70
100
AcDbEntity
  8
Ebene 1
 62
    18
420
        0
370
     9
100
AcDbLine
 10
192.4537137012078
 20
-109.2343227504691
 30
0.0
 11
192.4537137012078
 21
-109.6280933059263
 31
0.0
  0
LINE
  5
171
330
70
100
AcDbEntity
  8
Ebene 1
 62
    18
420
        0
370
     9
100
AcDbLine
 10
192.6821020287145
 20
-109.2343227504691
 30
0.0
 11
192.6821020287145
 21
-109.6280933059263
 31
0.0
  0
LINE
  5
172
330
70
100
AcDbEntity
  8
Ebene 1
 62
    18
420
        0
370
     9
100
AcDbLine
 10
192.746872027062
 20
-109.6274230281486
 30
0.0
 11
192.746872027062
 21
-109.2343227504691
 31
0.0
  0
LINE
  5
173
330
70
100
AcDbEntity
  8
Ebene 1
 62
    18
420
        0
370
     9
100
AcDbLine
 10
192.7741064708117
 20
-131.7087719115173
 30
0.0
 11
192.7741064708117
 21
-131.3869680227087
 31
0.0
  0
LINE
  5
174
330
70
100
AcDbEntity
  8
Ebene 1
 62
    18
420
        0
370
     9
100
AcDbLine
 10
192.9126070228338
 20
-131.7087719115173
 30
0.0
 11
192.9126070228338
 21
-131.3869680227087
 31
0.0
  0
LINE
  5
175
330
70
100
AcDbEntity
  8
Ebene 1
 62
    18
420
        0
370
     9
100
AcDbLine
 10
192.9749428545768
 20
-109.6119008059303
 30
0.0
 11
192.9749428545768
 21
-109.2343227504691
 31
0.0
  0
LINE
  5
176
330
70
100
AcDbEntity
  8
Ebene 1
 62
    18
420
        0
370
     9
100
AcDbLine
 10
193.0094092425864
 20
-131.7087719115173
 30
0.0
 11
193.0094092425864
 21
-131.3869680227087
 31
0.0
  0
LINE
  5
177
330
70
100
AcDbEntity
  8
Ebene 1
 62
    18
420
        0
370
     9
100
AcDbLine
 10
193.2374800701011
 20
-131.7087719115173
 30
0.0
 11
193.2374800701011
 21
-131.3869680227087
 31
0.0
  0
LINE
  5
178
330
70
100
AcDbEntity
  8
Ebene 1
 62
    18
420
        0
370
     9
100
AcDbLine
 10
193.6836028364974
 20
-131.3869680227087
 30
0.0
 11
193.6836028364974
 21
-131.7087719115173
 31
0.0
  0
LINE
  5
179
330
70
100
AcDbEntity
  8
Ebene 1
 62
    18
420
        0
370
     9
100
AcDbLine
 10
193.9120264417809
 20
-131.3869680227087
 30
0.0
 11
193.9120264417809
 21
-131.7087719115173
 31
0.0
  0
LINE
  5
17A
330
70
100
AcDbEntity
  8
Ebene 1
 62
    18
420
        0
370
     9
100
AcDbLine
 10
192.9721911879803
 20
-109.6119008059303
 30
0.0
 11
192.9480964663728
 21
-109.6239658059274
 31
0.0
  0
LINE
  5
17B
330
70
100
AcDbEntity
  8
Ebene 1
 62
    18
420
        0
370
     9
100
AcDbLine
 10
149.6301261826174
 20
-109.2619099726844
 30
0.0
 11
149.7272811801388
 21
-109.238450250468
 31
0.0
  0
LWPOLYLINE
  5
17C
330
70
100
AcDbEntity
  8
Ebene 1
 62
    18
420
        0
370
     9
100
AcDbPolyline
 90
        9
 70
     0
 43
0.0
 10
141.7711899942267
 20
-109.3679902504359
 10
141.8586788808836
 20
-109.3473174726632
 10
141.9427458231833
 20
-109.3304546948895
 10
142.0206038767525
 20
-109.3166610837819
 10
142.0895013749948
 20
-109.3068538615621
 10
142.146016373553
 20
-109.2996219171196
 10
142.1890905391207
 20
-109.294965250454
 10
142.216995260631
 20
-109.2913316393438
 10
142.2287110755538
 20
-109.2894619171222
  0
LINE
  5
17D
330
70
100
AcDbEntity
  8
Ebene 1
 62
    18
420
        0
370
     9
100
AcDbLine
 10
219.9021524453843
 20
-109.2619099726844
 30
0.0
 11
219.804679947871
 21
-109.238450250468
 31
0.0
  0
LINE
  5
17E
330
70
100
AcDbEntity
  8
Ebene 1
 62
    18
420
        0
370
     9
100
AcDbLine
 10
199.5688582834412
 20
-109.8572224725355
 30
0.0
 11
199.5909018524563
 21
-109.8789183058637
 31
0.0
  0
LINE
  5
17F
330
70
100
AcDbEntity
  8
Ebene 1
 62
    18
420
        0
370
     9
100
AcDbLine
 10
199.7969240694225
 20
-109.6280933059263
 30
0.0
 11
199.8196832833783
 21
-109.649824417032
 31
0.0
  0
LWPOLYLINE
  5
180
330
70
100
AcDbEntity
  8
Ebene 1
 62
    18
420
        0
370
     9
100
AcDbPolyline
 90
        9
 70
     0
 43
0.0
 10
199.5909018524563
 20
-131.1158583005545
 10
199.5950646301279
 20
-131.1608021894319
 10
199.6077999075808
 20
-131.2040527449769
 10
199.6294957403606
 20
-131.2434933005225
 10
199.6574055056411
 20
-131.277606911625
 10
199.6928899054099
 20
-131.3060408005069
 10
199.7318012933061
 20
-131.3272074671681
 10
199.7748805056119
 20
-131.3408246893869
 10
199.8196832833783
 20
-131.3449521893859
  0
LINE
  5
181
330
70
100
AcDbEntity
  8
Ebene 1
 62
    18
420
        0
370
     9
100
AcDbLine
 10
194.5355964258723
 20
-131.6692960781939
 30
0.0
 11
194.5355964258723
 21
-131.3869680227087
 31
0.0
  0
LINE
  5
182
330
70
100
AcDbEntity
  8
Ebene 1
 62
    18
420
        0
370
     9
100
AcDbLine
 10
197.1111210823874
 20
-109.6084788614869
 30
0.0
 11
197.1111210823874
 21
-109.2660374726833
 31
0.0
  0
LINE
  5
183
330
70
100
AcDbEntity
  8
Ebene 1
 62
    18
420
        0
370
     9
100
AcDbLine
 10
197.3405677432005
 20
-109.6084788614869
 30
0.0
 11
197.3405677432005
 21
-109.2660374726833
 31
0.0
  0
LINE
  5
184
330
70
100
AcDbEntity
  8
Ebene 1
 62
    18
420
        0
370
     9
100
AcDbLine
 10
197.3505513540569
 20
-109.2660374726833
 30
0.0
 11
197.3505513540569
 21
-109.6084788614869
 31
0.0
  0
LINE
  5
185
330
70
100
AcDbEntity
  8
Ebene 1
 62
    18
420
        0
370
     9
100
AcDbLine
 10
197.6482252353515
 20
-131.3869680227087
 30
0.0
 11
197.6482252353515
 21
-131.6692960781939
 31
0.0
  0
LINE
  5
186
330
70
100
AcDbEntity
  8
Ebene 1
 62
    18
420
        0
370
     9
100
AcDbLine
 10
198.3572379950408
 20
-131.3911308004855
 30
0.0
 11
198.3572379950408
 21
-131.4028430227047
 31
0.0
  0
LINE
  5
187
330
70
100
AcDbEntity
  8
Ebene 1
 62
    18
420
        0
370
     9
100
AcDbLine
 10
199.041767977577
 20
-109.6084788614869
 30
0.0
 11
199.0000696453075
 21
-109.649824417032
 31
0.0
  0
LINE
  5
188
330
70
100
AcDbEntity
  8
Ebene 1
 62
    18
420
        0
370
     9
100
AcDbLine
 10
199.2708618606212
 20
-109.837043583652
 30
0.0
 11
199.2291635283517
 21
-109.8789183058637
 31
0.0
  0
LINE
  5
189
330
70
100
AcDbEntity
  8
Ebene 1
 62
    18
420
        0
370
     9
100
AcDbLine
 10
227.2712214240503
 20
-109.2794783060136
 30
0.0
 11
227.2546761466947
 21
-109.2742924726813
 31
0.0
  0
LINE
  5
18A
330
70
100
AcDbEntity
  8
Ebene 1
 62
    18
420
        0
370
     9
100
AcDbLine
 10
227.287766701406
 20
-109.2849816393454
 30
0.0
 11
227.2712214240503
 21
-109.2794783060136
 31
0.0
  0
LINE
  5
18B
330
70
100
AcDbEntity
  8
Ebene 1
 62
    18
420
        0
370
     9
100
AcDbLine
 10
227.3032536454553
 20
-109.2894619171222
 30
0.0
 11
227.287766701406
 21
-109.2849816393454
 31
0.0
  0
LWPOLYLINE
  5
18C
330
70
100
AcDbEntity
  8
Ebene 1
 62
    18
420
        0
370
     9
100
AcDbPolyline
 90
       11
 70
     0
 43
0.0
 10
199.2291635283517
 20
-109.8789183058637
 10
199.2257415839945
 20
-109.8434288614279
 10
199.2171388390846
 20
-109.8081158058813
 10
199.2036929734459
 20
-109.7750252503342
 10
199.1850663072545
 20
-109.7441924725639
 10
199.1616418634076
 20
-109.7171696947928
 10
199.1344426974349
 20
-109.6935688614654
 10
199.1037863093281
 20
-109.6752949725811
 10
199.0706957546167
 20
-109.6611838614735
 10
199.0352063110777
 20
-109.6532463614755
 10
199.0000696453075
 20
-109.649824417032
  0
LINE
  5
18D
330
70
100
AcDbEntity
  8
Ebene 1
 62
    18
420
        0
370
     9
100
AcDbLine
 10
202.5282001108529
 20
-109.6280933059263
 30
0.0
 11
202.5275298330922
 21
-109.2343227504691
 31
0.0
  0
LINE
  5
18E
330
70
100
AcDbEntity
  8
Ebene 1
 62
    18
420
        0
370
     9
100
AcDbLine
 10
200.5541666165281
 20
-131.4069705227037
 30
0.0
 11
200.5541666165281
 21
-131.7087719115173
 31
0.0
  0
LINE
  5
18F
330
70
100
AcDbEntity
  8
Ebene 1
 62
    18
420
        0
370
     9
100
AcDbLine
 10
202.2925445613095
 20
-131.3886966338196
 30
0.0
 11
202.2925445613095
 21
-131.405241911593
 31
0.0
  0
LINE
  5
190
330
70
100
AcDbEntity
  8
Ebene 1
 62
    18
420
        0
370
     9
100
AcDbLine
 10
202.5447453882086
 20
-109.6280933059263
 30
0.0
 11
202.5447453882086
 21
-109.2343227504691
 31
0.0
  0
LINE
  5
191
330
70
100
AcDbEntity
  8
Ebene 1
 62
    18
420
        0
370
     9
100
AcDbLine
 10
202.7728162157234
 20
-109.6280933059263
 30
0.0
 11
202.7728162157234
 21
-109.2343227504691
 31
0.0
  0
LINE
  5
192
330
70
100
AcDbEntity
  8
Ebene 1
 62
    18
420
        0
370
     9
100
AcDbLine
 10
202.8417137139657
 20
-131.3869680227087
 30
0.0
 11
202.8417137139657
 21
-131.7087719115173
 31
0.0
  0
LWPOLYLINE
  5
193
330
70
100
AcDbEntity
  8
Ebene 1
 62
    18
420
        0
370
     9
100
AcDbPolyline
 90
       11
 70
     0
 43
0.0
 10
199.2905166168439
 20
-131.1778766338723
 10
199.2877599157456
 20
-131.2140363560855
 10
199.2794696381794
 20
-131.2486791338544
 10
199.265711305197
 20
-131.281734411624
 10
199.2464193946327
 20
-131.3125671893939
 10
199.2236601951588
 20
-131.3396252449429
 10
199.196461029186
 20
-131.3628733004925
 10
199.1650990855417
 20
-131.3821702449323
 10
199.1320438086072
 20
-131.3959285782621
 10
199.0975774205976
 20
-131.4042188560379
 10
199.0620879770586
 20
-131.4069705227037
  0
LWPOLYLINE
  5
194
330
70
100
AcDbEntity
  8
Ebene 1
 62
    18
420
        0
370
     9
100
AcDbPolyline
 90
        9
 70
     0
 43
0.0
 10
199.5688582834412
 20
-109.8572224725355
 10
199.57368629734
 20
-109.8117141392136
 10
199.5861040748009
 20
-109.7696983058908
 10
199.607447129812
 20
-109.7300813614564
 10
199.6357046290911
 20
-109.6952974725761
 10
198.9652857394822
 20
-109.6670399725831
 10
199.7094351827656
 20
-109.6456616392552
 10
199.0466010151854
 20
-109.6325735837031
 10
199.7969240694225
 20
-109.6280933059263
  0
LINE
  5
195
330
70
100
AcDbEntity
  8
Ebene 1
 62
    18
420
        0
370
     9
100
AcDbLine
 10
219.7698607820926
 20
-109.6102074725975
 30
0.0
 11
219.7378285606876
 21
-109.6262235837047
 31
0.0
  0
LINE
  5
196
330
70
100
AcDbEntity
  8
Ebene 1
 62
    18
420
        0
370
     9
100
AcDbLine
 10
205.5192264234344
 20
-131.6692960781939
 30
0.0
 11
205.5192264234344
 21
-131.3869680227087
 31
0.0
  0
LINE
  5
197
330
70
100
AcDbEntity
  8
Ebene 1
 62
    18
420
        0
370
     9
100
AcDbLine
 10
208.8599260604282
 20
-131.3869680227087
 30
0.0
 11
208.8599260604282
 21
-131.6692960781939
 31
0.0
  0
LINE
  5
198
330
70
100
AcDbEntity
  8
Ebene 1
 62
    18
420
        0
370
     9
100
AcDbLine
 10
209.5920104861957
 20
-131.7087719115173
 30
0.0
 11
209.5920104861957
 21
-131.3869680227087
 31
0.0
  0
LINE
  5
199
330
70
100
AcDbEntity
  8
Ebene 1
 62
    18
420
        0
370
     9
100
AcDbLine
 10
199.5289187984821
 20
-131.1778766338723
 30
0.0
 11
198.8853462970771
 21
-131.1158583005545
 31
0.0
  0
LINE
  5
19A
330
70
100
AcDbEntity
  8
Ebene 1
 62
    18
420
        0
370
     9
100
AcDbLine
 10
199.052774626139
 20
-131.4069705227037
 30
0.0
 11
199.8196832833783
 21
-131.3449521893859
 31
0.0
  0
LINE
  5
19B
330
70
100
AcDbEntity
  8
Ebene 1
 62
    18
420
        0
370
     9
100
AcDbLine
 10
213.8480978776138
 20
-131.3869680227087
 30
0.0
 11
213.8480978776138
 21
-131.7087719115173
 31
0.0
  0
LINE
  5
19C
330
70
100
AcDbEntity
  8
Ebene 1
 62
    18
420
        0
370
     9
100
AcDbLine
 10
213.9449055020695
 20
-131.3869680227087
 30
0.0
 11
213.9449055020695
 21
-131.7087719115173
 31
0.0
  0
LINE
  5
19D
330
70
100
AcDbEntity
  8
Ebene 1
 62
    18
420
        0
370
     9
100
AcDbLine
 10
214.1739939804106
 20
-131.3869680227087
 30
0.0
 11
214.1739939804106
 21
-131.7087719115173
 31
0.0
  0
LINE
  5
19E
330
70
100
AcDbEntity
  8
Ebene 1
 62
    18
420
        0
370
     9
100
AcDbLine
 10
214.6190936912774
 20
-131.7087719115173
 30
0.0
 11
214.6190936912774
 21
-131.3869680227087
 31
0.0
  0
LINE
  5
19F
330
70
100
AcDbEntity
  8
Ebene 1
 62
    18
420
        0
370
     9
100
AcDbLine
 10
214.8482228520985
 20
-131.7087719115173
 30
0.0
 11
214.8482228520985
 21
-131.3869680227087
 31
0.0
  0
LINE
  5
1A0
330
70
100
AcDbEntity
  8
Ebene 1
 62
    18
420
        0
370
     9
100
AcDbLine
 10
127.5326206352606
 20
-76.79566525857893
 30
0.0
 11
127.7916653508741
 21
-76.79566525857893
 31
0.0
  0
LINE
  5
1A1
330
70
100
AcDbEntity
  8
Ebene 1
 62
    18
420
        0
370
     9
100
AcDbLine
 10
241.7406193840092
 20
-76.79566525857893
 30
0.0
 11
241.9993404927491
 21
-76.79566525857893
 31
0.0
  0
LINE
  5
1A2
330
70
100
AcDbEntity
  8
Ebene 1
 62
    18
420
        0
370
     9
100
AcDbLine
 10
218.4934755368781
 20
-109.2343227504691
 30
0.0
 11
218.4934755368781
 21
-109.6280933059263
 31
0.0
  0
LINE
  5
1A3
330
70
100
AcDbEntity
  8
Ebene 1
 62
    18
420
        0
370
     9
100
AcDbLine
 10
218.7222221675417
 20
-109.2343227504691
 30
0.0
 11
218.7222221675417
 21
-109.6280933059263
 31
0.0
  0
LINE
  5
1A4
330
70
100
AcDbEntity
  8
Ebene 1
 62
    18
420
        0
370
     9
100
AcDbLine
 10
218.8510510833112
 20
-109.2343227504691
 30
0.0
 11
218.8510510833112
 21
-109.6280933059263
 31
0.0
  0
LINE
  5
1A5
330
70
100
AcDbEntity
  8
Ebene 1
 62
    18
420
        0
370
     9
100
AcDbLine
 10
219.0791219108259
 20
-109.2343227504691
 30
0.0
 11
219.0791219108259
 21
-109.6280933059263
 31
0.0
  0
LINE
  5
1A6
330
70
100
AcDbEntity
  8
Ebene 1
 62
    18
420
        0
370
     9
100
AcDbLine
 10
220.2308354925544
 20
-131.3869680227087
 30
0.0
 11
220.2308354925544
 21
-131.7087719115173
 31
0.0
  0
LINE
  5
1A7
330
70
100
AcDbEntity
  8
Ebene 1
 62
    18
420
        0
370
     9
100
AcDbLine
 10
236.4761811892122
 20
-71.53052748211752
 30
0.0
 11
133.0564888556246
 21
-71.53052748211752
 31
0.0
  0
LINE
  5
1A8
330
70
100
AcDbEntity
  8
Ebene 1
 62
    18
420
        0
370
     9
100
AcDbLine
 10
236.4761811892122
 20
-71.30210387106351
 30
0.0
 11
133.0564888556246
 21
-71.30210387106351
 31
0.0
  0
LINE
  5
1A9
330
70
100
AcDbEntity
  8
Ebene 1
 62
    18
420
        0
370
     9
100
AcDbLine
 10
133.0564888556246
 20
-71.27197664884883
 30
0.0
 11
121.5994630088503
 21
-71.27197664884883
 31
0.0
  0
LINE
  5
1AA
330
70
100
AcDbEntity
  8
Ebene 1
 62
    18
420
        0
370
     9
100
AcDbLine
 10
133.0564888556246
 20
-71.27197664884883
 30
0.0
 11
236.4761811892122
 21
-71.27197664884883
 31
0.0
  0
LINE
  5
1AB
330
70
100
AcDbEntity
  8
Ebene 1
 62
    18
420
        0
370
     9
100
AcDbLine
 10
222.519057934177
 20
-131.3869680227087
 30
0.0
 11
222.519057934177
 21
-131.7087719115173
 31
0.0
  0
LINE
  5
1AC
330
70
100
AcDbEntity
  8
Ebene 1
 62
    18
420
        0
370
     9
100
AcDbLine
 10
223.8230360551556
 20
-131.6692960781939
 30
0.0
 11
223.8230360551556
 21
-131.3869680227087
 31
0.0
  0
LINE
  5
1AD
330
70
100
AcDbEntity
  8
Ebene 1
 62
    18
420
        0
370
     9
100
AcDbLine
 10
225.8267022942364
 20
-109.6084788614869
 30
0.0
 11
225.8267022942364
 21
-109.2660374726833
 31
0.0
  0
LINE
  5
1AE
330
70
100
AcDbEntity
  8
Ebene 1
 62
    18
420
        0
370
     9
100
AcDbLine
 10
226.0561489550494
 20
-109.6084788614869
 30
0.0
 11
226.0561489550494
 21
-109.2660374726833
 31
0.0
  0
LINE
  5
1AF
330
70
100
AcDbEntity
  8
Ebene 1
 62
    18
420
        0
370
     9
100
AcDbLine
 10
226.065779788137
 20
-109.2660374726833
 30
0.0
 11
226.065779788137
 21
-109.6084788614869
 31
0.0
  0
LINE
  5
1B0
330
70
100
AcDbEntity
  8
Ebene 1
 62
    18
420
        0
370
     9
100
AcDbLine
 10
226.9360119881578
 20
-131.3869680227087
 30
0.0
 11
226.9360119881578
 21
-131.6692960781939
 31
0.0
  0
LINE
  5
1B1
330
70
100
AcDbEntity
  8
Ebene 1
 62
    18
420
        0
370
     9
100
AcDbLine
 10
227.095538095199
 20
-132.0040116336658
 30
0.0
 11
227.095538095199
 21
-131.70651413374
 31
0.0
  0
LINE
  5
1B2
330
70
100
AcDbEntity
  8
Ebene 1
 62
    18
420
        0
370
     9
100
AcDbLine
 10
227.095538095199
 20
-109.2674133060166
 30
0.0
 11
227.095538095199
 21
-108.99143525053
 31
0.0
  0
LINE
  5
1B3
330
70
100
AcDbEntity
  8
Ebene 1
 62
    18
420
        0
370
     9
100
AcDbLine
 10
227.1868017039818
 20
-131.3869680227087
 30
0.0
 11
227.1868017039818
 21
-131.1158583005545
 31
0.0
  0
LINE
  5
1B4
330
70
100
AcDbEntity
  8
Ebene 1
 62
    18
420
        0
370
     9
100
AcDbLine
 10
227.1868017039818
 20
-109.8789183058637
 30
0.0
 11
227.1868017039818
 21
-109.6084788614869
 31
0.0
  0
LINE
  5
1B5
330
70
100
AcDbEntity
  8
Ebene 1
 62
    18
420
        0
370
     9
100
AcDbLine
 10
229.2483644291647
 20
-129.0550010788474
 30
0.0
 11
229.2483644291647
 21
-111.9397755275705
 31
0.0
  0
LINE
  5
1B6
330
70
100
AcDbEntity
  8
Ebene 1
 62
    18
420
        0
370
     9
100
AcDbLine
 10
229.4767880344483
 20
-129.0550010788474
 30
0.0
 11
229.4767880344483
 21
-111.9397755275705
 31
0.0
  0
LINE
  5
1B7
330
70
100
AcDbEntity
  8
Ebene 1
 62
    18
420
        0
370
     9
100
AcDbLine
 10
229.5184510889409
 20
-111.9397755275705
 30
0.0
 11
229.5184510889409
 21
-129.0550010788474
 31
0.0
  0
LINE
  5
1B8
330
70
100
AcDbEntity
  8
Ebene 1
 62
    18
420
        0
370
     9
100
AcDbLine
 10
229.8409252473806
 20
-128.9630319122038
 30
0.0
 11
229.8409252473806
 21
-112.0317446942144
 31
0.0
  0
LINE
  5
1B9
330
70
100
AcDbEntity
  8
Ebene 1
 62
    18
420
        0
370
     9
100
AcDbLine
 10
229.9070710790264
 20
-112.0317446942144
 30
0.0
 11
229.9070710790264
 21
-128.9630319122038
 31
0.0
  0
LINE
  5
1BA
330
70
100
AcDbEntity
  8
Ebene 1
 62
    18
420
        0
370
     9
100
AcDbLine
 10
230.1351419065412
 20
-112.0317446942144
 30
0.0
 11
230.1351419065412
 21
-128.9630319122038
 31
0.0
  0
LINE
  5
1BB
330
70
100
AcDbEntity
  8
Ebene 1
 62
    18
420
        0
370
     9
100
AcDbLine
 10
127.5326206352606
 20
-65.75858915022692
 30
0.0
 11
241.9993404927491
 21
-65.75858915022692
 31
0.0
  0
LINE
  5
1BC
330
70
100
AcDbEntity
  8
Ebene 1
 62
    18
420
        0
370
     9
100
AcDbLine
 10
236.4761811892122
 20
-144.5543280194169
 30
0.0
 11
236.4761811892122
 21
-144.295071630593
 31
0.0
  0
LINE
  5
1BD
330
70
100
AcDbEntity
  8
Ebene 1
 62
    18
420
        0
370
     9
100
AcDbLine
 10
236.4761811892122
 20
-71.53052748211752
 30
0.0
 11
236.4761811892122
 21
-71.27197664884883
 31
0.0
  0
LINE
  5
1BE
330
70
100
AcDbEntity
  8
Ebene 1
 62
    18
420
        0
370
     9
100
AcDbLine
 10
241.7406193840092
 20
-139.0309569096868
 30
0.0
 11
241.7406193840092
 21
-76.79566525857893
 31
0.0
  0
LINE
  5
1BF
330
70
100
AcDbEntity
  8
Ebene 1
 62
    18
420
        0
370
     9
100
AcDbLine
 10
241.9700599379406
 20
-139.0309569096868
 30
0.0
 11
241.9700599379406
 21
-76.79566525857893
 31
0.0
  0
LINE
  5
1C0
330
70
100
AcDbEntity
  8
Ebene 1
 62
    18
420
        0
370
     9
100
AcDbLine
 10
241.9993404927491
 20
-139.0309569096868
 30
0.0
 11
241.9993404927491
 21
-76.79566525857893
 31
0.0
  0
LINE
  5
1C1
330
70
100
AcDbEntity
  8
Ebene 1
 62
    18
420
        0
370
     9
100
AcDbLine
 10
241.9993404927491
 20
-76.79566525857893
 30
0.0
 11
241.9993404927491
 21
-65.75858915022692
 31
0.0
  0
LINE
  5
1C2
330
70
100
AcDbEntity
  8
Ebene 1
 62
    18
420
        0
370
     9
100
AcDbLine
 10
279.2236110413052
 20
-143.8375541307073
 30
0.0
 11
279.2311887095522
 21
-143.8375541307073
 31
0.0
  0
LINE
  5
1C3
330
70
100
AcDbEntity
  8
Ebene 1
 62
    18
420
        0
370
     9
100
AcDbLine
 10
279.2236110413052
 20
-144.5620538527482
 30
0.0
 11
283.573389154329
 21
-144.5241655194244
 31
0.0
  0
LWPOLYLINE
  5
1C4
330
70
100
AcDbEntity
  8
Ebene 1
 62
    18
420
        0
370
     9
100
AcDbPolyline
 90
        3
 70
     0
 43
0.0
 10
279.2311887095522
 20
-143.8375541307073
 10
279.3920553721148
 20
-143.8375541307073
 10
279.45029898174
 20
-143.8375541307073
  0
LINE
  5
1C5
330
70
100
AcDbEntity
  8
Ebene 1
 62
    18
420
        0
370
     9
100
AcDbLine
 10
279.9126142477232
 20
-143.8416816307063
 30
0.0
 11
279.45029898174
 21
-143.8375541307073
 31
0.0
  0
LINE
  5
1C6
330
70
100
AcDbEntity
  8
Ebene 1
 62
    18
420
        0
370
     9
100
AcDbLine
 10
280.0256089670626
 20
-143.6137871863186
 30
0.0
 11
279.3373042624005
 21
-143.6077546863204
 31
0.0
  0
LINE
  5
1C7
330
70
100
AcDbEntity
  8
Ebene 1
 62
    18
420
        0
370
     9
100
AcDbLine
 10
283.8000841485455
 20
-139.0309569096868
 30
0.0
 11
279.2236110413052
 21
-139.0309569096868
 31
0.0
  0
LINE
  5
1C8
330
70
100
AcDbEntity
  8
Ebene 1
 62
    18
420
        0
370
     9
100
AcDbLine
 10
279.2236110413052
 20
-134.7828069107487
 30
0.0
 11
278.774376776762
 21
-134.7828069107487
 31
0.0
  0
LINE
  5
1C9
330
70
100
AcDbEntity
  8
Ebene 1
 62
    18
420
        0
370
     9
100
AcDbLine
 10
274.6481821598078
 20
-134.7132391329884
 30
0.0
 11
274.7601538236178
 21
-134.7132391329884
 31
0.0
  0
LINE
  5
1CA
330
70
100
AcDbEntity
  8
Ebene 1
 62
    18
420
        0
370
     9
100
AcDbLine
 10
274.6481821598078
 20
-133.0816419111741
 30
0.0
 11
273.6184238527457
 21
-133.0816419111741
 31
0.0
  0
LINE
  5
1CB
330
70
100
AcDbEntity
  8
Ebene 1
 62
    18
420
        0
370
     9
100
AcDbLine
 10
269.6145372882268
 20
-134.9683327440358
 30
0.0
 11
269.7654556177099
 21
-134.9693557995909
 31
0.0
  0
LINE
  5
1CC
330
70
100
AcDbEntity
  8
Ebene 1
 62
    18
420
        0
370
     9
100
AcDbLine
 10
269.7654556177099
 20
-134.9693557995909
 30
0.0
 11
269.7957592280479
 21
-134.9693557995909
 31
0.0
  0
LINE
  5
1CD
330
70
100
AcDbEntity
  8
Ebene 1
 62
    18
420
        0
370
     9
100
AcDbLine
 10
272.0164600047264
 20
-134.033506910936
 30
0.0
 11
274.6481821598078
 21
-134.0565785775971
 31
0.0
  0
LINE
  5
1CE
330
70
100
AcDbEntity
  8
Ebene 1
 62
    18
420
        0
370
     9
100
AcDbLine
 10
270.5288667093447
 20
-132.6492774668378
 30
0.0
 11
270.9712147536151
 21
-132.6534049668368
 31
0.0
  0
LINE
  5
1CF
330
70
100
AcDbEntity
  8
Ebene 1
 62
    18
420
        0
370
     9
100
AcDbLine
 10
271.9013838965511
 20
-133.8510855220927
 30
0.0
 11
271.6753944578721
 21
-133.8474871887604
 31
0.0
  0
LINE
  5
1D0
330
70
100
AcDbEntity
  8
Ebene 1
 62
    18
420
        0
370
     9
100
AcDbLine
 10
269.7265089520368
 20
-135.0828796884513
 30
0.0
 11
274.7573668792445
 21
-135.1700510773186
 31
0.0
  0
LINE
  5
1D1
330
70
100
AcDbEntity
  8
Ebene 1
 62
    18
420
        0
370
     9
100
AcDbLine
 10
274.7601538236178
 20
-135.1708977439852
 30
0.0
 11
278.774376776762
 21
-135.2403244106344
 31
0.0
  0
LINE
  5
1D2
330
70
100
AcDbEntity
  8
Ebene 1
 62
    18
420
        0
370
     9
100
AcDbLine
 10
269.7957592280479
 20
-134.9693557995909
 30
0.0
 11
274.4166610425069
 21
-135.0504946884597
 31
0.0
  0
LINE
  5
1D3
330
70
100
AcDbEntity
  8
Ebene 1
 62
    18
420
        0
370
     9
100
AcDbLine
 10
274.7601538236178
 20
-134.7132391329884
 30
0.0
 11
278.774376776762
 21
-134.7828069107487
 31
0.0
  0
LINE
  5
1D4
330
70
100
AcDbEntity
  8
Ebene 1
 62
    18
420
        0
370
     9
100
AcDbLine
 10
270.7538330924943
 20
-132.8780185778914
 30
0.0
 11
274.647829382039
 21
-132.9465633000966
 31
0.0
  0
LINE
  5
1D5
330
70
100
AcDbEntity
  8
Ebene 1
 62
    18
420
        0
370
     9
100
AcDbLine
 10
270.9712147536151
 20
-132.6534049668368
 30
0.0
 11
274.647829382039
 21
-132.7172930223763
 31
0.0
  0
LINE
  5
1D6
330
70
100
AcDbEntity
  8
Ebene 1
 62
    18
420
        0
370
     9
100
AcDbLine
 10
274.4170138202846
 20
-135.0504946884597
 30
0.0
 11
274.647829382039
 21
-135.0561744106804
 31
0.0
  0
LINE
  5
1D7
330
70
100
AcDbEntity
  8
Ebene 1
 62
    18
420
        0
370
     9
100
AcDbLine
 10
274.6481821598078
 20
-130.3803166340717
 30
0.0
 11
274.6250752159529
 21
-130.3806694118491
 31
0.0
  0
LINE
  5
1D8
330
70
100
AcDbEntity
  8
Ebene 1
 62
    18
420
        0
370
     9
100
AcDbLine
 10
273.6580407961795
 20
-130.1860419118978
 30
0.0
 11
274.6481821598078
 21
-130.1510463563511
 31
0.0
  0
LINE
  5
1D9
330
70
100
AcDbEntity
  8
Ebene 1
 62
    18
420
        0
370
     9
100
AcDbLine
 10
273.4806288562612
 20
-130.3682869118522
 30
0.0
 11
273.4861321894542
 21
-130.3682869118522
 31
0.0
  0
LINE
  5
1DA
330
70
100
AcDbEntity
  8
Ebene 1
 62
    18
420
        0
370
     9
100
AcDbLine
 10
274.6250752159529
 20
-130.3806694118491
 30
0.0
 11
273.4806288562612
 21
-130.4125252451747
 31
0.0
  0
LINE
  5
1DB
330
70
100
AcDbEntity
  8
Ebene 1
 62
    18
420
        0
370
     9
100
AcDbLine
 10
274.6481821598078
 20
-130.8023446895216
 30
0.0
 11
274.6250752159529
 21
-130.8023446895216
 31
0.0
  0
LINE
  5
1DC
330
70
100
AcDbEntity
  8
Ebene 1
 62
    18
420
        0
370
     9
100
AcDbLine
 10
271.4445719637609
 20
-129.8790546897525
 30
0.0
 11
270.9870544754332
 21
-129.8790546897525
 31
0.0
  0
LINE
  5
1DD
330
70
100
AcDbEntity
  8
Ebene 1
 62
    18
420
        0
370
     9
100
AcDbLine
 10
274.6481821598078
 20
-131.6970596892981
 30
0.0
 11
271.4445719637609
 21
-131.6692960781939
 31
0.0
  0
LWPOLYLINE
  5
1DE
330
70
100
AcDbEntity
  8
Ebene 1
 62
    18
420
        0
370
     9
100
AcDbPolyline
 90
        5
 70
     0
 43
0.0
 10
272.0164600047264
 20
-134.033506910936
 10
271.9578988951093
 20
-134.026627744271
 10
271.9000080632529
 20
-134.0087066331644
 10
271.8421525091733
 20
-133.9792496887274
 10
271.7852915987207
 20
-133.9415377442924
  0
LWPOLYLINE
  5
1DF
330
70
100
AcDbEntity
  8
Ebene 1
 62
    18
420
        0
370
     9
100
AcDbPolyline
 90
        3
 70
     0
 43
0.0
 10
271.8421525091733
 20
-80.07159497998195
 10
271.9000080632529
 20
-80.04196164665607
 10
271.9578988951093
 20
-80.02439331332722
  0
LINE
  5
1E0
330
70
100
AcDbEntity
  8
Ebene 1
 62
    18
420
        0
370
     9
100
AcDbLine
 10
270.9870544754332
 20
-125.5311744130617
 30
0.0
 11
271.6753944578721
 21
-125.5251419130632
 31
0.0
  0
LINE
  5
1E1
330
70
100
AcDbEntity
  8
Ebene 1
 62
    18
420
        0
370
     9
100
AcDbLine
 10
271.9013838965511
 20
-125.5251419130632
 30
0.0
 11
271.6753944578721
 21
-125.5251419130632
 31
0.0
  0
LINE
  5
1E2
330
70
100
AcDbEntity
  8
Ebene 1
 62
    18
420
        0
370
     9
100
AcDbLine
 10
269.6145372882268
 20
-125.5210144130642
 30
0.0
 11
269.7957592280479
 21
-125.5210144130642
 31
0.0
  0
LINE
  5
1E3
330
70
100
AcDbEntity
  8
Ebene 1
 62
    18
420
        0
370
     9
100
AcDbLine
 10
274.6481821598078
 20
-125.3327369131113
 30
0.0
 11
274.7601538236178
 21
-125.3327369131113
 31
0.0
  0
LINE
  5
1E4
330
70
100
AcDbEntity
  8
Ebene 1
 62
    18
420
        0
370
     9
100
AcDbLine
 10
269.6145372882268
 20
-124.880228857669
 30
0.0
 11
269.7265089520368
 21
-124.880228857669
 31
0.0
  0
LINE
  5
1E5
330
70
100
AcDbEntity
  8
Ebene 1
 62
    18
420
        0
370
     9
100
AcDbLine
 10
269.7957592280479
 20
-125.5210144130642
 30
0.0
 11
270.9870544754332
 21
-125.5311744130617
 31
0.0
  0
LINE
  5
1E6
330
70
100
AcDbEntity
  8
Ebene 1
 62
    18
420
        0
370
     9
100
AcDbLine
 10
274.4207816100537
 20
-125.1034666353907
 30
0.0
 11
269.7957592280479
 21
-125.0634969131785
 31
0.0
  0
LINE
  5
1E7
330
70
100
AcDbEntity
  8
Ebene 1
 62
    18
420
        0
370
     9
100
AcDbLine
 10
271.7852915987207
 20
-80.10948331330608
 30
0.0
 11
271.8421525091733
 21
-80.07159497998195
 31
0.0
  0
LINE
  5
1E8
330
70
100
AcDbEntity
  8
Ebene 1
 62
    18
420
        0
370
     9
100
AcDbLine
 10
269.6145372882268
 20
-121.5826033029378
 30
0.0
 11
269.7265089520368
 21
-121.5826033029378
 31
0.0
  0
LINE
  5
1E9
330
70
100
AcDbEntity
  8
Ebene 1
 62
    18
420
        0
370
     9
100
AcDbLine
 10
274.4204641100618
 20
-124.9890960798637
 30
0.0
 11
269.7943833947496
 21
-124.9487735798737
 31
0.0
  0
LWPOLYLINE
  5
1EA
330
70
100
AcDbEntity
  8
Ebene 1
 62
    18
420
        0
370
     9
100
AcDbPolyline
 90
        7
 70
     0
 43
0.0
 10
269.7943833947496
 20
-124.9487735798737
 10
269.7881745060191
 20
-124.9482796909853
 10
269.7805897839904
 20
-124.9470802465409
 10
269.7737106174993
 20
-124.9453516354303
 10
269.7668314510081
 20
-124.9422471909868
 10
269.7595995067481
 20
-124.9387899687651
 10
269.7516620069507
 20
-124.9336394132111
  0
LINE
  5
1EB
330
70
100
AcDbEntity
  8
Ebene 1
 62
    18
420
        0
370
     9
100
AcDbLine
 10
273.6969943760205
 20
-80.06676192442776
 30
0.0
 11
273.6311944079755
 21
-80.1139635910825
 31
0.0
  0
LINE
  5
1EC
330
70
100
AcDbEntity
  8
Ebene 1
 62
    18
420
        0
370
     9
100
AcDbLine
 10
268.6991915994917
 20
-121.2110224696972
 30
0.0
 11
268.8111564753894
 21
-121.2110224696972
 31
0.0
  0
LINE
  5
1ED
330
70
100
AcDbEntity
  8
Ebene 1
 62
    18
420
        0
370
     9
100
AcDbLine
 10
269.432645070645
 20
-121.3992999696501
 30
0.0
 11
268.8800539736317
 21
-121.3948196918737
 31
0.0
  0
LINE
  5
1EE
330
70
100
AcDbEntity
  8
Ebene 1
 62
    18
420
        0
370
     9
100
AcDbLine
 10
269.4319395151075
 20
-121.2849294141231
 30
0.0
 11
268.8790309181022
 21
-121.280096358569
 31
0.0
  0
LWPOLYLINE
  5
1EF
330
70
100
AcDbEntity
  8
Ebene 1
 62
    18
420
        0
370
     9
100
AcDbPolyline
 90
        7
 70
     0
 43
0.0
 10
268.8790309181022
 20
-121.280096358569
 10
268.8728220293717
 20
-121.2794260807912
 10
268.8655900851117
 20
-121.2784030252358
 10
268.8583581408519
 20
-121.2766744141252
 10
268.8511261965919
 20
-121.2735699696816
 10
268.8438589745551
 20
-121.2701127474603
 10
268.8373325858327
 20
-121.264785803017
  0
LINE
  5
1F0
330
70
100
AcDbEntity
  8
Ebene 1
 62
    18
420
        0
370
     9
100
AcDbLine
 10
269.4701806252429
 20
-121.2876810807892
 30
0.0
 11
269.4319395151075
 21
-121.2849294141231
 31
0.0
  0
LINE
  5
1F1
330
70
100
AcDbEntity
  8
Ebene 1
 62
    18
420
        0
370
     9
100
AcDbLine
 10
279.3393503734595
 20
-143.6096596863199
 30
0.0
 11
279.3373042624005
 21
-143.6077546863204
 31
0.0
  0
LWPOLYLINE
  5
1F2
330
70
100
AcDbEntity
  8
Ebene 1
 62
    18
420
        0
370
     9
100
AcDbPolyline
 90
        3
 70
     0
 43
0.0
 10
271.6753944578721
 20
-80.20321636883819
 10
271.7298280675946
 20
-80.15308664662848
 10
271.7852915987207
 20
-80.10948331330608
  0
LWPOLYLINE
  5
1F3
330
70
100
AcDbEntity
  8
Ebene 1
 62
    18
420
        0
370
     9
100
AcDbPolyline
 90
        3
 70
     0
 43
0.0
 10
273.6311944079755
 20
-80.1139635910825
 10
273.5674474651574
 20
-80.16959664662438
 10
273.50614159829
 20
-80.23351997994174
  0
LWPOLYLINE
  5
1F4
330
70
100
AcDbEntity
  8
Ebene 1
 62
    18
420
        0
370
     9
100
AcDbPolyline
 90
        5
 70
     0
 43
0.0
 10
274.5617163286804
 20
-125.0214810798557
 10
274.5303543850361
 20
-125.0083930243036
 10
274.4952177192658
 20
-124.998409413195
 10
274.4583524424285
 20
-124.9918477465298
 10
274.4204641100618
 20
-124.9890960798637
  0
LWPOLYLINE
  5
1F5
330
70
100
AcDbEntity
  8
Ebene 1
 62
    18
420
        0
370
     9
100
AcDbPolyline
 90
        3
 70
     0
 43
0.0
 10
271.7852915987207
 20
-133.9415377442924
 10
271.7298280675946
 20
-133.8984635776364
 10
271.6753944578721
 20
-133.8474871887604
  0
LWPOLYLINE
  5
1F6
330
70
100
AcDbEntity
  8
Ebene 1
 62
    18
420
        0
370
     9
100
AcDbPolyline
 90
        9
 70
     0
 43
0.0
 10
274.4204641100618
 20
-112.3449055274692
 10
274.4335521652835
 20
-112.3449055274692
 10
274.4480160538034
 20
-112.3435296941363
 10
274.4621271645544
 20
-112.3418010830256
 10
274.4776493863807
 20
-112.3394021941373
 10
274.49313633043
 20
-112.3366505274712
 10
274.5096816077857
 20
-112.3325230274722
 10
274.5265443851333
 20
-112.3269844163625
 10
274.5437952180265
 20
-112.3206344163641
  0
LINE
  5
1F7
330
70
100
AcDbEntity
  8
Ebene 1
 62
    18
420
        0
370
     9
100
AcDbLine
 10
268.8790309181022
 20
-112.3931302496794
 30
0.0
 11
274.4204641100618
 21
-112.3449055274692
 31
0.0
  0
LINE
  5
1F8
330
70
100
AcDbEntity
  8
Ebene 1
 62
    18
420
        0
370
     9
100
AcDbLine
 10
268.8800539736317
 20
-112.279288860819
 30
0.0
 11
274.4207816100537
 21
-112.2301821941648
 31
0.0
  0
LINE
  5
1F9
330
70
100
AcDbEntity
  8
Ebene 1
 62
    18
420
        0
370
     9
100
AcDbLine
 10
268.6991915994917
 20
-112.4617102496623
 30
0.0
 11
268.8111564753894
 21
-112.4617102496623
 31
0.0
  0
LINE
  5
1FA
330
70
100
AcDbEntity
  8
Ebene 1
 62
    18
420
        0
370
     9
100
AcDbLine
 10
274.6481821598078
 20
-112.0017938608883
 30
0.0
 11
274.7601538236178
 21
-112.0017938608883
 31
0.0
  0
LINE
  5
1FB
330
70
100
AcDbEntity
  8
Ebene 1
 62
    18
420
        0
370
     9
100
AcDbLine
 10
279.2236110413052
 20
-109.4277860837542
 30
0.0
 11
279.178130933128
 21
-109.4277860837542
 31
0.0
  0
LWPOLYLINE
  5
1FC
330
70
100
AcDbEntity
  8
Ebene 1
 62
    18
420
        0
370
     9
100
AcDbPolyline
 90
        7
 70
     0
 43
0.0
 10
269.7516620069507
 20
-124.9336394132111
 10
269.7451003404514
 20
-124.9276069132126
 10
269.7392442294896
 20
-124.9198458021034
 10
269.7344464518343
 20
-124.9115908021055
 10
269.7302836741627
 20
-124.9022774687746
 10
269.7275388214571
 20
-124.8915883021104
 10
269.7265089520368
 20
-124.880228857669
  0
LWPOLYLINE
  5
1FD
330
70
100
AcDbEntity
  8
Ebene 1
 62
    18
420
        0
370
     9
100
AcDbPolyline
 90
        7
 70
     0
 43
0.0
 10
268.8373325858327
 20
-121.264785803017
 10
268.829747863804
 20
-121.2584005252408
 10
268.824244530611
 20
-121.2511685807983
 10
268.81905869741
 20
-121.2429135808003
 10
268.8149311975153
 20
-121.2336002474694
 10
268.8125323086877
 20
-121.2229110808053
 10
268.8111564753894
 20
-121.2110224696972
  0
LWPOLYLINE
  5
1FE
330
70
100
AcDbEntity
  8
Ebene 1
 62
    18
420
        0
370
     9
100
AcDbPolyline
 90
        9
 70
     0
 43
0.0
 10
272.4364066606793
 20
-97.23645636457982
 10
272.4588080489967
 20
-97.20939830903116
 10
272.4798336040159
 20
-97.17994136459386
 10
272.4987777701993
 20
-97.14688608682454
 10
272.5149702697861
 20
-97.11139664238872
 10
272.5273880472471
 20
-97.07488414239779
 10
272.536666102566
 20
-97.03629025351879
 10
272.5421694357589
 20
-96.99751997575056
 10
272.5442508245947
 20
-96.95772664242722
  0
LINE
  5
1FF
330
70
100
AcDbEntity
  8
Ebene 1
 62
    18
420
        0
370
     9
100
AcDbLine
 10
272.4126647168406
 20
-97.25952803124053
 30
0.0
 11
272.4364066606793
 21
-97.23645636457982
 31
0.0
  0
LINE
  5
200
330
70
100
AcDbEntity
  8
Ebene 1
 62
    18
420
        0
370
     9
100
AcDbLine
 10
271.9013838965511
 20
-103.5578460852215
 30
0.0
 11
274.5341360424777
 21
-103.5345980296719
 31
0.0
  0
LINE
  5
201
330
70
100
AcDbEntity
  8
Ebene 1
 62
    18
420
        0
370
     9
100
AcDbLine
 10
279.2236110413052
 20
-103.707706085184
 30
0.0
 11
279.178130933128
 21
-103.707706085184
 31
0.0
  0
LINE
  5
202
330
70
100
AcDbEntity
  8
Ebene 1
 62
    18
420
        0
370
     9
100
AcDbLine
 10
274.6481821598078
 20
-103.5978158074338
 30
0.0
 11
271.9013838965511
 21
-103.5743913629953
 31
0.0
  0
LINE
  5
203
330
70
100
AcDbEntity
  8
Ebene 1
 62
    18
420
        0
370
     9
100
AcDbLine
 10
268.8800539736317
 20
-103.547862474113
 30
0.0
 11
269.6145372882268
 21
-103.5542477518892
 31
0.0
  0
LWPOLYLINE
  5
204
330
70
100
AcDbEntity
  8
Ebene 1
 62
    18
420
        0
370
     9
100
AcDbPolyline
 90
       10
 70
     0
 43
0.0
 10
269.697581174997
 20
-121.4544391363032
 10
269.6855161753048
 20
-121.4311910807532
 10
269.6703467312474
 20
-121.4082605252036
 10
269.6517553428328
 20
-121.3846596918762
 10
269.6303770100449
 20
-121.3627874696592
 10
269.6042008996016
 20
-121.3414444141091
 10
269.5745675670242
 20
-121.3226413585581
 10
269.5421825678505
 20
-121.3073308030065
 10
269.5070527104011
 20
-121.2949130252317
 10
269.4701806252429
 20
-121.2876810807892
  0
LWPOLYLINE
  5
205
330
70
100
AcDbEntity
  8
Ebene 1
 62
    18
420
        0
370
     9
100
AcDbPolyline
 90
        5
 70
     0
 43
0.0
 10
269.6145372882268
 20
-96.9112305313277
 10
269.6076581217356
 20
-96.92777580910144
 10
269.5900897888505
 20
-96.9425924757642
 10
269.5611620118107
 20
-96.95617442020546
 10
269.5235911794359
 20
-96.96601692020301
  0
LWPOLYLINE
  5
206
330
70
100
AcDbEntity
  8
Ebene 1
 62
    18
420
        0
370
     9
100
AcDbPolyline
 90
        3
 70
     0
 43
0.0
 10
271.9351447290232
 20
-96.61909525362304
 10
271.9586044506469
 20
-96.57637386474474
 10
271.9847805610902
 20
-96.53396997586668
  0
LINE
  5
207
330
70
100
AcDbEntity
  8
Ebene 1
 62
    18
420
        0
370
     9
100
AcDbLine
 10
271.9847805610902
 20
-96.53396997586668
 30
0.0
 11
272.0157897269657
 21
-96.49128386476618
 31
0.0
  0
LINE
  5
208
330
70
100
AcDbEntity
  8
Ebene 1
 62
    18
420
        0
370
     9
100
AcDbLine
 10
278.8122721525194
 20
-104.5598408071932
 30
0.0
 11
279.0534239918652
 21
-104.4363333072242
 31
0.0
  0
LINE
  5
209
330
70
100
AcDbEntity
  8
Ebene 1
 62
    18
420
        0
370
     9
100
AcDbLine
 10
279.0534239918652
 20
-104.4363333072242
 30
0.0
 11
279.178130933128
 21
-104.3726216405736
 31
0.0
  0
LWPOLYLINE
  5
20A
330
70
100
AcDbEntity
  8
Ebene 1
 62
    18
420
        0
370
     9
100
AcDbPolyline
 90
        3
 70
     0
 43
0.0
 10
269.5235911794359
 20
-96.96601692020301
 10
269.4794939583387
 20
-96.97187303131263
 10
269.432645070645
 20
-96.97427192020096
  0
LWPOLYLINE
  5
20B
330
70
100
AcDbEntity
  8
Ebene 1
 62
    18
420
        0
370
     9
100
AcDbPolyline
 90
       12
 70
     0
 43
0.0
 10
272.1325591684311
 20
-97.3701238645463
 10
272.1618397232397
 20
-97.36874803121342
 10
272.1900972225188
 20
-97.36596108676948
 10
272.2172963884915
 20
-97.36116330899314
 10
272.2424494434053
 20
-97.35513080899465
 10
272.2672849983273
 20
-97.34684053121887
 10
272.2920852754724
 20
-97.33756247566546
 10
272.3165327748487
 20
-97.32704969789054
 10
272.3403099964643
 20
-97.31325608678289
 10
272.3644047180718
 20
-97.29843942011981
 10
272.3888943763473
 20
-97.28069469790206
 10
272.4126647168406
 20
-97.25952803124053
  0
LINE
  5
20C
330
70
100
AcDbEntity
  8
Ebene 1
 62
    18
420
        0
370
     9
100
AcDbLine
 10
273.50614159829
 20
-98.5374655309212
 30
0.0
 11
271.9013838965511
 21
-98.55143553091773
 31
0.0
  0
LINE
  5
20D
330
70
100
AcDbEntity
  8
Ebene 1
 62
    18
420
        0
370
     9
100
AcDbLine
 10
273.50614159829
 20
-98.08047719770213
 30
0.0
 11
271.9013838965511
 21
-98.09391803103201
 31
0.0
  0
LINE
  5
20E
330
70
100
AcDbEntity
  8
Ebene 1
 62
    18
420
        0
370
     9
100
AcDbLine
 10
273.50614159829
 20
-98.08047719770213
 30
0.0
 11
273.7327944053835
 21
-98.08047719770213
 31
0.0
  0
LINE
  5
20F
330
70
100
AcDbEntity
  8
Ebene 1
 62
    18
420
        0
370
     9
100
AcDbLine
 10
271.9013838965511
 20
-97.3701238645463
 30
0.0
 11
272.1325591684311
 21
-97.3701238645463
 31
0.0
  0
LINE
  5
210
330
70
100
AcDbEntity
  8
Ebene 1
 62
    18
420
        0
370
     9
100
AcDbLine
 10
271.9013838965511
 20
-97.18650303125899
 30
0.0
 11
272.1308305573641
 21
-97.18650303125899
 31
0.0
  0
LINE
  5
211
330
70
100
AcDbEntity
  8
Ebene 1
 62
    18
420
        0
370
     9
100
AcDbLine
 10
279.178130933128
 20
-108.7630469172536
 30
0.0
 11
278.9321389949594
 21
-108.6371405283962
 31
0.0
  0
LINE
  5
212
330
70
100
AcDbEntity
  8
Ebene 1
 62
    18
420
        0
370
     9
100
AcDbLine
 10
278.9321389949594
 20
-108.6371405283962
 30
0.0
 11
278.8122721525194
 21
-108.5756160839672
 31
0.0
  0
LINE
  5
213
330
70
100
AcDbEntity
  8
Ebene 1
 62
    18
420
        0
370
     9
100
AcDbLine
 10
269.7943833947496
 20
-135.0799516328967
 30
0.0
 11
269.7943833947496
 21
-135.0840791328957
 31
0.0
  0
LINE
  5
214
330
70
100
AcDbEntity
  8
Ebene 1
 62
    18
420
        0
370
     9
100
AcDbLine
 10
268.6991915994917
 20
-121.2110224696972
 30
0.0
 11
268.6991915994917
 21
-112.4617102496623
 31
0.0
  0
LINE
  5
215
330
70
100
AcDbEntity
  8
Ebene 1
 62
    18
420
        0
370
     9
100
AcDbLine
 10
268.6991915994917
 20
-103.3645944186034
 30
0.0
 11
268.6991915994917
 21
-94.61471775412411
 31
0.0
  0
LINE
  5
216
330
70
100
AcDbEntity
  8
Ebene 1
 62
    18
420
        0
370
     9
100
AcDbLine
 10
268.6991915994917
 20
-112.4617102496623
 30
0.0
 11
268.6991915994917
 21
-103.3645944186034
 31
0.0
  0
LINE
  5
217
330
70
100
AcDbEntity
  8
Ebene 1
 62
    18
420
        0
370
     9
100
AcDbLine
 10
268.6991915994917
 20
-94.61471775412411
 30
0.0
 11
268.6991915994917
 21
-58.87014442972699
 31
0.0
  0
LINE
  5
218
330
70
100
AcDbEntity
  8
Ebene 1
 62
    18
420
        0
370
     9
100
AcDbLine
 10
268.8111564753894
 20
-121.2110224696972
 30
0.0
 11
268.8111564753894
 21
-112.4617102496623
 31
0.0
  0
LINE
  5
219
330
70
100
AcDbEntity
  8
Ebene 1
 62
    18
420
        0
370
     9
100
AcDbLine
 10
269.7943833947496
 20
-78.97089303581296
 30
0.0
 11
269.7943833947496
 21
-78.96676553581399
 31
0.0
  0
LWPOLYLINE
  5
21A
330
70
100
AcDbEntity
  8
Ebene 1
 62
    18
420
        0
370
     9
100
AcDbPolyline
 90
        5
 70
     0
 43
0.0
 10
272.9345994257471
 20
-91.50173608823569
 10
272.9325249317667
 20
-91.50949719934484
 10
272.9266619259496
 20
-91.53119303267265
 10
272.9170027095484
 20
-91.56615331044184
 10
272.9032443762189
 20
-91.61162636598591
  0
LINE
  5
21B
330
70
100
AcDbEntity
  8
Ebene 1
 62
    18
420
        0
370
     9
100
AcDbLine
 10
272.9032443762189
 20
-91.61162636598591
 30
0.0
 11
272.8704997051602
 21
-91.72084636595879
 31
0.0
  0
LWPOLYLINE
  5
21C
330
70
100
AcDbEntity
  8
Ebene 1
 62
    18
420
        0
370
     9
100
AcDbPolyline
 90
        7
 70
     0
 43
0.0
 10
268.82629064167
 20
-112.4193063607839
 10
268.8324995304004
 20
-112.4120744163414
 10
268.8397314746604
 20
-112.4062183052318
 10
268.8480217522267
 20
-112.4010677496774
 10
268.8572998075455
 20
-112.3969402496784
 10
268.8676361961707
 20
-112.3945060830126
 10
268.8790309181022
 20
-112.3931302496794
  0
LWPOLYLINE
  5
21D
330
70
100
AcDbEntity
  8
Ebene 1
 62
    18
420
        0
370
     9
100
AcDbPolyline
 90
       10
 70
     0
 43
0.0
 10
274.5617163286804
 20
-112.312873305255
 10
274.580307717095
 20
-112.3035599719241
 10
274.5996046610471
 20
-112.2922005274826
 10
274.6192191049912
 20
-112.279288860819
 10
274.6388688267121
 20
-112.2639430274896
 10
274.6581657706642
 20
-112.2457044163831
 10
274.6771099368475
 20
-112.2255255274992
 10
274.6953838252703
 20
-112.202630249727
 10
274.7122466026178
 20
-112.1759249719561
 10
274.727768824444
 20
-112.1464680275188
  0
LINE
  5
21E
330
70
100
AcDbEntity
  8
Ebene 1
 62
    18
420
        0
370
     9
100
AcDbLine
 10
274.5437952180265
 20
-112.3206344163641
 30
0.0
 11
274.5617163286804
 21
-112.312873305255
 31
0.0
  0
LINE
  5
21F
330
70
100
AcDbEntity
  8
Ebene 1
 62
    18
420
        0
370
     9
100
AcDbLine
 10
274.6481821598078
 20
-96.69762358693677
 30
0.0
 11
273.8458244024999
 21
-96.70450275360153
 31
0.0
  0
LINE
  5
220
330
70
100
AcDbEntity
  8
Ebene 1
 62
    18
420
        0
370
     9
100
AcDbLine
 10
272.3599244404084
 20
-96.71692053137627
 30
0.0
 11
272.0157897269657
 21
-96.71967219804237
 31
0.0
  0
LINE
  5
221
330
70
100
AcDbEntity
  8
Ebene 1
 62
    18
420
        0
370
     9
100
AcDbLine
 10
274.6481821598078
 20
-96.46888247588284
 30
0.0
 11
273.827903291846
 21
-96.47611442032534
 31
0.0
  0
LINE
  5
222
330
70
100
AcDbEntity
  8
Ebene 1
 62
    18
420
        0
370
     9
100
AcDbLine
 10
272.3599244404084
 20
-96.48849692032227
 30
0.0
 11
272.0157897269657
 21
-96.49128386476618
 31
0.0
  0
LINE
  5
223
330
70
100
AcDbEntity
  8
Ebene 1
 62
    18
420
        0
370
     9
100
AcDbLine
 10
271.9013838965511
 20
-96.03426025376927
 30
0.0
 11
274.6481821598078
 21
-96.01069469821943
 31
0.0
  0
LINE
  5
224
330
70
100
AcDbEntity
  8
Ebene 1
 62
    18
420
        0
370
     9
100
AcDbLine
 10
272.9625110428706
 20
-95.79673497605075
 30
0.0
 11
274.647829382039
 21
-95.78209469827685
 31
0.0
  0
LINE
  5
225
330
70
100
AcDbEntity
  8
Ebene 1
 62
    18
420
        0
370
     9
100
AcDbLine
 10
271.9013838965511
 20
-95.80587192049309
 30
0.0
 11
272.8984044266705
 21
-95.7975816427173
 31
0.0
  0
LINE
  5
226
330
70
100
AcDbEntity
  8
Ebene 1
 62
    18
420
        0
370
     9
100
AcDbLine
 10
269.432645070645
 20
-94.42696942083783
 30
0.0
 11
268.8800539736317
 21
-94.43229636528082
 31
0.0
  0
LINE
  5
227
330
70
100
AcDbEntity
  8
Ebene 1
 62
    18
420
        0
370
     9
100
AcDbLine
 10
272.8984044266705
 20
-95.7975816427173
 30
0.0
 11
272.9625110428706
 21
-95.79673497605075
 31
0.0
  0
LINE
  5
228
330
70
100
AcDbEntity
  8
Ebene 1
 62
    18
420
        0
370
     9
100
AcDbLine
 10
272.3599244404084
 20
-96.95772664242722
 30
0.0
 11
272.5442508245947
 21
-96.95772664242722
 31
0.0
  0
LINE
  5
229
330
70
100
AcDbEntity
  8
Ebene 1
 62
    18
420
        0
370
     9
100
AcDbLine
 10
272.9625110428706
 20
-95.14441358732513
 30
0.0
 11
272.8984044266705
 21
-95.14388442065849
 31
0.0
  0
LINE
  5
22A
330
70
100
AcDbEntity
  8
Ebene 1
 62
    18
420
        0
370
     9
100
AcDbLine
 10
272.8984044266705
 20
-95.14388442065849
 30
0.0
 11
271.9013838965511
 21
-95.13510025399389
 31
0.0
  0
LINE
  5
22B
330
70
100
AcDbEntity
  8
Ebene 1
 62
    18
420
        0
370
     9
100
AcDbLine
 10
274.6481821598078
 20
-95.15905386509903
 30
0.0
 11
272.9625110428706
 21
-95.14441358732513
 31
0.0
  0
LINE
  5
22C
330
70
100
AcDbEntity
  8
Ebene 1
 62
    18
420
        0
370
     9
100
AcDbLine
 10
274.6481821598078
 20
-94.930630254045
 30
0.0
 11
271.9013838965511
 21
-94.90653553182884
 31
0.0
  0
LINE
  5
22D
330
70
100
AcDbEntity
  8
Ebene 1
 62
    18
420
        0
370
     9
100
AcDbLine
 10
271.9013838965511
 20
-94.67811192077482
 30
0.0
 11
274.6481821598078
 21
-94.70206553187994
 31
0.0
  0
LWPOLYLINE
  5
22E
330
70
100
AcDbEntity
  8
Ebene 1
 62
    18
420
        0
370
     9
100
AcDbPolyline
 90
        5
 70
     0
 43
0.0
 10
272.1287844463052
 20
-96.76066497580972
 10
272.0702233366881
 20
-96.75689025358849
 10
272.0157897269657
 20
-96.74828247581279
 10
271.9682352837345
 20
-96.73395969803882
 10
271.9661538948987
 20
-96.73293664248339
  0
LWPOLYLINE
  5
22F
330
70
100
AcDbEntity
  8
Ebene 1
 62
    18
420
        0
370
     9
100
AcDbPolyline
 90
       11
 70
     0
 43
0.0
 10
274.736729379771
 20
-125.206830524254
 10
274.7284391022047
 20
-125.1885566353696
 10
274.7188082691171
 20
-125.1696124687075
 10
274.7077663249543
 20
-125.150315524268
 10
274.6946782697327
 20
-125.1307010798286
 10
274.6791913256834
 20
-125.1105221909446
 10
274.6609174372606
 20
-125.0910841353938
 10
274.6402446600103
 20
-125.0722810798431
 10
274.6171729939322
 20
-125.0538660798476
 10
274.5913143834808
 20
-125.0369680242962
 10
274.5617163286804
 20
-125.0214810798557
  0
LWPOLYLINE
  5
230
330
70
100
AcDbEntity
  8
Ebene 1
 62
    18
420
        0
370
     9
100
AcDbPolyline
 90
        7
 70
     0
 43
0.0
 10
268.8800539736317
 20
-121.3948196918737
 10
268.8793484180941
 20
-121.3906921918744
 10
268.8793484180941
 20
-121.3786271918777
 10
268.8790309181022
 20
-121.3610588585485
 10
268.8790309181022
 20
-121.3369641363323
 10
268.8790309181022
 20
-121.3097296918948
 10
268.8790309181022
 20
-121.280096358569
  0
LWPOLYLINE
  5
231
330
70
100
AcDbEntity
  8
Ebene 1
 62
    18
420
        0
370
     9
100
AcDbPolyline
 90
        7
 70
     0
 43
0.0
 10
269.7957592280479
 20
-125.0634969131785
 10
269.7947361725184
 20
-125.0593694131795
 10
269.7943833947496
 20
-125.048009968738
 10
269.7943833947496
 20
-125.0297360798536
 10
269.7943833947496
 20
-125.0061352465263
 10
269.7943833947496
 20
-124.9782305243111
 10
269.7943833947496
 20
-124.9487735798737
  0
LWPOLYLINE
  5
232
330
70
100
AcDbEntity
  8
Ebene 1
 62
    18
420
        0
370
     9
100
AcDbPolyline
 90
        7
 70
     0
 43
0.0
 10
269.432645070645
 20
-121.3992999696501
 10
269.432645070645
 20
-121.3951724696511
 10
269.4319395151075
 20
-121.3841658029874
 10
269.4319395151075
 20
-121.365891914103
 10
269.430916459578
 20
-121.3421146918868
 10
269.4319395151075
 20
-121.3143863585604
 10
269.4319395151075
 20
-121.2849294141231
  0
LWPOLYLINE
  5
233
330
70
100
AcDbEntity
  8
Ebene 1
 62
    18
420
        0
370
     9
100
AcDbPolyline
 90
        7
 70
     0
 43
0.0
 10
269.7265089520368
 20
-121.5826033029378
 10
269.726156174268
 20
-121.5629535807205
 10
269.7241100632091
 20
-121.5428099696144
 10
269.7199472855376
 20
-121.5216080251751
 10
269.7144439523446
 20
-121.4999121918473
 10
269.7075647858534
 20
-121.4775108029639
 10
269.697581174997
 20
-121.4544391363032
  0
LWPOLYLINE
  5
234
330
70
100
AcDbEntity
  8
Ebene 1
 62
    18
420
        0
370
     9
100
AcDbPolyline
 90
        5
 70
     0
 43
0.0
 10
269.7957592280479
 20
-79.08131248022953
 10
269.7943833947496
 20
-79.02395081357731
 10
269.7943833947496
 20
-79.00052636913883
 10
269.7943833947496
 20
-78.98207609136557
 10
269.7943833947496
 20
-78.97089303581296
  0
LINE
  5
235
330
70
100
AcDbEntity
  8
Ebene 1
 62
    18
420
        0
370
     9
100
AcDbLine
 10
271.6757472356409
 20
-125.0800421909522
 30
0.0
 11
271.6761000134097
 21
-125.0898494131719
 31
0.0
  0
LINE
  5
236
330
70
100
AcDbEntity
  8
Ebene 1
 62
    18
420
        0
370
     9
100
AcDbLine
 10
272.0150841714282
 20
-96.71519192026563
 30
0.0
 11
272.0150841714282
 21
-96.70866553137834
 31
0.0
  0
LWPOLYLINE
  5
237
330
70
100
AcDbEntity
  8
Ebene 1
 62
    18
420
        0
370
     9
100
AcDbPolyline
 90
        9
 70
     0
 43
0.0
 10
270.9856786421349
 20
-125.5311744130617
 10
270.9850083643743
 20
-125.441780524195
 10
270.9843028088367
 20
-125.3563377464387
 10
270.9843028088367
 20
-125.2771038575697
 10
270.983632531076
 20
-125.2075008020313
 10
270.9843028088367
 20
-125.1508446909346
 10
270.9843028088367
 20
-125.1082996909452
 10
270.9850083643743
 20
-125.0824763576184
 10
270.9856786421349
 20
-125.073339413176
  0
LINE
  5
238
330
70
100
AcDbEntity
  8
Ebene 1
 62
    18
420
        0
370
     9
100
AcDbLine
 10
272.0150841714282
 20
-96.70866553137834
 30
0.0
 11
272.0150841714282
 21
-96.69212025360492
 31
0.0
  0
LWPOLYLINE
  5
239
330
70
100
AcDbEntity
  8
Ebene 1
 62
    18
420
        0
370
     9
100
AcDbPolyline
 90
        3
 70
     0
 43
0.0
 10
272.1322063906624
 20
-97.24023108680103
 10
272.1325591684311
 20
-97.32204025344717
 10
272.1325591684311
 20
-97.3701238645463
  0
LINE
  5
23A
330
70
100
AcDbEntity
  8
Ebene 1
 62
    18
420
        0
370
     9
100
AcDbLine
 10
271.6761000134097
 20
-125.0898494131719
 30
0.0
 11
271.6761000134097
 21
-125.1549721909336
 31
0.0
  0
LINE
  5
23B
330
70
100
AcDbEntity
  8
Ebene 1
 62
    18
420
        0
370
     9
100
AcDbLine
 10
269.7957592280479
 20
-125.5210144130642
 30
0.0
 11
269.7947361725184
 21
-125.3131224686719
 31
0.0
  0
LINE
  5
23C
330
70
100
AcDbEntity
  8
Ebene 1
 62
    18
420
        0
370
     9
100
AcDbLine
 10
269.7947361725184
 20
-125.3131224686719
 30
0.0
 11
269.7947361725184
 21
-125.1973408020338
 31
0.0
  0
LINE
  5
23D
330
70
100
AcDbEntity
  8
Ebene 1
 62
    18
420
        0
370
     9
100
AcDbLine
 10
268.8800539736317
 20
-103.547862474113
 30
0.0
 11
268.8800539736317
 21
-94.43229636528082
 31
0.0
  0
LINE
  5
23E
330
70
100
AcDbEntity
  8
Ebene 1
 62
    18
420
        0
370
     9
100
AcDbLine
 10
269.432645070645
 20
-94.42696942083783
 30
0.0
 11
269.432645070645
 21
-96.97494219797865
 31
0.0
  0
LINE
  5
23F
330
70
100
AcDbEntity
  8
Ebene 1
 62
    18
420
        0
370
     9
100
AcDbLine
 10
269.6145372882268
 20
-134.9683327440358
 30
0.0
 11
269.6145372882268
 21
-121.5826033029378
 31
0.0
  0
LINE
  5
240
330
70
100
AcDbEntity
  8
Ebene 1
 62
    18
420
        0
370
     9
100
AcDbLine
 10
269.6145372882268
 20
-112.2722333052654
 30
0.0
 11
269.6145372882268
 21
-79.08251192467385
 31
0.0
  0
LINE
  5
241
330
70
100
AcDbEntity
  8
Ebene 1
 62
    18
420
        0
370
     9
100
AcDbLine
 10
269.7265089520368
 20
-124.880228857669
 30
0.0
 11
269.7265089520368
 21
-121.5826033029378
 31
0.0
  0
LINE
  5
242
330
70
100
AcDbEntity
  8
Ebene 1
 62
    18
420
        0
370
     9
100
AcDbLine
 10
269.7957592280479
 20
-134.9693557995909
 30
0.0
 11
269.7957592280479
 21
-125.5210144130642
 31
0.0
  0
LINE
  5
243
330
70
100
AcDbEntity
  8
Ebene 1
 62
    18
420
        0
370
     9
100
AcDbLine
 10
269.7957592280479
 20
-112.2709985830432
 30
0.0
 11
269.7957592280479
 21
-79.08131248022953
 31
0.0
  0
LINE
  5
244
330
70
100
AcDbEntity
  8
Ebene 1
 62
    18
420
        0
370
     9
100
AcDbLine
 10
270.5288667093447
 20
-132.6492774668378
 30
0.0
 11
270.5288667093447
 21
-130.3359019118606
 31
0.0
  0
LINE
  5
245
330
70
100
AcDbEntity
  8
Ebene 1
 62
    18
420
        0
370
     9
100
AcDbLine
 10
270.9712147536151
 20
-132.6534049668368
 30
0.0
 11
270.9712147536151
 21
-129.8947533008597
 31
0.0
  0
LINE
  5
246
330
70
100
AcDbEntity
  8
Ebene 1
 62
    18
420
        0
370
     9
100
AcDbLine
 10
270.9870544754332
 20
-134.9900285773636
 30
0.0
 11
270.9870544754332
 21
-132.8821460778907
 31
0.0
  0
LINE
  5
247
330
70
100
AcDbEntity
  8
Ebene 1
 62
    18
420
        0
370
     9
100
AcDbLine
 10
270.9870544754332
 20
-129.8790546897525
 30
0.0
 11
270.9870544754332
 21
-125.5311744130617
 31
0.0
  0
LINE
  5
248
330
70
100
AcDbEntity
  8
Ebene 1
 62
    18
420
        0
370
     9
100
AcDbLine
 10
270.9870544754332
 20
-112.2605210830458
 30
0.0
 11
270.9870544754332
 21
-80.02612192443786
 31
0.0
  0
LINE
  5
249
330
70
100
AcDbEntity
  8
Ebene 1
 62
    18
420
        0
370
     9
100
AcDbLine
 10
271.4445719637609
 20
-131.6692960781939
 30
0.0
 11
271.4445719637609
 21
-129.8790546897525
 31
0.0
  0
LINE
  5
24A
330
70
100
AcDbEntity
  8
Ebene 1
 62
    18
420
        0
370
     9
100
AcDbLine
 10
271.6753944578721
 20
-80.20321636883819
 30
0.0
 11
271.6753944578721
 21
-112.2544885830473
 31
0.0
  0
LINE
  5
24B
330
70
100
AcDbEntity
  8
Ebene 1
 62
    18
420
        0
370
     9
100
AcDbLine
 10
271.6753944578721
 20
-125.5251419130632
 30
0.0
 11
271.6753944578721
 21
-131.6712010781934
 31
0.0
  0
LINE
  5
24C
330
70
100
AcDbEntity
  8
Ebene 1
 62
    18
420
        0
370
     9
100
AcDbLine
 10
271.6753944578721
 20
-132.89385830011
 30
0.0
 11
271.6753944578721
 21
-133.8474871887604
 31
0.0
  0
LINE
  5
24D
330
70
100
AcDbEntity
  8
Ebene 1
 62
    18
420
        0
370
     9
100
AcDbLine
 10
271.9013838965511
 20
-80.199582757728
 30
0.0
 11
271.9013838965511
 21
-112.2525835830478
 31
0.0
  0
LINE
  5
24E
330
70
100
AcDbEntity
  8
Ebene 1
 62
    18
420
        0
370
     9
100
AcDbLine
 10
271.9013838965511
 20
-125.081594413174
 30
0.0
 11
271.9013838965511
 21
-131.6725769115263
 31
0.0
  0
LINE
  5
24F
330
70
100
AcDbEntity
  8
Ebene 1
 62
    18
420
        0
370
     9
100
AcDbLine
 10
271.9013838965511
 20
-132.8980210778865
 30
0.0
 11
271.9013838965511
 21
-133.8510855220927
 31
0.0
  0
LINE
  5
250
330
70
100
AcDbEntity
  8
Ebene 1
 62
    18
420
        0
370
     9
100
AcDbLine
 10
272.1287844463052
 20
-90.98738608836439
 30
0.0
 11
272.1287844463052
 21
-91.47383136602046
 31
0.0
  0
LINE
  5
251
330
70
100
AcDbEntity
  8
Ebene 1
 62
    18
420
        0
370
     9
100
AcDbLine
 10
272.1287844463052
 20
-96.76066497580972
 30
0.0
 11
272.1287844463052
 21
-96.71931942026461
 31
0.0
  0
LINE
  5
252
330
70
100
AcDbEntity
  8
Ebene 1
 62
    18
420
        0
370
     9
100
AcDbLine
 10
271.6761000134097
 20
-125.1549721909336
 30
0.0
 11
271.6761000134097
 21
-125.2560783020193
 31
0.0
  0
LINE
  5
253
330
70
100
AcDbEntity
  8
Ebene 1
 62
    18
420
        0
370
     9
100
AcDbLine
 10
272.0150841714282
 20
-96.69212025360492
 30
0.0
 11
272.0150841714282
 21
-96.62322275362202
 31
0.0
  0
LWPOLYLINE
  5
254
330
70
100
AcDbEntity
  8
Ebene 1
 62
    18
420
        0
370
     9
100
AcDbPolyline
 90
        5
 70
     0
 43
0.0
 10
269.7947361725184
 20
-125.1973408020338
 10
269.7947361725184
 20
-125.1131327464994
 10
269.7947361725184
 20
-125.085721913173
 10
269.7947361725184
 20
-125.0686827465107
 10
269.7957592280479
 20
-125.0634969131785
  0
LINE
  5
255
330
70
100
AcDbEntity
  8
Ebene 1
 62
    18
420
        0
370
     9
100
AcDbLine
 10
271.6761000134097
 20
-125.2560783020193
 30
0.0
 11
271.6761000134097
 21
-125.3833958019873
 31
0.0
  0
LWPOLYLINE
  5
256
330
70
100
AcDbEntity
  8
Ebene 1
 62
    18
420
        0
370
     9
100
AcDbPolyline
 90
        3
 70
     0
 43
0.0
 10
272.0150841714282
 20
-96.62322275362202
 10
272.0157897269657
 20
-96.51608414253757
 10
272.0157897269657
 20
-96.49128386476618
  0
LINE
  5
257
330
70
100
AcDbEntity
  8
Ebene 1
 62
    18
420
        0
370
     9
100
AcDbLine
 10
271.6761000134097
 20
-125.3833958019873
 30
0.0
 11
271.6753944578721
 21
-125.5251419130632
 31
0.0
  0
LWPOLYLINE
  5
258
330
70
100
AcDbEntity
  8
Ebene 1
 62
    18
420
        0
370
     9
100
AcDbPolyline
 90
        3
 70
     0
 43
0.0
 10
269.7943833947496
 20
-135.0504946884597
 10
269.7943833947496
 20
-135.0685921884552
 10
269.7943833947496
 20
-135.0799516328967
  0
LWPOLYLINE
  5
259
330
70
100
AcDbEntity
  8
Ebene 1
 62
    18
420
        0
370
     9
100
AcDbPolyline
 90
        7
 70
     0
 43
0.0
 10
270.9712147536151
 20
-132.6534049668368
 10
270.9698389203168
 20
-132.7121424668219
 10
270.9698389203168
 20
-132.767422744586
 10
270.9705444758544
 20
-132.8146244112407
 10
270.9719203091526
 20
-132.8514896890094
 10
270.972943364682
 20
-132.8744202445591
 10
270.974671975749
 20
-132.8821460778907
  0
LWPOLYLINE
  5
25A
330
70
100
AcDbEntity
  8
Ebene 1
 62
    18
420
        0
370
     9
100
AcDbPolyline
 90
        3
 70
     0
 43
0.0
 10
269.7957592280479
 20
-134.9693557995909
 10
269.7947361725184
 20
-134.9991655218057
 10
269.7943833947496
 20
-135.0504946884597
  0
LINE
  5
25B
330
70
100
AcDbEntity
  8
Ebene 1
 62
    18
420
        0
370
     9
100
AcDbLine
 10
272.127408613007
 20
-96.84335608690025
 30
0.0
 11
272.1287844463052
 21
-96.76066497580972
 31
0.0
  0
LINE
  5
25C
330
70
100
AcDbEntity
  8
Ebene 1
 62
    18
420
        0
370
     9
100
AcDbLine
 10
270.9870544754332
 20
-134.9900285773636
 30
0.0
 11
270.9863841976725
 21
-135.0473902440159
 31
0.0
  0
LWPOLYLINE
  5
25D
330
70
100
AcDbEntity
  8
Ebene 1
 62
    18
420
        0
370
     9
100
AcDbPolyline
 90
        4
 70
     0
 43
0.0
 10
270.9863841976725
 20
-135.0473902440159
 10
270.985361142143
 20
-135.0892649662276
 10
270.985361142143
 20
-135.1006244106694
 10
270.9850083643743
 20
-135.1047519106684
  0
LWPOLYLINE
  5
25E
330
70
100
AcDbEntity
  8
Ebene 1
 62
    18
420
        0
370
     9
100
AcDbPolyline
 90
        7
 70
     0
 43
0.0
 10
268.8111564753894
 20
-112.4617102496623
 10
268.8118267531501
 20
-112.4551485829972
 10
268.8128850864564
 20
-112.4482694163324
 10
268.8149311975153
 20
-112.4405083052233
 10
268.8173721550181
 20
-112.4332763607805
 10
268.8211400862458
 20
-112.4262208052268
 10
268.82629064167
 20
-112.4193063607839
  0
LINE
  5
25F
330
70
100
AcDbEntity
  8
Ebene 1
 62
    18
420
        0
370
     9
100
AcDbLine
 10
272.1232527097468
 20
-96.93017469798975
 30
0.0
 11
272.127408613007
 21
-96.84335608690025
 31
0.0
  0
LINE
  5
260
330
70
100
AcDbEntity
  8
Ebene 1
 62
    18
420
        0
370
     9
100
AcDbLine
 10
272.8984044266705
 20
-96.01824414266218
 30
0.0
 11
272.8984044266705
 21
-96.02600525377132
 31
0.0
  0
LWPOLYLINE
  5
261
330
70
100
AcDbEntity
  8
Ebene 1
 62
    18
420
        0
370
     9
100
AcDbPolyline
 90
        3
 70
     0
 43
0.0
 10
272.1067358357566
 20
-97.11654719794315
 10
272.1160138910755
 20
-97.0214735868557
 10
272.1232527097468
 20
-96.93017469798975
  0
LWPOLYLINE
  5
262
330
70
100
AcDbEntity
  8
Ebene 1
 62
    18
420
        0
370
     9
100
AcDbPolyline
 90
        4
 70
     0
 43
0.0
 10
271.9013838965511
 20
-96.74637747581359
 10
271.9062169519834
 20
-96.70450275360153
 10
271.9172588961461
 20
-96.66181664250137
 10
271.9351447290232
 20
-96.61909525362304
  0
LWPOLYLINE
  5
263
330
70
100
AcDbEntity
  8
Ebene 1
 62
    18
420
        0
370
     9
100
AcDbPolyline
 90
        7
 70
     0
 43
0.0
 10
268.8800539736317
 20
-112.279288860819
 10
268.8793484180941
 20
-112.2828871941514
 10
268.8793484180941
 20
-112.2939291385932
 10
268.8790309181022
 20
-112.3123441385887
 10
268.8790309181022
 20
-112.335944971916
 10
268.8790309181022
 20
-112.3638496941312
 10
268.8790309181022
 20
-112.3931302496794
  0
LINE
  5
264
330
70
100
AcDbEntity
  8
Ebene 1
 62
    18
420
        0
370
     9
100
AcDbLine
 10
272.0977752804296
 20
-97.18650303125899
 30
0.0
 11
272.1067358357566
 21
-97.11654719794315
 31
0.0
  0
LWPOLYLINE
  5
265
330
70
100
AcDbEntity
  8
Ebene 1
 62
    18
420
        0
370
     9
100
AcDbPolyline
 90
        7
 70
     0
 43
0.0
 10
273.50614159829
 20
-98.5374655309212
 10
273.50614159829
 20
-98.53661886425463
 10
273.50614159829
 20
-98.5343963642552
 10
273.50614159829
 20
-98.53023358647869
 10
273.50614159829
 20
-98.52508303092427
 10
273.50614159829
 20
-98.51732191981513
 10
273.5068049667045
 20
-98.4961552531536
  0
LINE
  5
266
330
70
100
AcDbEntity
  8
Ebene 1
 62
    18
420
        0
370
     9
100
AcDbLine
 10
271.9013838965511
 20
-90.74880247731291
 30
0.0
 11
272.3599244404084
 21
-90.74693275509089
 31
0.0
  0
LINE
  5
267
330
70
100
AcDbEntity
  8
Ebene 1
 62
    18
420
        0
370
     9
100
AcDbLine
 10
273.7327944053835
 20
-90.74054747731496
 30
0.0
 11
274.4204641100618
 21
-90.73761942175998
 31
0.0
  0
LINE
  5
268
330
70
100
AcDbEntity
  8
Ebene 1
 62
    18
420
        0
370
     9
100
AcDbLine
 10
271.9013838965511
 20
-90.98738608836439
 30
0.0
 11
272.1287844463052
 21
-90.98738608836439
 31
0.0
  0
LINE
  5
269
330
70
100
AcDbEntity
  8
Ebene 1
 62
    18
420
        0
370
     9
100
AcDbLine
 10
271.9013838965511
 20
-91.70363081040736
 30
0.0
 11
272.8067527623421
 21
-91.71121553262763
 31
0.0
  0
LINE
  5
26A
330
70
100
AcDbEntity
  8
Ebene 1
 62
    18
420
        0
370
     9
100
AcDbLine
 10
271.9013838965511
 20
-91.47453692157567
 30
0.0
 11
272.8067527623421
 21
-91.48208636601841
 31
0.0
  0
LWPOLYLINE
  5
26B
330
70
100
AcDbEntity
  8
Ebene 1
 62
    18
420
        0
370
     9
100
AcDbPolyline
 90
        7
 70
     0
 43
0.0
 10
272.8067527623421
 20
-91.71121553262763
 10
272.8185002620425
 20
-91.71188581040532
 10
272.8281310951301
 20
-91.71259136596082
 10
272.8391377615159
 20
-91.71361442151596
 10
272.8494741501411
 20
-91.7153430326266
 10
272.8601633165351
 20
-91.71774192151493
 10
272.8704997051602
 20
-91.72084636595879
  0
LINE
  5
26C
330
70
100
AcDbEntity
  8
Ebene 1
 62
    18
420
        0
370
     9
100
AcDbLine
 10
269.6145372882268
 20
-98.23760441988492
 30
0.0
 11
269.585609511187
 21
-98.10700608658446
 31
0.0
  0
LINE
  5
26D
330
70
100
AcDbEntity
  8
Ebene 1
 62
    18
420
        0
370
     9
100
AcDbLine
 10
269.585609511187
 20
-98.10700608658446
 30
0.0
 11
269.5587278452062
 21
-97.98127608661568
 31
0.0
  0
LINE
  5
26E
330
70
100
AcDbEntity
  8
Ebene 1
 62
    18
420
        0
370
     9
100
AcDbLine
 10
269.5587278452062
 20
-97.98127608661568
 30
0.0
 11
269.5353034013593
 21
-97.86136691997903
 31
0.0
  0
LWPOLYLINE
  5
26F
330
70
100
AcDbEntity
  8
Ebene 1
 62
    18
420
        0
370
     9
100
AcDbPolyline
 90
        3
 70
     0
 43
0.0
 10
269.5353034013593
 20
-97.86136691997903
 10
269.5136075685795
 20
-97.74597330889692
 10
269.4950161801649
 20
-97.63520108670228
  0
LINE
  5
270
330
70
100
AcDbEntity
  8
Ebene 1
 62
    18
420
        0
370
     9
100
AcDbLine
 10
269.4950161801649
 20
-97.63520108670228
 30
0.0
 11
269.4784777104082
 21
-97.52876803117334
 31
0.0
  0
LWPOLYLINE
  5
271
330
70
100
AcDbEntity
  8
Ebene 1
 62
    18
420
        0
370
     9
100
AcDbPolyline
 90
        7
 70
     0
 43
0.0
 10
269.4784777104082
 20
-97.52876803117334
 10
269.4650300698188
 20
-97.42660358675443
 10
269.4536706256641
 20
-97.3287783090012
 10
269.4443572925684
 20
-97.23472775346918
 10
269.4374781260773
 20
-97.1437816423807
 10
269.4333221548638
 20
-97.05763330906886
 10
269.432645070645
 20
-96.97494219797865
  0
LWPOLYLINE
  5
272
330
70
100
AcDbEntity
  8
Ebene 1
 62
    18
420
        0
370
     9
100
AcDbPolyline
 90
        7
 70
     0
 43
0.0
 10
274.4207816100537
 20
-125.1034666353907
 10
274.4207816100537
 20
-125.1000446909473
 10
274.4204641100618
 20
-125.088332468728
 10
274.4204641100618
 20
-125.0704113576214
 10
274.4197585545243
 20
-125.0462813576274
 10
274.4197585545243
 20
-125.018553024301
 10
274.4204641100618
 20
-124.9890960798637
  0
LWPOLYLINE
  5
273
330
70
100
AcDbEntity
  8
Ebene 1
 62
    18
420
        0
370
     9
100
AcDbPolyline
 90
       16
 70
     0
 43
0.0
 10
279.45029898174
 20
-143.8375541307073
 10
279.4489231484418
 20
-143.8174105196013
 10
279.4448027079167
 20
-143.7967377418285
 10
279.437881204279
 20
-143.7765941307224
 10
279.4302964822504
 20
-143.757297186283
 10
279.4220414824609
 20
-143.7383530196209
 10
279.4127281493652
 20
-143.7200791307365
 10
279.4034500940464
 20
-143.7021580196299
 10
279.3931137054212
 20
-143.685648019634
 10
279.3834475945567
 20
-143.6691027418605
 10
279.373816761469
 20
-143.6549563529752
 10
279.3652089839109
 20
-143.6415507974228
 10
279.3559027079388
 20
-143.6301560752035
 10
279.349016484324
 20
-143.6208780196504
 10
279.3428075955934
 20
-143.6137871863186
 10
279.3393503734595
 20
-143.6096596863199
  0
LWPOLYLINE
  5
274
330
70
100
AcDbEntity
  8
Ebene 1
 62
    18
420
        0
370
     9
100
AcDbPolyline
 90
        4
 70
     0
 43
0.0
 10
272.1308305573641
 20
-97.18650303125899
 10
272.1315361129017
 20
-97.19285303125744
 10
272.1322063906624
 20
-97.21130330903037
 10
272.1322063906624
 20
-97.24023108680103
  0
LINE
  5
275
330
70
100
AcDbEntity
  8
Ebene 1
 62
    18
420
        0
370
     9
100
AcDbLine
 10
272.8984044266705
 20
-94.92304553182473
 30
0.0
 11
272.8984044266705
 21
-94.91514330960454
 31
0.0
  0
LWPOLYLINE
  5
276
330
70
100
AcDbEntity
  8
Ebene 1
 62
    18
420
        0
370
     9
100
AcDbPolyline
 90
        6
 70
     0
 43
0.0
 10
272.8067527623421
 20
-91.48208636601841
 10
272.8074583178797
 20
-91.4903766437942
 10
272.8074583178797
 20
-91.51277803267724
 10
272.8074583178797
 20
-91.54960803266808
 10
272.8074583178797
 20
-91.59680969932315
 10
272.8074583178797
 20
-91.65230164375365
  0
LWPOLYLINE
  5
277
330
70
100
AcDbEntity
  8
Ebene 1
 62
    18
420
        0
370
     9
100
AcDbPolyline
 90
        3
 70
     0
 43
0.0
 10
274.7601538236178
 20
-135.1708977439852
 10
274.759801045849
 20
-135.1648652439867
 10
274.759801045849
 20
-135.1483552439908
  0
LINE
  5
278
330
70
100
AcDbEntity
  8
Ebene 1
 62
    18
420
        0
370
     9
100
AcDbLine
 10
274.6250752159529
 20
-130.3806694118491
 30
0.0
 11
274.6168202161634
 21
-130.1522458007951
 31
0.0
  0
LWPOLYLINE
  5
279
330
70
100
AcDbEntity
  8
Ebene 1
 62
    18
420
        0
370
     9
100
AcDbPolyline
 90
        7
 70
     0
 43
0.0
 10
273.8285804870985
 20
-96.52211664253606
 10
273.8292860426541
 20
-96.56758969808047
 10
273.8316780139719
 20
-96.60942914251437
 10
273.8334066250389
 20
-96.64491858694987
 10
273.8361582916354
 20
-96.67197664249883
 10
273.8399682915382
 20
-96.6907444202717
 10
273.8423671803658
 20
-96.70090442026918
  0
LWPOLYLINE
  5
27A
330
70
100
AcDbEntity
  8
Ebene 1
 62
    18
420
        0
370
     9
100
AcDbPolyline
 90
        9
 70
     0
 43
0.0
 10
274.7601538236178
 20
-125.3327369131113
 10
274.759801045849
 20
-125.3184494131148
 10
274.7594482680803
 20
-125.3043383020073
 10
274.7573668792445
 20
-125.2901919131219
 10
274.7553277090892
 20
-125.2748813575703
 10
274.7518635460515
 20
-125.2588652464632
 10
274.7477360461568
 20
-125.2423199686894
 10
274.7429029907246
 20
-125.2252455242491
 10
274.736729379771
 20
-125.206830524254
  0
LWPOLYLINE
  5
27B
330
70
100
AcDbEntity
  8
Ebene 1
 62
    18
420
        0
370
     9
100
AcDbPolyline
 90
        6
 70
     0
 43
0.0
 10
274.4207816100537
 20
-79.00052636913883
 10
274.4204641100618
 20
-78.94383498026399
 10
274.4204641100618
 20
-78.91956386915895
 10
274.4197585545243
 20
-78.90164275805232
 10
274.4197585545243
 20
-78.89010692472196
 10
274.4204641100618
 20
-78.88647331361179
  0
LWPOLYLINE
  5
27C
330
70
100
AcDbEntity
  8
Ebene 1
 62
    18
420
        0
370
     9
100
AcDbPolyline
 90
        7
 70
     0
 43
0.0
 10
272.9625110428706
 20
-95.14441358732513
 10
272.9610999317596
 20
-95.08549969845082
 10
272.9590469251235
 20
-95.02986664290927
 10
272.9531908141618
 20
-94.98266497625422
 10
272.9469888206523
 20
-94.94646997626354
 10
272.9390444256338
 20
-94.92339830960249
 10
272.9304366480755
 20
-94.91598997627111
  0
LWPOLYLINE
  5
27D
330
70
100
AcDbEntity
  8
Ebene 1
 62
    18
420
        0
370
     9
100
AcDbPolyline
 90
        6
 70
     0
 43
0.0
 10
272.8984044266705
 20
-95.7975816427173
 10
272.8984044266705
 20
-95.85649553159127
 10
272.8991099822081
 20
-95.91145830935547
 10
272.8991099822081
 20
-95.95883636489908
 10
272.8991099822081
 20
-95.99517247600113
 10
272.8984044266705
 20
-96.01824414266218
  0
LINE
  5
27E
330
70
100
AcDbEntity
  8
Ebene 1
 62
    18
420
        0
370
     9
100
AcDbLine
 10
273.827903291846
 20
-96.47611442032534
 30
0.0
 11
273.8285804870985
 21
-96.52211664253606
 31
0.0
  0
LINE
  5
27F
330
70
100
AcDbEntity
  8
Ebene 1
 62
    18
420
        0
370
     9
100
AcDbLine
 10
274.759801045849
 20
-135.1483552439908
 30
0.0
 11
274.759801045849
 21
-135.0828796884513
 31
0.0
  0
LINE
  5
280
330
70
100
AcDbEntity
  8
Ebene 1
 62
    18
420
        0
370
     9
100
AcDbLine
 10
274.7601538236178
 20
-79.33760553572124
 30
0.0
 11
274.759801045849
 21
-79.13038386910625
 31
0.0
  0
LINE
  5
281
330
70
100
AcDbEntity
  8
Ebene 1
 62
    18
420
        0
370
     9
100
AcDbLine
 10
274.759801045849
 20
-79.13038386910625
 30
0.0
 11
274.7594482680803
 21
-79.0141435913576
 31
0.0
  0
LINE
  5
282
330
70
100
AcDbEntity
  8
Ebene 1
 62
    18
420
        0
370
     9
100
AcDbLine
 10
272.3599244404084
 20
-96.95772664242722
 30
0.0
 11
272.3599244404084
 21
-96.03066192043694
 31
0.0
  0
LINE
  5
283
330
70
100
AcDbEntity
  8
Ebene 1
 62
    18
420
        0
370
     9
100
AcDbLine
 10
272.3599244404084
 20
-91.47866442157463
 30
0.0
 11
272.3599244404084
 21
-80.01440970221862
 31
0.0
  0
LINE
  5
284
330
70
100
AcDbEntity
  8
Ebene 1
 62
    18
420
        0
370
     9
100
AcDbLine
 10
272.5442508245947
 20
-96.95772664242722
 30
0.0
 11
272.5442508245947
 21
-96.02910969821486
 31
0.0
  0
LINE
  5
285
330
70
100
AcDbEntity
  8
Ebene 1
 62
    18
420
        0
370
     9
100
AcDbLine
 10
272.5442508245947
 20
-91.48053414379665
 30
0.0
 11
272.5442508245947
 21
-80.0125047022191
 31
0.0
  0
LINE
  5
286
330
70
100
AcDbEntity
  8
Ebene 1
 62
    18
420
        0
370
     9
100
AcDbLine
 10
272.8984044266705
 20
-95.7975816427173
 30
0.0
 11
272.8984044266705
 21
-95.14388442065849
 31
0.0
  0
LINE
  5
287
330
70
100
AcDbEntity
  8
Ebene 1
 62
    18
420
        0
370
     9
100
AcDbLine
 10
272.9625110428706
 20
-95.79673497605075
 30
0.0
 11
272.9625110428706
 21
-95.14441358732513
 31
0.0
  0
LINE
  5
288
330
70
100
AcDbEntity
  8
Ebene 1
 62
    18
420
        0
370
     9
100
AcDbLine
 10
273.4806288562612
 20
-130.3682869118522
 30
0.0
 11
273.4806288562612
 21
-131.6868644115227
 31
0.0
  0
LINE
  5
289
330
70
100
AcDbEntity
  8
Ebene 1
 62
    18
420
        0
370
     9
100
AcDbLine
 10
273.50614159829
 20
-98.08047719770213
 30
0.0
 11
273.50614159829
 21
-96.02085469821691
 31
0.0
  0
LINE
  5
28A
330
70
100
AcDbEntity
  8
Ebene 1
 62
    18
420
        0
370
     9
100
AcDbLine
 10
273.50614159829
 20
-91.67364469930374
 30
0.0
 11
273.50614159829
 21
-80.23351997994174
 31
0.0
  0
LINE
  5
28B
330
70
100
AcDbEntity
  8
Ebene 1
 62
    18
420
        0
370
     9
100
AcDbLine
 10
273.7327944053835
 20
-98.30890080875613
 30
0.0
 11
273.7327944053835
 21
-96.01894969821739
 31
0.0
  0
LINE
  5
28C
330
70
100
AcDbEntity
  8
Ebene 1
 62
    18
420
        0
370
     9
100
AcDbLine
 10
273.7327944053835
 20
-91.74151914373117
 30
0.0
 11
273.7327944053835
 21
-80.22939247994276
 31
0.0
  0
LINE
  5
28D
330
70
100
AcDbEntity
  8
Ebene 1
 62
    18
420
        0
370
     9
100
AcDbLine
 10
273.827903291846
 20
-96.01824414266218
 30
0.0
 11
273.827903291846
 21
-96.47611442032534
 31
0.0
  0
LINE
  5
28E
330
70
100
AcDbEntity
  8
Ebene 1
 62
    18
420
        0
370
     9
100
AcDbLine
 10
274.4170138202846
 20
-135.0504946884597
 30
0.0
 11
274.4170138202846
 21
-134.0541796887088
 31
0.0
  0
LINE
  5
28F
330
70
100
AcDbEntity
  8
Ebene 1
 62
    18
420
        0
370
     9
100
AcDbLine
 10
274.4207816100537
 20
-79.9959947022232
 30
0.0
 11
274.4207816100537
 21
-79.00052636913883
 31
0.0
  0
LINE
  5
290
330
70
100
AcDbEntity
  8
Ebene 1
 62
    18
420
        0
370
     9
100
AcDbLine
 10
274.5341360424777
 20
-96.69797636471454
 30
0.0
 11
274.5341360424777
 21
-103.5345980296719
 31
0.0
  0
LINE
  5
291
330
70
100
AcDbEntity
  8
Ebene 1
 62
    18
420
        0
370
     9
100
AcDbLine
 10
274.6250752159529
 20
-130.8023446895216
 30
0.0
 11
274.6250752159529
 21
-130.3806694118491
 31
0.0
  0
LINE
  5
292
330
70
100
AcDbEntity
  8
Ebene 1
 62
    18
420
        0
370
     9
100
AcDbLine
 10
274.6481821598078
 20
-135.0561744106804
 30
0.0
 11
274.6481821598078
 21
-125.3327369131113
 31
0.0
  0
LINE
  5
293
330
70
100
AcDbEntity
  8
Ebene 1
 62
    18
420
        0
370
     9
100
AcDbLine
 10
274.6481821598078
 20
-112.0017938608883
 30
0.0
 11
274.6481821598078
 21
-78.99449386914032
 31
0.0
  0
LINE
  5
294
330
70
100
AcDbEntity
  8
Ebene 1
 62
    18
420
        0
370
     9
100
AcDbLine
 10
274.7601538236178
 20
-134.7132391329884
 30
0.0
 11
274.7601538236178
 21
-125.3327369131113
 31
0.0
  0
LINE
  5
295
330
70
100
AcDbEntity
  8
Ebene 1
 62
    18
420
        0
370
     9
100
AcDbLine
 10
274.7601538236178
 20
-112.0017938608883
 30
0.0
 11
274.7601538236178
 21
-79.33760553572124
 31
0.0
  0
LINE
  5
296
330
70
100
AcDbEntity
  8
Ebene 1
 62
    18
420
        0
370
     9
100
AcDbLine
 10
273.5068049667045
 20
-98.42362414206087
 30
0.0
 11
273.50614159829
 21
-98.08047719770213
 31
0.0
  0
LINE
  5
297
330
70
100
AcDbEntity
  8
Ebene 1
 62
    18
420
        0
370
     9
100
AcDbLine
 10
274.759801045849
 20
-135.0828796884513
 30
0.0
 11
274.759801045849
 21
-134.9817735773657
 31
0.0
  0
LINE
  5
298
330
70
100
AcDbEntity
  8
Ebene 1
 62
    18
420
        0
370
     9
100
AcDbLine
 10
274.759801045849
 20
-134.9817735773657
 30
0.0
 11
274.759801045849
 21
-134.8544560773976
 31
0.0
  0
LWPOLYLINE
  5
299
330
70
100
AcDbEntity
  8
Ebene 1
 62
    18
420
        0
370
     9
100
AcDbPolyline
 90
        5
 70
     0
 43
0.0
 10
274.7594482680803
 20
-79.0141435913576
 10
274.759801045849
 20
-78.93025303582305
 10
274.759801045849
 20
-78.90248942471888
 10
274.759801045849
 20
-78.88597942472298
 10
274.7601538236178
 20
-78.87994692472448
  0
LINE
  5
29A
330
70
100
AcDbEntity
  8
Ebene 1
 62
    18
420
        0
370
     9
100
AcDbLine
 10
274.759801045849
 20
-134.8544560773976
 30
0.0
 11
274.7601538236178
 21
-134.7132391329884
 31
0.0
  0
LINE
  5
29B
330
70
100
AcDbEntity
  8
Ebene 1
 62
    18
420
        0
370
     9
100
AcDbLine
 10
273.5068049667045
 20
-98.4961552531536
 30
0.0
 11
273.5068049667045
 21
-98.42362414206087
 31
0.0
  0
LINE
  5
29C
330
70
100
AcDbEntity
  8
Ebene 1
 62
    18
420
        0
370
     9
100
AcDbLine
 10
272.8074583178797
 20
-91.65230164375365
 30
0.0
 11
272.8067527623421
 21
-91.71121553262763
 31
0.0
  0
LWPOLYLINE
  5
29D
330
70
100
AcDbEntity
  8
Ebene 1
 62
    18
420
        0
370
     9
100
AcDbPolyline
 90
        6
 70
     0
 43
0.0
 10
272.8984044266705
 20
-95.14388442065849
 10
272.8984044266705
 20
-95.08465303178427
 10
272.8991099822081
 20
-95.02986664290927
 10
272.8991099822081
 20
-94.98266497625422
 10
272.8991099822081
 20
-94.94597608737473
 10
272.8984044266705
 20
-94.92304553182473
  0
LWPOLYLINE
  5
29E
330
70
100
AcDbEntity
  8
Ebene 1
 62
    18
420
        0
370
     9
100
AcDbPolyline
 90
        7
 70
     0
 43
0.0
 10
272.9625110428706
 20
-95.79673497605075
 10
272.9610999317596
 20
-95.8560016427028
 10
272.9590469251235
 20
-95.91145830935547
 10
272.9531908141618
 20
-95.95883636489908
 10
272.9469888206523
 20
-95.99481969822369
 10
272.9390444256338
 20
-96.01775025377337
 10
272.9304366480755
 20
-96.02547608710468
  0
LWPOLYLINE
  5
29F
330
70
100
AcDbEntity
  8
Ebene 1
 62
    18
420
        0
370
     9
100
AcDbPolyline
 90
        6
 70
     0
 43
0.0
 10
274.4170138202846
 20
-135.0504946884597
 10
274.4163082647292
 20
-135.1070096884453
 10
274.4156310546296
 20
-135.130610521773
 10
274.414925499092
 20
-135.1490255217681
 10
274.4146079991001
 20
-135.1607377439877
 10
274.4135496657938
 20
-135.1645477439867
  0
LWPOLYLINE
  5
2A0
330
70
100
AcDbEntity
  8
Ebene 1
 62
    18
420
        0
370
     9
100
AcDbPolyline
 90
        7
 70
     0
 43
0.0
 10
274.4207816100537
 20
-112.2301821941648
 10
274.4207816100537
 20
-112.2343096941637
 10
274.4204641100618
 20
-112.2457044163831
 10
274.4204641100618
 20
-112.2639430274896
 10
274.4197585545243
 20
-112.287543860817
 10
274.4197585545243
 20
-112.3152721941433
 10
274.4204641100618
 20
-112.3449055274692
  0
LWPOLYLINE
  5
2A1
330
70
100
AcDbEntity
  8
Ebene 1
 62
    18
420
        0
370
     9
100
AcDbPolyline
 90
        5
 70
     0
 43
0.0
 10
274.727768824444
 20
-112.1464680275188
 10
274.7411743796576
 20
-112.1139066386383
 10
274.7515107682828
 20
-112.0789463608691
 10
274.7573668792445
 20
-112.0414108053231
 10
274.7601538236178
 20
-112.0017938608883
  0
LINE
  5
2A2
330
70
100
AcDbEntity
  8
Ebene 1
 62
    18
420
        0
370
     9
100
AcDbLine
 10
272.8704997051602
 20
-91.72084636595879
 30
0.0
 11
274.647829382039
 21
-92.25378775471439
 31
0.0
  0
LINE
  5
2A3
330
70
100
AcDbEntity
  8
Ebene 1
 62
    18
420
        0
370
     9
100
AcDbLine
 10
272.9345994257471
 20
-91.50173608823569
 30
0.0
 11
274.647829382039
 21
-92.01541581032961
 31
0.0
  0
LWPOLYLINE
  5
2A4
330
70
100
AcDbEntity
  8
Ebene 1
 62
    18
420
        0
370
     9
100
AcDbPolyline
 90
        6
 70
     0
 43
0.0
 10
272.0157897269657
 20
-96.71967219804237
 10
272.0157897269657
 20
-96.71967219804237
 10
272.0157897269657
 20
-96.71931942026461
 10
272.0157897269657
 20
-96.71864914248693
 10
272.0157897269657
 20
-96.71692053137627
 10
272.0150841714282
 20
-96.71519192026563
  0
LINE
  5
2A5
330
70
100
AcDbEntity
  8
Ebene 1
 62
    18
420
        0
370
     9
100
AcDbLine
 10
279.2236110413052
 20
-143.8225610751553
 30
0.0
 11
279.2236110413052
 21
-143.8375541307073
 31
0.0
  0
LINE
  5
2A6
330
70
100
AcDbEntity
  8
Ebene 1
 62
    18
420
        0
370
     9
100
AcDbLine
 10
278.774376776762
 20
-134.7828069107487
 30
0.0
 11
278.774376776762
 21
-79.26786136907179
 31
0.0
  0
LINE
  5
2A7
330
70
100
AcDbEntity
  8
Ebene 1
 62
    18
420
        0
370
     9
100
AcDbLine
 10
278.8122721525194
 20
-104.5598408071932
 30
0.0
 11
278.8122721525194
 21
-108.5756160839672
 31
0.0
  0
LINE
  5
2A8
330
70
100
AcDbEntity
  8
Ebene 1
 62
    18
420
        0
370
     9
100
AcDbLine
 10
279.178130933128
 20
-103.707706085184
 30
0.0
 11
279.178130933128
 21
-109.4277860837542
 31
0.0
  0
LINE
  5
2A9
330
70
100
AcDbEntity
  8
Ebene 1
 62
    18
420
        0
370
     9
100
AcDbLine
 10
279.2236110413052
 20
-144.5620538527482
 30
0.0
 11
279.2236110413052
 21
-72.33253248191672
 31
0.0
  0
LINE
  5
2AA
330
70
100
AcDbEntity
  8
Ebene 1
 62
    18
420
        0
370
     9
100
AcDbLine
 10
279.2236110413052
 20
-72.33253248191672
 30
0.0
 11
279.2236110413052
 21
-58.87014442972699
 31
0.0
  0
LWPOLYLINE
  5
2AB
330
70
100
AcDbEntity
  8
Ebene 1
 62
    18
420
        0
370
     9
100
AcDbPolyline
 90
        3
 70
     0
 43
0.0
 10
279.2236110413052
 20
-143.7004294085192
 10
279.2236110413052
 20
-143.7121416307385
 10
279.2236110413052
 20
-143.7655521862809
  0
LINE
  5
2AC
330
70
100
AcDbEntity
  8
Ebene 1
 62
    18
420
        0
370
     9
100
AcDbLine
 10
279.2236110413052
 20
-143.7655521862809
 30
0.0
 11
279.2236110413052
 21
-143.7796985751663
 31
0.0
  0
LINE
  5
2AD
330
70
100
AcDbEntity
  8
Ebene 1
 62
    18
420
        0
370
     9
100
AcDbLine
 10
279.2236110413052
 20
-143.556954686333
 30
0.0
 11
279.2236110413052
 21
-143.5840127418817
 31
0.0
  0
LINE
  5
2AE
330
70
100
AcDbEntity
  8
Ebene 1
 62
    18
420
        0
370
     9
100
AcDbLine
 10
279.2236110413052
 20
-143.6456782974221
 30
0.0
 11
279.2236110413052
 21
-143.6556619085307
 31
0.0
  0
LINE
  5
2AF
330
70
100
AcDbEntity
  8
Ebene 1
 62
    18
420
        0
370
     9
100
AcDbLine
 10
279.2236110413052
 20
-143.5219944085639
 30
0.0
 11
279.2236110413052
 21
-143.5311313530062
 31
0.0
  0
LWPOLYLINE
  5
2B0
330
70
100
AcDbEntity
  8
Ebene 1
 62
    18
420
        0
370
     9
100
AcDbPolyline
 90
       11
 70
     0
 43
0.0
 10
278.774376776762
 20
-79.26786136907179
 10
278.7750470545227
 20
-79.19652970242305
 10
278.7760701100522
 20
-79.12625636910728
 10
278.7777987211192
 20
-79.06011053579049
 10
278.7777987211192
 20
-78.99915053580563
 10
278.7777987211192
 20
-78.94436414693064
 10
278.7777987211192
 20
-78.89751525805334
 10
278.7777987211192
 20
-78.86029720250721
 10
278.7760701100522
 20
-78.83274525806974
 10
278.7750470545227
 20
-78.81619998029602
 10
278.774376776762
 20
-78.81034386918639
  0
LINE
  5
2B1
330
70
100
AcDbEntity
  8
Ebene 1
 62
    18
420
        0
370
     9
100
AcDbLine
 10
273.8423671803658
 20
-96.70090442026918
 30
0.0
 11
273.8458244024999
 21
-96.70450275360153
 31
0.0
  0
LWPOLYLINE
  5
2B2
330
70
100
AcDbEntity
  8
Ebene 1
 62
    18
420
        0
370
     9
100
AcDbPolyline
 90
        7
 70
     0
 43
0.0
 10
272.0612627813612
 20
-90.7483085884241
 10
272.0819355586115
 20
-90.78549136619241
 10
272.0984455581903
 20
-90.82373247729398
 10
272.1115336134119
 20
-90.86334942172875
 10
272.1211997242765
 20
-90.90469497727386
 10
272.127408613007
 20
-90.94537025504129
 10
272.1287844463052
 20
-90.98738608836439
  0
LINE
  5
2B3
330
70
100
AcDbEntity
  8
Ebene 1
 62
    18
420
        0
370
     9
100
AcDbLine
 10
279.3373042624005
 20
-143.6077546863204
 30
0.0
 11
279.3373042624005
 21
-72.21869109305639
 31
0.0
  0
LINE
  5
2B4
330
70
100
AcDbEntity
  8
Ebene 1
 62
    18
420
        0
370
     9
100
AcDbLine
 10
279.45029898174
 20
-143.8375541307073
 30
0.0
 11
279.45029898174
 21
-144.5603252416376
 31
0.0
  0
LINE
  5
2B5
330
70
100
AcDbEntity
  8
Ebene 1
 62
    18
420
        0
370
     9
100
AcDbLine
 10
279.9126142477232
 20
-144.5561977416386
 30
0.0
 11
279.9126142477232
 21
-143.8416816307063
 31
0.0
  0
LINE
  5
2B6
330
70
100
AcDbEntity
  8
Ebene 1
 62
    18
420
        0
370
     9
100
AcDbLine
 10
280.0256089670626
 20
-143.6137871863186
 30
0.0
 11
280.0256089670626
 21
-72.21230581528011
 31
0.0
  0
LINE
  5
2B7
330
70
100
AcDbEntity
  8
Ebene 1
 62
    18
420
        0
370
     9
100
AcDbLine
 10
280.1393092419397
 20
-144.5543280194169
 30
0.0
 11
280.1393092419397
 21
-71.27197664884883
 31
0.0
  0
LINE
  5
2B8
330
70
100
AcDbEntity
  8
Ebene 1
 62
    18
420
        0
370
     9
100
AcDbLine
 10
279.2236110413052
 20
-143.5120107974553
 30
0.0
 11
279.2236110413052
 21
-143.5219944085639
 31
0.0
  0
LINE
  5
2B9
330
70
100
AcDbEntity
  8
Ebene 1
 62
    18
420
        0
370
     9
100
AcDbLine
 10
279.2236110413052
 20
-143.7796985751663
 30
0.0
 11
279.2236110413052
 21
-143.8225610751553
 31
0.0
  0
LINE
  5
2BA
330
70
100
AcDbEntity
  8
Ebene 1
 62
    18
420
        0
370
     9
100
AcDbLine
 10
279.2236110413052
 20
-143.6556619085307
 30
0.0
 11
279.2236110413052
 21
-143.7004294085192
 31
0.0
  0
LINE
  5
2BB
330
70
100
AcDbEntity
  8
Ebene 1
 62
    18
420
        0
370
     9
100
AcDbLine
 10
270.5288667093447
 20
-130.3359019118606
 30
0.0
 11
270.9870544754332
 21
-129.8790546897525
 31
0.0
  0
LWPOLYLINE
  5
2BC
330
70
100
AcDbEntity
  8
Ebene 1
 62
    18
420
        0
370
     9
100
AcDbPolyline
 90
        4
 70
     0
 43
0.0
 10
273.8999052344535
 20
-80.00061609111098
 10
273.8316780139719
 20
-80.00890636888676
 10
273.7634860712672
 20
-80.03095497999236
 10
273.6969943760205
 20
-80.06676192442776
  0
LINE
  5
2BD
330
70
100
AcDbEntity
  8
Ebene 1
 62
    18
420
        0
370
     9
100
AcDbLine
 10
271.9578988951093
 20
-80.02439331332722
 30
0.0
 11
272.0164600047264
 21
-80.01716136888472
 31
0.0
  0
LINE
  5
2BE
330
70
100
AcDbEntity
  8
Ebene 1
 62
    18
420
        0
370
     9
100
AcDbLine
 10
273.50614159829
 20
-80.23351997994174
 30
0.0
 11
273.7327944053835
 21
-80.22939247994276
 31
0.0
  0
LINE
  5
2BF
330
70
100
AcDbEntity
  8
Ebene 1
 62
    18
420
        0
370
     9
100
AcDbLine
 10
274.7601538236178
 20
-79.33760553572124
 30
0.0
 11
278.774376776762
 21
-79.26786136907179
 31
0.0
  0
LINE
  5
2C0
330
70
100
AcDbEntity
  8
Ebene 1
 62
    18
420
        0
370
     9
100
AcDbLine
 10
271.6753944578721
 20
-80.20321636883819
 30
0.0
 11
271.9013838965511
 21
-80.199582757728
 31
0.0
  0
LINE
  5
2C1
330
70
100
AcDbEntity
  8
Ebene 1
 62
    18
420
        0
370
     9
100
AcDbLine
 10
270.9870544754332
 20
-80.02612192443786
 30
0.0
 11
274.647829382039
 21
-79.99408970222368
 31
0.0
  0
LINE
  5
2C2
330
70
100
AcDbEntity
  8
Ebene 1
 62
    18
420
        0
370
     9
100
AcDbLine
 10
283.573389154329
 20
-71.30210387106351
 30
0.0
 11
283.573389154329
 21
-144.5241655194244
 31
0.0
  0
LINE
  5
2C3
330
70
100
AcDbEntity
  8
Ebene 1
 62
    18
420
        0
370
     9
100
AcDbLine
 10
283.8000841485455
 20
-71.53052748211752
 30
0.0
 11
283.8000841485455
 21
-144.295071630593
 31
0.0
  0
LINE
  5
2C4
330
70
100
AcDbEntity
  8
Ebene 1
 62
    18
420
        0
370
     9
100
AcDbLine
 10
283.8000841485455
 20
-71.53052748211752
 30
0.0
 11
283.8000841485455
 21
-65.75858915022692
 31
0.0
  0
LWPOLYLINE
  5
2C5
330
70
100
AcDbEntity
  8
Ebene 1
 62
    18
420
        0
370
     9
100
AcDbPolyline
 90
       11
 70
     0
 43
0.0
 10
278.774376776762
 20
-135.2403244106344
 10
278.7750470545227
 20
-135.2351738550799
 10
278.7760701100522
 20
-135.2182757995288
 10
278.7777987211192
 20
-135.1907238550913
 10
278.7777987211192
 20
-135.1531530217674
 10
278.7777987211192
 20
-135.1070096884453
 10
278.7777987211192
 20
-135.0520469106814
 10
278.7777987211192
 20
-134.9912280218076
 10
278.7760701100522
 20
-134.9250821884909
 10
278.7750470545227
 20
-134.8548088551751
 10
278.774376776762
 20
-134.7828069107487
  0
LINE
  5
2C6
330
70
100
AcDbEntity
  8
Ebene 1
 62
    18
420
        0
370
     9
100
AcDbLine
 10
274.6481821598078
 20
-78.99449386914032
 30
0.0
 11
274.4207816100537
 21
-79.00052636913883
 31
0.0
  0
LINE
  5
2C7
330
70
100
AcDbEntity
  8
Ebene 1
 62
    18
420
        0
370
     9
100
AcDbLine
 10
274.4207816100537
 20
-79.00052636913883
 30
0.0
 11
269.7957592280479
 21
-79.08131248022953
 31
0.0
  0
LINE
  5
2C8
330
70
100
AcDbEntity
  8
Ebene 1
 62
    18
420
        0
370
     9
100
AcDbLine
 10
269.7265089520368
 20
-78.96778859136912
 30
0.0
 11
274.7573668792445
 21
-78.87994692472448
 31
0.0
  0
LINE
  5
2C9
330
70
100
AcDbEntity
  8
Ebene 1
 62
    18
420
        0
370
     9
100
AcDbLine
 10
274.7601538236178
 20
-78.87994692472448
 30
0.0
 11
278.774376776762
 21
-78.81034386918639
 31
0.0
  0
LINE
  5
2CA
330
70
100
AcDbEntity
  8
Ebene 1
 62
    18
420
        0
370
     9
100
AcDbLine
 10
269.7957592280479
 20
-79.08131248022953
 30
0.0
 11
269.6644906202857
 21
-79.08180636911833
 31
0.0
  0
LINE
  5
2CB
330
70
100
AcDbEntity
  8
Ebene 1
 62
    18
420
        0
370
     9
100
AcDbLine
 10
269.6644906202857
 20
-79.08180636911833
 30
0.0
 11
269.6145372882268
 21
-79.08251192467385
 31
0.0
  0
LINE
  5
2CC
330
70
100
AcDbEntity
  8
Ebene 1
 62
    18
420
        0
370
     9
100
AcDbLine
 10
274.6481821598078
 20
-79.33760553572124
 30
0.0
 11
274.7601538236178
 21
-79.33760553572124
 31
0.0
  0
LINE
  5
2CD
330
70
100
AcDbEntity
  8
Ebene 1
 62
    18
420
        0
370
     9
100
AcDbLine
 10
279.2236110413052
 20
-79.26786136907179
 30
0.0
 11
278.774376776762
 21
-79.26786136907179
 31
0.0
  0
LINE
  5
2CE
330
70
100
AcDbEntity
  8
Ebene 1
 62
    18
420
        0
370
     9
100
AcDbLine
 10
279.2236110413052
 20
-76.79566525857893
 30
0.0
 11
283.8000841485455
 21
-76.79566525857893
 31
0.0
  0
LWPOLYLINE
  5
2CF
330
70
100
AcDbEntity
  8
Ebene 1
 62
    18
420
        0
370
     9
100
AcDbPolyline
 90
        6
 70
     0
 43
0.0
 10
280.0256089670626
 20
-143.6137871863186
 10
280.0256089670626
 20
-143.6143163529852
 10
280.0245859115332
 20
-143.6160449640959
 10
280.0242331337644
 20
-143.6184438529842
 10
280.0221870227055
 20
-143.6219010752055
 10
280.0201056338697
 20
-143.62673413076
  0
LINE
  5
2D0
330
70
100
AcDbEntity
  8
Ebene 1
 62
    18
420
        0
370
     9
100
AcDbLine
 10
280.0201056338697
 20
-143.62673413076
 30
0.0
 11
280.014249522908
 21
-143.6384463529792
 31
0.0
  0
LINE
  5
2D1
330
70
100
AcDbEntity
  8
Ebene 1
 62
    18
420
        0
370
     9
100
AcDbLine
 10
280.014249522908
 20
-143.6384463529792
 30
0.0
 11
280.0059945231186
 21
-143.6542860751975
 31
0.0
  0
LINE
  5
2D2
330
70
100
AcDbEntity
  8
Ebene 1
 62
    18
420
        0
370
     9
100
AcDbLine
 10
279.3373042624005
 20
-72.21869109305639
 30
0.0
 11
280.0256089670626
 21
-72.21230581528011
 31
0.0
  0
LINE
  5
2D3
330
70
100
AcDbEntity
  8
Ebene 1
 62
    18
420
        0
370
     9
100
AcDbLine
 10
280.1393092419397
 20
-71.27197664884883
 30
0.0
 11
283.573389154329
 21
-71.30210387106351
 31
0.0
  0
LINE
  5
2D4
330
70
100
AcDbEntity
  8
Ebene 1
 62
    18
420
        0
370
     9
100
AcDbLine
 10
280.0059945231186
 20
-143.6542860751975
 30
0.0
 11
279.974985357243
 21
-143.718174130737
 31
0.0
  0
LINE
  5
2D5
330
70
100
AcDbEntity
  8
Ebene 1
 62
    18
420
        0
370
     9
100
AcDbLine
 10
279.974985357243
 20
-143.718174130737
 30
0.0
 11
279.9250320251841
 21
-143.8174105196013
 31
0.0
  0
LINE
  5
2D6
330
70
100
AcDbEntity
  8
Ebene 1
 62
    18
420
        0
370
     9
100
AcDbLine
 10
279.9250320251841
 20
-143.8174105196013
 30
0.0
 11
279.9126142477232
 21
-143.8416816307063
 31
0.0
  0
LINE
  5
2D7
330
70
100
AcDbEntity
  8
Ebene 1
 62
    18
420
        0
370
     9
100
AcDbLine
 10
273.7327944053835
 20
-65.75858915022692
 30
0.0
 11
291.767887556381
 21
-65.75858915022692
 31
0.0
  0
LWPOLYLINE
  5
2D8
330
70
100
AcDbEntity
  8
Ebene 1
 62
    18
420
        0
370
     9
100
AcDbPolyline
 90
        3
 70
     0
 43
0.0
 10
280.1338059087468
 20
-143.7311210751784
 10
280.1365575753432
 20
-143.7293924640677
 10
280.1382861864103
 20
-143.7286869085122
  0
LINE
  5
2D9
330
70
100
AcDbEntity
  8
Ebene 1
 62
    18
420
        0
370
     9
100
AcDbLine
 10
280.1238222978903
 20
-143.7366244085102
 30
0.0
 11
280.1338059087468
 21
-143.7311210751784
 31
0.0
  0
LINE
  5
2DA
330
70
100
AcDbEntity
  8
Ebene 1
 62
    18
420
        0
370
     9
100
AcDbLine
 10
280.0886503543432
 20
-143.7534871862839
 30
0.0
 11
280.1238222978903
 21
-143.7366244085102
 31
0.0
  0
LINE
  5
2DB
330
70
100
AcDbEntity
  8
Ebene 1
 62
    18
420
        0
370
     9
100
AcDbLine
 10
279.9126142477232
 20
-143.8416816307063
 30
0.0
 11
280.0886503543432
 21
-143.7534871862839
 31
0.0
  0
LINE
  5
2DC
330
70
100
AcDbEntity
  8
Ebene 1
 62
    18
420
        0
370
     9
100
AcDbLine
 10
263.2073521739099
 20
-58.87014442972699
 30
0.0
 11
284.7150838474242
 21
-58.87014442972699
 31
0.0
  0
SPLINE
  5
2DD
330
70
100
AcDbEntity
  8
Ebene 1
 62
    18
420
        0
370
     9
100
AcDbSpline
210
0.0
220
0.0
230
1.0
 70
     8
 71
     3
 72
     8
 73
     4
 74
     0
 42
0.0000000001
 43
0.0000000001
 40
0.0
 40
0.0
 40
0.0
 40
0.0
 40
1.0
 40
1.0
 40
1.0
 40
1.0
 10
127.5326206352606
 20
-139.0309569096868
 30
0.0
 10
127.5326206352606
 20
-142.0812499644797
 30
0.0
 10
130.0058397388303
 20
-144.5543280194169
 30
0.0
 10
133.0564888556246
 20
-144.5543280194169
 30
0.0
  0
SPLINE
  5
2DE
330
70
100
AcDbEntity
  8
Ebene 1
 62
    18
420
        0
370
     9
100
AcDbSpline
210
0.0
220
0.0
230
1.0
 70
     8
 71
     3
 72
     8
 73
     4
 74
     0
 42
0.0000000001
 43
0.0000000001
 40
0.0
 40
0.0
 40
0.0
 40
0.0
 40
1.0
 40
1.0
 40
1.0
 40
1.0
 10
127.562253967838
 20
-139.0309569096868
 30
0.0
 10
127.562253967838
 20
-142.064704686706
 30
0.0
 10
130.0223850161859
 20
-144.5241655194244
 30
0.0
 10
133.0564888556246
 20
-144.5241655194244
 30
0.0
  0
SPLINE
  5
2DF
330
70
100
AcDbEntity
  8
Ebene 1
 62
    18
420
        0
370
     9
100
AcDbSpline
210
0.0
220
0.0
230
1.0
 70
     8
 71
     3
 72
     8
 73
     4
 74
     0
 42
0.0000000001
 43
0.0000000001
 40
0.0
 40
0.0
 40
0.0
 40
0.0
 40
1.0
 40
1.0
 40
1.0
 40
1.0
 10
127.7916653508741
 20
-139.0309569096868
 30
0.0
 10
127.7916653508741
 20
-141.9384455200708
 30
0.0
 10
130.148467790747
 20
-144.295071630593
 30
0.0
 10
133.0564888556246
 20
-144.295071630593
 30
0.0
  0
SPLINE
  5
2E0
330
70
100
AcDbEntity
  8
Ebene 1
 62
    18
420
        0
370
     9
100
AcDbSpline
210
0.0
220
0.0
230
1.0
 70
     8
 71
     3
 72
     8
 73
     4
 74
     0
 42
0.0000000001
 43
0.0000000001
 40
0.0
 40
0.0
 40
0.0
 40
0.0
 40
1.0
 40
1.0
 40
1.0
 40
1.0
 10
139.3968192214686
 20
-128.9630319122038
 30
0.0
 10
139.3968192214686
 20
-130.6421483006728
 30
0.0
 10
140.7576277425882
 20
-132.0040116336658
 30
0.0
 10
142.4367758105795
 20
-132.0040116336658
 30
0.0
  0
SPLINE
  5
2E1
330
70
100
AcDbEntity
  8
Ebene 1
 62
    18
420
        0
370
     9
100
AcDbSpline
210
0.0
220
0.0
230
1.0
 70
     8
 71
     3
 72
     8
 73
     4
 74
     0
 42
0.0000000001
 43
0.0000000001
 40
0.0
 40
0.0
 40
0.0
 40
0.0
 40
1.0
 40
1.0
 40
1.0
 40
1.0
 10
142.4367758105795
 20
-108.99143525053
 30
0.0
 10
140.7576277425882
 20
-108.99143525053
 30
0.0
 10
139.3968192214686
 20
-110.3525930279672
 30
0.0
 10
139.3968192214686
 20
-112.0317446942144
 30
0.0
  0
SPLINE
  5
2E2
330
70
100
AcDbEntity
  8
Ebene 1
 62
    18
420
        0
370
     9
100
AcDbSpline
210
0.0
220
0.0
230
1.0
 70
     8
 71
     3
 72
     8
 73
     4
 74
     0
 42
0.0000000001
 43
0.0000000001
 40
0.0
 40
0.0
 40
0.0
 40
0.0
 40
1.0
 40
1.0
 40
1.0
 40
1.0
 10
142.4367758105795
 20
-109.2200352504726
 30
0.0
 10
140.8837422390896
 20
-109.2200352504726
 30
0.0
 10
139.6255956045209
 20
-110.4788874723802
 30
0.0
 10
139.6255956045209
 20
-112.0317446942144
 30
0.0
  0
SPLINE
  5
2E3
330
70
100
AcDbEntity
  8
Ebene 1
 62
    18
420
        0
370
     9
100
AcDbSpline
210
0.0
220
0.0
230
1.0
 70
     8
 71
     3
 72
     8
 73
     4
 74
     0
 42
0.0000000001
 43
0.0000000001
 40
0.0
 40
0.0
 40
0.0
 40
0.0
 40
1.0
 40
1.0
 40
1.0
 40
1.0
 10
139.6255956045209
 20
-128.9630319122038
 30
0.0
 10
139.6255956045209
 20
-130.5158891340377
 30
0.0
 10
140.8837422390896
 20
-131.7749177448341
 30
0.0
 10
142.4367758105795
 20
-131.7749177448341
 30
0.0
  0
SPLINE
  5
2E4
330
70
100
AcDbEntity
  8
Ebene 1
 62
    18
420
        0
370
     9
100
AcDbSpline
210
0.0
220
0.0
230
1.0
 70
     8
 71
     3
 72
     8
 73
     4
 74
     0
 42
0.0000000001
 43
0.0000000001
 40
0.0
 40
0.0
 40
0.0
 40
0.0
 40
1.0
 40
1.0
 40
1.0
 40
1.0
 10
141.7711899942267
 20
-109.3679902504359
 30
0.0
 10
140.5488855809658
 20
-109.6735663614704
 30
0.0
 10
139.6910358806292
 20
-110.7718694167514
 30
0.0
 10
139.6910358806292
 20
-112.0317446942144
 30
0.0
  0
SPLINE
  5
2E5
330
70
100
AcDbEntity
  8
Ebene 1
 62
    18
420
        0
370
     9
100
AcDbSpline
210
0.0
220
0.0
230
1.0
 70
     8
 71
     3
 72
     8
 73
     4
 74
     0
 42
0.0000000001
 43
0.0000000001
 40
0.0
 40
0.0
 40
0.0
 40
0.0
 40
1.0
 40
1.0
 40
1.0
 40
1.0
 10
139.6910358806292
 20
-128.9630319122038
 30
0.0
 10
139.6910358806292
 20
-130.3093730229782
 30
0.0
 10
140.6666780779607
 20
-131.4565710782471
 30
0.0
 10
141.9951333218468
 20
-131.6734588559704
 30
0.0
  0
SPLINE
  5
2E6
330
70
100
AcDbEntity
  8
Ebene 1
 62
    18
420
        0
370
     9
100
AcDbSpline
210
0.0
220
0.0
230
1.0
 70
     8
 71
     3
 72
     8
 73
     4
 74
     0
 42
0.0000000001
 43
0.0000000001
 40
0.0
 40
0.0
 40
0.0
 40
0.0
 40
1.0
 40
1.0
 40
1.0
 40
1.0
 10
140.0321014274835
 20
-114.5542469158058
 30
0.0
 10
139.9235869858074
 20
-114.4889477491556
 30
0.0
 10
139.8102394886992
 20
-114.4315860825031
 30
0.0
 10
139.6944931027632
 20
-114.3825146936266
 30
0.0
  0
SPLINE
  5
2E7
330
70
100
AcDbEntity
  8
Ebene 1
 62
    18
420
        0
370
     9
100
AcDbSpline
210
0.0
220
0.0
230
1.0
 70
     8
 71
     3
 72
     8
 73
     4
 74
     0
 42
0.0000000001
 43
0.0000000001
 40
0.0
 40
0.0
 40
0.0
 40
0.0
 40
1.0
 40
1.0
 40
1.0
 40
1.0
 10
139.6920589361587
 20
-119.2907471923995
 30
0.0
 10
139.8088636554009
 20
-119.2423460813004
 30
0.0
 10
139.922563930278
 20
-119.1844552479816
 30
0.0
 10
140.031078371954
 20
-119.1193324702202
 30
0.0
  0
LINE
  5
2E8
330
70
100
AcDbEntity
  8
Ebene 1
 62
    18
420
        0
370
     9
100
AcDbLine
 10
140.0334772607817
 20
-114.6896430268832
 30
0.0
 11
140.0321014274835
 21
-114.6889374713277
 31
0.0
  0
LINE
  5
2E9
330
70
100
AcDbEntity
  8
Ebene 1
 62
    18
420
        0
370
     9
100
AcDbLine
 10
140.0321014274835
 20
-118.9842891369206
 30
0.0
 11
140.0321014274835
 21
-118.9842891369206
 31
0.0
  0
SPLINE
  5
2EA
330
70
100
AcDbEntity
  8
Ebene 1
 62
    18
420
        0
370
     9
100
AcDbSpline
210
0.0
220
0.0
230
1.0
 70
     8
 71
     3
 72
     8
 73
     4
 74
     0
 42
0.0000000001
 43
0.0000000001
 40
0.0
 40
0.0
 40
0.0
 40
0.0
 40
1.0
 40
1.0
 40
1.0
 40
1.0
 10
139.6920589361587
 20
-119.1667105257639
 30
0.0
 10
139.8102394886992
 20
-119.1148521924435
 30
0.0
 10
139.9235869858074
 20
-119.0540685813475
 30
0.0
 10
140.0321014274835
 20
-118.9842891369206
 30
0.0
  0
SPLINE
  5
2EB
330
70
100
AcDbEntity
  8
Ebene 1
 62
    18
420
        0
370
     9
100
AcDbSpline
210
0.0
220
0.0
230
1.0
 70
     8
 71
     3
 72
     8
 73
     4
 74
     0
 42
0.0000000001
 43
0.0000000001
 40
0.0
 40
0.0
 40
0.0
 40
0.0
 40
1.0
 40
1.0
 40
1.0
 40
1.0
 10
140.0321014274835
 20
-114.6889374713277
 30
0.0
 10
139.9235869858074
 20
-114.6200399713448
 30
0.0
 10
139.8102394886992
 20
-114.5583744158048
 30
0.0
 10
139.6920589361587
 20
-114.5065160824844
 30
0.0
  0
SPLINE
  5
2EC
330
70
100
AcDbEntity
  8
Ebene 1
 62
    18
420
        0
370
     9
100
AcDbSpline
210
0.0
220
0.0
230
1.0
 70
     8
 71
     3
 72
     8
 73
     4
 74
     0
 42
0.0000000001
 43
0.0000000001
 40
0.0
 40
0.0
 40
0.0
 40
0.0
 40
1.0
 40
1.0
 40
1.0
 40
1.0
 10
140.0300200386477
 20
-114.6896430268832
 30
0.0
 10
139.922563930278
 20
-114.6212394157892
 30
0.0
 10
139.8088636554009
 20
-114.5602794158043
 30
0.0
 10
139.6920589361587
 20
-114.508421082484
 30
0.0
  0
SPLINE
  5
2ED
330
70
100
AcDbEntity
  8
Ebene 1
 62
    18
420
        0
370
     9
100
AcDbSpline
210
0.0
220
0.0
230
1.0
 70
     8
 71
     3
 72
     8
 73
     4
 74
     0
 42
0.0000000001
 43
0.0000000001
 40
0.0
 40
0.0
 40
0.0
 40
0.0
 40
1.0
 40
1.0
 40
1.0
 40
1.0
 10
139.6920589361587
 20
-119.1644880257644
 30
0.0
 10
139.8088636554009
 20
-119.1129824702218
 30
0.0
 10
139.922563930278
 20
-119.052163581348
 30
0.0
 10
140.0300200386477
 20
-118.9829133035877
 30
0.0
  0
SPLINE
  5
2EE
330
70
100
AcDbEntity
  8
Ebene 1
 62
    18
420
        0
370
     9
100
AcDbSpline
210
0.0
220
0.0
230
1.0
 70
     8
 71
     3
 72
     8
 73
     4
 74
     0
 42
0.0000000001
 43
0.0000000001
 40
0.0
 40
0.0
 40
0.0
 40
0.0
 40
1.0
 40
1.0
 40
1.0
 40
1.0
 10
139.6917414361668
 20
-119.0394283035733
 30
0.0
 10
139.8102394886992
 20
-118.9837952480317
 30
0.0
 10
139.9239397635762
 20
-118.9186724702704
 30
0.0
 10
140.0321014274835
 20
-118.8442363591778
 30
0.0
  0
SPLINE
  5
2EF
330
70
100
AcDbEntity
  8
Ebene 1
 62
    18
420
        0
370
     9
100
AcDbSpline
210
0.0
220
0.0
230
1.0
 70
     8
 71
     3
 72
     8
 73
     4
 74
     0
 42
0.0000000001
 43
0.0000000001
 40
0.0
 40
0.0
 40
0.0
 40
0.0
 40
1.0
 40
1.0
 40
1.0
 40
1.0
 10
140.0321014274835
 20
-114.8284610824038
 30
0.0
 10
139.9239397635762
 20
-114.7545894157557
 30
0.0
 10
139.8102394886992
 20
-114.6896430268832
 30
0.0
 10
139.6917414361668
 20
-114.6341863602303
 30
0.0
  0
SPLINE
  5
2F0
330
70
100
AcDbEntity
  8
Ebene 1
 62
    18
420
        0
370
     9
100
AcDbSpline
210
0.0
220
0.0
230
1.0
 70
     8
 71
     3
 72
     8
 73
     4
 74
     0
 42
0.0000000001
 43
0.0000000001
 40
0.0
 40
0.0
 40
0.0
 40
0.0
 40
1.0
 40
1.0
 40
1.0
 40
1.0
 10
140.0135100390689
 20
-129.0550010788474
 30
0.0
 10
140.0135100390689
 20
-130.3431338563031
 30
0.0
 10
141.057379456882
 20
-131.3869680227087
 30
0.0
 10
142.3451277421913
 20
-131.3869680227087
 30
0.0
  0
SPLINE
  5
2F1
330
70
100
AcDbEntity
  8
Ebene 1
 62
    18
420
        0
370
     9
100
AcDbSpline
210
0.0
220
0.0
230
1.0
 70
     8
 71
     3
 72
     8
 73
     4
 74
     0
 42
0.0000000001
 43
0.0000000001
 40
0.0
 40
0.0
 40
0.0
 40
0.0
 40
1.0
 40
1.0
 40
1.0
 40
1.0
 10
142.3451277421913
 20
-109.6084788614869
 30
0.0
 10
141.057379456882
 20
-109.6084788614869
 30
0.0
 10
140.0135100390689
 20
-110.6524894167814
 30
0.0
 10
140.0135100390689
 20
-111.9397755275705
 30
0.0
  0
SPLINE
  5
2F2
330
70
100
AcDbEntity
  8
Ebene 1
 62
    18
420
        0
370
     9
100
AcDbSpline
210
0.0
220
0.0
230
1.0
 70
     8
 71
     3
 72
     8
 73
     4
 74
     0
 42
0.0000000001
 43
0.0000000001
 40
0.0
 40
0.0
 40
0.0
 40
0.0
 40
1.0
 40
1.0
 40
1.0
 40
1.0
 10
140.0555258713303
 20
-129.0550010788474
 30
0.0
 10
140.0555258713303
 20
-130.3200269118645
 30
0.0
 10
141.0811249647297
 20
-131.3449521893859
 30
0.0
 10
142.3451277421913
 20
-131.3449521893859
 30
0.0
  0
SPLINE
  5
2F3
330
70
100
AcDbEntity
  8
Ebene 1
 62
    18
420
        0
370
     9
100
AcDbSpline
210
0.0
220
0.0
230
1.0
 70
     8
 71
     3
 72
     8
 73
     4
 74
     0
 42
0.0000000001
 43
0.0000000001
 40
0.0
 40
0.0
 40
0.0
 40
0.0
 40
1.0
 40
1.0
 40
1.0
 40
1.0
 10
142.3451277421913
 20
-109.649824417032
 30
0.0
 10
141.0811249647297
 20
-109.649824417032
 30
0.0
 10
140.0555258713303
 20
-110.6754199723311
 30
0.0
 10
140.0555258713303
 20
-111.9397755275705
 30
0.0
  0
SPLINE
  5
2F4
330
70
100
AcDbEntity
  8
Ebene 1
 62
    18
420
        0
370
     9
100
AcDbSpline
210
0.0
220
0.0
230
1.0
 70
     8
 71
     3
 72
     8
 73
     4
 74
     0
 42
0.0000000001
 43
0.0000000001
 40
0.0
 40
0.0
 40
0.0
 40
0.0
 40
1.0
 40
1.0
 40
1.0
 40
1.0
 10
140.031078371954
 20
-115.0038269156935
 30
0.0
 10
139.9235869858074
 20
-114.9235699712691
 30
0.0
 10
139.8102394886992
 20
-114.8532966379534
 30
0.0
 10
139.6920589361587
 20
-114.7936771935239
 30
0.0
  0
SPLINE
  5
2F5
330
70
100
AcDbEntity
  8
Ebene 1
 62
    18
420
        0
370
     9
100
AcDbSpline
210
0.0
220
0.0
230
1.0
 70
     8
 71
     3
 72
     8
 73
     4
 74
     0
 42
0.0000000001
 43
0.0000000001
 40
0.0
 40
0.0
 40
0.0
 40
0.0
 40
1.0
 40
1.0
 40
1.0
 40
1.0
 10
139.6920589361587
 20
-118.8799021925022
 30
0.0
 10
139.8102394886992
 20
-118.8194360814061
 30
0.0
 10
139.9235869858074
 20
-118.7500446925348
 30
0.0
 10
140.031078371954
 20
-118.6695760814437
 30
0.0
  0
SPLINE
  5
2F6
330
70
100
AcDbEntity
  8
Ebene 1
 62
    18
420
        0
370
     9
100
AcDbSpline
210
0.0
220
0.0
230
1.0
 70
     8
 71
     3
 72
     8
 73
     4
 74
     0
 42
0.0000000001
 43
0.0000000001
 40
0.0
 40
0.0
 40
0.0
 40
0.0
 40
1.0
 40
1.0
 40
1.0
 40
1.0
 10
142.3451277421913
 20
-109.8789183058637
 30
0.0
 10
141.2072394530587
 20
-109.8789183058637
 30
0.0
 10
140.283596698845
 20
-110.801855527855
 30
0.0
 10
140.283596698845
 20
-111.9397755275705
 30
0.0
  0
SPLINE
  5
2F7
330
70
100
AcDbEntity
  8
Ebene 1
 62
    18
420
        0
370
     9
100
AcDbSpline
210
0.0
220
0.0
230
1.0
 70
     8
 71
     3
 72
     8
 73
     4
 74
     0
 42
0.0000000001
 43
0.0000000001
 40
0.0
 40
0.0
 40
0.0
 40
0.0
 40
1.0
 40
1.0
 40
1.0
 40
1.0
 10
140.283596698845
 20
-129.0550010788474
 30
0.0
 10
140.283596698845
 20
-130.1935913563405
 30
0.0
 10
141.2072394530587
 20
-131.1158583005545
 30
0.0
 10
142.3451277421913
 20
-131.1158583005545
 30
0.0
  0
SPLINE
  5
2F8
330
70
100
AcDbEntity
  8
Ebene 1
 62
    18
420
        0
370
     9
100
AcDbSpline
210
0.0
220
0.0
230
1.0
 70
     8
 71
     3
 72
     8
 73
     4
 74
     0
 42
0.0000000001
 43
0.0000000001
 40
0.0
 40
0.0
 40
0.0
 40
0.0
 40
1.0
 40
1.0
 40
1.0
 40
1.0
 10
139.6910358806292
 20
-118.6199755259006
 30
0.0
 10
139.8123208775349
 20
-118.5502313592512
 30
0.0
 10
139.9259858746351
 20
-118.4682105259386
 30
0.0
 10
140.0307255941852
 20
-118.3750419148507
 30
0.0
  0
SPLINE
  5
2F9
330
70
100
AcDbEntity
  8
Ebene 1
 62
    18
420
        0
370
     9
100
AcDbSpline
210
0.0
220
0.0
230
1.0
 70
     8
 71
     3
 72
     8
 73
     4
 74
     0
 42
0.0000000001
 43
0.0000000001
 40
0.0
 40
0.0
 40
0.0
 40
0.0
 40
1.0
 40
1.0
 40
1.0
 40
1.0
 10
140.0307255941852
 20
-115.2983963600643
 30
0.0
 10
139.9259858746351
 20
-115.2051924711986
 30
0.0
 10
139.8123208775349
 20
-115.1230305267747
 30
0.0
 10
139.6910358806292
 20
-115.0534274712366
 30
0.0
  0
SPLINE
  5
2FA
330
70
100
AcDbEntity
  8
Ebene 1
 62
    18
420
        0
370
     9
100
AcDbSpline
210
0.0
220
0.0
230
1.0
 70
     8
 71
     3
 72
     8
 73
     4
 74
     0
 42
0.0000000001
 43
0.0000000001
 40
0.0
 40
0.0
 40
0.0
 40
0.0
 40
1.0
 40
1.0
 40
1.0
 40
1.0
 10
139.6920589361587
 20
-118.3896821926249
 30
0.0
 10
139.8160955996609
 20
-118.3076966370896
 30
0.0
 10
139.9297958745379
 20
-118.2106827482251
 30
0.0
 10
140.031078371954
 20
-118.1013216371415
 30
0.0
  0
SPLINE
  5
2FB
330
70
100
AcDbEntity
  8
Ebene 1
 62
    18
420
        0
370
     9
100
AcDbSpline
210
0.0
220
0.0
230
1.0
 70
     8
 71
     3
 72
     8
 73
     4
 74
     0
 42
0.0000000001
 43
0.0000000001
 40
0.0
 40
0.0
 40
0.0
 40
0.0
 40
1.0
 40
1.0
 40
1.0
 40
1.0
 10
140.031078371954
 20
-115.5719402488847
 30
0.0
 10
139.9297958745379
 20
-115.4625438600232
 30
0.0
 10
139.8160955996609
 20
-115.365918026714
 30
0.0
 10
139.6920589361587
 20
-115.2837560822901
 30
0.0
  0
SPLINE
  5
2FC
330
70
100
AcDbEntity
  8
Ebene 1
 62
    18
420
        0
370
     9
100
AcDbSpline
210
0.0
220
0.0
230
1.0
 70
     8
 71
     3
 72
     8
 73
     4
 74
     0
 42
0.0000000001
 43
0.0000000001
 40
0.0
 40
0.0
 40
0.0
 40
0.0
 40
1.0
 40
1.0
 40
1.0
 40
1.0
 10
133.0564888556246
 20
-71.27197664884883
 30
0.0
 10
130.0058397388303
 20
-71.27197664884883
 30
0.0
 10
127.5326206352606
 20
-73.74501942600826
 30
0.0
 10
127.5326206352606
 20
-76.79566525857893
 30
0.0
  0
SPLINE
  5
2FD
330
70
100
AcDbEntity
  8
Ebene 1
 62
    18
420
        0
370
     9
100
AcDbSpline
210
0.0
220
0.0
230
1.0
 70
     8
 71
     3
 72
     8
 73
     4
 74
     0
 42
0.0000000001
 43
0.0000000001
 40
0.0
 40
0.0
 40
0.0
 40
0.0
 40
1.0
 40
1.0
 40
1.0
 40
1.0
 10
133.0564888556246
 20
-71.30210387106351
 30
0.0
 10
130.0223850161859
 20
-71.30210387106351
 30
0.0
 10
127.562253967838
 20
-73.76156470378198
 30
0.0
 10
127.562253967838
 20
-76.79566525857893
 30
0.0
  0
SPLINE
  5
2FE
330
70
100
AcDbEntity
  8
Ebene 1
 62
    18
420
        0
370
     9
100
AcDbSpline
210
0.0
220
0.0
230
1.0
 70
     8
 71
     3
 72
     8
 73
     4
 74
     0
 42
0.0000000001
 43
0.0000000001
 40
0.0
 40
0.0
 40
0.0
 40
0.0
 40
1.0
 40
1.0
 40
1.0
 40
1.0
 10
133.0564888556246
 20
-71.53052748211752
 30
0.0
 10
130.148467790747
 20
-71.53052748211752
 30
0.0
 10
127.7916653508741
 20
-73.88782387041707
 30
0.0
 10
127.7916653508741
 20
-76.79566525857893
 30
0.0
  0
SPLINE
  5
2FF
330
70
100
AcDbEntity
  8
Ebene 1
 62
    18
420
        0
370
     9
100
AcDbSpline
210
0.0
220
0.0
230
1.0
 70
     8
 71
     3
 72
     8
 73
     4
 74
     0
 42
0.0000000001
 43
0.0000000001
 40
0.0
 40
0.0
 40
0.0
 40
0.0
 40
1.0
 40
1.0
 40
1.0
 40
1.0
 10
236.4761811892122
 20
-144.5543280194169
 30
0.0
 10
239.5267916669402
 20
-144.5543280194169
 30
0.0
 10
241.9993404927491
 20
-142.0812499644797
 30
0.0
 10
241.9993404927491
 20
-139.0309569096868
 30
0.0
  0
SPLINE
  5
300
330
70
100
AcDbEntity
  8
Ebene 1
 62
    18
420
        0
370
     9
100
AcDbSpline
210
0.0
220
0.0
230
1.0
 70
     8
 71
     3
 72
     8
 73
     4
 74
     0
 42
0.0000000001
 43
0.0000000001
 40
0.0
 40
0.0
 40
0.0
 40
0.0
 40
1.0
 40
1.0
 40
1.0
 40
1.0
 10
236.4761811892122
 20
-144.5241655194244
 30
0.0
 10
239.5099288895927
 20
-144.5241655194244
 30
0.0
 10
241.9700599379406
 20
-142.064704686706
 30
0.0
 10
241.9700599379406
 20
-139.0309569096868
 30
0.0
  0
SPLINE
  5
301
330
70
100
AcDbEntity
  8
Ebene 1
 62
    18
420
        0
370
     9
100
AcDbSpline
210
0.0
220
0.0
230
1.0
 70
     8
 71
     3
 72
     8
 73
     4
 74
     0
 42
0.0000000001
 43
0.0000000001
 40
0.0
 40
0.0
 40
0.0
 40
0.0
 40
1.0
 40
1.0
 40
1.0
 40
1.0
 10
236.4761811892122
 20
-144.295071630593
 30
0.0
 10
239.3838461150315
 20
-144.295071630593
 30
0.0
 10
241.7406193840092
 20
-141.9384455200708
 30
0.0
 10
241.7406193840092
 20
-139.0309569096868
 30
0.0
  0
SPLINE
  5
302
330
70
100
AcDbEntity
  8
Ebene 1
 62
    18
420
        0
370
     9
100
AcDbSpline
210
0.0
220
0.0
230
1.0
 70
     8
 71
     3
 72
     8
 73
     4
 74
     0
 42
0.0000000001
 43
0.0000000001
 40
0.0
 40
0.0
 40
0.0
 40
0.0
 40
1.0
 40
1.0
 40
1.0
 40
1.0
 10
227.095538095199
 20
-132.0040116336658
 30
0.0
 10
228.7750072190189
 20
-132.0040116336658
 30
0.0
 10
230.1351419065412
 20
-130.6421483006728
 30
0.0
 10
230.1351419065412
 20
-128.9630319122038
 30
0.0
  0
SPLINE
  5
303
330
70
100
AcDbEntity
  8
Ebene 1
 62
    18
420
        0
370
     9
100
AcDbSpline
210
0.0
220
0.0
230
1.0
 70
     8
 71
     3
 72
     8
 73
     4
 74
     0
 42
0.0000000001
 43
0.0000000001
 40
0.0
 40
0.0
 40
0.0
 40
0.0
 40
1.0
 40
1.0
 40
1.0
 40
1.0
 10
230.1351419065412
 20
-112.0317446942144
 30
0.0
 10
230.1351419065412
 20
-110.3525930279672
 30
0.0
 10
228.7750072190189
 20
-108.99143525053
 30
0.0
 10
227.095538095199
 20
-108.99143525053
 30
0.0
  0
SPLINE
  5
304
330
70
100
AcDbEntity
  8
Ebene 1
 62
    18
420
        0
370
     9
100
AcDbSpline
210
0.0
220
0.0
230
1.0
 70
     8
 71
     3
 72
     8
 73
     4
 74
     0
 42
0.0000000001
 43
0.0000000001
 40
0.0
 40
0.0
 40
0.0
 40
0.0
 40
1.0
 40
1.0
 40
1.0
 40
1.0
 10
229.9070710790264
 20
-112.0317446942144
 30
0.0
 10
229.9070710790264
 20
-110.4788874723802
 30
0.0
 10
228.6482188889202
 20
-109.2200352504726
 30
0.0
 10
227.095538095199
 20
-109.2200352504726
 30
0.0
  0
SPLINE
  5
305
330
70
100
AcDbEntity
  8
Ebene 1
 62
    18
420
        0
370
     9
100
AcDbSpline
210
0.0
220
0.0
230
1.0
 70
     8
 71
     3
 72
     8
 73
     4
 74
     0
 42
0.0000000001
 43
0.0000000001
 40
0.0
 40
0.0
 40
0.0
 40
0.0
 40
1.0
 40
1.0
 40
1.0
 40
1.0
 10
227.095538095199
 20
-131.7749177448341
 30
0.0
 10
228.6482188889202
 20
-131.7749177448341
 30
0.0
 10
229.9070710790264
 20
-130.5158891340377
 30
0.0
 10
229.9070710790264
 20
-128.9630319122038
 30
0.0
  0
SPLINE
  5
306
330
70
100
AcDbEntity
  8
Ebene 1
 62
    18
420
        0
370
     9
100
AcDbSpline
210
0.0
220
0.0
230
1.0
 70
     8
 71
     3
 72
     8
 73
     4
 74
     0
 42
0.0000000001
 43
0.0000000001
 40
0.0
 40
0.0
 40
0.0
 40
0.0
 40
1.0
 40
1.0
 40
1.0
 40
1.0
 10
229.8409252473806
 20
-112.0317446942144
 30
0.0
 10
229.8409252473806
 20
-110.7718694167514
 30
0.0
 10
228.9830755470439
 20
-109.6735663614704
 30
0.0
 10
227.7614471652817
 20
-109.3679902504359
 30
0.0
  0
SPLINE
  5
307
330
70
100
AcDbEntity
  8
Ebene 1
 62
    18
420
        0
370
     9
100
AcDbSpline
210
0.0
220
0.0
230
1.0
 70
     8
 71
     3
 72
     8
 73
     4
 74
     0
 42
0.0000000001
 43
0.0000000001
 40
0.0
 40
0.0
 40
0.0
 40
0.0
 40
1.0
 40
1.0
 40
1.0
 40
1.0
 10
227.536827806163
 20
-131.6734588559704
 30
0.0
 10
228.864936053895
 20
-131.4565710782471
 30
0.0
 10
229.8409252473806
 20
-130.3093730229782
 30
0.0
 10
229.8409252473806
 20
-128.9630319122038
 30
0.0
  0
SPLINE
  5
308
330
70
100
AcDbEntity
  8
Ebene 1
 62
    18
420
        0
370
     9
100
AcDbSpline
210
0.0
220
0.0
230
1.0
 70
     8
 71
     3
 72
     8
 73
     4
 74
     0
 42
0.0000000001
 43
0.0000000001
 40
0.0
 40
0.0
 40
0.0
 40
0.0
 40
1.0
 40
1.0
 40
1.0
 40
1.0
 10
227.1868017039818
 20
-131.3869680227087
 30
0.0
 10
228.4745816711278
 20
-131.3869680227087
 30
0.0
 10
229.5184510889409
 20
-130.3431338563031
 30
0.0
 10
229.5184510889409
 20
-129.0550010788474
 30
0.0
  0
SPLINE
  5
309
330
70
100
AcDbEntity
  8
Ebene 1
 62
    18
420
        0
370
     9
100
AcDbSpline
210
0.0
220
0.0
230
1.0
 70
     8
 71
     3
 72
     8
 73
     4
 74
     0
 42
0.0000000001
 43
0.0000000001
 40
0.0
 40
0.0
 40
0.0
 40
0.0
 40
1.0
 40
1.0
 40
1.0
 40
1.0
 10
229.5184510889409
 20
-111.9397755275705
 30
0.0
 10
229.5184510889409
 20
-110.6524894167814
 30
0.0
 10
228.4745816711278
 20
-109.6084788614869
 30
0.0
 10
227.1868017039818
 20
-109.6084788614869
 30
0.0
  0
SPLINE
  5
30A
330
70
100
AcDbEntity
  8
Ebene 1
 62
    18
420
        0
370
     9
100
AcDbSpline
210
0.0
220
0.0
230
1.0
 70
     8
 71
     3
 72
     8
 73
     4
 74
     0
 42
0.0000000001
 43
0.0000000001
 40
0.0
 40
0.0
 40
0.0
 40
0.0
 40
1.0
 40
1.0
 40
1.0
 40
1.0
 10
229.4767880344483
 20
-111.9397755275705
 30
0.0
 10
229.4767880344483
 20
-110.6754199723311
 30
0.0
 10
228.451157227281
 20
-109.649824417032
 30
0.0
 10
227.1868017039818
 20
-109.649824417032
 30
0.0
  0
SPLINE
  5
30B
330
70
100
AcDbEntity
  8
Ebene 1
 62
    18
420
        0
370
     9
100
AcDbSpline
210
0.0
220
0.0
230
1.0
 70
     8
 71
     3
 72
     8
 73
     4
 74
     0
 42
0.0000000001
 43
0.0000000001
 40
0.0
 40
0.0
 40
0.0
 40
0.0
 40
1.0
 40
1.0
 40
1.0
 40
1.0
 10
227.1868017039818
 20
-131.3449521893859
 30
0.0
 10
228.451157227281
 20
-131.3449521893859
 30
0.0
 10
229.4767880344483
 20
-130.3200269118645
 30
0.0
 10
229.4767880344483
 20
-129.0550010788474
 30
0.0
  0
SPLINE
  5
30C
330
70
100
AcDbEntity
  8
Ebene 1
 62
    18
420
        0
370
     9
100
AcDbSpline
210
0.0
220
0.0
230
1.0
 70
     8
 71
     3
 72
     8
 73
     4
 74
     0
 42
0.0000000001
 43
0.0000000001
 40
0.0
 40
0.0
 40
0.0
 40
0.0
 40
1.0
 40
1.0
 40
1.0
 40
1.0
 10
229.2483644291647
 20
-111.9397755275705
 30
0.0
 10
229.2483644291647
 20
-110.801855527855
 30
0.0
 10
228.3250744527198
 20
-109.8789183058637
 30
0.0
 10
227.1868017039818
 20
-109.8789183058637
 30
0.0
  0
SPLINE
  5
30D
330
70
100
AcDbEntity
  8
Ebene 1
 62
    18
420
        0
370
     9
100
AcDbSpline
210
0.0
220
0.0
230
1.0
 70
     8
 71
     3
 72
     8
 73
     4
 74
     0
 42
0.0000000001
 43
0.0000000001
 40
0.0
 40
0.0
 40
0.0
 40
0.0
 40
1.0
 40
1.0
 40
1.0
 40
1.0
 10
227.1868017039818
 20
-131.1158583005545
 30
0.0
 10
228.3250744527198
 20
-131.1158583005545
 30
0.0
 10
229.2483644291647
 20
-130.1935913563405
 30
0.0
 10
229.2483644291647
 20
-129.0550010788474
 30
0.0
  0
SPLINE
  5
30E
330
70
100
AcDbEntity
  8
Ebene 1
 62
    18
420
        0
370
     9
100
AcDbSpline
210
0.0
220
0.0
230
1.0
 70
     8
 71
     3
 72
     8
 73
     4
 74
     0
 42
0.0000000001
 43
0.0000000001
 40
0.0
 40
0.0
 40
0.0
 40
0.0
 40
1.0
 40
1.0
 40
1.0
 40
1.0
 10
241.9993404927491
 20
-76.79566525857893
 30
0.0
 10
241.9993404927491
 20
-73.74501942600826
 30
0.0
 10
239.5267916669402
 20
-71.27197664884883
 30
0.0
 10
236.4761811892122
 20
-71.27197664884883
 30
0.0
  0
SPLINE
  5
30F
330
70
100
AcDbEntity
  8
Ebene 1
 62
    18
420
        0
370
     9
100
AcDbSpline
210
0.0
220
0.0
230
1.0
 70
     8
 71
     3
 72
     8
 73
     4
 74
     0
 42
0.0000000001
 43
0.0000000001
 40
0.0
 40
0.0
 40
0.0
 40
0.0
 40
1.0
 40
1.0
 40
1.0
 40
1.0
 10
241.9700599379406
 20
-76.79566525857893
 30
0.0
 10
241.9700599379406
 20
-73.76156470378198
 30
0.0
 10
239.5099288895927
 20
-71.30210387106351
 30
0.0
 10
236.4761811892122
 20
-71.30210387106351
 30
0.0
  0
SPLINE
  5
310
330
70
100
AcDbEntity
  8
Ebene 1
 62
    18
420
        0
370
     9
100
AcDbSpline
210
0.0
220
0.0
230
1.0
 70
     8
 71
     3
 72
     8
 73
     4
 74
     0
 42
0.0000000001
 43
0.0000000001
 40
0.0
 40
0.0
 40
0.0
 40
0.0
 40
1.0
 40
1.0
 40
1.0
 40
1.0
 10
241.7406193840092
 20
-76.79566525857893
 30
0.0
 10
241.7406193840092
 20
-73.88782387041707
 30
0.0
 10
239.3838461150315
 20
-71.53052748211752
 30
0.0
 10
236.4761811892122
 20
-71.53052748211752
 30
0.0
  0
SPLINE
  5
311
330
70
100
AcDbEntity
  8
Ebene 1
 62
    18
420
        0
370
     9
100
AcDbSpline
210
0.0
220
0.0
230
1.0
 70
     8
 71
     3
 72
     8
 73
     4
 74
     0
 42
0.0000000001
 43
0.0000000001
 40
0.0
 40
0.0
 40
0.0
 40
0.0
 40
1.0
 40
1.0
 40
1.0
 40
1.0
 10
270.5288667093447
 20
-132.6492774668378
 30
0.0
 10
270.5288667093447
 20
-132.7741608001397
 30
0.0
 10
270.6294789290002
 20
-132.8756196890034
 30
0.0
 10
270.7538330924943
 20
-132.8780185778914
 30
0.0
  0
SPLINE
  5
312
330
70
100
AcDbEntity
  8
Ebene 1
 62
    18
420
        0
370
     9
100
AcDbSpline
210
0.0
220
0.0
230
1.0
 70
     8
 71
     3
 72
     8
 73
     4
 74
     0
 42
0.0000000001
 43
0.0000000001
 40
0.0
 40
0.0
 40
0.0
 40
0.0
 40
1.0
 40
1.0
 40
1.0
 40
1.0
 10
269.6145372882268
 20
-124.880228857669
 30
0.0
 10
269.6145372882268
 20
-124.9808410798658
 30
0.0
 10
269.6951470083925
 20
-125.0621210798456
 30
0.0
 10
269.7957592280479
 20
-125.0634969131785
 30
0.0
  0
SPLINE
  5
313
330
70
100
AcDbEntity
  8
Ebene 1
 62
    18
420
        0
370
     9
100
AcDbSpline
210
0.0
220
0.0
230
1.0
 70
     8
 71
     3
 72
     8
 73
     4
 74
     0
 42
0.0000000001
 43
0.0000000001
 40
0.0
 40
0.0
 40
0.0
 40
0.0
 40
1.0
 40
1.0
 40
1.0
 40
1.0
 10
269.6145372882268
 20
-134.9683327440358
 30
0.0
 10
269.6145372882268
 20
-135.0308449662424
 30
0.0
 10
269.6641378425169
 20
-135.0818566328962
 30
0.0
 10
269.7265089520368
 20
-135.0828796884513
 30
0.0
  0
SPLINE
  5
314
330
70
100
AcDbEntity
  8
Ebene 1
 62
    18
420
        0
370
     9
100
AcDbSpline
210
0.0
220
0.0
230
1.0
 70
     8
 71
     3
 72
     8
 73
     4
 74
     0
 42
0.0000000001
 43
0.0000000001
 40
0.0
 40
0.0
 40
0.0
 40
0.0
 40
1.0
 40
1.0
 40
1.0
 40
1.0
 10
269.6145372882268
 20
-121.5826033029378
 30
0.0
 10
269.6145372882268
 20
-121.4816383029629
 30
0.0
 10
269.5332572903004
 20
-121.4000055252056
 30
0.0
 10
269.432645070645
 20
-121.3992999696501
 30
0.0
  0
SPLINE
  5
315
330
70
100
AcDbEntity
  8
Ebene 1
 62
    18
420
        0
370
     9
100
AcDbSpline
210
0.0
220
0.0
230
1.0
 70
     8
 71
     3
 72
     8
 73
     4
 74
     0
 42
0.0000000001
 43
0.0000000001
 40
0.0
 40
0.0
 40
0.0
 40
0.0
 40
1.0
 40
1.0
 40
1.0
 40
1.0
 10
268.8800539736317
 20
-112.279288860819
 30
0.0
 10
268.779794531745
 20
-112.2797827497078
 30
0.0
 10
268.6991915994917
 20
-112.3614508052429
 30
0.0
 10
268.6991915994917
 20
-112.4617102496623
 30
0.0
  0
SPLINE
  5
316
330
70
100
AcDbEntity
  8
Ebene 1
 62
    18
420
        0
370
     9
100
AcDbSpline
210
0.0
220
0.0
230
1.0
 70
     8
 71
     3
 72
     8
 73
     4
 74
     0
 42
0.0000000001
 43
0.0000000001
 40
0.0
 40
0.0
 40
0.0
 40
0.0
 40
1.0
 40
1.0
 40
1.0
 40
1.0
 10
268.6991915994917
 20
-121.2110224696972
 30
0.0
 10
268.6991915994917
 20
-121.312163858561
 30
0.0
 10
268.779794531745
 20
-121.3934438585405
 30
0.0
 10
268.8800539736317
 20
-121.3948196918737
 30
0.0
  0
SPLINE
  5
317
330
70
100
AcDbEntity
  8
Ebene 1
 62
    18
420
        0
370
     9
100
AcDbSpline
210
0.0
220
0.0
230
1.0
 70
     8
 71
     3
 72
     8
 73
     4
 74
     0
 42
0.0000000001
 43
0.0000000001
 40
0.0
 40
0.0
 40
0.0
 40
0.0
 40
1.0
 40
1.0
 40
1.0
 40
1.0
 10
271.9062169519834
 20
-133.8505563554261
 30
0.0
 10
271.9196577849738
 20
-133.9143032998546
 30
0.0
 10
271.9589219506387
 20
-133.9704655220628
 30
0.0
 10
272.0157897269657
 20
-134.0028505220547
 30
0.0
  0
SPLINE
  5
318
330
70
100
AcDbEntity
  8
Ebene 1
 62
    18
420
        0
370
     9
100
AcDbSpline
210
0.0
220
0.0
230
1.0
 70
     8
 71
     3
 72
     8
 73
     4
 74
     0
 42
0.0000000001
 43
0.0000000001
 40
0.0
 40
0.0
 40
0.0
 40
0.0
 40
1.0
 40
1.0
 40
1.0
 40
1.0
 10
271.9013838965511
 20
-133.8510855220927
 30
0.0
 10
271.9013838965511
 20
-133.9332474665166
 30
0.0
 10
271.9571933395717
 20
-134.0059549664986
 30
0.0
 10
272.0364693764355
 20
-134.0276507998264
 30
0.0
  0
SPLINE
  5
319
330
70
100
AcDbEntity
  8
Ebene 1
 62
    18
420
        0
370
     9
100
AcDbSpline
210
0.0
220
0.0
230
1.0
 70
     8
 71
     3
 72
     8
 73
     4
 74
     0
 42
0.0000000001
 43
0.0000000001
 40
0.0
 40
0.0
 40
0.0
 40
0.0
 40
1.0
 40
1.0
 40
1.0
 40
1.0
 10
273.701467739516
 20
-130.1841369118983
 30
0.0
 10
273.5791665982719
 20
-130.1882644118972
 30
0.0
 10
273.4806288562612
 20
-130.2893705229832
 30
0.0
 10
273.4806288562612
 20
-130.4125252451747
 30
0.0
  0
SPLINE
  5
31A
330
70
100
AcDbEntity
  8
Ebene 1
 62
    18
420
        0
370
     9
100
AcDbSpline
210
0.0
220
0.0
230
1.0
 70
     8
 71
     3
 72
     8
 73
     4
 74
     0
 42
0.0000000001
 43
0.0000000001
 40
0.0
 40
0.0
 40
0.0
 40
0.0
 40
1.0
 40
1.0
 40
1.0
 40
1.0
 10
273.6580407961795
 20
-130.1860419118978
 30
0.0
 10
273.5588396875992
 20
-130.1894638563416
 30
0.0
 10
273.4806288562612
 20
-130.2697560785438
 30
0.0
 10
273.4806288562612
 20
-130.3682869118522
 30
0.0
  0
SPLINE
  5
31B
330
70
100
AcDbEntity
  8
Ebene 1
 62
    18
420
        0
370
     9
100
AcDbSpline
210
0.0
220
0.0
230
1.0
 70
     8
 71
     3
 72
     8
 73
     4
 74
     0
 42
0.0000000001
 43
0.0000000001
 40
0.0
 40
0.0
 40
0.0
 40
0.0
 40
1.0
 40
1.0
 40
1.0
 40
1.0
 10
273.4806288562612
 20
-132.9446935778749
 30
0.0
 10
273.4806288562612
 20
-133.0202938556339
 30
0.0
 10
273.5426471880123
 20
-133.0816419111741
 30
0.0
 10
273.6184238527457
 20
-133.0816419111741
 30
0.0
  0
SPLINE
  5
31C
330
70
100
AcDbEntity
  8
Ebene 1
 62
    18
420
        0
370
     9
100
AcDbSpline
210
0.0
220
0.0
230
1.0
 70
     8
 71
     3
 72
     8
 73
     4
 74
     0
 42
0.0000000001
 43
0.0000000001
 40
0.0
 40
0.0
 40
0.0
 40
0.0
 40
1.0
 40
1.0
 40
1.0
 40
1.0
 10
274.6481821598078
 20
-135.0561744106804
 30
0.0
 10
274.6481821598078
 20
-135.1190394106648
 30
0.0
 10
274.6977827140979
 20
-135.1696982995408
 30
0.0
 10
274.7601538236178
 20
-135.1708977439852
 30
0.0
  0
SPLINE
  5
31D
330
70
100
AcDbEntity
  8
Ebene 1
 62
    18
420
        0
370
     9
100
AcDbSpline
210
0.0
220
0.0
230
1.0
 70
     8
 71
     3
 72
     8
 73
     4
 74
     0
 42
0.0000000001
 43
0.0000000001
 40
0.0
 40
0.0
 40
0.0
 40
0.0
 40
1.0
 40
1.0
 40
1.0
 40
1.0
 10
274.6481821598078
 20
-125.3327369131113
 30
0.0
 10
274.6481821598078
 20
-125.206830524254
 30
0.0
 10
274.546546884623
 20
-125.1048424687239
 30
0.0
 10
274.4207816100537
 20
-125.1034666353907
 30
0.0
  0
SPLINE
  5
31E
330
70
100
AcDbEntity
  8
Ebene 1
 62
    18
420
        0
370
     9
100
AcDbSpline
210
0.0
220
0.0
230
1.0
 70
     8
 71
     3
 72
     8
 73
     4
 74
     0
 42
0.0000000001
 43
0.0000000001
 40
0.0
 40
0.0
 40
0.0
 40
0.0
 40
1.0
 40
1.0
 40
1.0
 40
1.0
 10
274.4207816100537
 20
-112.2301821941648
 30
0.0
 10
274.546546884623
 20
-112.2296530274981
 30
0.0
 10
274.647829382039
 20
-112.127523860857
 30
0.0
 10
274.647829382039
 20
-112.0017938608883
 30
0.0
  0
SPLINE
  5
31F
330
70
100
AcDbEntity
  8
Ebene 1
 62
    18
420
        0
370
     9
100
AcDbSpline
210
0.0
220
0.0
230
1.0
 70
     8
 71
     3
 72
     8
 73
     4
 74
     0
 42
0.0000000001
 43
0.0000000001
 40
0.0
 40
0.0
 40
0.0
 40
0.0
 40
1.0
 40
1.0
 40
1.0
 40
1.0
 10
268.6991915994917
 20
-103.3645944186034
 30
0.0
 10
268.6991915994917
 20
-103.4651713630224
 30
0.0
 10
268.779794531745
 20
-103.5464866407801
 30
0.0
 10
268.8800539736317
 20
-103.547862474113
 30
0.0
  0
SPLINE
  5
320
330
70
100
AcDbEntity
  8
Ebene 1
 62
    18
420
        0
370
     9
100
AcDbSpline
210
0.0
220
0.0
230
1.0
 70
     8
 71
     3
 72
     8
 73
     4
 74
     0
 42
0.0000000001
 43
0.0000000001
 40
0.0
 40
0.0
 40
0.0
 40
0.0
 40
1.0
 40
1.0
 40
1.0
 40
1.0
 10
268.8800539736317
 20
-94.43229636528082
 30
0.0
 10
268.779794531745
 20
-94.43282553194746
 30
0.0
 10
268.6991915994917
 20
-94.51498747637135
 30
0.0
 10
268.6991915994917
 20
-94.61471775412411
 30
0.0
  0
SPLINE
  5
321
330
70
100
AcDbEntity
  8
Ebene 1
 62
    18
420
        0
370
     9
100
AcDbSpline
210
0.0
220
0.0
230
1.0
 70
     8
 71
     3
 72
     8
 73
     4
 74
     0
 42
0.0000000001
 43
0.0000000001
 40
0.0
 40
0.0
 40
0.0
 40
0.0
 40
1.0
 40
1.0
 40
1.0
 40
1.0
 10
269.6145372882268
 20
-94.24437164310566
 30
0.0
 10
269.6145372882268
 20
-94.3442783097473
 30
0.0
 10
269.5332572903004
 20
-94.4262638652823
 30
0.0
 10
269.432645070645
 20
-94.42696942083783
 30
0.0
  0
SPLINE
  5
322
330
70
100
AcDbEntity
  8
Ebene 1
 62
    18
420
        0
370
     9
100
AcDbSpline
210
0.0
220
0.0
230
1.0
 70
     8
 71
     3
 72
     8
 73
     4
 74
     0
 42
0.0000000001
 43
0.0000000001
 40
0.0
 40
0.0
 40
0.0
 40
0.0
 40
1.0
 40
1.0
 40
1.0
 40
1.0
 10
269.7265089520368
 20
-78.96778859136912
 30
0.0
 10
269.6641378425169
 20
-78.969164424702
 30
0.0
 10
269.6145372882268
 20
-79.01982331357834
 30
0.0
 10
269.6145372882268
 20
-79.08251192467385
 30
0.0
  0
SPLINE
  5
323
330
70
100
AcDbEntity
  8
Ebene 1
 62
    18
420
        0
370
     9
100
AcDbSpline
210
0.0
220
0.0
230
1.0
 70
     8
 71
     3
 72
     8
 73
     4
 74
     0
 42
0.0000000001
 43
0.0000000001
 40
0.0
 40
0.0
 40
0.0
 40
0.0
 40
1.0
 40
1.0
 40
1.0
 40
1.0
 10
272.9345994257471
 20
-91.50173608823569
 30
0.0
 10
272.8932538712464
 20
-91.48931831046091
 30
0.0
 10
272.8498269279099
 20
-91.4827919215736
 30
0.0
 10
272.8067527623421
 20
-91.48208636601841
 30
0.0
  0
SPLINE
  5
324
330
70
100
AcDbEntity
  8
Ebene 1
 62
    18
420
        0
370
     9
100
AcDbSpline
210
0.0
220
0.0
230
1.0
 70
     8
 71
     3
 72
     8
 73
     4
 74
     0
 42
0.0000000001
 43
0.0000000001
 40
0.0
 40
0.0
 40
0.0
 40
0.0
 40
1.0
 40
1.0
 40
1.0
 40
1.0
 10
273.50614159829
 20
-98.5374655309212
 30
0.0
 10
273.6311944079755
 20
-98.5362660864772
 30
0.0
 10
273.7327944053835
 20
-98.4346308087246
 30
0.0
 10
273.7327944053835
 20
-98.30890080875613
 30
0.0
  0
SPLINE
  5
325
330
70
100
AcDbEntity
  8
Ebene 1
 62
    18
420
        0
370
     9
100
AcDbSpline
210
0.0
220
0.0
230
1.0
 70
     8
 71
     3
 72
     8
 73
     4
 74
     0
 42
0.0000000001
 43
0.0000000001
 40
0.0
 40
0.0
 40
0.0
 40
0.0
 40
1.0
 40
1.0
 40
1.0
 40
1.0
 10
274.6171729939322
 20
-103.7108105296278
 30
0.0
 10
274.5975232722113
 20
-103.6760266407476
 30
0.0
 10
274.5685954951716
 20
-103.6470635851994
 30
0.0
 10
274.5334588294013
 20
-103.6267435852044
 30
0.0
  0
SPLINE
  5
326
330
70
100
AcDbEntity
  8
Ebene 1
 62
    18
420
        0
370
     9
100
AcDbSpline
210
0.0
220
0.0
230
1.0
 70
     8
 71
     3
 72
     8
 73
     4
 74
     0
 42
0.0000000001
 43
0.0000000001
 40
0.0
 40
0.0
 40
0.0
 40
0.0
 40
1.0
 40
1.0
 40
1.0
 40
1.0
 10
272.1308305573641
 20
-97.18650303125899
 30
0.0
 10
272.2569554874915
 20
-97.18650303125899
 30
0.0
 10
272.3599244404084
 20
-97.08486775350671
 30
0.0
 10
272.3599244404084
 20
-96.95772664242722
 30
0.0
  0
SPLINE
  5
327
330
70
100
AcDbEntity
  8
Ebene 1
 62
    18
420
        0
370
     9
100
AcDbSpline
210
0.0
220
0.0
230
1.0
 70
     8
 71
     3
 72
     8
 73
     4
 74
     0
 42
0.0000000001
 43
0.0000000001
 40
0.0
 40
0.0
 40
0.0
 40
0.0
 40
1.0
 40
1.0
 40
1.0
 40
1.0
 10
273.8458244024999
 20
-96.70450275360153
 30
0.0
 10
273.7831005152112
 20
-96.70503192026815
 30
0.0
 10
273.7327944053835
 20
-96.75586719803337
 30
0.0
 10
273.7327944053835
 20
-96.81855580912856
 30
0.0
  0
SPLINE
  5
328
330
70
100
AcDbEntity
  8
Ebene 1
 62
    18
420
        0
370
     9
100
AcDbSpline
210
0.0
220
0.0
230
1.0
 70
     8
 71
     3
 72
     8
 73
     4
 74
     0
 42
0.0000000001
 43
0.0000000001
 40
0.0
 40
0.0
 40
0.0
 40
0.0
 40
1.0
 40
1.0
 40
1.0
 40
1.0
 10
274.5341360424777
 20
-103.5345980296719
 30
0.0
 10
274.5975232722113
 20
-103.5340688630053
 30
0.0
 10
274.6481821598078
 20
-103.4834452519068
 30
0.0
 10
274.6481821598078
 20
-103.4207213630338
 30
0.0
  0
SPLINE
  5
329
330
70
100
AcDbEntity
  8
Ebene 1
 62
    18
420
        0
370
     9
100
AcDbSpline
210
0.0
220
0.0
230
1.0
 70
     8
 71
     3
 72
     8
 73
     4
 74
     0
 42
0.0000000001
 43
0.0000000001
 40
0.0
 40
0.0
 40
0.0
 40
0.0
 40
1.0
 40
1.0
 40
1.0
 40
1.0
 10
272.0157897269657
 20
-96.71967219804237
 30
0.0
 10
271.9641077838398
 20
-96.72055414248646
 30
0.0
 10
271.9196577849738
 20
-96.75516164247786
 30
0.0
 10
271.9055466742227
 20
-96.80476219802091
 30
0.0
  0
SPLINE
  5
32A
330
70
100
AcDbEntity
  8
Ebene 1
 62
    18
420
        0
370
     9
100
AcDbSpline
210
0.0
220
0.0
230
1.0
 70
     8
 71
     3
 72
     8
 73
     4
 74
     0
 42
0.0000000001
 43
0.0000000001
 40
0.0
 40
0.0
 40
0.0
 40
0.0
 40
1.0
 40
1.0
 40
1.0
 40
1.0
 10
274.4204641100618
 20
-90.73761942175998
 30
0.0
 10
274.5458413290854
 20
-90.73691386620479
 30
0.0
 10
274.6481821598078
 20
-90.63496108845226
 30
0.0
 10
274.6481821598078
 20
-90.50901942181708
 30
0.0
  0
SPLINE
  5
32B
330
70
100
AcDbEntity
  8
Ebene 1
 62
    18
420
        0
370
     9
100
AcDbSpline
210
0.0
220
0.0
230
1.0
 70
     8
 71
     3
 72
     8
 73
     4
 74
     0
 42
0.0000000001
 43
0.0000000001
 40
0.0
 40
0.0
 40
0.0
 40
0.0
 40
1.0
 40
1.0
 40
1.0
 40
1.0
 10
273.9009282899829
 20
-80.00837720222012
 30
0.0
 10
273.8017271814026
 20
-80.03543525776878
 30
0.0
 10
273.7327944053835
 20
-80.1260285910795
 30
0.0
 10
273.7327944053835
 20
-80.22939247994276
 30
0.0
  0
SPLINE
  5
32C
330
70
100
AcDbEntity
  8
Ebene 1
 62
    18
420
        0
370
     9
100
AcDbSpline
210
0.0
220
0.0
230
1.0
 70
     8
 71
     3
 72
     8
 73
     4
 74
     0
 42
0.0000000001
 43
0.0000000001
 40
0.0
 40
0.0
 40
0.0
 40
0.0
 40
1.0
 40
1.0
 40
1.0
 40
1.0
 10
272.0850047251999
 20
-80.02079497999488
 30
0.0
 10
271.9785716723597
 20
-80.04333747998929
 30
0.0
 10
271.9013838965511
 20
-80.13654136885474
 30
0.0
 10
271.9013838965511
 20
-80.24505581327209
 30
0.0
  0
SPLINE
  5
32D
330
70
100
AcDbEntity
  8
Ebene 1
 62
    18
420
        0
370
     9
100
AcDbSpline
210
0.0
220
0.0
230
1.0
 70
     8
 71
     3
 72
     8
 73
     4
 74
     0
 42
0.0000000001
 43
0.0000000001
 40
0.0
 40
0.0
 40
0.0
 40
0.0
 40
1.0
 40
1.0
 40
1.0
 40
1.0
 10
272.0364693764355
 20
-80.02301747999434
 30
0.0
 10
271.9571933395717
 20
-80.04506609109993
 30
0.0
 10
271.9013838965511
 20
-80.11777359108156
 30
0.0
 10
271.9013838965511
 20
-80.199582757728
 30
0.0
  0
SPLINE
  5
32E
330
70
100
AcDbEntity
  8
Ebene 1
 62
    18
420
        0
370
     9
100
AcDbSpline
210
0.0
220
0.0
230
1.0
 70
     8
 71
     3
 72
     8
 73
     4
 74
     0
 42
0.0000000001
 43
0.0000000001
 40
0.0
 40
0.0
 40
0.0
 40
0.0
 40
1.0
 40
1.0
 40
1.0
 40
1.0
 10
274.7601538236178
 20
-78.87994692472448
 30
0.0
 10
274.6977827140979
 20
-78.8809699802796
 30
0.0
 10
274.6481821598078
 20
-78.9324755358225
 30
0.0
 10
274.6481821598078
 20
-78.99449386914032
 30
0.0
  0
SPLINE
  5
32F
330
70
100
AcDbEntity
  8
Ebene 1
 62
    18
420
        0
370
     9
100
AcDbSpline
210
0.0
220
0.0
230
1.0
 70
     8
 71
     3
 72
     8
 73
     4
 74
     0
 42
0.0000000001
 43
0.0000000001
 40
0.0
 40
0.0
 40
0.0
 40
0.0
 40
1.0
 40
1.0
 40
1.0
 40
1.0
 10
279.2236110413052
 20
-135.6981946882975
 30
0.0
 10
279.2236110413052
 20
-135.4483927439156
 30
0.0
 10
279.0237906592878
 20
-135.2453338550774
 30
0.0
 10
278.774376776762
 20
-135.2403244106344
 30
0.0
  0
SPLINE
  5
330
330
70
100
AcDbEntity
  8
Ebene 1
 62
    18
420
        0
370
     9
100
AcDbSpline
210
0.0
220
0.0
230
1.0
 70
     8
 71
     3
 72
     8
 73
     4
 74
     0
 42
0.0000000001
 43
0.0000000001
 40
0.0
 40
0.0
 40
0.0
 40
0.0
 40
1.0
 40
1.0
 40
1.0
 40
1.0
 10
283.573389154329
 20
-144.5241655194244
 30
0.0
 10
283.6987663733526
 20
-144.5231424638693
 30
0.0
 10
283.8000841485455
 20
-144.4209780194504
 30
0.0
 10
283.8000841485455
 20
-144.295071630593
 30
0.0
  0
SPLINE
  5
331
330
70
100
AcDbEntity
  8
Ebene 1
 62
    18
420
        0
370
     9
100
AcDbSpline
210
0.0
220
0.0
230
1.0
 70
     8
 71
     3
 72
     8
 73
     4
 74
     0
 42
0.0000000001
 43
0.0000000001
 40
0.0
 40
0.0
 40
0.0
 40
0.0
 40
1.0
 40
1.0
 40
1.0
 40
1.0
 10
279.2236110413052
 20
-143.4930666307935
 30
0.0
 10
279.2236110413052
 20
-143.5564255196664
 30
0.0
 10
279.2745803751119
 20
-143.6070844085427
 30
0.0
 10
279.3373042624005
 20
-143.6077546863204
 30
0.0
  0
SPLINE
  5
332
330
70
100
AcDbEntity
  8
Ebene 1
 62
    18
420
        0
370
     9
100
AcDbSpline
210
0.0
220
0.0
230
1.0
 70
     8
 71
     3
 72
     8
 73
     4
 74
     0
 42
0.0000000001
 43
0.0000000001
 40
0.0
 40
0.0
 40
0.0
 40
0.0
 40
1.0
 40
1.0
 40
1.0
 40
1.0
 10
280.1393092419397
 20
-143.7283341307345
 30
0.0
 10
280.1393092419397
 20
-143.6656455196393
 30
0.0
 10
280.0883328543513
 20
-143.6143163529852
 30
0.0
 10
280.0256089670626
 20
-143.6137871863186
 30
0.0
  0
SPLINE
  5
333
330
70
100
AcDbEntity
  8
Ebene 1
 62
    18
420
        0
370
     9
100
AcDbSpline
210
0.0
220
0.0
230
1.0
 70
     8
 71
     3
 72
     8
 73
     4
 74
     0
 42
0.0000000001
 43
0.0000000001
 40
0.0
 40
0.0
 40
0.0
 40
0.0
 40
1.0
 40
1.0
 40
1.0
 40
1.0
 10
278.774376776762
 20
-78.81034386918639
 30
0.0
 10
279.0237906592878
 20
-78.8055108136319
 30
0.0
 10
279.2236110413052
 20
-78.60259303590476
 30
0.0
 10
279.2236110413052
 20
-78.35268525818964
 30
0.0
  0
SPLINE
  5
334
330
70
100
AcDbEntity
  8
Ebene 1
 62
    18
420
        0
370
     9
100
AcDbSpline
210
0.0
220
0.0
230
1.0
 70
     8
 71
     3
 72
     8
 73
     4
 74
     0
 42
0.0000000001
 43
0.0000000001
 40
0.0
 40
0.0
 40
0.0
 40
0.0
 40
1.0
 40
1.0
 40
1.0
 40
1.0
 10
283.8000841485455
 20
-71.53052748211752
 30
0.0
 10
283.8000841485455
 20
-71.40546775992643
 30
0.0
 10
283.6987663733526
 20
-71.3034797043964
 30
0.0
 10
283.573389154329
 20
-71.30210387106351
 30
0.0
  0
SPLINE
  5
335
330
70
100
AcDbEntity
  8
Ebene 1
 62
    18
420
        0
370
     9
100
AcDbSpline
210
0.0
220
0.0
230
1.0
 70
     8
 71
     3
 72
     8
 73
     4
 74
     0
 42
0.0000000001
 43
0.0000000001
 40
0.0
 40
0.0
 40
0.0
 40
0.0
 40
1.0
 40
1.0
 40
1.0
 40
1.0
 10
279.3373042624005
 20
-72.21869109305639
 30
0.0
 10
279.2745803751119
 20
-72.21918498194519
 30
0.0
 10
279.2236110413052
 20
-72.27019664859897
 30
0.0
 10
279.2236110413052
 20
-72.33253248191672
 30
0.0
  0
SPLINE
  5
336
330
70
100
AcDbEntity
  8
Ebene 1
 62
    18
420
        0
370
     9
100
AcDbSpline
210
0.0
220
0.0
230
1.0
 70
     8
 71
     3
 72
     8
 73
     4
 74
     0
 42
0.0000000001
 43
0.0000000001
 40
0.0
 40
0.0
 40
0.0
 40
0.0
 40
1.0
 40
1.0
 40
1.0
 40
1.0
 10
280.0256089670626
 20
-72.21230581528011
 30
0.0
 10
280.0662842438027
 20
-72.21230581528011
 30
0.0
 10
280.1034670206318
 20
-72.19025720417453
 30
0.0
 10
280.1238222978903
 20
-72.15476775973903
 30
0.0
  0
ENDSEC
  0
SECTION
  2
OBJECTS
  0
DICTIONARY
  5
C
330
0
100
AcDbDictionary
281
     1
  3
ACAD_COLOR
350
63
  3
ACAD_DETAILVIEWSTYLE
350
6A
  3
ACAD_GROUP
350
D
  3
ACAD_LAYOUT
350
62
  3
ACAD_MATERIAL
350
10
  3
ACAD_MLEADERSTYLE
350
66
  3
ACAD_MLINESTYLE
350
5F
  3
ACAD_PLOTSETTINGS
350
61
  3
ACAD_PLOTSTYLENAME
350
E
  3
ACAD_SCALELIST
350
42
  3
ACAD_SECTIONVIEWSTYLE
350
68
  3
ACAD_TABLESTYLE
350
64
  3
ACAD_VISUALSTYLE
350
29
  3
ACDB_RECOMPOSE_DATA
350
340
  3
AcDbVariableDictionary
350
337
  0
DICTIONARY
  5
63
102
{ACAD_REACTORS
330
C
102
}
330
C
100
AcDbDictionary
281
     1
  0
DICTIONARY
  5
6A
102
{ACAD_REACTORS
330
C
102
}
330
C
100
AcDbDictionary
281
     1
  3
Imperial24
350
6B
  0
DICTIONARY
  5
D
102
{ACAD_REACTORS
330
C
102
}
330
C
100
AcDbDictionary
281
     1
  0
DICTIONARY
  5
62
102
{ACAD_REACTORS
330
C
102
}
330
C
100
AcDbDictionary
281
     1
  3
Layout1
350
6F
  3
Layout2
350
77
  3
Model
350
73
  0
DICTIONARY
  5
10
102
{ACAD_REACTORS
330
C
102
}
330
C
100
AcDbDictionary
281
     1
  3
ByBlock
350
19
  3
ByLayer
350
11
  3
Global
350
21
  0
DICTIONARY
  5
66
102
{ACAD_REACTORS
330
C
102
}
330
C
100
AcDbDictionary
281
     1
  3
Standard
350
67
  0
DICTIONARY
  5
5F
102
{ACAD_REACTORS
330
C
102
}
330
C
100
AcDbDictionary
281
     1
  3
Standard
350
60
  0
DICTIONARY
  5
61
102
{ACAD_REACTORS
330
C
102
}
330
C
100
AcDbDictionary
281
     1
  0
ACDBDICTIONARYWDFLT
  5
E
102
{ACAD_REACTORS
330
C
102
}
330
C
100
AcDbDictionary
281
     1
  3
Normal
350
F
100
AcDbDictionaryWithDefault
340
F
  0
DICTIONARY
  5
42
102
{ACAD_REACTORS
330
C
102
}
330
C
100
AcDbDictionary
281
     1
  3
A0
350
43
  3
A1
350
44
  3
A2
350
45
  3
A3
350
46
  3
A4
350
47
  3
A5
350
48
  3
A6
350
49
  3
A7
350
4A
  3
A8
350
4B
  3
A9
350
4C
  3
B0
350
4D
  3
B1
350
4E
  3
B2
350
4F
  3
B3
350
50
  3
B4
350
51
  3
B5
350
52
  3
B6
350
53
  0
DICTIONARY
  5
68
102
{ACAD_REACTORS
330
C
102
}
330
C
100
AcDbDictionary
281
     1
  3
Imperial24
350
69
  0
DICTIONARY
  5
64
102
{ACAD_REACTORS
330
C
102
}
330
C
100
AcDbDictionary
281
     1
  3
Standard
350
65
  0
DICTIONARY
  5
29
102
{ACAD_REACTORS
330
C
102
}
330
C
100
AcDbDictionary
281
     1
  3
2dWireframe
350
2F
  3
Basic
350
2E
  3
Brighten
350
35
  3
ColorChange
350
39
  3
Conceptual
350
32
  3
Dim
350
34
  3
EdgeColorOff
350
41
  3
Facepattern
350
38
  3
Flat
350
2A
  3
FlatWithEdges
350
2B
  3
Gouraud
350
2C
  3
GouraudWithEdges
350
2D
  3
Hidden
350
31
  3
JitterOff
350
3F
  3
Linepattern
350
37
  3
OverhangOff
350
40
  3
Realistic
350
33
  3
Shaded
350
3E
  3
Shaded with edges
350
3D
  3
Shades of Gray
350
3A
  3
Sketchy
350
3B
  3
Thicken
350
36
  3
Wireframe
350
30
  3
X-Ray
350
3C
  0
XRECORD
  5
340
102
{ACAD_REACTORS
330
C
102
}
330
C
100
AcDbXrecord
280
     1
 90
        1
330
65
  0
DICTIONARY
  5
337
102
{ACAD_REACTORS
330
C
102
}
330
C
100
AcDbDictionary
281
     1
  3
CANNOSCALE
350
33C
  3
CMLEADERSTYLE
350
339
  3
CTABLESTYLE
350
338
  3
CVIEWDETAILSTYLE
350
33A
  3
CVIEWSECTIONSTYLE
350
33B
  0
ACDBDETAILVIEWSTYLE
  5
6B
102
{ACAD_XDICTIONARY
360
375
102
}
102
{ACAD_REACTORS
330
6A
102
}
330
6A
100
AcDbModelDocViewStyle
 70
     0
  3
Imperial24
290
     0
100
AcDbDetailViewStyle
 70
     0
 71
     0
 90
        3
 71
     1
340
55
 62
   256
 40
0.24
340
0
 62
   256
 40
0.24
300

 40
0.36
280
     3
 71
     2
340
5D
 90
       25
 62
   256
 71
     3
340
55
 62
   256
 40
0.24
 90
        1
 40
0.75
 90
        1
300
%<\AcVar ViewType \f "%tc1">% %<\AcVar ViewDetailId>%\PSCALE %<\AcVar ViewScale \f "%sn">%
 71
     4
340
5D
 90
       25
 62
   256
340
5D
 90
       25
 62
   256
280
     0
  0
LAYOUT
  5
6F
102
{ACAD_REACTORS
330
62
102
}
330
62
100
AcDbPlotSettings
  1

  2

  4

  6

 40
0.0
 41
0.0
 42
0.0
 43
0.0
 44
0.0
 45
0.0
 46
0.0
 47
0.0
 48
0.0
 49
0.0
140
0.0
141
0.0
142
1.0
143
1.0
 70
   688
 72
     0
 73
     0
 74
     5
  7

 75
    16
147
1.0
 76
     0
 77
     2
 78
   300
148
0.0
149
0.0
100
AcDbLayout
  1
Layout1
 70
     1
 71
     1
 10
0.0
 20
0.0
 11
12.0
 21
9.0
 12
0.0
 22
0.0
 32
0.0
 14
0.0
 24
0.0
 34
0.0
 15
0.0
 25
0.0
 35
0.0
146
0.0
 13
0.0
 23
0.0
 33
0.0
 16
1.0
 26
0.0
 36
0.0
 17
0.0
 27
1.0
 37
0.0
 76
     0
330
6C
  0
LAYOUT
  5
77
102
{ACAD_REACTORS
330
62
102
}
330
62
100
AcDbPlotSettings
  1

  2

  4

  6

 40
0.0
 41
0.0
 42
0.0
 43
0.0
 44
0.0
 45
0.0
 46
0.0
 47
0.0
 48
0.0
 49
0.0
140
0.0
141
0.0
142
1.0
143
1.0
 70
   688
 72
     0
 73
     0
 74
     5
  7

 75
    16
147
1.0
 76
     0
 77
     2
 78
   300
148
0.0
149
0.0
100
AcDbLayout
  1
Layout2
 70
     1
 71
     2
 10
0.0
 20
0.0
 11
12.0
 21
9.0
 12
0.0
 22
0.0
 32
0.0
 14
0.0
 24
0.0
 34
0.0
 15
0.0
 25
0.0
 35
0.0
146
0.0
 13
0.0
 23
0.0
 33
0.0
 16
1.0
 26
0.0
 36
0.0
 17
0.0
 27
1.0
 37
0.0
 76
     0
330
74
  0
LAYOUT
  5
73
102
{ACAD_REACTORS
330
62
102
}
330
62
100
AcDbPlotSettings
  1

  2

  4

  6

 40
0.0
 41
0.0
 42
0.0
 43
0.0
 44
0.0
 45
0.0
 46
0.0
 47
0.0
 48
0.0
 49
0.0
140
0.0
141
0.0
142
1.0
143
1.0
 70
  1712
 72
     0
 73
     0
 74
     0
  7

 75
     0
147
1.0
 76
     0
 77
     2
 78
   300
148
0.0
149
0.0
100
AcDbLayout
  1
Model
 70
     1
 71
     0
 10
0.0
 20
0.0
 11
12.0
 21
9.0
 12
0.0
 22
0.0
 32
0.0
 14
0.0
 24
0.0
 34
0.0
 15
0.0
 25
0.0
 35
0.0
146
0.0
 13
0.0
 23
0.0
 33
0.0
 16
1.0
 26
0.0
 36
0.0
 17
0.0
 27
1.0
 37
0.0
 76
     0
330
70
  0
MATERIAL
  5
19
102
{ACAD_XDICTIONARY
360
1A
102
}
102
{ACAD_REACTORS
330
10
102
}
330
10
100
AcDbMaterial
  1
ByBlock
 72
     0
 43
0.0208333333333333
 43
0.0
 43
0.0
 43
0.0
 43
0.0
 43
0.0208333333333333
 43
0.0
 43
0.0
 43
0.0
 43
0.0
 43
1.0
 43
0.0
 43
0.0
 43
0.0
 43
0.0
 43
1.0
 77
     0
 47
0.0208333333333333
 47
0.0
 47
0.0
 47
0.0
 47
0.0
 47
0.0208333333333333
 47
0.0
 47
0.0
 47
0.0
 47
0.0
 47
1.0
 47
0.0
 47
0.0
 47
0.0
 47
0.0
 47
1.0
171
     0
 49
0.0208333333333333
 49
0.0
 49
0.0
 49
0.0
 49
0.0
 49
0.0208333333333333
 49
0.0
 49
0.0
 49
0.0
 49
0.0
 49
1.0
 49
0.0
 49
0.0
 49
0.0
 49
0.0
 49
1.0
175
     0
142
0.0208333333333333
142
0.0
142
0.0
142
0.0
142
0.0
142
0.0208333333333333
142
0.0
142
0.0
142
0.0
142
0.0
142
1.0
142
0.0
142
0.0
142
0.0
142
0.0
142
1.0
179
     0
144
0.0208333333333333
144
0.0
144
0.0
144
0.0
144
0.0
144
0.0208333333333333
144
0.0
144
0.0
144
0.0
144
0.0
144
1.0
144
0.0
144
0.0
144
0.0
144
0.0
144
1.0
147
0.0208333333333333
147
0.0
147
0.0
147
0.0
147
0.0
147
0.0208333333333333
147
0.0
147
0.0
147
0.0
147
0.0
147
1.0
147
0.0
147
0.0
147
0.0
147
0.0
147
1.0
  0
MATERIAL
  5
11
102
{ACAD_XDICTIONARY
360
12
102
}
102
{ACAD_REACTORS
330
10
102
}
330
10
100
AcDbMaterial
  1
ByLayer
 72
     0
 43
0.0208333333333333
 43
0.0
 43
0.0
 43
0.0
 43
0.0
 43
0.0208333333333333
 43
0.0
 43
0.0
 43
0.0
 43
0.0
 43
1.0
 43
0.0
 43
0.0
 43
0.0
 43
0.0
 43
1.0
 77
     0
 47
0.0208333333333333
 47
0.0
 47
0.0
 47
0.0
 47
0.0
 47
0.0208333333333333
 47
0.0
 47
0.0
 47
0.0
 47
0.0
 47
1.0
 47
0.0
 47
0.0
 47
0.0
 47
0.0
 47
1.0
171
     0
 49
0.0208333333333333
 49
0.0
 49
0.0
 49
0.0
 49
0.0
 49
0.0208333333333333
 49
0.0
 49
0.0
 49
0.0
 49
0.0
 49
1.0
 49
0.0
 49
0.0
 49
0.0
 49
0.0
 49
1.0
175
     0
142
0.0208333333333333
142
0.0
142
0.0
142
0.0
142
0.0
142
0.0208333333333333
142
0.0
142
0.0
142
0.0
142
0.0
142
1.0
142
0.0
142
0.0
142
0.0
142
0.0
142
1.0
179
     0
144
0.0208333333333333
144
0.0
144
0.0
144
0.0
144
0.0
144
0.0208333333333333
144
0.0
144
0.0
144
0.0
144
0.0
144
1.0
144
0.0
144
0.0
144
0.0
144
0.0
144
1.0
147
0.0208333333333333
147
0.0
147
0.0
147
0.0
147
0.0
147
0.0208333333333333
147
0.0
147
0.0
147
0.0
147
0.0
147
1.0
147
0.0
147
0.0
147
0.0
147
0.0
147
1.0
  0
MATERIAL
  5
21
102
{ACAD_XDICTIONARY
360
22
102
}
102
{ACAD_REACTORS
330
10
102
}
330
10
100
AcDbMaterial
  1
Global
 72
     0
 43
0.0208333333333333
 43
0.0
 43
0.0
 43
0.0
 43
0.0
 43
0.0208333333333333
 43
0.0
 43
0.0
 43
0.0
 43
0.0
 43
1.0
 43
0.0
 43
0.0
 43
0.0
 43
0.0
 43
1.0
 77
     0
 47
0.0208333333333333
 47
0.0
 47
0.0
 47
0.0
 47
0.0
 47
0.0208333333333333
 47
0.0
 47
0.0
 47
0.0
 47
0.0
 47
1.0
 47
0.0
 47
0.0
 47
0.0
 47
0.0
 47
1.0
171
     0
 49
0.0208333333333333
 49
0.0
 49
0.0
 49
0.0
 49
0.0
 49
0.0208333333333333
 49
0.0
 49
0.0
 49
0.0
 49
0.0
 49
1.0
 49
0.0
 49
0.0
 49
0.0
 49
0.0
 49
1.0
175
     0
142
0.0208333333333333
142
0.0
142
0.0
142
0.0
142
0.0
142
0.0208333333333333
142
0.0
142
0.0
142
0.0
142
0.0
142
1.0
142
0.0
142
0.0
142
0.0
142
0.0
142
1.0
179
     0
144
0.0208333333333333
144
0.0
144
0.0
144
0.0
144
0.0
144
0.0208333333333333
144
0.0
144
0.0
144
0.0
144
0.0
144
1.0
144
0.0
144
0.0
144
0.0
144
0.0
144
1.0
147
0.0208333333333333
147
0.0
147
0.0
147
0.0
147
0.0
147
0.0208333333333333
147
0.0
147
0.0
147
0.0
147
0.0
147
1.0
147
0.0
147
0.0
147
0.0
147
0.0
147
1.0
  0
MLEADERSTYLE
  5
67
102
{ACAD_XDICTIONARY
360
371
102
}
102
{ACAD_REACTORS
330
66
102
}
330
66
100
AcDbMLeaderStyle
179
     2
170
     2
171
     1
172
     0
 90
        2
 40
0.0
 41
0.0
173
     1
 91
-1056964608
340
5B
 92
       -2
290
     1
 42
0.09
291
     1
 43
0.36
  3
Standard
 44
0.18
300

342
55
174
     1
178
     6
175
     1
176
     0
 93
-1056964608
 45
0.18
292
     0
297
     0
 46
0.18
 94
-1056964608
 47
1.0
 49
1.0
140
1.0
293
     1
141
0.0
294
     1
177
     0
142
1.0
295
     0
296
     0
143
0.125
271
     0
272
     9
273
     9
  0
MLINESTYLE
  5
60
102
{ACAD_REACTORS
330
5F
102
}
330
5F
100
AcDbMlineStyle
  2
STANDARD
 70
     0
  3

 62
   256
 51
90.0
 52
90.0
 71
     2
 49
0.5
 62
   256
  6
BYLAYER
 49
-0.5
 62
   256
  6
BYLAYER
  0
ACDBPLACEHOLDER
  5
F
102
{ACAD_REACTORS
330
E
102
}
330
E
  0
SCALE
  5
43
102
{ACAD_REACTORS
330
42
102
}
330
42
100
AcDbScale
 70
     0
300
1:1
140
1.0
141
1.0
290
     1
  0
SCALE
  5
44
102
{ACAD_REACTORS
330
42
102
}
330
42
100
AcDbScale
 70
     0
300
1/128" = 1'-0"
140
0.0078125
141
12.0
290
     0
  0
SCALE
  5
45
102
{ACAD_REACTORS
330
42
102
}
330
42
100
AcDbScale
 70
     0
300
1/64" = 1'-0"
140
0.015625
141
12.0
290
     0
  0
SCALE
  5
46
102
{ACAD_REACTORS
330
42
102
}
330
42
100
AcDbScale
 70
     0
300
1/32" = 1'-0"
140
0.03125
141
12.0
290
     0
  0
SCALE
  5
47
102
{ACAD_REACTORS
330
42
102
}
330
42
100
AcDbScale
 70
     0
300
1/16" = 1'-0"
140
0.0625
141
12.0
290
     0
  0
SCALE
  5
48
102
{ACAD_REACTORS
330
42
102
}
330
42
100
AcDbScale
 70
     0
300
3/32" = 1'-0"
140
0.09375
141
12.0
290
     0
  0
SCALE
  5
49
102
{ACAD_REACTORS
330
42
102
}
330
42
100
AcDbScale
 70
     0
300
1/8" = 1'-0"
140
0.125
141
12.0
290
     0
  0
SCALE
  5
4A
102
{ACAD_REACTORS
330
42
102
}
330
42
100
AcDbScale
 70
     0
300
3/16" = 1'-0"
140
0.1875
141
12.0
290
     0
  0
SCALE
  5
4B
102
{ACAD_REACTORS
330
42
102
}
330
42
100
AcDbScale
 70
     0
300
1/4" = 1'-0"
140
0.25
141
12.0
290
     0
  0
SCALE
  5
4C
102
{ACAD_REACTORS
330
42
102
}
330
42
100
AcDbScale
 70
     0
300
3/8" = 1'-0"
140
0.375
141
12.0
290
     0
  0
SCALE
  5
4D
102
{ACAD_REACTORS
330
42
102
}
330
42
100
AcDbScale
 70
     0
300
1/2" = 1'-0"
140
0.5
141
12.0
290
     0
  0
SCALE
  5
4E
102
{ACAD_REACTORS
330
42
102
}
330
42
100
AcDbScale
 70
     0
300
3/4" = 1'-0"
140
0.75
141
12.0
290
     0
  0
SCALE
  5
4F
102
{ACAD_REACTORS
330
42
102
}
330
42
100
AcDbScale
 70
     0
300
1" = 1'-0"
140
1.0
141
12.0
290
     0
  0
SCALE
  5
50
102
{ACAD_REACTORS
330
42
102
}
330
42
100
AcDbScale
 70
     0
300
1-1/2" = 1'-0"
140
1.5
141
12.0
290
     0
  0
SCALE
  5
51
102
{ACAD_REACTORS
330
42
102
}
330
42
100
AcDbScale
 70
     0
300
3" = 1'-0"
140
3.0
141
12.0
290
     0
  0
SCALE
  5
52
102
{ACAD_REACTORS
330
42
102
}
330
42
100
AcDbScale
 70
     0
300
6" = 1'-0"
140
6.0
141
12.0
290
     0
  0
SCALE
  5
53
102
{ACAD_REACTORS
330
42
102
}
330
42
100
AcDbScale
 70
     0
300
1'-0" = 1'-0"
140
12.0
141
12.0
290
     0
  0
ACDBSECTIONVIEWSTYLE
  5
69
102
{ACAD_XDICTIONARY
360
373
102
}
102
{ACAD_REACTORS
330
68
102
}
330
68
100
AcDbModelDocViewStyle
 70
     0
  3
Imperial24
290
     0
100
AcDbSectionViewStyle
 70
     0
 71
     0
 90
       78
 71
     1
340
55
 62
   256
 40
0.24
340
0
340
0
 62
   256
 40
0.24
300
I, O, Q, S, X, Z
 40
0.48
 90
        3
 40
0.18
 90
        1
 71
     2
340
5D
 90
       25
 62
   256
340
5D
 90
       50
 62
   256
 40
0.24
 40
0.0
 40
0.24
 71
     3
340
55
 62
   256
 40
0.24
 90
        1
 40
0.75
 90
        1
300
%<\AcVar ViewType \f "%tc1">% %<\AcVar ViewSectionStartId>%-%<\AcVar ViewSectionEndId>%\PSCALE %<\AcVar ViewScale \f "%sn">%
 71
     4
 62
   256
 62
   257
300
ANSI31
 40
1.0
 90
        0
290
     0
290
     0
 90
        6
 40
0.0
 40
1.570796326794896
 40
0.2617993877991494
 40
1.308996938995747
 40
-0.2617993877991494
 40
1.832595714594046
  0
TABLESTYLE
  5
65
102
{ACAD_XDICTIONARY
360
33D
102
}
102
{ACAD_REACTORS
330
64
102
}
330
64
100
AcDbTableStyle
280
     0
  3
Standard
 70
     0
 71
     0
 40
0.06
 41
0.06
280
     0
281
     0
  7
Standard
140
0.18
170
     2
 62
     0
 63
     7
283
     0
 90
      512
 91
        0
  1

274
    -2
284
     1
 64
     0
275
    -2
285
     1
 65
     0
276
    -2
286
     1
 66
     0
277
    -2
287
     1
 67
     0
278
    -2
288
     1
 68
     0
279
    -2
289
     1
 69
     0
  7
Standard
140
0.25
170
     5
 62
     0
 63
     7
283
     0
 90
      512
 91
        0
  1

274
    -2
284
     1
 64
     0
275
    -2
285
     1
 65
     0
276
    -2
286
     1
 66
     0
277
    -2
287
     1
 67
     0
278
    -2
288
     1
 68
     0
279
    -2
289
     1
 69
     0
  7
Standard
140
0.18
170
     5
 62
     0
 63
     7
283
     0
 90
      512
 91
        0
  1

274
    -2
284
     1
 64
     0
275
    -2
285
     1
 65
     0
276
    -2
286
     1
 66
     0
277
    -2
287
     1
 67
     0
278
    -2
288
     1
 68
     0
279
    -2
289
     1
 69
     0
  0
VISUALSTYLE
  5
2F
102
{ACAD_XDICTIONARY
360
34B
102
}
102
{ACAD_REACTORS
330
29
102
}
330
29
100
AcDbVisualStyle
  2
2dWireframe
 70
     4
177
     2
291
     0
 71
     0
176
     1
 72
     2
176
     1
 73
     0
176
     1
 90
        0
176
     1
 40
0.6
176
     1
 41
30.0
176
     1
 63
     7
421
 16777215
176
     1
 74
     1
176
     1
 91
        4
176
     1
 64
     7
176
     1
 65
   257
176
     1
 75
     1
176
     1
175
     1
176
     1
 42
1.0
176
     1
 92
        0
176
     1
 66
   257
176
     1
 43
1.0
176
     1
 76
     1
176
     1
 77
     6
176
     1
 78
     2
176
     1
 67
     7
176
     1
 79
     5
176
     1
170
     0
176
     1
171
     0
176
     1
290
     0
176
     1
 93
        1
176
     1
 44
0.0
176
     1
173
     0
176
     1
1001
ACAD
1000
AcDbSavedByObjectVersion
1070
     0
  0
VISUALSTYLE
  5
2E
102
{ACAD_XDICTIONARY
360
349
102
}
102
{ACAD_REACTORS
330
29
102
}
330
29
100
AcDbVisualStyle
  2
Basic
 70
     7
177
     2
291
     1
 71
     1
176
     1
 72
     0
176
     1
 73
     1
176
     1
 90
        0
176
     1
 40
0.6
176
     1
 41
30.0
176
     1
 63
     7
421
 16777215
176
     1
 74
     0
176
     1
 91
        4
176
     1
 64
     7
176
     1
 65
   257
176
     1
 75
     1
176
     1
175
     1
176
     1
 42
1.0
176
     1
 92
        8
176
     1
 66
     7
176
     1
 43
1.0
176
     1
 76
     1
176
     1
 77
     6
176
     1
 78
     2
176
     1
 67
     7
176
     1
 79
     5
176
     1
170
     0
176
     1
171
     0
176
     1
290
     0
176
     1
 93
        1
176
     1
 44
0.0
176
     1
173
     0
176
     1
1001
ACAD
1000
AcDbSavedByObjectVersion
1070
     0
  0
VISUALSTYLE
  5
35
102
{ACAD_XDICTIONARY
360
357
102
}
102
{ACAD_REACTORS
330
29
102
}
330
29
100
AcDbVisualStyle
  2
Brighten
 70
    12
177
     2
291
     1
 71
     2
176
     1
 72
     2
176
     1
 73
     0
176
     1
 90
        0
176
     1
 40
0.6
176
     1
 41
30.0
176
     1
 63
     7
421
 16777215
176
     1
 74
     1
176
     1
 91
        4
176
     1
 64
     7
176
     1
 65
   257
176
     1
 75
     1
176
     1
175
     1
176
     1
 42
1.0
176
     1
 92
        8
176
     1
 66
     7
176
     1
 43
1.0
176
     1
 76
     1
176
     1
 77
     6
176
     1
 78
     2
176
     1
 67
     7
176
     1
 79
     5
176
     1
170
     0
176
     1
171
     0
176
     1
290
     0
176
     1
 93
        1
176
     1
 44
50.0
176
     1
173
     0
176
     1
1001
ACAD
1000
AcDbSavedByObjectVersion
1070
     0
  0
VISUALSTYLE
  5
39
102
{ACAD_XDICTIONARY
360
35F
102
}
102
{ACAD_REACTORS
330
29
102
}
330
29
100
AcDbVisualStyle
  2
ColorChange
 70
    16
177
     2
291
     1
 71
     2
176
     1
 72
     2
176
     1
 73
     3
176
     1
 90
        0
176
     1
 40
0.6
176
     1
 41
30.0
176
     1
 63
     8
421
  8421504
176
     1
 74
     1
176
     1
 91
        4
176
     1
 64
     7
176
     1
 65
   257
176
     1
 75
     1
176
     1
175
     1
176
     1
 42
1.0
176
     1
 92
        8
176
     1
 66
     8
424
  8421504
176
     1
 43
1.0
176
     1
 76
     1
176
     1
 77
     6
176
     1
 78
     2
176
     1
 67
     7
176
     1
 79
     5
176
     1
170
     0
176
     1
171
     0
176
     1
290
     0
176
     1
 93
        1
176
     1
 44
0.0
176
     1
173
     0
176
     1
1001
ACAD
1000
AcDbSavedByObjectVersion
1070
     0
  0
VISUALSTYLE
  5
32
102
{ACAD_XDICTIONARY
360
351
102
}
102
{ACAD_REACTORS
330
29
102
}
330
29
100
AcDbVisualStyle
  2
Conceptual
 70
     9
177
     2
291
     0
 71
     3
176
     1
 72
     2
176
     1
 73
     0
176
     1
 90
        0
176
     1
 40
0.6
176
     1
 41
30.0
176
     1
 63
     7
421
 16777215
176
     1
 74
     2
176
     1
 91
        2
176
     1
 64
     7
176
     1
 65
   257
176
     1
 75
     1
176
     1
175
     1
176
     1
 42
179.0
176
     1
 92
        8
176
     1
 66
     7
176
     1
 43
1.0
176
     1
 76
     1
176
     1
 77
     6
176
     1
 78
     2
176
     1
 67
     7
176
     1
 79
     3
176
     1
170
     0
176
     1
171
     0
176
     1
290
     0
176
     1
 93
        1
176
     1
 44
0.0
176
     1
173
     0
176
     1
1001
ACAD
1000
AcDbSavedByObjectVersion
1070
     0
  0
VISUALSTYLE
  5
34
102
{ACAD_XDICTIONARY
360
355
102
}
102
{ACAD_REACTORS
330
29
102
}
330
29
100
AcDbVisualStyle
  2
Dim
 70
    11
177
     2
291
     1
 71
     2
176
     1
 72
     2
176
     1
 73
     0
176
     1
 90
        0
176
     1
 40
0.6
176
     1
 41
30.0
176
     1
 63
     7
421
 16777215
176
     1
 74
     1
176
     1
 91
        4
176
     1
 64
     7
176
     1
 65
   257
176
     1
 75
     1
176
     1
175
     1
176
     1
 42
1.0
176
     1
 92
        8
176
     1
 66
     7
176
     1
 43
1.0
176
     1
 76
     1
176
     1
 77
     6
176
     1
 78
     2
176
     1
 67
     7
176
     1
 79
     5
176
     1
170
     0
176
     1
171
     0
176
     1
290
     0
176
     1
 93
        1
176
     1
 44
-50.0
176
     1
173
     0
176
     1
1001
ACAD
1000
AcDbSavedByObjectVersion
1070
     0
  0
VISUALSTYLE
  5
41
102
{ACAD_XDICTIONARY
360
36F
102
}
102
{ACAD_REACTORS
330
29
102
}
330
29
100
AcDbVisualStyle
  2
EdgeColorOff
 70
    22
177
     2
291
     1
 71
     2
176
     0
 72
     2
176
     0
 73
     0
176
     0
 90
        0
176
     0
 40
0.6
176
     0
 41
30.0
176
     0
 63
     7
421
 16777215
176
     0
 74
     1
176
     0
 91
        4
176
     0
 64
     7
176
     0
 65
   257
176
     0
 75
     1
176
     0
175
     1
176
     0
 42
1.0
176
     0
 92
        8
176
     2
 66
     7
176
     0
 43
1.0
176
     0
 76
     1
176
     0
 77
     6
176
     0
 78
     2
176
     0
 67
     7
176
     0
 79
     5
176
     0
170
     0
176
     0
171
     0
176
     0
290
     0
176
     0
 93
        1
176
     0
 44
0.0
176
     0
173
     0
176
     0
1001
ACAD
1000
AcDbSavedByObjectVersion
1070
     0
  0
VISUALSTYLE
  5
38
102
{ACAD_XDICTIONARY
360
35D
102
}
102
{ACAD_REACTORS
330
29
102
}
330
29
100
AcDbVisualStyle
  2
Facepattern
 70
    15
177
     2
291
     1
 71
     2
176
     1
 72
     2
176
     1
 73
     0
176
     1
 90
        0
176
     1
 40
0.6
176
     1
 41
30.0
176
     1
 63
     7
421
 16777215
176
     1
 74
     1
176
     1
 91
        4
176
     1
 64
     7
176
     1
 65
   257
176
     1
 75
     1
176
     1
175
     1
176
     1
 42
1.0
176
     1
 92
        8
176
     1
 66
     7
176
     1
 43
1.0
176
     1
 76
     1
176
     1
 77
     6
176
     1
 78
     2
176
     1
 67
     7
176
     1
 79
     5
176
     1
170
     0
176
     1
171
     0
176
     1
290
     0
176
     1
 93
        1
176
     1
 44
0.0
176
     1
173
     0
176
     1
1001
ACAD
1000
AcDbSavedByObjectVersion
1070
     0
  0
VISUALSTYLE
  5
2A
102
{ACAD_XDICTIONARY
360
341
102
}
102
{ACAD_REACTORS
330
29
102
}
330
29
100
AcDbVisualStyle
  2
Flat
 70
     0
177
     2
291
     1
 71
     2
176
     1
 72
     1
176
     1
 73
     1
176
     1
 90
        2
176
     1
 40
0.6
176
     1
 41
30.0
176
     1
 63
     7
421
 16777215
176
     1
 74
     0
176
     1
 91
        0
176
     1
 64
     7
176
     1
 65
   257
176
     1
 75
     1
176
     1
175
     1
176
     1
 42
1.0
176
     1
 92
        8
176
     1
 66
     7
176
     1
 43
1.0
176
     1
 76
     1
176
     1
 77
     6
176
     1
 78
     2
176
     1
 67
     7
176
     1
 79
     5
176
     1
170
     0
176
     1
171
     0
176
     1
290
     0
176
     1
 93
       13
176
     1
 44
0.0
176
     1
173
     0
176
     1
1001
ACAD
1000
AcDbSavedByObjectVersion
1070
     0
  0
VISUALSTYLE
  5
2B
102
{ACAD_XDICTIONARY
360
343
102
}
102
{ACAD_REACTORS
330
29
102
}
330
29
100
AcDbVisualStyle
  2
FlatWithEdges
 70
     1
177
     2
291
     1
 71
     2
176
     1
 72
     1
176
     1
 73
     1
176
     1
 90
        2
176
     1
 40
0.6
176
     1
 41
30.0
176
     1
 63
     7
421
 16777215
176
     1
 74
     1
176
     1
 91
        0
176
     1
 64
     7
176
     1
 65
   257
176
     1
 75
     1
176
     1
175
     1
176
     1
 42
1.0
176
     1
 92
        0
176
     1
 66
   257
176
     1
 43
1.0
176
     1
 76
     1
176
     1
 77
     6
176
     1
 78
     2
176
     1
 67
     7
176
     1
 79
     5
176
     1
170
     0
176
     1
171
     0
176
     1
290
     0
176
     1
 93
       13
176
     1
 44
0.0
176
     1
173
     0
176
     1
1001
ACAD
1000
AcDbSavedByObjectVersion
1070
     0
  0
VISUALSTYLE
  5
2C
102
{ACAD_XDICTIONARY
360
345
102
}
102
{ACAD_REACTORS
330
29
102
}
330
29
100
AcDbVisualStyle
  2
Gouraud
 70
     2
177
     2
291
     1
 71
     2
176
     1
 72
     2
176
     1
 73
     1
176
     1
 90
        2
176
     1
 40
0.6
176
     1
 41
30.0
176
     1
 63
     7
421
 16777215
176
     1
 74
     0
176
     1
 91
        0
176
     1
 64
     7
176
     1
 65
   257
176
     1
 75
     1
176
     1
175
     1
176
     1
 42
1.0
176
     1
 92
        0
176
     1
 66
     7
176
     1
 43
1.0
176
     1
 76
     1
176
     1
 77
     6
176
     1
 78
     2
176
     1
 67
     7
176
     1
 79
     5
176
     1
170
     0
176
     1
171
     0
176
     1
290
     0
176
     1
 93
       13
176
     1
 44
0.0
176
     1
173
     0
176
     1
1001
ACAD
1000
AcDbSavedByObjectVersion
1070
     0
  0
VISUALSTYLE
  5
2D
102
{ACAD_XDICTIONARY
360
347
102
}
102
{ACAD_REACTORS
330
29
102
}
330
29
100
AcDbVisualStyle
  2
GouraudWithEdges
 70
     3
177
     2
291
     1
 71
     2
176
     1
 72
     2
176
     1
 73
     1
176
     1
 90
        2
176
     1
 40
0.6
176
     1
 41
30.0
176
     1
 63
     7
421
 16777215
176
     1
 74
     1
176
     1
 91
        0
176
     1
 64
     7
176
     1
 65
   257
176
     1
 75
     1
176
     1
175
     1
176
     1
 42
1.0
176
     1
 92
        0
176
     1
 66
   257
176
     1
 43
1.0
176
     1
 76
     1
176
     1
 77
     6
176
     1
 78
     2
176
     1
 67
     7
176
     1
 79
     5
176
     1
170
     0
176
     1
171
     0
176
     1
290
     0
176
     1
 93
       13
176
     1
 44
0.0
176
     1
173
     0
176
     1
1001
ACAD
1000
AcDbSavedByObjectVersion
1070
     0
  0
VISUALSTYLE
  5
31
102
{ACAD_XDICTIONARY
360
34F
102
}
102
{ACAD_REACTORS
330
29
102
}
330
29
100
AcDbVisualStyle
  2
Hidden
 70
     6
177
     2
291
     0
 71
     1
176
     1
 72
     2
176
     1
 73
     2
176
     1
 90
        0
176
     1
 40
0.6
176
     1
 41
30.0
176
     1
 63
     7
421
 16777215
176
     1
 74
     2
176
     1
 91
        2
176
     1
 64
     7
176
     1
 65
   257
176
     1
 75
     2
176
     1
175
     1
176
     1
 42
40.0
176
     1
 92
        0
176
     1
 66
   257
176
     1
 43
1.0
176
     1
 76
     1
176
     1
 77
     6
176
     1
 78
     2
176
     1
 67
     7
176
     1
 79
     3
176
     1
170
     0
176
     1
171
     0
176
     1
290
     0
176
     1
 93
        1
176
     1
 44
0.0
176
     1
173
     0
176
     1
1001
ACAD
1000
AcDbSavedByObjectVersion
1070
     0
  0
VISUALSTYLE
  5
3F
102
{ACAD_XDICTIONARY
360
36B
102
}
102
{ACAD_REACTORS
330
29
102
}
330
29
100
AcDbVisualStyle
  2
JitterOff
 70
    20
177
     2
291
     1
 71
     2
176
     0
 72
     2
176
     0
 73
     0
176
     0
 90
        0
176
     0
 40
0.6
176
     0
 41
30.0
176
     0
 63
     7
421
 16777215
176
     0
 74
     1
176
     0
 91
        4
176
     0
 64
     7
176
     0
 65
   257
176
     0
 75
     1
176
     0
175
     1
176
     0
 42
1.0
176
     0
 92
       10
176
     2
 66
     7
176
     0
 43
1.0
176
     0
 76
     1
176
     0
 77
     6
176
     0
 78
     2
176
     0
 67
     7
176
     0
 79
     5
176
     0
170
     0
176
     0
171
     0
176
     0
290
     0
176
     0
 93
        1
176
     0
 44
0.0
176
     0
173
     0
176
     0
1001
ACAD
1000
AcDbSavedByObjectVersion
1070
     0
  0
VISUALSTYLE
  5
37
102
{ACAD_XDICTIONARY
360
35B
102
}
102
{ACAD_REACTORS
330
29
102
}
330
29
100
AcDbVisualStyle
  2
Linepattern
 70
    14
177
     2
291
     1
 71
     2
176
     1
 72
     2
176
     1
 73
     0
176
     1
 90
        0
176
     1
 40
0.6
176
     1
 41
30.0
176
     1
 63
     7
421
 16777215
176
     1
 74
     1
176
     1
 91
        4
176
     1
 64
     7
176
     1
 65
   257
176
     1
 75
     7
176
     1
175
     7
176
     1
 42
1.0
176
     1
 92
        8
176
     1
 66
     7
176
     1
 43
1.0
176
     1
 76
     1
176
     1
 77
     6
176
     1
 78
     2
176
     1
 67
     7
176
     1
 79
     5
176
     1
170
     0
176
     1
171
     0
176
     1
290
     0
176
     1
 93
        1
176
     1
 44
0.0
176
     1
173
     0
176
     1
1001
ACAD
1000
AcDbSavedByObjectVersion
1070
     0
  0
VISUALSTYLE
  5
40
102
{ACAD_XDICTIONARY
360
36D
102
}
102
{ACAD_REACTORS
330
29
102
}
330
29
100
AcDbVisualStyle
  2
OverhangOff
 70
    21
177
     2
291
     1
 71
     2
176
     0
 72
     2
176
     0
 73
     0
176
     0
 90
        0
176
     0
 40
0.6
176
     0
 41
30.0
176
     0
 63
     7
421
 16777215
176
     0
 74
     1
176
     0
 91
        4
176
     0
 64
     7
176
     0
 65
   257
176
     0
 75
     1
176
     0
175
     1
176
     0
 42
1.0
176
     0
 92
        9
176
     2
 66
     7
176
     0
 43
1.0
176
     0
 76
     1
176
     0
 77
     6
176
     0
 78
     2
176
     0
 67
     7
176
     0
 79
     5
176
     0
170
     0
176
     0
171
     0
176
     0
290
     0
176
     0
 93
        1
176
     0
 44
0.0
176
     0
173
     0
176
     0
1001
ACAD
1000
AcDbSavedByObjectVersion
1070
     0
  0
VISUALSTYLE
  5
33
102
{ACAD_XDICTIONARY
360
353
102
}
102
{ACAD_REACTORS
330
29
102
}
330
29
100
AcDbVisualStyle
  2
Realistic
 70
     8
177
     2
291
     0
 71
     2
176
     1
 72
     3
176
     1
 73
     0
176
     1
 90
        2
176
     1
 40
0.6
176
     1
 41
30.0
176
     1
 63
     7
421
 16777215
176
     1
 74
     0
176
     1
 91
        0
176
     1
 64
     7
176
     1
 65
   257
176
     1
 75
     1
176
     1
175
     1
176
     1
 42
1.0
176
     1
 92
        8
176
     1
 66
   257
176
     1
 43
1.0
176
     1
 76
     1
176
     1
 77
     6
176
     1
 78
     2
176
     1
 67
     7
176
     1
 79
     3
176
     1
170
     0
176
     1
171
     0
176
     1
290
     0
176
     1
 93
       13
176
     1
 44
0.0
176
     1
173
     0
176
     1
1001
ACAD
1000
AcDbSavedByObjectVersion
1070
     0
  0
VISUALSTYLE
  5
3E
102
{ACAD_XDICTIONARY
360
369
102
}
102
{ACAD_REACTORS
330
29
102
}
330
29
100
AcDbVisualStyle
  2
Shaded
 70
    27
177
     2
291
     0
 71
     2
176
     1
 72
     2
176
     1
 73
     1
176
     1
 90
        2
176
     1
 40
0.6
176
     1
 41
30.0
176
     1
 63
     7
421
 16777215
176
     1
 74
     0
176
     1
 91
        4
176
     1
 64
     7
176
     1
 65
   257
176
     1
 75
     1
176
     1
175
     1
176
     1
 42
1.0
176
     1
 92
        8
176
     1
 66
   257
176
     1
 43
1.0
176
     1
 76
     1
176
     1
 77
     6
176
     1
 78
     2
176
     1
 67
     8
425
  7895160
176
     1
 79
     3
176
     1
170
     0
176
     1
171
     0
176
     1
290
     0
176
     1
 93
        5
176
     1
 44
0.0
176
     1
173
     0
176
     1
1001
ACAD
1000
AcDbSavedByObjectVersion
1070
     0
  0
VISUALSTYLE
  5
3D
102
{ACAD_XDICTIONARY
360
367
102
}
102
{ACAD_REACTORS
330
29
102
}
330
29
100
AcDbVisualStyle
  2
Shaded with edges
 70
    26
177
     2
291
     0
 71
     2
176
     1
 72
     2
176
     1
 73
     1
176
     1
 90
        2
176
     1
 40
0.6
176
     1
 41
30.0
176
     1
 63
     7
421
 16777215
176
     1
 74
     1
176
     1
 91
        2
176
     1
 64
     7
176
     1
 65
   257
176
     1
 75
     2
176
     1
175
     1
176
     1
 42
1.0
176
     1
 92
        8
176
     1
 66
   257
176
     1
 43
1.0
176
     1
 76
     1
176
     1
 77
     6
176
     1
 78
     2
176
     1
 67
     7
176
     1
 79
     3
176
     1
170
     0
176
     1
171
     0
176
     1
290
     0
176
     1
 93
        5
176
     1
 44
0.0
176
     1
173
     0
176
     1
1001
ACAD
1000
AcDbSavedByObjectVersion
1070
     0
  0
VISUALSTYLE
  5
3A
102
{ACAD_XDICTIONARY
360
361
102
}
102
{ACAD_REACTORS
330
29
102
}
330
29
100
AcDbVisualStyle
  2
Shades of Gray
 70
    23
177
     2
291
     0
 71
     2
176
     1
 72
     2
176
     1
 73
     3
176
     1
 90
        0
176
     1
 40
0.6
176
     1
 41
30.0
176
     1
 63
     7
421
 16777215
176
     1
 74
     2
176
     1
 91
        2
176
     1
 64
     7
176
     1
 65
     7
176
     1
 75
     1
176
     1
175
     1
176
     1
 42
40.0
176
     1
 92
        8
176
     1
 66
     7
176
     1
 43
1.0
176
     1
 76
     1
176
     1
 77
     6
176
     1
 78
     2
176
     1
 67
     7
176
     1
 79
     3
176
     1
170
     0
176
     1
171
     0
176
     1
290
     0
176
     1
 93
        1
176
     1
 44
0.0
176
     1
173
     0
176
     1
1001
ACAD
1000
AcDbSavedByObjectVersion
1070
     0
  0
VISUALSTYLE
  5
3B
102
{ACAD_XDICTIONARY
360
363
102
}
102
{ACAD_REACTORS
330
29
102
}
330
29
100
AcDbVisualStyle
  2
Sketchy
 70
    24
177
     2
291
     0
 71
     1
176
     1
 72
     2
176
     1
 73
     2
176
     1
 90
        0
176
     1
 40
0.6
176
     1
 41
30.0
176
     1
 63
     7
421
 16777215
176
     1
 74
     2
176
     1
 91
        2
176
     1
 64
     7
176
     1
 65
     7
176
     1
 75
     1
176
     1
175
     1
176
     1
 42
40.0
176
     1
 92
       11
176
     1
 66
     7
176
     1
 43
1.0
176
     1
 76
     1
176
     1
 77
     6
176
     1
 78
     2
176
     1
 67
     7
176
     1
 79
     6
176
     1
170
     0
176
     1
171
     0
176
     1
290
     0
176
     1
 93
        1
176
     1
 44
0.0
176
     1
173
     0
176
     1
1001
ACAD
1000
AcDbSavedByObjectVersion
1070
     0
  0
VISUALSTYLE
  5
36
102
{ACAD_XDICTIONARY
360
359
102
}
102
{ACAD_REACTORS
330
29
102
}
330
29
100
AcDbVisualStyle
  2
Thicken
 70
    13
177
     2
291
     1
 71
     2
176
     1
 72
     2
176
     1
 73
     0
176
     1
 90
        0
176
     1
 40
0.6
176
     1
 41
30.0
176
     1
 63
     7
421
 16777215
176
     1
 74
     1
176
     1
 91
        4
176
     1
 64
     7
176
     1
 65
   257
176
     1
 75
     1
176
     1
175
     1
176
     1
 42
1.0
176
     1
 92
       12
176
     1
 66
     7
176
     1
 43
1.0
176
     1
 76
     1
176
     1
 77
     6
176
     1
 78
     2
176
     1
 67
     7
176
     1
 79
     5
176
     1
170
     0
176
     1
171
     0
176
     1
290
     0
176
     1
 93
        1
176
     1
 44
0.0
176
     1
173
     0
176
     1
1001
ACAD
1000
AcDbSavedByObjectVersion
1070
     0
  0
VISUALSTYLE
  5
30
102
{ACAD_XDICTIONARY
360
34D
102
}
102
{ACAD_REACTORS
330
29
102
}
330
29
100
AcDbVisualStyle
  2
Wireframe
 70
     5
177
     2
291
     0
 71
     0
176
     1
 72
     2
176
     1
 73
     0
176
     1
 90
        0
176
     1
 40
0.6
176
     1
 41
30.0
176
     1
 63
     7
421
 16777215
176
     1
 74
     1
176
     1
 91
        4
176
     1
 64
     7
176
     1
 65
   257
176
     1
 75
     1
176
     1
175
     1
176
     1
 42
1.0
176
     1
 92
        0
176
     1
 66
   257
176
     1
 43
1.0
176
     1
 76
     1
176
     1
 77
     6
176
     1
 78
     2
176
     1
 67
     7
176
     1
 79
     3
176
     1
170
     0
176
     1
171
     0
176
     1
290
     0
176
     1
 93
        1
176
     1
 44
0.0
176
     1
173
     0
176
     1
1001
ACAD
1000
AcDbSavedByObjectVersion
1070
     0
  0
VISUALSTYLE
  5
3C
102
{ACAD_XDICTIONARY
360
365
102
}
102
{ACAD_REACTORS
330
29
102
}
330
29
100
AcDbVisualStyle
  2
X-Ray
 70
    25
177
     2
291
     0
 71
     2
176
     1
 72
     2
176
     1
 73
     1
176
     1
 90
        1
176
     1
 40
0.5
176
     1
 41
30.0
176
     1
 63
     7
421
 16777215
176
     1
 74
     1
176
     1
 91
        0
176
     1
 64
     7
176
     1
 65
   257
176
     1
 75
     1
176
     1
175
     1
176
     1
 42
1.0
176
     1
 92
        8
176
     1
 66
     7
176
     1
 43
1.0
176
     1
 76
     1
176
     1
 77
     6
176
     1
 78
     2
176
     1
 67
     7
176
     1
 79
     3
176
     1
170
     0
176
     1
171
     0
176
     1
290
     0
176
     1
 93
       13
176
     1
 44
0.0
176
     1
173
     0
176
     1
1001
ACAD
1000
AcDbSavedByObjectVersion
1070
     0
  0
DICTIONARYVAR
  5
33C
102
{ACAD_REACTORS
330
337
102
}
330
337
100
DictionaryVariables
280
     0
  1
1:1
  0
DICTIONARYVAR
  5
339
102
{ACAD_REACTORS
330
337
102
}
330
337
100
DictionaryVariables
280
     0
  1
STANDARD
  0
DICTIONARYVAR
  5
338
102
{ACAD_REACTORS
330
337
102
}
330
337
100
DictionaryVariables
280
     0
  1
STANDARD
  0
DICTIONARYVAR
  5
33A
102
{ACAD_REACTORS
330
337
102
}
330
337
100
DictionaryVariables
280
     0
  1
Imperial24
  0
DICTIONARYVAR
  5
33B
102
{ACAD_REACTORS
330
337
102
}
330
337
100
DictionaryVariables
280
     0
  1
Imperial24
  0
DICTIONARY
  5
375
330
6B
100
AcDbDictionary
280
     1
281
     1
  3
ACAD_XREC_ROUNDTRIP
360
376
  0
DICTIONARY
  5
1A
330
19
100
AcDbDictionary
280
     1
281
     1
  3
BUMPTILE
360
1C
  3
DIFFUSETILE
360
1B
  3
OPACITYTILE
360
1F
  3
REFLECTIONTILE
360
1E
  3
REFRACTIONTILE
360
20
  3
SPECULARTILE
360
1D
  0
DICTIONARY
  5
12
330
11
100
AcDbDictionary
280
     1
281
     1
  3
BUMPTILE
360
14
  3
DIFFUSETILE
360
13
  3
OPACITYTILE
360
17
  3
REFLECTIONTILE
360
16
  3
REFRACTIONTILE
360
18
  3
SPECULARTILE
360
15
  0
DICTIONARY
  5
22
330
21
100
AcDbDictionary
280
     1
281
     1
  3
BUMPTILE
360
24
  3
DIFFUSETILE
360
23
  3
OPACITYTILE
360
27
  3
REFLECTIONTILE
360
26
  3
REFRACTIONTILE
360
28
  3
SPECULARTILE
360
25
  0
DICTIONARY
  5
371
330
67
100
AcDbDictionary
280
     1
281
     1
  3
ACAD_XREC_ROUNDTRIP
360
372
  0
DICTIONARY
  5
373
330
69
100
AcDbDictionary
280
     1
281
     1
  3
ACAD_XREC_ROUNDTRIP
360
374
  0
DICTIONARY
  5
33D
330
65
100
AcDbDictionary
280
     1
281
     1
  3
ACAD_ROUNDTRIP_2008_TABLESTYLE_CELLSTYLEMAP
360
33E
  0
DICTIONARY
  5
34B
330
2F
100
AcDbDictionary
280
     1
281
     1
  3
ACAD_XREC_ROUNDTRIP
360
34C
  0
DICTIONARY
  5
349
330
2E
100
AcDbDictionary
280
     1
281
     1
  3
ACAD_XREC_ROUNDTRIP
360
34A
  0
DICTIONARY
  5
357
330
35
100
AcDbDictionary
280
     1
281
     1
  3
ACAD_XREC_ROUNDTRIP
360
358
  0
DICTIONARY
  5
35F
330
39
100
AcDbDictionary
280
     1
281
     1
  3
ACAD_XREC_ROUNDTRIP
360
360
  0
DICTIONARY
  5
351
330
32
100
AcDbDictionary
280
     1
281
     1
  3
ACAD_XREC_ROUNDTRIP
360
352
  0
DICTIONARY
  5
355
330
34
100
AcDbDictionary
280
     1
281
     1
  3
ACAD_XREC_ROUNDTRIP
360
356
  0
DICTIONARY
  5
36F
330
41
100
AcDbDictionary
280
     1
281
     1
  3
ACAD_XREC_ROUNDTRIP
360
370
  0
DICTIONARY
  5
35D
330
38
100
AcDbDictionary
280
     1
281
     1
  3
ACAD_XREC_ROUNDTRIP
360
35E
  0
DICTIONARY
  5
341
330
2A
100
AcDbDictionary
280
     1
281
     1
  3
ACAD_XREC_ROUNDTRIP
360
342
  0
DICTIONARY
  5
343
330
2B
100
AcDbDictionary
280
     1
281
     1
  3
ACAD_XREC_ROUNDTRIP
360
344
  0
DICTIONARY
  5
345
330
2C
100
AcDbDictionary
280
     1
281
     1
  3
ACAD_XREC_ROUNDTRIP
360
346
  0
DICTIONARY
  5
347
330
2D
100
AcDbDictionary
280
     1
281
     1
  3
ACAD_XREC_ROUNDTRIP
360
348
  0
DICTIONARY
  5
34F
330
31
100
AcDbDictionary
280
     1
281
     1
  3
ACAD_XREC_ROUNDTRIP
360
350
  0
DICTIONARY
  5
36B
330
3F
100
AcDbDictionary
280
     1
281
     1
  3
ACAD_XREC_ROUNDTRIP
360
36C
  0
DICTIONARY
  5
35B
330
37
100
AcDbDictionary
280
     1
281
     1
  3
ACAD_XREC_ROUNDTRIP
360
35C
  0
DICTIONARY
  5
36D
330
40
100
AcDbDictionary
280
     1
281
     1
  3
ACAD_XREC_ROUNDTRIP
360
36E
  0
DICTIONARY
  5
353
330
33
100
AcDbDictionary
280
     1
281
     1
  3
ACAD_XREC_ROUNDTRIP
360
354
  0
DICTIONARY
  5
369
330
3E
100
AcDbDictionary
280
     1
281
     1
  3
ACAD_XREC_ROUNDTRIP
360
36A
  0
DICTIONARY
  5
367
330
3D
100
AcDbDictionary
280
     1
281
     1
  3
ACAD_XREC_ROUNDTRIP
360
368
  0
DICTIONARY
  5
361
330
3A
100
AcDbDictionary
280
     1
281
     1
  3
ACAD_XREC_ROUNDTRIP
360
362
  0
DICTIONARY
  5
363
330
3B
100
AcDbDictionary
280
     1
281
     1
  3
ACAD_XREC_ROUNDTRIP
360
364
  0
DICTIONARY
  5
359
330
36
100
AcDbDictionary
280
     1
281
     1
  3
ACAD_XREC_ROUNDTRIP
360
35A
  0
DICTIONARY
  5
34D
330
30
100
AcDbDictionary
280
     1
281
     1
  3
ACAD_XREC_ROUNDTRIP
360
34E
  0
DICTIONARY
  5
365
330
3C
100
AcDbDictionary
280
     1
281
     1
  3
ACAD_XREC_ROUNDTRIP
360
366
  0
XRECORD
  5
376
102
{ACAD_REACTORS
330
375
102
}
330
375
100
AcDbXrecord
280
     1
102
DISPLAYNAME
  1
Imperial24
102
FLAGS
 90
        0
  0
XRECORD
  5
1C
102
{ACAD_REACTORS
330
1A
102
}
330
1A
100
AcDbXrecord
280
     1
270
     1
271
     1
  0
XRECORD
  5
1B
102
{ACAD_REACTORS
330
1A
102
}
330
1A
100
AcDbXrecord
280
     1
270
     1
271
     1
  0
XRECORD
  5
1F
102
{ACAD_REACTORS
330
1A
102
}
330
1A
100
AcDbXrecord
280
     1
270
     1
271
     1
  0
XRECORD
  5
1E
102
{ACAD_REACTORS
330
1A
102
}
330
1A
100
AcDbXrecord
280
     1
270
     1
271
     1
  0
XRECORD
  5
20
102
{ACAD_REACTORS
330
1A
102
}
330
1A
100
AcDbXrecord
280
     1
270
     1
271
     1
  0
XRECORD
  5
1D
102
{ACAD_REACTORS
330
1A
102
}
330
1A
100
AcDbXrecord
280
     1
270
     1
271
     1
  0
XRECORD
  5
14
102
{ACAD_REACTORS
330
12
102
}
330
12
100
AcDbXrecord
280
     1
270
     1
271
     1
  0
XRECORD
  5
13
102
{ACAD_REACTORS
330
12
102
}
330
12
100
AcDbXrecord
280
     1
270
     1
271
     1
  0
XRECORD
  5
17
102
{ACAD_REACTORS
330
12
102
}
330
12
100
AcDbXrecord
280
     1
270
     1
271
     1
  0
XRECORD
  5
16
102
{ACAD_REACTORS
330
12
102
}
330
12
100
AcDbXrecord
280
     1
270
     1
271
     1
  0
XRECORD
  5
18
102
{ACAD_REACTORS
330
12
102
}
330
12
100
AcDbXrecord
280
     1
270
     1
271
     1
  0
XRECORD
  5
15
102
{ACAD_REACTORS
330
12
102
}
330
12
100
AcDbXrecord
280
     1
270
     1
271
     1
  0
XRECORD
  5
24
102
{ACAD_REACTORS
330
22
102
}
330
22
100
AcDbXrecord
280
     1
270
     1
271
     1
  0
XRECORD
  5
23
102
{ACAD_REACTORS
330
22
102
}
330
22
100
AcDbXrecord
280
     1
270
     1
271
     1
  0
XRECORD
  5
27
102
{ACAD_REACTORS
330
22
102
}
330
22
100
AcDbXrecord
280
     1
270
     1
271
     1
  0
XRECORD
  5
26
102
{ACAD_REACTORS
330
22
102
}
330
22
100
AcDbXrecord
280
     1
270
     1
271
     1
  0
XRECORD
  5
28
102
{ACAD_REACTORS
330
22
102
}
330
22
100
AcDbXrecord
280
     1
270
     1
271
     1
  0
XRECORD
  5
25
102
{ACAD_REACTORS
330
22
102
}
330
22
100
AcDbXrecord
280
     1
270
     1
271
     1
  0
XRECORD
  5
372
102
{ACAD_REACTORS
330
371
102
}
330
371
100
AcDbXrecord
280
     1
102
ACAD_ROUNDTRIP_2012_MLEADER_STYLE
298
     1
  0
XRECORD
  5
374
102
{ACAD_REACTORS
330
373
102
}
330
373
100
AcDbXrecord
280
     1
102
DISPLAYNAME
  1
Imperial24
102
FLAGS
 90
        0
  0
CELLSTYLEMAP
  5
33E
102
{ACAD_REACTORS
330
33D
102
}
330
33D
100
AcDbCellStyleMap
 90
        3
300
CELLSTYLE
  1
TABLEFORMAT_BEGIN
 90
        5
170
     1
 91
        0
 92
    32768
 62
   257
 93
        1
300
CONTENTFORMAT
  1
CONTENTFORMAT_BEGIN
 90
        0
 91
        0
 92
      512
 93
        0
300

 40
0.0
140
1.0
 94
        5
 62
     0
340
55
144
0.25
309
CONTENTFORMAT_END
171
     0
 94
        0
309
TABLEFORMAT_END
  1
CELLSTYLE_BEGIN
 90
        1
 91
        1
300
_TITLE
309
CELLSTYLE_END
300
CELLSTYLE
  1
TABLEFORMAT_BEGIN
 90
        5
170
     1
 91
        0
 92
        0
 62
   257
 93
        1
300
CONTENTFORMAT
  1
CONTENTFORMAT_BEGIN
 90
        0
 91
        0
 92
      512
 93
        0
300

 40
0.0
140
1.0
 94
        5
 62
     0
340
55
144
0.18
309
CONTENTFORMAT_END
171
     0
 94
        0
309
TABLEFORMAT_END
  1
CELLSTYLE_BEGIN
 90
        2
 91
        1
300
_HEADER
309
CELLSTYLE_END
300
CELLSTYLE
  1
TABLEFORMAT_BEGIN
 90
        5
170
     1
 91
        0
 92
        0
 62
   257
 93
        1
300
CONTENTFORMAT
  1
CONTENTFORMAT_BEGIN
 90
        0
 91
        0
 92
      512
 93
        0
300

 40
0.0
140
1.0
 94
        2
 62
     0
340
55
144
0.18
309
CONTENTFORMAT_END
171
     0
 94
        0
309
TABLEFORMAT_END
  1
CELLSTYLE_BEGIN
 90
        3
 91
        2
300
_DATA
309
CELLSTYLE_END
  0
XRECORD
  5
34C
102
{ACAD_REACTORS
330
34B
102
}
330
34B
100
AcDbXrecord
280
     1
102
RTVSPost2010Prop28
280
     1
102
RTVSPost2010PropOp28
 70
     1
102
RTVSPost2010Prop29
280
     1
102
RTVSPost2010PropOp29
 70
     1
102
RTVSPost2010Prop30
280
     0
102
RTVSPost2010PropOp30
 70
     1
102
RTVSPost2010Prop31
280
     0
102
RTVSPost2010PropOp31
 70
     1
102
RTVSPost2010Prop32
280
     0
102
RTVSPost2010PropOp32
 70
     1
102
RTVSPost2010Prop33
280
     0
102
RTVSPost2010PropOp33
 70
     1
102
RTVSPost2010Prop34
280
     0
102
RTVSPost2010PropOp34
 70
     1
102
RTVSPost2010Prop35
280
     0
102
RTVSPost2010PropOp35
 70
     1
102
RTVSPost2010Prop36
280
     0
102
RTVSPost2010PropOp36
 70
     1
102
RTVSPost2010Prop37
 90
       50
102
RTVSPost2010PropOp37
 70
     1
102
RTVSPost2010Prop38
140
0.0
102
RTVSPost2010PropOp38
 70
     1
102
RTVSPost2010Prop39
140
1.0
102
RTVSPost2010PropOp39
 70
     1
102
RTVSPost2010Prop40
 90
        0
102
RTVSPost2010PropOp40
 70
     1
102
RTVSPost2010Prop41ColorIndex
 90
       18
102
RTVSPost2010Prop41ColorRGB
 90
        0
102
RTVSPost2010PropOp41
 70
     1
102
RTVSPost2010Prop42
 90
       50
102
RTVSPost2010PropOp42
 70
     1
102
RTVSPost2010Prop43
 90
        3
102
RTVSPost2010PropOp43
 70
     1
102
RTVSPost2010Prop44ColorIndex
 90
        5
102
RTVSPost2010Prop44ColorRGB
 90
      255
102
RTVSPost2010PropOp44
 70
     1
102
RTVSPost2010Prop45
280
     0
102
RTVSPost2010PropOp45
 70
     1
102
RTVSPost2010Prop46
 90
       50
102
RTVSPost2010PropOp46
 70
     1
102
RTVSPost2010Prop47
 90
       50
102
RTVSPost2010PropOp47
 70
     1
102
RTVSPost2010Prop48
 90
       50
102
RTVSPost2010PropOp48
 70
     1
102
RTVSPost2010Prop49
280
     0
102
RTVSPost2010PropOp49
 70
     1
102
RTVSPost2010Prop50
 90
       50
102
RTVSPost2010PropOp50
 70
     1
102
RTVSPost2010Prop51ColorIndex
 90
      256
102
RTVSPost2010Prop51ColorRGB
 90
-16777216
102
RTVSPost2010PropOp51
 70
     0
102
RTVSPost2010Prop52
140
1.0
102
RTVSPost2010PropOp52
 70
     0
102
RTVSPost2010Prop53
 90
        2
102
RTVSPost2010PropOp53
 70
     1
102
RTVSPost2010Prop54
  1
strokes_ogs.tif
102
RTVSPost2010PropOp54
 70
     1
102
RTVSPost2010Prop55
280
     0
102
RTVSPost2010PropOp55
 70
     1
102
RTVSPost2010Prop56
140
1.0
102
RTVSPost2010PropOp56
 70
     1
102
RTVSPost2010Prop57
140
1.0
102
RTVSPost2010PropOp57
 70
     1
  0
XRECORD
  5
34A
102
{ACAD_REACTORS
330
349
102
}
330
349
100
AcDbXrecord
280
     1
102
RTVSPost2010Prop28
280
     0
102
RTVSPost2010PropOp28
 70
     1
102
RTVSPost2010Prop29
280
     1
102
RTVSPost2010PropOp29
 70
     1
102
RTVSPost2010Prop30
280
     1
102
RTVSPost2010PropOp30
 70
     1
102
RTVSPost2010Prop31
280
     0
102
RTVSPost2010PropOp31
 70
     1
102
RTVSPost2010Prop32
280
     0
102
RTVSPost2010PropOp32
 70
     1
102
RTVSPost2010Prop33
280
     0
102
RTVSPost2010PropOp33
 70
     1
102
RTVSPost2010Prop34
280
     0
102
RTVSPost2010PropOp34
 70
     1
102
RTVSPost2010Prop35
280
     0
102
RTVSPost2010PropOp35
 70
     1
102
RTVSPost2010Prop36
280
     0
102
RTVSPost2010PropOp36
 70
     1
102
RTVSPost2010Prop37
 90
       50
102
RTVSPost2010PropOp37
 70
     1
102
RTVSPost2010Prop38
140
0.0
102
RTVSPost2010PropOp38
 70
     1
102
RTVSPost2010Prop39
140
1.0
102
RTVSPost2010PropOp39
 70
     1
102
RTVSPost2010Prop40
 90
        0
102
RTVSPost2010PropOp40
 70
     1
102
RTVSPost2010Prop41ColorIndex
 90
       18
102
RTVSPost2010Prop41ColorRGB
 90
        0
102
RTVSPost2010PropOp41
 70
     1
102
RTVSPost2010Prop42
 90
       50
102
RTVSPost2010PropOp42
 70
     1
102
RTVSPost2010Prop43
 90
        3
102
RTVSPost2010PropOp43
 70
     1
102
RTVSPost2010Prop44ColorIndex
 90
        5
102
RTVSPost2010Prop44ColorRGB
 90
      255
102
RTVSPost2010PropOp44
 70
     1
102
RTVSPost2010Prop45
280
     0
102
RTVSPost2010PropOp45
 70
     1
102
RTVSPost2010Prop46
 90
       50
102
RTVSPost2010PropOp46
 70
     1
102
RTVSPost2010Prop47
 90
       50
102
RTVSPost2010PropOp47
 70
     1
102
RTVSPost2010Prop48
 90
       50
102
RTVSPost2010PropOp48
 70
     1
102
RTVSPost2010Prop49
280
     0
102
RTVSPost2010PropOp49
 70
     1
102
RTVSPost2010Prop50
 90
       50
102
RTVSPost2010PropOp50
 70
     1
102
RTVSPost2010Prop51ColorIndex
 90
      256
102
RTVSPost2010Prop51ColorRGB
 90
-16777216
102
RTVSPost2010PropOp51
 70
     0
102
RTVSPost2010Prop52
140
1.0
102
RTVSPost2010PropOp52
 70
     0
102
RTVSPost2010Prop53
 90
        2
102
RTVSPost2010PropOp53
 70
     1
102
RTVSPost2010Prop54
  1
strokes_ogs.tif
102
RTVSPost2010PropOp54
 70
     1
102
RTVSPost2010Prop55
280
     0
102
RTVSPost2010PropOp55
 70
     1
102
RTVSPost2010Prop56
140
1.0
102
RTVSPost2010PropOp56
 70
     1
102
RTVSPost2010Prop57
140
1.0
102
RTVSPost2010PropOp57
 70
     1
  0
XRECORD
  5
358
102
{ACAD_REACTORS
330
357
102
}
330
357
100
AcDbXrecord
280
     1
102
RTVSPost2010Prop28
280
     0
102
RTVSPost2010PropOp28
 70
     1
102
RTVSPost2010Prop29
280
     1
102
RTVSPost2010PropOp29
 70
     1
102
RTVSPost2010Prop30
280
     1
102
RTVSPost2010PropOp30
 70
     1
102
RTVSPost2010Prop31
280
     0
102
RTVSPost2010PropOp31
 70
     1
102
RTVSPost2010Prop32
280
     0
102
RTVSPost2010PropOp32
 70
     1
102
RTVSPost2010Prop33
280
     0
102
RTVSPost2010PropOp33
 70
     1
102
RTVSPost2010Prop34
280
     0
102
RTVSPost2010PropOp34
 70
     1
102
RTVSPost2010Prop35
280
     0
102
RTVSPost2010PropOp35
 70
     1
102
RTVSPost2010Prop36
280
     0
102
RTVSPost2010PropOp36
 70
     1
102
RTVSPost2010Prop37
 90
       50
102
RTVSPost2010PropOp37
 70
     1
102
RTVSPost2010Prop38
140
0.0
102
RTVSPost2010PropOp38
 70
     1
102
RTVSPost2010Prop39
140
1.0
102
RTVSPost2010PropOp39
 70
     1
102
RTVSPost2010Prop40
 90
        0
102
RTVSPost2010PropOp40
 70
     1
102
RTVSPost2010Prop41ColorIndex
 90
       18
102
RTVSPost2010Prop41ColorRGB
 90
        0
102
RTVSPost2010PropOp41
 70
     1
102
RTVSPost2010Prop42
 90
       50
102
RTVSPost2010PropOp42
 70
     1
102
RTVSPost2010Prop43
 90
        3
102
RTVSPost2010PropOp43
 70
     1
102
RTVSPost2010Prop44ColorIndex
 90
        5
102
RTVSPost2010Prop44ColorRGB
 90
      255
102
RTVSPost2010PropOp44
 70
     1
102
RTVSPost2010Prop45
280
     0
102
RTVSPost2010PropOp45
 70
     1
102
RTVSPost2010Prop46
 90
       50
102
RTVSPost2010PropOp46
 70
     1
102
RTVSPost2010Prop47
 90
       50
102
RTVSPost2010PropOp47
 70
     1
102
RTVSPost2010Prop48
 90
       50
102
RTVSPost2010PropOp48
 70
     1
102
RTVSPost2010Prop49
280
     0
102
RTVSPost2010PropOp49
 70
     1
102
RTVSPost2010Prop50
 90
       50
102
RTVSPost2010PropOp50
 70
     1
102
RTVSPost2010Prop51ColorIndex
 90
      256
102
RTVSPost2010Prop51ColorRGB
 90
-16777216
102
RTVSPost2010PropOp51
 70
     0
102
RTVSPost2010Prop52
140
1.0
102
RTVSPost2010PropOp52
 70
     0
102
RTVSPost2010Prop53
 90
        2
102
RTVSPost2010PropOp53
 70
     1
102
RTVSPost2010Prop54
  1
strokes_ogs.tif
102
RTVSPost2010PropOp54
 70
     1
102
RTVSPost2010Prop55
280
     0
102
RTVSPost2010PropOp55
 70
     1
102
RTVSPost2010Prop56
140
1.0
102
RTVSPost2010PropOp56
 70
     1
102
RTVSPost2010Prop57
140
1.0
102
RTVSPost2010PropOp57
 70
     1
  0
XRECORD
  5
360
102
{ACAD_REACTORS
330
35F
102
}
330
35F
100
AcDbXrecord
280
     1
102
RTVSPost2010Prop28
280
     0
102
RTVSPost2010PropOp28
 70
     1
102
RTVSPost2010Prop29
280
     1
102
RTVSPost2010PropOp29
 70
     1
102
RTVSPost2010Prop30
280
     1
102
RTVSPost2010PropOp30
 70
     1
102
RTVSPost2010Prop31
280
     0
102
RTVSPost2010PropOp31
 70
     1
102
RTVSPost2010Prop32
280
     0
102
RTVSPost2010PropOp32
 70
     1
102
RTVSPost2010Prop33
280
     0
102
RTVSPost2010PropOp33
 70
     1
102
RTVSPost2010Prop34
280
     0
102
RTVSPost2010PropOp34
 70
     1
102
RTVSPost2010Prop35
280
     0
102
RTVSPost2010PropOp35
 70
     1
102
RTVSPost2010Prop36
280
     0
102
RTVSPost2010PropOp36
 70
     1
102
RTVSPost2010Prop37
 90
       50
102
RTVSPost2010PropOp37
 70
     1
102
RTVSPost2010Prop38
140
0.0
102
RTVSPost2010PropOp38
 70
     1
102
RTVSPost2010Prop39
140
1.0
102
RTVSPost2010PropOp39
 70
     1
102
RTVSPost2010Prop40
 90
        0
102
RTVSPost2010PropOp40
 70
     1
102
RTVSPost2010Prop41ColorIndex
 90
       18
102
RTVSPost2010Prop41ColorRGB
 90
        0
102
RTVSPost2010PropOp41
 70
     1
102
RTVSPost2010Prop42
 90
       50
102
RTVSPost2010PropOp42
 70
     1
102
RTVSPost2010Prop43
 90
        3
102
RTVSPost2010PropOp43
 70
     1
102
RTVSPost2010Prop44ColorIndex
 90
        5
102
RTVSPost2010Prop44ColorRGB
 90
      255
102
RTVSPost2010PropOp44
 70
     1
102
RTVSPost2010Prop45
280
     0
102
RTVSPost2010PropOp45
 70
     1
102
RTVSPost2010Prop46
 90
       50
102
RTVSPost2010PropOp46
 70
     1
102
RTVSPost2010Prop47
 90
       50
102
RTVSPost2010PropOp47
 70
     1
102
RTVSPost2010Prop48
 90
       50
102
RTVSPost2010PropOp48
 70
     1
102
RTVSPost2010Prop49
280
     0
102
RTVSPost2010PropOp49
 70
     1
102
RTVSPost2010Prop50
 90
       50
102
RTVSPost2010PropOp50
 70
     1
102
RTVSPost2010Prop51ColorIndex
 90
      256
102
RTVSPost2010Prop51ColorRGB
 90
-16777216
102
RTVSPost2010PropOp51
 70
     0
102
RTVSPost2010Prop52
140
1.0
102
RTVSPost2010PropOp52
 70
     0
102
RTVSPost2010Prop53
 90
        2
102
RTVSPost2010PropOp53
 70
     1
102
RTVSPost2010Prop54
  1
strokes_ogs.tif
102
RTVSPost2010PropOp54
 70
     1
102
RTVSPost2010Prop55
280
     0
102
RTVSPost2010PropOp55
 70
     1
102
RTVSPost2010Prop56
140
1.0
102
RTVSPost2010PropOp56
 70
     1
102
RTVSPost2010Prop57
140
1.0
102
RTVSPost2010PropOp57
 70
     1
  0
XRECORD
  5
352
102
{ACAD_REACTORS
330
351
102
}
330
351
100
AcDbXrecord
280
     1
102
RTVSPost2010Prop28
280
     0
102
RTVSPost2010PropOp28
 70
     1
102
RTVSPost2010Prop29
280
     1
102
RTVSPost2010PropOp29
 70
     1
102
RTVSPost2010Prop30
280
     1
102
RTVSPost2010PropOp30
 70
     1
102
RTVSPost2010Prop31
280
     0
102
RTVSPost2010PropOp31
 70
     1
102
RTVSPost2010Prop32
280
     0
102
RTVSPost2010PropOp32
 70
     1
102
RTVSPost2010Prop33
280
     0
102
RTVSPost2010PropOp33
 70
     1
102
RTVSPost2010Prop34
280
     0
102
RTVSPost2010PropOp34
 70
     1
102
RTVSPost2010Prop35
280
     0
102
RTVSPost2010PropOp35
 70
     1
102
RTVSPost2010Prop36
280
     0
102
RTVSPost2010PropOp36
 70
     1
102
RTVSPost2010Prop37
 90
       50
102
RTVSPost2010PropOp37
 70
     1
102
RTVSPost2010Prop38
140
0.0
102
RTVSPost2010PropOp38
 70
     1
102
RTVSPost2010Prop39
140
1.0
102
RTVSPost2010PropOp39
 70
     1
102
RTVSPost2010Prop40
 90
        0
102
RTVSPost2010PropOp40
 70
     1
102
RTVSPost2010Prop41ColorIndex
 90
       18
102
RTVSPost2010Prop41ColorRGB
 90
        0
102
RTVSPost2010PropOp41
 70
     1
102
RTVSPost2010Prop42
 90
       50
102
RTVSPost2010PropOp42
 70
     1
102
RTVSPost2010Prop43
 90
        3
102
RTVSPost2010PropOp43
 70
     1
102
RTVSPost2010Prop44ColorIndex
 90
        5
102
RTVSPost2010Prop44ColorRGB
 90
      255
102
RTVSPost2010PropOp44
 70
     1
102
RTVSPost2010Prop45
280
     0
102
RTVSPost2010PropOp45
 70
     1
102
RTVSPost2010Prop46
 90
       50
102
RTVSPost2010PropOp46
 70
     1
102
RTVSPost2010Prop47
 90
       50
102
RTVSPost2010PropOp47
 70
     1
102
RTVSPost2010Prop48
 90
       50
102
RTVSPost2010PropOp48
 70
     1
102
RTVSPost2010Prop49
280
     0
102
RTVSPost2010PropOp49
 70
     1
102
RTVSPost2010Prop50
 90
       50
102
RTVSPost2010PropOp50
 70
     1
102
RTVSPost2010Prop51ColorIndex
 90
      256
102
RTVSPost2010Prop51ColorRGB
 90
-16777216
102
RTVSPost2010PropOp51
 70
     0
102
RTVSPost2010Prop52
140
1.0
102
RTVSPost2010PropOp52
 70
     0
102
RTVSPost2010Prop53
 90
        2
102
RTVSPost2010PropOp53
 70
     1
102
RTVSPost2010Prop54
  1
strokes_ogs.tif
102
RTVSPost2010PropOp54
 70
     1
102
RTVSPost2010Prop55
280
     0
102
RTVSPost2010PropOp55
 70
     1
102
RTVSPost2010Prop56
140
1.0
102
RTVSPost2010PropOp56
 70
     1
102
RTVSPost2010Prop57
140
1.0
102
RTVSPost2010PropOp57
 70
     1
  0
XRECORD
  5
356
102
{ACAD_REACTORS
330
355
102
}
330
355
100
AcDbXrecord
280
     1
102
RTVSPost2010Prop28
280
     0
102
RTVSPost2010PropOp28
 70
     1
102
RTVSPost2010Prop29
280
     1
102
RTVSPost2010PropOp29
 70
     1
102
RTVSPost2010Prop30
280
     1
102
RTVSPost2010PropOp30
 70
     1
102
RTVSPost2010Prop31
280
     0
102
RTVSPost2010PropOp31
 70
     1
102
RTVSPost2010Prop32
280
     0
102
RTVSPost2010PropOp32
 70
     1
102
RTVSPost2010Prop33
280
     0
102
RTVSPost2010PropOp33
 70
     1
102
RTVSPost2010Prop34
280
     0
102
RTVSPost2010PropOp34
 70
     1
102
RTVSPost2010Prop35
280
     0
102
RTVSPost2010PropOp35
 70
     1
102
RTVSPost2010Prop36
280
     0
102
RTVSPost2010PropOp36
 70
     1
102
RTVSPost2010Prop37
 90
       50
102
RTVSPost2010PropOp37
 70
     1
102
RTVSPost2010Prop38
140
0.0
102
RTVSPost2010PropOp38
 70
     1
102
RTVSPost2010Prop39
140
1.0
102
RTVSPost2010PropOp39
 70
     1
102
RTVSPost2010Prop40
 90
        0
102
RTVSPost2010PropOp40
 70
     1
102
RTVSPost2010Prop41ColorIndex
 90
       18
102
RTVSPost2010Prop41ColorRGB
 90
        0
102
RTVSPost2010PropOp41
 70
     1
102
RTVSPost2010Prop42
 90
       50
102
RTVSPost2010PropOp42
 70
     1
102
RTVSPost2010Prop43
 90
        3
102
RTVSPost2010PropOp43
 70
     1
102
RTVSPost2010Prop44ColorIndex
 90
        5
102
RTVSPost2010Prop44ColorRGB
 90
      255
102
RTVSPost2010PropOp44
 70
     1
102
RTVSPost2010Prop45
280
     0
102
RTVSPost2010PropOp45
 70
     1
102
RTVSPost2010Prop46
 90
       50
102
RTVSPost2010PropOp46
 70
     1
102
RTVSPost2010Prop47
 90
       50
102
RTVSPost2010PropOp47
 70
     1
102
RTVSPost2010Prop48
 90
       50
102
RTVSPost2010PropOp48
 70
     1
102
RTVSPost2010Prop49
280
     0
102
RTVSPost2010PropOp49
 70
     1
102
RTVSPost2010Prop50
 90
       50
102
RTVSPost2010PropOp50
 70
     1
102
RTVSPost2010Prop51ColorIndex
 90
      256
102
RTVSPost2010Prop51ColorRGB
 90
-16777216
102
RTVSPost2010PropOp51
 70
     0
102
RTVSPost2010Prop52
140
1.0
102
RTVSPost2010PropOp52
 70
     0
102
RTVSPost2010Prop53
 90
        2
102
RTVSPost2010PropOp53
 70
     1
102
RTVSPost2010Prop54
  1
strokes_ogs.tif
102
RTVSPost2010PropOp54
 70
     1
102
RTVSPost2010Prop55
280
     0
102
RTVSPost2010PropOp55
 70
     1
102
RTVSPost2010Prop56
140
1.0
102
RTVSPost2010PropOp56
 70
     1
102
RTVSPost2010Prop57
140
1.0
102
RTVSPost2010PropOp57
 70
     1
  0
XRECORD
  5
370
102
{ACAD_REACTORS
330
36F
102
}
330
36F
100
AcDbXrecord
280
     1
102
RTVSPost2010Prop28
280
     0
102
RTVSPost2010PropOp28
 70
     0
102
RTVSPost2010Prop29
280
     1
102
RTVSPost2010PropOp29
 70
     0
102
RTVSPost2010Prop30
280
     1
102
RTVSPost2010PropOp30
 70
     0
102
RTVSPost2010Prop31
280
     0
102
RTVSPost2010PropOp31
 70
     0
102
RTVSPost2010Prop32
280
     0
102
RTVSPost2010PropOp32
 70
     0
102
RTVSPost2010Prop33
280
     0
102
RTVSPost2010PropOp33
 70
     0
102
RTVSPost2010Prop34
280
     0
102
RTVSPost2010PropOp34
 70
     0
102
RTVSPost2010Prop35
280
     0
102
RTVSPost2010PropOp35
 70
     0
102
RTVSPost2010Prop36
280
     0
102
RTVSPost2010PropOp36
 70
     0
102
RTVSPost2010Prop37
 90
       50
102
RTVSPost2010PropOp37
 70
     0
102
RTVSPost2010Prop38
140
0.0
102
RTVSPost2010PropOp38
 70
     0
102
RTVSPost2010Prop39
140
1.0
102
RTVSPost2010PropOp39
 70
     0
102
RTVSPost2010Prop40
 90
        0
102
RTVSPost2010PropOp40
 70
     0
102
RTVSPost2010Prop41ColorIndex
 90
       18
102
RTVSPost2010Prop41ColorRGB
 90
        0
102
RTVSPost2010PropOp41
 70
     0
102
RTVSPost2010Prop42
 90
       50
102
RTVSPost2010PropOp42
 70
     0
102
RTVSPost2010Prop43
 90
        3
102
RTVSPost2010PropOp43
 70
     0
102
RTVSPost2010Prop44ColorIndex
 90
        5
102
RTVSPost2010Prop44ColorRGB
 90
      255
102
RTVSPost2010PropOp44
 70
     0
102
RTVSPost2010Prop45
280
     0
102
RTVSPost2010PropOp45
 70
     0
102
RTVSPost2010Prop46
 90
       50
102
RTVSPost2010PropOp46
 70
     0
102
RTVSPost2010Prop47
 90
       50
102
RTVSPost2010PropOp47
 70
     0
102
RTVSPost2010Prop48
 90
       50
102
RTVSPost2010PropOp48
 70
     0
102
RTVSPost2010Prop49
280
     0
102
RTVSPost2010PropOp49
 70
     0
102
RTVSPost2010Prop50
 90
       50
102
RTVSPost2010PropOp50
 70
     0
102
RTVSPost2010Prop51ColorIndex
 90
      256
102
RTVSPost2010Prop51ColorRGB
 90
-16777216
102
RTVSPost2010PropOp51
 70
     0
102
RTVSPost2010Prop52
140
1.0
102
RTVSPost2010PropOp52
 70
     0
102
RTVSPost2010Prop53
 90
        2
102
RTVSPost2010PropOp53
 70
     0
102
RTVSPost2010Prop54
  1
strokes_ogs.tif
102
RTVSPost2010PropOp54
 70
     0
102
RTVSPost2010Prop55
280
     0
102
RTVSPost2010PropOp55
 70
     0
102
RTVSPost2010Prop56
140
1.0
102
RTVSPost2010PropOp56
 70
     0
102
RTVSPost2010Prop57
140
1.0
102
RTVSPost2010PropOp57
 70
     0
  0
XRECORD
  5
35E
102
{ACAD_REACTORS
330
35D
102
}
330
35D
100
AcDbXrecord
280
     1
102
RTVSPost2010Prop28
280
     0
102
RTVSPost2010PropOp28
 70
     1
102
RTVSPost2010Prop29
280
     1
102
RTVSPost2010PropOp29
 70
     1
102
RTVSPost2010Prop30
280
     1
102
RTVSPost2010PropOp30
 70
     1
102
RTVSPost2010Prop31
280
     0
102
RTVSPost2010PropOp31
 70
     1
102
RTVSPost2010Prop32
280
     0
102
RTVSPost2010PropOp32
 70
     1
102
RTVSPost2010Prop33
280
     0
102
RTVSPost2010PropOp33
 70
     1
102
RTVSPost2010Prop34
280
     0
102
RTVSPost2010PropOp34
 70
     1
102
RTVSPost2010Prop35
280
     0
102
RTVSPost2010PropOp35
 70
     1
102
RTVSPost2010Prop36
280
     0
102
RTVSPost2010PropOp36
 70
     1
102
RTVSPost2010Prop37
 90
       50
102
RTVSPost2010PropOp37
 70
     1
102
RTVSPost2010Prop38
140
0.0
102
RTVSPost2010PropOp38
 70
     1
102
RTVSPost2010Prop39
140
1.0
102
RTVSPost2010PropOp39
 70
     1
102
RTVSPost2010Prop40
 90
        0
102
RTVSPost2010PropOp40
 70
     1
102
RTVSPost2010Prop41ColorIndex
 90
       18
102
RTVSPost2010Prop41ColorRGB
 90
        0
102
RTVSPost2010PropOp41
 70
     1
102
RTVSPost2010Prop42
 90
       50
102
RTVSPost2010PropOp42
 70
     1
102
RTVSPost2010Prop43
 90
        3
102
RTVSPost2010PropOp43
 70
     1
102
RTVSPost2010Prop44ColorIndex
 90
        5
102
RTVSPost2010Prop44ColorRGB
 90
      255
102
RTVSPost2010PropOp44
 70
     1
102
RTVSPost2010Prop45
280
     0
102
RTVSPost2010PropOp45
 70
     1
102
RTVSPost2010Prop46
 90
       50
102
RTVSPost2010PropOp46
 70
     1
102
RTVSPost2010Prop47
 90
       50
102
RTVSPost2010PropOp47
 70
     1
102
RTVSPost2010Prop48
 90
       50
102
RTVSPost2010PropOp48
 70
     1
102
RTVSPost2010Prop49
280
     0
102
RTVSPost2010PropOp49
 70
     1
102
RTVSPost2010Prop50
 90
       50
102
RTVSPost2010PropOp50
 70
     1
102
RTVSPost2010Prop51ColorIndex
 90
      256
102
RTVSPost2010Prop51ColorRGB
 90
-16777216
102
RTVSPost2010PropOp51
 70
     0
102
RTVSPost2010Prop52
140
1.0
102
RTVSPost2010PropOp52
 70
     0
102
RTVSPost2010Prop53
 90
        2
102
RTVSPost2010PropOp53
 70
     1
102
RTVSPost2010Prop54
  1
strokes_ogs.tif
102
RTVSPost2010PropOp54
 70
     1
102
RTVSPost2010Prop55
280
     0
102
RTVSPost2010PropOp55
 70
     1
102
RTVSPost2010Prop56
140
1.0
102
RTVSPost2010PropOp56
 70
     1
102
RTVSPost2010Prop57
140
1.0
102
RTVSPost2010PropOp57
 70
     1
  0
XRECORD
  5
342
102
{ACAD_REACTORS
330
341
102
}
330
341
100
AcDbXrecord
280
     1
102
RTVSPost2010Prop28
280
     0
102
RTVSPost2010PropOp28
 70
     1
102
RTVSPost2010Prop29
280
     1
102
RTVSPost2010PropOp29
 70
     1
102
RTVSPost2010Prop30
280
     1
102
RTVSPost2010PropOp30
 70
     1
102
RTVSPost2010Prop31
280
     0
102
RTVSPost2010PropOp31
 70
     1
102
RTVSPost2010Prop32
280
     0
102
RTVSPost2010PropOp32
 70
     1
102
RTVSPost2010Prop33
280
     0
102
RTVSPost2010PropOp33
 70
     1
102
RTVSPost2010Prop34
280
     0
102
RTVSPost2010PropOp34
 70
     1
102
RTVSPost2010Prop35
280
     0
102
RTVSPost2010PropOp35
 70
     1
102
RTVSPost2010Prop36
280
     0
102
RTVSPost2010PropOp36
 70
     1
102
RTVSPost2010Prop37
 90
       50
102
RTVSPost2010PropOp37
 70
     1
102
RTVSPost2010Prop38
140
0.0
102
RTVSPost2010PropOp38
 70
     1
102
RTVSPost2010Prop39
140
1.0
102
RTVSPost2010PropOp39
 70
     1
102
RTVSPost2010Prop40
 90
        0
102
RTVSPost2010PropOp40
 70
     1
102
RTVSPost2010Prop41ColorIndex
 90
       18
102
RTVSPost2010Prop41ColorRGB
 90
        0
102
RTVSPost2010PropOp41
 70
     1
102
RTVSPost2010Prop42
 90
       50
102
RTVSPost2010PropOp42
 70
     1
102
RTVSPost2010Prop43
 90
        3
102
RTVSPost2010PropOp43
 70
     1
102
RTVSPost2010Prop44ColorIndex
 90
        5
102
RTVSPost2010Prop44ColorRGB
 90
      255
102
RTVSPost2010PropOp44
 70
     1
102
RTVSPost2010Prop45
280
     0
102
RTVSPost2010PropOp45
 70
     1
102
RTVSPost2010Prop46
 90
       50
102
RTVSPost2010PropOp46
 70
     1
102
RTVSPost2010Prop47
 90
       50
102
RTVSPost2010PropOp47
 70
     1
102
RTVSPost2010Prop48
 90
       50
102
RTVSPost2010PropOp48
 70
     1
102
RTVSPost2010Prop49
280
     0
102
RTVSPost2010PropOp49
 70
     1
102
RTVSPost2010Prop50
 90
       50
102
RTVSPost2010PropOp50
 70
     1
102
RTVSPost2010Prop51ColorIndex
 90
      256
102
RTVSPost2010Prop51ColorRGB
 90
-16777216
102
RTVSPost2010PropOp51
 70
     0
102
RTVSPost2010Prop52
140
1.0
102
RTVSPost2010PropOp52
 70
     0
102
RTVSPost2010Prop53
 90
        2
102
RTVSPost2010PropOp53
 70
     1
102
RTVSPost2010Prop54
  1
strokes_ogs.tif
102
RTVSPost2010PropOp54
 70
     1
102
RTVSPost2010Prop55
280
     0
102
RTVSPost2010PropOp55
 70
     1
102
RTVSPost2010Prop56
140
1.0
102
RTVSPost2010PropOp56
 70
     1
102
RTVSPost2010Prop57
140
1.0
102
RTVSPost2010PropOp57
 70
     1
  0
XRECORD
  5
344
102
{ACAD_REACTORS
330
343
102
}
330
343
100
AcDbXrecord
280
     1
102
RTVSPost2010Prop28
280
     0
102
RTVSPost2010PropOp28
 70
     1
102
RTVSPost2010Prop29
280
     1
102
RTVSPost2010PropOp29
 70
     1
102
RTVSPost2010Prop30
280
     1
102
RTVSPost2010PropOp30
 70
     1
102
RTVSPost2010Prop31
280
     0
102
RTVSPost2010PropOp31
 70
     1
102
RTVSPost2010Prop32
280
     0
102
RTVSPost2010PropOp32
 70
     1
102
RTVSPost2010Prop33
280
     0
102
RTVSPost2010PropOp33
 70
     1
102
RTVSPost2010Prop34
280
     0
102
RTVSPost2010PropOp34
 70
     1
102
RTVSPost2010Prop35
280
     0
102
RTVSPost2010PropOp35
 70
     1
102
RTVSPost2010Prop36
280
     0
102
RTVSPost2010PropOp36
 70
     1
102
RTVSPost2010Prop37
 90
       50
102
RTVSPost2010PropOp37
 70
     1
102
RTVSPost2010Prop38
140
0.0
102
RTVSPost2010PropOp38
 70
     1
102
RTVSPost2010Prop39
140
1.0
102
RTVSPost2010PropOp39
 70
     1
102
RTVSPost2010Prop40
 90
        0
102
RTVSPost2010PropOp40
 70
     1
102
RTVSPost2010Prop41ColorIndex
 90
       18
102
RTVSPost2010Prop41ColorRGB
 90
        0
102
RTVSPost2010PropOp41
 70
     1
102
RTVSPost2010Prop42
 90
       50
102
RTVSPost2010PropOp42
 70
     1
102
RTVSPost2010Prop43
 90
        3
102
RTVSPost2010PropOp43
 70
     1
102
RTVSPost2010Prop44ColorIndex
 90
        5
102
RTVSPost2010Prop44ColorRGB
 90
      255
102
RTVSPost2010PropOp44
 70
     1
102
RTVSPost2010Prop45
280
     0
102
RTVSPost2010PropOp45
 70
     1
102
RTVSPost2010Prop46
 90
       50
102
RTVSPost2010PropOp46
 70
     1
102
RTVSPost2010Prop47
 90
       50
102
RTVSPost2010PropOp47
 70
     1
102
RTVSPost2010Prop48
 90
       50
102
RTVSPost2010PropOp48
 70
     1
102
RTVSPost2010Prop49
280
     0
102
RTVSPost2010PropOp49
 70
     1
102
RTVSPost2010Prop50
 90
       50
102
RTVSPost2010PropOp50
 70
     1
102
RTVSPost2010Prop51ColorIndex
 90
      256
102
RTVSPost2010Prop51ColorRGB
 90
-16777216
102
RTVSPost2010PropOp51
 70
     0
102
RTVSPost2010Prop52
140
1.0
102
RTVSPost2010PropOp52
 70
     0
102
RTVSPost2010Prop53
 90
        2
102
RTVSPost2010PropOp53
 70
     1
102
RTVSPost2010Prop54
  1
strokes_ogs.tif
102
RTVSPost2010PropOp54
 70
     1
102
RTVSPost2010Prop55
280
     0
102
RTVSPost2010PropOp55
 70
     1
102
RTVSPost2010Prop56
140
1.0
102
RTVSPost2010PropOp56
 70
     1
102
RTVSPost2010Prop57
140
1.0
102
RTVSPost2010PropOp57
 70
     1
  0
XRECORD
  5
346
102
{ACAD_REACTORS
330
345
102
}
330
345
100
AcDbXrecord
280
     1
102
RTVSPost2010Prop28
280
     0
102
RTVSPost2010PropOp28
 70
     1
102
RTVSPost2010Prop29
280
     1
102
RTVSPost2010PropOp29
 70
     1
102
RTVSPost2010Prop30
280
     1
102
RTVSPost2010PropOp30
 70
     1
102
RTVSPost2010Prop31
280
     0
102
RTVSPost2010PropOp31
 70
     1
102
RTVSPost2010Prop32
280
     0
102
RTVSPost2010PropOp32
 70
     1
102
RTVSPost2010Prop33
280
     0
102
RTVSPost2010PropOp33
 70
     1
102
RTVSPost2010Prop34
280
     0
102
RTVSPost2010PropOp34
 70
     1
102
RTVSPost2010Prop35
280
     0
102
RTVSPost2010PropOp35
 70
     1
102
RTVSPost2010Prop36
280
     0
102
RTVSPost2010PropOp36
 70
     1
102
RTVSPost2010Prop37
 90
       50
102
RTVSPost2010PropOp37
 70
     1
102
RTVSPost2010Prop38
140
0.0
102
RTVSPost2010PropOp38
 70
     1
102
RTVSPost2010Prop39
140
1.0
102
RTVSPost2010PropOp39
 70
     1
102
RTVSPost2010Prop40
 90
        0
102
RTVSPost2010PropOp40
 70
     1
102
RTVSPost2010Prop41ColorIndex
 90
       18
102
RTVSPost2010Prop41ColorRGB
 90
        0
102
RTVSPost2010PropOp41
 70
     1
102
RTVSPost2010Prop42
 90
       50
102
RTVSPost2010PropOp42
 70
     1
102
RTVSPost2010Prop43
 90
        3
102
RTVSPost2010PropOp43
 70
     1
102
RTVSPost2010Prop44ColorIndex
 90
        5
102
RTVSPost2010Prop44ColorRGB
 90
      255
102
RTVSPost2010PropOp44
 70
     1
102
RTVSPost2010Prop45
280
     0
102
RTVSPost2010PropOp45
 70
     1
102
RTVSPost2010Prop46
 90
       50
102
RTVSPost2010PropOp46
 70
     1
102
RTVSPost2010Prop47
 90
       50
102
RTVSPost2010PropOp47
 70
     1
102
RTVSPost2010Prop48
 90
       50
102
RTVSPost2010PropOp48
 70
     1
102
RTVSPost2010Prop49
280
     0
102
RTVSPost2010PropOp49
 70
     1
102
RTVSPost2010Prop50
 90
       50
102
RTVSPost2010PropOp50
 70
     1
102
RTVSPost2010Prop51ColorIndex
 90
      256
102
RTVSPost2010Prop51ColorRGB
 90
-16777216
102
RTVSPost2010PropOp51
 70
     0
102
RTVSPost2010Prop52
140
1.0
102
RTVSPost2010PropOp52
 70
     0
102
RTVSPost2010Prop53
 90
        2
102
RTVSPost2010PropOp53
 70
     1
102
RTVSPost2010Prop54
  1
strokes_ogs.tif
102
RTVSPost2010PropOp54
 70
     1
102
RTVSPost2010Prop55
280
     0
102
RTVSPost2010PropOp55
 70
     1
102
RTVSPost2010Prop56
140
1.0
102
RTVSPost2010PropOp56
 70
     1
102
RTVSPost2010Prop57
140
1.0
102
RTVSPost2010PropOp57
 70
     1
  0
XRECORD
  5
348
102
{ACAD_REACTORS
330
347
102
}
330
347
100
AcDbXrecord
280
     1
102
RTVSPost2010Prop28
280
     0
102
RTVSPost2010PropOp28
 70
     1
102
RTVSPost2010Prop29
280
     1
102
RTVSPost2010PropOp29
 70
     1
102
RTVSPost2010Prop30
280
     1
102
RTVSPost2010PropOp30
 70
     1
102
RTVSPost2010Prop31
280
     0
102
RTVSPost2010PropOp31
 70
     1
102
RTVSPost2010Prop32
280
     0
102
RTVSPost2010PropOp32
 70
     1
102
RTVSPost2010Prop33
280
     0
102
RTVSPost2010PropOp33
 70
     1
102
RTVSPost2010Prop34
280
     0
102
RTVSPost2010PropOp34
 70
     1
102
RTVSPost2010Prop35
280
     0
102
RTVSPost2010PropOp35
 70
     1
102
RTVSPost2010Prop36
280
     0
102
RTVSPost2010PropOp36
 70
     1
102
RTVSPost2010Prop37
 90
       50
102
RTVSPost2010PropOp37
 70
     1
102
RTVSPost2010Prop38
140
0.0
102
RTVSPost2010PropOp38
 70
     1
102
RTVSPost2010Prop39
140
1.0
102
RTVSPost2010PropOp39
 70
     1
102
RTVSPost2010Prop40
 90
        0
102
RTVSPost2010PropOp40
 70
     1
102
RTVSPost2010Prop41ColorIndex
 90
       18
102
RTVSPost2010Prop41ColorRGB
 90
        0
102
RTVSPost2010PropOp41
 70
     1
102
RTVSPost2010Prop42
 90
       50
102
RTVSPost2010PropOp42
 70
     1
102
RTVSPost2010Prop43
 90
        3
102
RTVSPost2010PropOp43
 70
     1
102
RTVSPost2010Prop44ColorIndex
 90
        5
102
RTVSPost2010Prop44ColorRGB
 90
      255
102
RTVSPost2010PropOp44
 70
     1
102
RTVSPost2010Prop45
280
     0
102
RTVSPost2010PropOp45
 70
     1
102
RTVSPost2010Prop46
 90
       50
102
RTVSPost2010PropOp46
 70
     1
102
RTVSPost2010Prop47
 90
       50
102
RTVSPost2010PropOp47
 70
     1
102
RTVSPost2010Prop48
 90
       50
102
RTVSPost2010PropOp48
 70
     1
102
RTVSPost2010Prop49
280
     0
102
RTVSPost2010PropOp49
 70
     1
102
RTVSPost2010Prop50
 90
       50
102
RTVSPost2010PropOp50
 70
     1
102
RTVSPost2010Prop51ColorIndex
 90
      256
102
RTVSPost2010Prop51ColorRGB
 90
-16777216
102
RTVSPost2010PropOp51
 70
     0
102
RTVSPost2010Prop52
140
1.0
102
RTVSPost2010PropOp52
 70
     0
102
RTVSPost2010Prop53
 90
        2
102
RTVSPost2010PropOp53
 70
     1
102
RTVSPost2010Prop54
  1
strokes_ogs.tif
102
RTVSPost2010PropOp54
 70
     1
102
RTVSPost2010Prop55
280
     0
102
RTVSPost2010PropOp55
 70
     1
102
RTVSPost2010Prop56
140
1.0
102
RTVSPost2010PropOp56
 70
     1
102
RTVSPost2010Prop57
140
1.0
102
RTVSPost2010PropOp57
 70
     1
  0
XRECORD
  5
350
102
{ACAD_REACTORS
330
34F
102
}
330
34F
100
AcDbXrecord
280
     1
102
RTVSPost2010Prop28
280
     0
102
RTVSPost2010PropOp28
 70
     1
102
RTVSPost2010Prop29
280
     1
102
RTVSPost2010PropOp29
 70
     1
102
RTVSPost2010Prop30
280
     1
102
RTVSPost2010PropOp30
 70
     1
102
RTVSPost2010Prop31
280
     0
102
RTVSPost2010PropOp31
 70
     1
102
RTVSPost2010Prop32
280
     0
102
RTVSPost2010PropOp32
 70
     1
102
RTVSPost2010Prop33
280
     0
102
RTVSPost2010PropOp33
 70
     1
102
RTVSPost2010Prop34
280
     0
102
RTVSPost2010PropOp34
 70
     1
102
RTVSPost2010Prop35
280
     0
102
RTVSPost2010PropOp35
 70
     1
102
RTVSPost2010Prop36
280
     0
102
RTVSPost2010PropOp36
 70
     1
102
RTVSPost2010Prop37
 90
       50
102
RTVSPost2010PropOp37
 70
     1
102
RTVSPost2010Prop38
140
0.0
102
RTVSPost2010PropOp38
 70
     1
102
RTVSPost2010Prop39
140
1.0
102
RTVSPost2010PropOp39
 70
     1
102
RTVSPost2010Prop40
 90
        0
102
RTVSPost2010PropOp40
 70
     1
102
RTVSPost2010Prop41ColorIndex
 90
       18
102
RTVSPost2010Prop41ColorRGB
 90
        0
102
RTVSPost2010PropOp41
 70
     1
102
RTVSPost2010Prop42
 90
       50
102
RTVSPost2010PropOp42
 70
     1
102
RTVSPost2010Prop43
 90
        3
102
RTVSPost2010PropOp43
 70
     1
102
RTVSPost2010Prop44ColorIndex
 90
        5
102
RTVSPost2010Prop44ColorRGB
 90
      255
102
RTVSPost2010PropOp44
 70
     1
102
RTVSPost2010Prop45
280
     0
102
RTVSPost2010PropOp45
 70
     1
102
RTVSPost2010Prop46
 90
       50
102
RTVSPost2010PropOp46
 70
     1
102
RTVSPost2010Prop47
 90
       50
102
RTVSPost2010PropOp47
 70
     1
102
RTVSPost2010Prop48
 90
       50
102
RTVSPost2010PropOp48
 70
     1
102
RTVSPost2010Prop49
280
     0
102
RTVSPost2010PropOp49
 70
     1
102
RTVSPost2010Prop50
 90
       50
102
RTVSPost2010PropOp50
 70
     1
102
RTVSPost2010Prop51ColorIndex
 90
      256
102
RTVSPost2010Prop51ColorRGB
 90
-16777216
102
RTVSPost2010PropOp51
 70
     0
102
RTVSPost2010Prop52
140
1.0
102
RTVSPost2010PropOp52
 70
     0
102
RTVSPost2010Prop53
 90
        2
102
RTVSPost2010PropOp53
 70
     1
102
RTVSPost2010Prop54
  1
strokes_ogs.tif
102
RTVSPost2010PropOp54
 70
     1
102
RTVSPost2010Prop55
280
     0
102
RTVSPost2010PropOp55
 70
     1
102
RTVSPost2010Prop56
140
1.0
102
RTVSPost2010PropOp56
 70
     1
102
RTVSPost2010Prop57
140
1.0
102
RTVSPost2010PropOp57
 70
     1
  0
XRECORD
  5
36C
102
{ACAD_REACTORS
330
36B
102
}
330
36B
100
AcDbXrecord
280
     1
102
RTVSPost2010Prop28
280
     0
102
RTVSPost2010PropOp28
 70
     0
102
RTVSPost2010Prop29
280
     1
102
RTVSPost2010PropOp29
 70
     0
102
RTVSPost2010Prop30
280
     1
102
RTVSPost2010PropOp30
 70
     0
102
RTVSPost2010Prop31
280
     0
102
RTVSPost2010PropOp31
 70
     0
102
RTVSPost2010Prop32
280
     0
102
RTVSPost2010PropOp32
 70
     0
102
RTVSPost2010Prop33
280
     0
102
RTVSPost2010PropOp33
 70
     0
102
RTVSPost2010Prop34
280
     0
102
RTVSPost2010PropOp34
 70
     0
102
RTVSPost2010Prop35
280
     0
102
RTVSPost2010PropOp35
 70
     0
102
RTVSPost2010Prop36
280
     0
102
RTVSPost2010PropOp36
 70
     0
102
RTVSPost2010Prop37
 90
       50
102
RTVSPost2010PropOp37
 70
     0
102
RTVSPost2010Prop38
140
0.0
102
RTVSPost2010PropOp38
 70
     0
102
RTVSPost2010Prop39
140
1.0
102
RTVSPost2010PropOp39
 70
     0
102
RTVSPost2010Prop40
 90
        0
102
RTVSPost2010PropOp40
 70
     0
102
RTVSPost2010Prop41ColorIndex
 90
       18
102
RTVSPost2010Prop41ColorRGB
 90
        0
102
RTVSPost2010PropOp41
 70
     0
102
RTVSPost2010Prop42
 90
       50
102
RTVSPost2010PropOp42
 70
     0
102
RTVSPost2010Prop43
 90
        3
102
RTVSPost2010PropOp43
 70
     0
102
RTVSPost2010Prop44ColorIndex
 90
        5
102
RTVSPost2010Prop44ColorRGB
 90
      255
102
RTVSPost2010PropOp44
 70
     0
102
RTVSPost2010Prop45
280
     0
102
RTVSPost2010PropOp45
 70
     0
102
RTVSPost2010Prop46
 90
       50
102
RTVSPost2010PropOp46
 70
     0
102
RTVSPost2010Prop47
 90
       50
102
RTVSPost2010PropOp47
 70
     0
102
RTVSPost2010Prop48
 90
       50
102
RTVSPost2010PropOp48
 70
     0
102
RTVSPost2010Prop49
280
     0
102
RTVSPost2010PropOp49
 70
     0
102
RTVSPost2010Prop50
 90
       50
102
RTVSPost2010PropOp50
 70
     0
102
RTVSPost2010Prop51ColorIndex
 90
      256
102
RTVSPost2010Prop51ColorRGB
 90
-16777216
102
RTVSPost2010PropOp51
 70
     0
102
RTVSPost2010Prop52
140
1.0
102
RTVSPost2010PropOp52
 70
     0
102
RTVSPost2010Prop53
 90
        2
102
RTVSPost2010PropOp53
 70
     0
102
RTVSPost2010Prop54
  1
strokes_ogs.tif
102
RTVSPost2010PropOp54
 70
     0
102
RTVSPost2010Prop55
280
     0
102
RTVSPost2010PropOp55
 70
     0
102
RTVSPost2010Prop56
140
1.0
102
RTVSPost2010PropOp56
 70
     0
102
RTVSPost2010Prop57
140
1.0
102
RTVSPost2010PropOp57
 70
     0
  0
XRECORD
  5
35C
102
{ACAD_REACTORS
330
35B
102
}
330
35B
100
AcDbXrecord
280
     1
102
RTVSPost2010Prop28
280
     0
102
RTVSPost2010PropOp28
 70
     1
102
RTVSPost2010Prop29
280
     1
102
RTVSPost2010PropOp29
 70
     1
102
RTVSPost2010Prop30
280
     1
102
RTVSPost2010PropOp30
 70
     1
102
RTVSPost2010Prop31
280
     0
102
RTVSPost2010PropOp31
 70
     1
102
RTVSPost2010Prop32
280
     0
102
RTVSPost2010PropOp32
 70
     1
102
RTVSPost2010Prop33
280
     0
102
RTVSPost2010PropOp33
 70
     1
102
RTVSPost2010Prop34
280
     0
102
RTVSPost2010PropOp34
 70
     1
102
RTVSPost2010Prop35
280
     0
102
RTVSPost2010PropOp35
 70
     1
102
RTVSPost2010Prop36
280
     0
102
RTVSPost2010PropOp36
 70
     1
102
RTVSPost2010Prop37
 90
       50
102
RTVSPost2010PropOp37
 70
     1
102
RTVSPost2010Prop38
140
0.0
102
RTVSPost2010PropOp38
 70
     1
102
RTVSPost2010Prop39
140
1.0
102
RTVSPost2010PropOp39
 70
     1
102
RTVSPost2010Prop40
 90
        0
102
RTVSPost2010PropOp40
 70
     1
102
RTVSPost2010Prop41ColorIndex
 90
       18
102
RTVSPost2010Prop41ColorRGB
 90
        0
102
RTVSPost2010PropOp41
 70
     1
102
RTVSPost2010Prop42
 90
       50
102
RTVSPost2010PropOp42
 70
     1
102
RTVSPost2010Prop43
 90
        3
102
RTVSPost2010PropOp43
 70
     1
102
RTVSPost2010Prop44ColorIndex
 90
        5
102
RTVSPost2010Prop44ColorRGB
 90
      255
102
RTVSPost2010PropOp44
 70
     1
102
RTVSPost2010Prop45
280
     0
102
RTVSPost2010PropOp45
 70
     1
102
RTVSPost2010Prop46
 90
       50
102
RTVSPost2010PropOp46
 70
     1
102
RTVSPost2010Prop47
 90
       50
102
RTVSPost2010PropOp47
 70
     1
102
RTVSPost2010Prop48
 90
       50
102
RTVSPost2010PropOp48
 70
     1
102
RTVSPost2010Prop49
280
     0
102
RTVSPost2010PropOp49
 70
     1
102
RTVSPost2010Prop50
 90
       50
102
RTVSPost2010PropOp50
 70
     1
102
RTVSPost2010Prop51ColorIndex
 90
      256
102
RTVSPost2010Prop51ColorRGB
 90
-16777216
102
RTVSPost2010PropOp51
 70
     0
102
RTVSPost2010Prop52
140
1.0
102
RTVSPost2010PropOp52
 70
     0
102
RTVSPost2010Prop53
 90
        2
102
RTVSPost2010PropOp53
 70
     1
102
RTVSPost2010Prop54
  1
strokes_ogs.tif
102
RTVSPost2010PropOp54
 70
     1
102
RTVSPost2010Prop55
280
     0
102
RTVSPost2010PropOp55
 70
     1
102
RTVSPost2010Prop56
140
1.0
102
RTVSPost2010PropOp56
 70
     1
102
RTVSPost2010Prop57
140
1.0
102
RTVSPost2010PropOp57
 70
     1
  0
XRECORD
  5
36E
102
{ACAD_REACTORS
330
36D
102
}
330
36D
100
AcDbXrecord
280
     1
102
RTVSPost2010Prop28
280
     0
102
RTVSPost2010PropOp28
 70
     0
102
RTVSPost2010Prop29
280
     1
102
RTVSPost2010PropOp29
 70
     0
102
RTVSPost2010Prop30
280
     1
102
RTVSPost2010PropOp30
 70
     0
102
RTVSPost2010Prop31
280
     0
102
RTVSPost2010PropOp31
 70
     0
102
RTVSPost2010Prop32
280
     0
102
RTVSPost2010PropOp32
 70
     0
102
RTVSPost2010Prop33
280
     0
102
RTVSPost2010PropOp33
 70
     0
102
RTVSPost2010Prop34
280
     0
102
RTVSPost2010PropOp34
 70
     0
102
RTVSPost2010Prop35
280
     0
102
RTVSPost2010PropOp35
 70
     0
102
RTVSPost2010Prop36
280
     0
102
RTVSPost2010PropOp36
 70
     0
102
RTVSPost2010Prop37
 90
       50
102
RTVSPost2010PropOp37
 70
     0
102
RTVSPost2010Prop38
140
0.0
102
RTVSPost2010PropOp38
 70
     0
102
RTVSPost2010Prop39
140
1.0
102
RTVSPost2010PropOp39
 70
     0
102
RTVSPost2010Prop40
 90
        0
102
RTVSPost2010PropOp40
 70
     0
102
RTVSPost2010Prop41ColorIndex
 90
       18
102
RTVSPost2010Prop41ColorRGB
 90
        0
102
RTVSPost2010PropOp41
 70
     0
102
RTVSPost2010Prop42
 90
       50
102
RTVSPost2010PropOp42
 70
     0
102
RTVSPost2010Prop43
 90
        3
102
RTVSPost2010PropOp43
 70
     0
102
RTVSPost2010Prop44ColorIndex
 90
        5
102
RTVSPost2010Prop44ColorRGB
 90
      255
102
RTVSPost2010PropOp44
 70
     0
102
RTVSPost2010Prop45
280
     0
102
RTVSPost2010PropOp45
 70
     0
102
RTVSPost2010Prop46
 90
       50
102
RTVSPost2010PropOp46
 70
     0
102
RTVSPost2010Prop47
 90
       50
102
RTVSPost2010PropOp47
 70
     0
102
RTVSPost2010Prop48
 90
       50
102
RTVSPost2010PropOp48
 70
     0
102
RTVSPost2010Prop49
280
     0
102
RTVSPost2010PropOp49
 70
     0
102
RTVSPost2010Prop50
 90
       50
102
RTVSPost2010PropOp50
 70
     0
102
RTVSPost2010Prop51ColorIndex
 90
      256
102
RTVSPost2010Prop51ColorRGB
 90
-16777216
102
RTVSPost2010PropOp51
 70
     0
102
RTVSPost2010Prop52
140
1.0
102
RTVSPost2010PropOp52
 70
     0
102
RTVSPost2010Prop53
 90
        2
102
RTVSPost2010PropOp53
 70
     0
102
RTVSPost2010Prop54
  1
strokes_ogs.tif
102
RTVSPost2010PropOp54
 70
     0
102
RTVSPost2010Prop55
280
     0
102
RTVSPost2010PropOp55
 70
     0
102
RTVSPost2010Prop56
140
1.0
102
RTVSPost2010PropOp56
 70
     0
102
RTVSPost2010Prop57
140
1.0
102
RTVSPost2010PropOp57
 70
     0
  0
XRECORD
  5
354
102
{ACAD_REACTORS
330
353
102
}
330
353
100
AcDbXrecord
280
     1
102
RTVSPost2010Prop28
280
     0
102
RTVSPost2010PropOp28
 70
     1
102
RTVSPost2010Prop29
280
     1
102
RTVSPost2010PropOp29
 70
     1
102
RTVSPost2010Prop30
280
     1
102
RTVSPost2010PropOp30
 70
     1
102
RTVSPost2010Prop31
280
     0
102
RTVSPost2010PropOp31
 70
     1
102
RTVSPost2010Prop32
280
     0
102
RTVSPost2010PropOp32
 70
     1
102
RTVSPost2010Prop33
280
     0
102
RTVSPost2010PropOp33
 70
     1
102
RTVSPost2010Prop34
280
     0
102
RTVSPost2010PropOp34
 70
     1
102
RTVSPost2010Prop35
280
     0
102
RTVSPost2010PropOp35
 70
     1
102
RTVSPost2010Prop36
280
     0
102
RTVSPost2010PropOp36
 70
     1
102
RTVSPost2010Prop37
 90
       50
102
RTVSPost2010PropOp37
 70
     1
102
RTVSPost2010Prop38
140
0.0
102
RTVSPost2010PropOp38
 70
     1
102
RTVSPost2010Prop39
140
1.0
102
RTVSPost2010PropOp39
 70
     1
102
RTVSPost2010Prop40
 90
        0
102
RTVSPost2010PropOp40
 70
     1
102
RTVSPost2010Prop41ColorIndex
 90
       18
102
RTVSPost2010Prop41ColorRGB
 90
        0
102
RTVSPost2010PropOp41
 70
     1
102
RTVSPost2010Prop42
 90
       50
102
RTVSPost2010PropOp42
 70
     1
102
RTVSPost2010Prop43
 90
        3
102
RTVSPost2010PropOp43
 70
     1
102
RTVSPost2010Prop44ColorIndex
 90
        5
102
RTVSPost2010Prop44ColorRGB
 90
      255
102
RTVSPost2010PropOp44
 70
     1
102
RTVSPost2010Prop45
280
     0
102
RTVSPost2010PropOp45
 70
     1
102
RTVSPost2010Prop46
 90
       50
102
RTVSPost2010PropOp46
 70
     1
102
RTVSPost2010Prop47
 90
       50
102
RTVSPost2010PropOp47
 70
     1
102
RTVSPost2010Prop48
 90
       50
102
RTVSPost2010PropOp48
 70
     1
102
RTVSPost2010Prop49
280
     0
102
RTVSPost2010PropOp49
 70
     1
102
RTVSPost2010Prop50
 90
       50
102
RTVSPost2010PropOp50
 70
     1
102
RTVSPost2010Prop51ColorIndex
 90
      256
102
RTVSPost2010Prop51ColorRGB
 90
-16777216
102
RTVSPost2010PropOp51
 70
     0
102
RTVSPost2010Prop52
140
1.0
102
RTVSPost2010PropOp52
 70
     0
102
RTVSPost2010Prop53
 90
        2
102
RTVSPost2010PropOp53
 70
     1
102
RTVSPost2010Prop54
  1
strokes_ogs.tif
102
RTVSPost2010PropOp54
 70
     1
102
RTVSPost2010Prop55
280
     0
102
RTVSPost2010PropOp55
 70
     1
102
RTVSPost2010Prop56
140
1.0
102
RTVSPost2010PropOp56
 70
     1
102
RTVSPost2010Prop57
140
1.0
102
RTVSPost2010PropOp57
 70
     1
  0
XRECORD
  5
36A
102
{ACAD_REACTORS
330
369
102
}
330
369
100
AcDbXrecord
280
     1
102
RTVSPost2010Prop28
280
     0
102
RTVSPost2010PropOp28
 70
     1
102
RTVSPost2010Prop29
280
     1
102
RTVSPost2010PropOp29
 70
     1
102
RTVSPost2010Prop30
280
     1
102
RTVSPost2010PropOp30
 70
     1
102
RTVSPost2010Prop31
280
     0
102
RTVSPost2010PropOp31
 70
     1
102
RTVSPost2010Prop32
280
     0
102
RTVSPost2010PropOp32
 70
     1
102
RTVSPost2010Prop33
280
     0
102
RTVSPost2010PropOp33
 70
     1
102
RTVSPost2010Prop34
280
     0
102
RTVSPost2010PropOp34
 70
     1
102
RTVSPost2010Prop35
280
     0
102
RTVSPost2010PropOp35
 70
     1
102
RTVSPost2010Prop36
280
     0
102
RTVSPost2010PropOp36
 70
     1
102
RTVSPost2010Prop37
 90
       50
102
RTVSPost2010PropOp37
 70
     1
102
RTVSPost2010Prop38
140
0.0
102
RTVSPost2010PropOp38
 70
     1
102
RTVSPost2010Prop39
140
1.0
102
RTVSPost2010PropOp39
 70
     1
102
RTVSPost2010Prop40
 90
        0
102
RTVSPost2010PropOp40
 70
     1
102
RTVSPost2010Prop41ColorIndex
 90
       18
102
RTVSPost2010Prop41ColorRGB
 90
        0
102
RTVSPost2010PropOp41
 70
     1
102
RTVSPost2010Prop42
 90
       50
102
RTVSPost2010PropOp42
 70
     1
102
RTVSPost2010Prop43
 90
        3
102
RTVSPost2010PropOp43
 70
     1
102
RTVSPost2010Prop44ColorIndex
 90
        5
102
RTVSPost2010Prop44ColorRGB
 90
      255
102
RTVSPost2010PropOp44
 70
     1
102
RTVSPost2010Prop45
280
     0
102
RTVSPost2010PropOp45
 70
     1
102
RTVSPost2010Prop46
 90
       50
102
RTVSPost2010PropOp46
 70
     1
102
RTVSPost2010Prop47
 90
       50
102
RTVSPost2010PropOp47
 70
     1
102
RTVSPost2010Prop48
 90
       50
102
RTVSPost2010PropOp48
 70
     1
102
RTVSPost2010Prop49
280
     0
102
RTVSPost2010PropOp49
 70
     1
102
RTVSPost2010Prop50
 90
       50
102
RTVSPost2010PropOp50
 70
     1
102
RTVSPost2010Prop51ColorIndex
 90
      256
102
RTVSPost2010Prop51ColorRGB
 90
-16777216
102
RTVSPost2010PropOp51
 70
     0
102
RTVSPost2010Prop52
140
1.0
102
RTVSPost2010PropOp52
 70
     0
102
RTVSPost2010Prop53
 90
        2
102
RTVSPost2010PropOp53
 70
     1
102
RTVSPost2010Prop54
  1
strokes_ogs.tif
102
RTVSPost2010PropOp54
 70
     1
102
RTVSPost2010Prop55
280
     0
102
RTVSPost2010PropOp55
 70
     1
102
RTVSPost2010Prop56
140
1.0
102
RTVSPost2010PropOp56
 70
     1
102
RTVSPost2010Prop57
140
1.0
102
RTVSPost2010PropOp57
 70
     1
  0
XRECORD
  5
368
102
{ACAD_REACTORS
330
367
102
}
330
367
100
AcDbXrecord
280
     1
102
RTVSPost2010Prop28
280
     0
102
RTVSPost2010PropOp28
 70
     1
102
RTVSPost2010Prop29
280
     1
102
RTVSPost2010PropOp29
 70
     1
102
RTVSPost2010Prop30
280
     1
102
RTVSPost2010PropOp30
 70
     1
102
RTVSPost2010Prop31
280
     0
102
RTVSPost2010PropOp31
 70
     1
102
RTVSPost2010Prop32
280
     0
102
RTVSPost2010PropOp32
 70
     1
102
RTVSPost2010Prop33
280
     0
102
RTVSPost2010PropOp33
 70
     1
102
RTVSPost2010Prop34
280
     0
102
RTVSPost2010PropOp34
 70
     1
102
RTVSPost2010Prop35
280
     0
102
RTVSPost2010PropOp35
 70
     1
102
RTVSPost2010Prop36
280
     0
102
RTVSPost2010PropOp36
 70
     1
102
RTVSPost2010Prop37
 90
       50
102
RTVSPost2010PropOp37
 70
     1
102
RTVSPost2010Prop38
140
0.0
102
RTVSPost2010PropOp38
 70
     1
102
RTVSPost2010Prop39
140
1.0
102
RTVSPost2010PropOp39
 70
     1
102
RTVSPost2010Prop40
 90
        0
102
RTVSPost2010PropOp40
 70
     1
102
RTVSPost2010Prop41ColorIndex
 90
       18
102
RTVSPost2010Prop41ColorRGB
 90
        0
102
RTVSPost2010PropOp41
 70
     1
102
RTVSPost2010Prop42
 90
       50
102
RTVSPost2010PropOp42
 70
     1
102
RTVSPost2010Prop43
 90
        3
102
RTVSPost2010PropOp43
 70
     1
102
RTVSPost2010Prop44ColorIndex
 90
        5
102
RTVSPost2010Prop44ColorRGB
 90
      255
102
RTVSPost2010PropOp44
 70
     1
102
RTVSPost2010Prop45
280
     0
102
RTVSPost2010PropOp45
 70
     1
102
RTVSPost2010Prop46
 90
       50
102
RTVSPost2010PropOp46
 70
     1
102
RTVSPost2010Prop47
 90
       50
102
RTVSPost2010PropOp47
 70
     1
102
RTVSPost2010Prop48
 90
       50
102
RTVSPost2010PropOp48
 70
     1
102
RTVSPost2010Prop49
280
     0
102
RTVSPost2010PropOp49
 70
     1
102
RTVSPost2010Prop50
 90
       50
102
RTVSPost2010PropOp50
 70
     1
102
RTVSPost2010Prop51ColorIndex
 90
      256
102
RTVSPost2010Prop51ColorRGB
 90
-16777216
102
RTVSPost2010PropOp51
 70
     0
102
RTVSPost2010Prop52
140
1.0
102
RTVSPost2010PropOp52
 70
     0
102
RTVSPost2010Prop53
 90
        2
102
RTVSPost2010PropOp53
 70
     1
102
RTVSPost2010Prop54
  1
strokes_ogs.tif
102
RTVSPost2010PropOp54
 70
     1
102
RTVSPost2010Prop55
280
     0
102
RTVSPost2010PropOp55
 70
     1
102
RTVSPost2010Prop56
140
1.0
102
RTVSPost2010PropOp56
 70
     1
102
RTVSPost2010Prop57
140
1.0
102
RTVSPost2010PropOp57
 70
     1
  0
XRECORD
  5
362
102
{ACAD_REACTORS
330
361
102
}
330
361
100
AcDbXrecord
280
     1
102
RTVSPost2010Prop28
280
     0
102
RTVSPost2010PropOp28
 70
     1
102
RTVSPost2010Prop29
280
     1
102
RTVSPost2010PropOp29
 70
     1
102
RTVSPost2010Prop30
280
     1
102
RTVSPost2010PropOp30
 70
     1
102
RTVSPost2010Prop31
280
     0
102
RTVSPost2010PropOp31
 70
     1
102
RTVSPost2010Prop32
280
     0
102
RTVSPost2010PropOp32
 70
     1
102
RTVSPost2010Prop33
280
     0
102
RTVSPost2010PropOp33
 70
     1
102
RTVSPost2010Prop34
280
     0
102
RTVSPost2010PropOp34
 70
     1
102
RTVSPost2010Prop35
280
     0
102
RTVSPost2010PropOp35
 70
     1
102
RTVSPost2010Prop36
280
     0
102
RTVSPost2010PropOp36
 70
     1
102
RTVSPost2010Prop37
 90
       50
102
RTVSPost2010PropOp37
 70
     1
102
RTVSPost2010Prop38
140
0.0
102
RTVSPost2010PropOp38
 70
     1
102
RTVSPost2010Prop39
140
1.0
102
RTVSPost2010PropOp39
 70
     1
102
RTVSPost2010Prop40
 90
        0
102
RTVSPost2010PropOp40
 70
     1
102
RTVSPost2010Prop41ColorIndex
 90
       18
102
RTVSPost2010Prop41ColorRGB
 90
        0
102
RTVSPost2010PropOp41
 70
     1
102
RTVSPost2010Prop42
 90
       50
102
RTVSPost2010PropOp42
 70
     1
102
RTVSPost2010Prop43
 90
        3
102
RTVSPost2010PropOp43
 70
     1
102
RTVSPost2010Prop44ColorIndex
 90
        5
102
RTVSPost2010Prop44ColorRGB
 90
      255
102
RTVSPost2010PropOp44
 70
     1
102
RTVSPost2010Prop45
280
     0
102
RTVSPost2010PropOp45
 70
     1
102
RTVSPost2010Prop46
 90
       50
102
RTVSPost2010PropOp46
 70
     1
102
RTVSPost2010Prop47
 90
       50
102
RTVSPost2010PropOp47
 70
     1
102
RTVSPost2010Prop48
 90
       50
102
RTVSPost2010PropOp48
 70
     1
102
RTVSPost2010Prop49
280
     0
102
RTVSPost2010PropOp49
 70
     1
102
RTVSPost2010Prop50
 90
       50
102
RTVSPost2010PropOp50
 70
     1
102
RTVSPost2010Prop51ColorIndex
 90
      256
102
RTVSPost2010Prop51ColorRGB
 90
-16777216
102
RTVSPost2010PropOp51
 70
     0
102
RTVSPost2010Prop52
140
1.0
102
RTVSPost2010PropOp52
 70
     0
102
RTVSPost2010Prop53
 90
        2
102
RTVSPost2010PropOp53
 70
     1
102
RTVSPost2010Prop54
  1
strokes_ogs.tif
102
RTVSPost2010PropOp54
 70
     1
102
RTVSPost2010Prop55
280
     0
102
RTVSPost2010PropOp55
 70
     1
102
RTVSPost2010Prop56
140
1.0
102
RTVSPost2010PropOp56
 70
     1
102
RTVSPost2010Prop57
140
1.0
102
RTVSPost2010PropOp57
 70
     1
  0
XRECORD
  5
364
102
{ACAD_REACTORS
330
363
102
}
330
363
100
AcDbXrecord
280
     1
102
RTVSPost2010Prop28
280
     0
102
RTVSPost2010PropOp28
 70
     1
102
RTVSPost2010Prop29
280
     1
102
RTVSPost2010PropOp29
 70
     1
102
RTVSPost2010Prop30
280
     1
102
RTVSPost2010PropOp30
 70
     1
102
RTVSPost2010Prop31
280
     0
102
RTVSPost2010PropOp31
 70
     1
102
RTVSPost2010Prop32
280
     0
102
RTVSPost2010PropOp32
 70
     1
102
RTVSPost2010Prop33
280
     0
102
RTVSPost2010PropOp33
 70
     1
102
RTVSPost2010Prop34
280
     0
102
RTVSPost2010PropOp34
 70
     1
102
RTVSPost2010Prop35
280
     0
102
RTVSPost2010PropOp35
 70
     1
102
RTVSPost2010Prop36
280
     0
102
RTVSPost2010PropOp36
 70
     1
102
RTVSPost2010Prop37
 90
       50
102
RTVSPost2010PropOp37
 70
     1
102
RTVSPost2010Prop38
140
0.0
102
RTVSPost2010PropOp38
 70
     1
102
RTVSPost2010Prop39
140
1.0
102
RTVSPost2010PropOp39
 70
     1
102
RTVSPost2010Prop40
 90
        0
102
RTVSPost2010PropOp40
 70
     1
102
RTVSPost2010Prop41ColorIndex
 90
       18
102
RTVSPost2010Prop41ColorRGB
 90
        0
102
RTVSPost2010PropOp41
 70
     1
102
RTVSPost2010Prop42
 90
       50
102
RTVSPost2010PropOp42
 70
     1
102
RTVSPost2010Prop43
 90
        3
102
RTVSPost2010PropOp43
 70
     1
102
RTVSPost2010Prop44ColorIndex
 90
        5
102
RTVSPost2010Prop44ColorRGB
 90
      255
102
RTVSPost2010PropOp44
 70
     1
102
RTVSPost2010Prop45
280
     0
102
RTVSPost2010PropOp45
 70
     1
102
RTVSPost2010Prop46
 90
       50
102
RTVSPost2010PropOp46
 70
     1
102
RTVSPost2010Prop47
 90
       50
102
RTVSPost2010PropOp47
 70
     1
102
RTVSPost2010Prop48
 90
       50
102
RTVSPost2010PropOp48
 70
     1
102
RTVSPost2010Prop49
280
     0
102
RTVSPost2010PropOp49
 70
     1
102
RTVSPost2010Prop50
 90
       50
102
RTVSPost2010PropOp50
 70
     1
102
RTVSPost2010Prop51ColorIndex
 90
      256
102
RTVSPost2010Prop51ColorRGB
 90
-16777216
102
RTVSPost2010PropOp51
 70
     0
102
RTVSPost2010Prop52
140
1.0
102
RTVSPost2010PropOp52
 70
     0
102
RTVSPost2010Prop53
 90
        2
102
RTVSPost2010PropOp53
 70
     1
102
RTVSPost2010Prop54
  1
strokes_ogs.tif
102
RTVSPost2010PropOp54
 70
     1
102
RTVSPost2010Prop55
280
     0
102
RTVSPost2010PropOp55
 70
     1
102
RTVSPost2010Prop56
140
1.0
102
RTVSPost2010PropOp56
 70
     1
102
RTVSPost2010Prop57
140
1.0
102
RTVSPost2010PropOp57
 70
     1
  0
XRECORD
  5
35A
102
{ACAD_REACTORS
330
359
102
}
330
359
100
AcDbXrecord
280
     1
102
RTVSPost2010Prop28
280
     0
102
RTVSPost2010PropOp28
 70
     1
102
RTVSPost2010Prop29
280
     1
102
RTVSPost2010PropOp29
 70
     1
102
RTVSPost2010Prop30
280
     1
102
RTVSPost2010PropOp30
 70
     1
102
RTVSPost2010Prop31
280
     0
102
RTVSPost2010PropOp31
 70
     1
102
RTVSPost2010Prop32
280
     0
102
RTVSPost2010PropOp32
 70
     1
102
RTVSPost2010Prop33
280
     0
102
RTVSPost2010PropOp33
 70
     1
102
RTVSPost2010Prop34
280
     0
102
RTVSPost2010PropOp34
 70
     1
102
RTVSPost2010Prop35
280
     0
102
RTVSPost2010PropOp35
 70
     1
102
RTVSPost2010Prop36
280
     0
102
RTVSPost2010PropOp36
 70
     1
102
RTVSPost2010Prop37
 90
       50
102
RTVSPost2010PropOp37
 70
     1
102
RTVSPost2010Prop38
140
0.0
102
RTVSPost2010PropOp38
 70
     1
102
RTVSPost2010Prop39
140
1.0
102
RTVSPost2010PropOp39
 70
     1
102
RTVSPost2010Prop40
 90
        0
102
RTVSPost2010PropOp40
 70
     1
102
RTVSPost2010Prop41ColorIndex
 90
       18
102
RTVSPost2010Prop41ColorRGB
 90
        0
102
RTVSPost2010PropOp41
 70
     1
102
RTVSPost2010Prop42
 90
       50
102
RTVSPost2010PropOp42
 70
     1
102
RTVSPost2010Prop43
 90
        3
102
RTVSPost2010PropOp43
 70
     1
102
RTVSPost2010Prop44ColorIndex
 90
        5
102
RTVSPost2010Prop44ColorRGB
 90
      255
102
RTVSPost2010PropOp44
 70
     1
102
RTVSPost2010Prop45
280
     0
102
RTVSPost2010PropOp45
 70
     1
102
RTVSPost2010Prop46
 90
       50
102
RTVSPost2010PropOp46
 70
     1
102
RTVSPost2010Prop47
 90
       50
102
RTVSPost2010PropOp47
 70
     1
102
RTVSPost2010Prop48
 90
       50
102
RTVSPost2010PropOp48
 70
     1
102
RTVSPost2010Prop49
280
     0
102
RTVSPost2010PropOp49
 70
     1
102
RTVSPost2010Prop50
 90
       50
102
RTVSPost2010PropOp50
 70
     1
102
RTVSPost2010Prop51ColorIndex
 90
      256
102
RTVSPost2010Prop51ColorRGB
 90
-16777216
102
RTVSPost2010PropOp51
 70
     0
102
RTVSPost2010Prop52
140
1.0
102
RTVSPost2010PropOp52
 70
     0
102
RTVSPost2010Prop53
 90
        2
102
RTVSPost2010PropOp53
 70
     1
102
RTVSPost2010Prop54
  1
strokes_ogs.tif
102
RTVSPost2010PropOp54
 70
     1
102
RTVSPost2010Prop55
280
     0
102
RTVSPost2010PropOp55
 70
     1
102
RTVSPost2010Prop56
140
1.0
102
RTVSPost2010PropOp56
 70
     1
102
RTVSPost2010Prop57
140
1.0
102
RTVSPost2010PropOp57
 70
     1
  0
XRECORD
  5
34E
102
{ACAD_REACTORS
330
34D
102
}
330
34D
100
AcDbXrecord
280
     1
102
RTVSPost2010Prop28
280
     0
102
RTVSPost2010PropOp28
 70
     1
102
RTVSPost2010Prop29
280
     1
102
RTVSPost2010PropOp29
 70
     1
102
RTVSPost2010Prop30
280
     1
102
RTVSPost2010PropOp30
 70
     1
102
RTVSPost2010Prop31
280
     0
102
RTVSPost2010PropOp31
 70
     1
102
RTVSPost2010Prop32
280
     0
102
RTVSPost2010PropOp32
 70
     1
102
RTVSPost2010Prop33
280
     0
102
RTVSPost2010PropOp33
 70
     1
102
RTVSPost2010Prop34
280
     0
102
RTVSPost2010PropOp34
 70
     1
102
RTVSPost2010Prop35
280
     0
102
RTVSPost2010PropOp35
 70
     1
102
RTVSPost2010Prop36
280
     0
102
RTVSPost2010PropOp36
 70
     1
102
RTVSPost2010Prop37
 90
       50
102
RTVSPost2010PropOp37
 70
     1
102
RTVSPost2010Prop38
140
0.0
102
RTVSPost2010PropOp38
 70
     1
102
RTVSPost2010Prop39
140
1.0
102
RTVSPost2010PropOp39
 70
     1
102
RTVSPost2010Prop40
 90
        0
102
RTVSPost2010PropOp40
 70
     1
102
RTVSPost2010Prop41ColorIndex
 90
       18
102
RTVSPost2010Prop41ColorRGB
 90
        0
102
RTVSPost2010PropOp41
 70
     1
102
RTVSPost2010Prop42
 90
       50
102
RTVSPost2010PropOp42
 70
     1
102
RTVSPost2010Prop43
 90
        3
102
RTVSPost2010PropOp43
 70
     1
102
RTVSPost2010Prop44ColorIndex
 90
        5
102
RTVSPost2010Prop44ColorRGB
 90
      255
102
RTVSPost2010PropOp44
 70
     1
102
RTVSPost2010Prop45
280
     0
102
RTVSPost2010PropOp45
 70
     1
102
RTVSPost2010Prop46
 90
       50
102
RTVSPost2010PropOp46
 70
     1
102
RTVSPost2010Prop47
 90
       50
102
RTVSPost2010PropOp47
 70
     1
102
RTVSPost2010Prop48
 90
       50
102
RTVSPost2010PropOp48
 70
     1
102
RTVSPost2010Prop49
280
     0
102
RTVSPost2010PropOp49
 70
     1
102
RTVSPost2010Prop50
 90
       50
102
RTVSPost2010PropOp50
 70
     1
102
RTVSPost2010Prop51ColorIndex
 90
      256
102
RTVSPost2010Prop51ColorRGB
 90
-16777216
102
RTVSPost2010PropOp51
 70
     0
102
RTVSPost2010Prop52
140
1.0
102
RTVSPost2010PropOp52
 70
     0
102
RTVSPost2010Prop53
 90
        2
102
RTVSPost2010PropOp53
 70
     1
102
RTVSPost2010Prop54
  1
strokes_ogs.tif
102
RTVSPost2010PropOp54
 70
     1
102
RTVSPost2010Prop55
280
     0
102
RTVSPost2010PropOp55
 70
     1
102
RTVSPost2010Prop56
140
1.0
102
RTVSPost2010PropOp56
 70
     1
102
RTVSPost2010Prop57
140
1.0
102
RTVSPost2010PropOp57
 70
     1
  0
XRECORD
  5
366
102
{ACAD_REACTORS
330
365
102
}
330
365
100
AcDbXrecord
280
     1
102
RTVSPost2010Prop28
280
     0
102
RTVSPost2010PropOp28
 70
     1
102
RTVSPost2010Prop29
280
     1
102
RTVSPost2010PropOp29
 70
     1
102
RTVSPost2010Prop30
280
     1
102
RTVSPost2010PropOp30
 70
     1
102
RTVSPost2010Prop31
280
     0
102
RTVSPost2010PropOp31
 70
     1
102
RTVSPost2010Prop32
280
     0
102
RTVSPost2010PropOp32
 70
     1
102
RTVSPost2010Prop33
280
     0
102
RTVSPost2010PropOp33
 70
     1
102
RTVSPost2010Prop34
280
     0
102
RTVSPost2010PropOp34
 70
     1
102
RTVSPost2010Prop35
280
     0
102
RTVSPost2010PropOp35
 70
     1
102
RTVSPost2010Prop36
280
     0
102
RTVSPost2010PropOp36
 70
     1
102
RTVSPost2010Prop37
 90
       50
102
RTVSPost2010PropOp37
 70
     1
102
RTVSPost2010Prop38
140
0.0
102
RTVSPost2010PropOp38
 70
     1
102
RTVSPost2010Prop39
140
1.0
102
RTVSPost2010PropOp39
 70
     1
102
RTVSPost2010Prop40
 90
        0
102
RTVSPost2010PropOp40
 70
     1
102
RTVSPost2010Prop41ColorIndex
 90
       18
102
RTVSPost2010Prop41ColorRGB
 90
        0
102
RTVSPost2010PropOp41
 70
     1
102
RTVSPost2010Prop42
 90
       50
102
RTVSPost2010PropOp42
 70
     1
102
RTVSPost2010Prop43
 90
        3
102
RTVSPost2010PropOp43
 70
     1
102
RTVSPost2010Prop44ColorIndex
 90
        5
102
RTVSPost2010Prop44ColorRGB
 90
      255
102
RTVSPost2010PropOp44
 70
     1
102
RTVSPost2010Prop45
280
     0
102
RTVSPost2010PropOp45
 70
     1
102
RTVSPost2010Prop46
 90
       50
102
RTVSPost2010PropOp46
 70
     1
102
RTVSPost2010Prop47
 90
       50
102
RTVSPost2010PropOp47
 70
     1
102
RTVSPost2010Prop48
 90
       50
102
RTVSPost2010PropOp48
 70
     1
102
RTVSPost2010Prop49
280
     0
102
RTVSPost2010PropOp49
 70
     1
102
RTVSPost2010Prop50
 90
       50
102
RTVSPost2010PropOp50
 70
     1
102
RTVSPost2010Prop51ColorIndex
 90
      256
102
RTVSPost2010Prop51ColorRGB
 90
-16777216
102
RTVSPost2010PropOp51
 70
     0
102
RTVSPost2010Prop52
140
1.0
102
RTVSPost2010PropOp52
 70
     0
102
RTVSPost2010Prop53
 90
        2
102
RTVSPost2010PropOp53
 70
     1
102
RTVSPost2010Prop54
  1
strokes_ogs.tif
102
RTVSPost2010PropOp54
 70
     1
102
RTVSPost2010Prop55
280
     0
102
RTVSPost2010PropOp55
 70
     1
102
RTVSPost2010Prop56
140
1.0
102
RTVSPost2010PropOp56
 70
     1
102
RTVSPost2010Prop57
140
1.0
102
RTVSPost2010PropOp57
 70
     1
  0
ENDSEC
  0
EOF
