  0
SECTION
  2
HEADER
  9
$ACADVER
  1
AC1024
  9
$ACADMAINTVER
 70
     6
  9
$DWGCODEPAGE
  3
ANSI_1252
  9
$INSBASE
 10
0.0
 20
0.0
 30
0.0
  9
$EXTMIN
 10
1.000000000000000E+20
 20
1.000000000000000E+20
 30
1.000000000000000E+20
  9
$EXTMAX
 10
-1.000000000000000E+20
 20
-1.000000000000000E+20
 30
-1.000000000000000E+20
  9
$LIMMIN
 10
0.0
 20
0.0
  9
$LIMMAX
 10
12.0
 20
9.0
  9
$ORTHOMODE
 70
     0
  9
$REGENMODE
 70
     1
  9
$FILLMODE
 70
     1
  9
$QTEXTMODE
 70
     0
  9
$MIRRTEXT
 70
     1
  9
$LTSCALE
 40
1.0
  9
$ATTMODE
 70
     1
  9
$TEXTSIZE
 40
0.2
  9
$TRACEWID
 40
0.05
  9
$TEXTSTYLE
  7
Standard
  9
$CLAYER
  8
0
  9
$CELTYPE
  6
ByLayer
  9
$CECOLOR
 62
   256
  9
$CELTSCALE
 40
1.0
  9
$DISPSILH
 70
     0
  9
$DIMSCALE
 40
1.0
  9
$DIMASZ
 40
0.18
  9
$DIMEXO
 40
0.0625
  9
$DIMDLI
 40
0.38
  9
$DIMRND
 40
0.0
  9
$DIMDLE
 40
0.0
  9
$DIMEXE
 40
0.18
  9
$DIMTP
 40
0.0
  9
$DIMTM
 40
0.0
  9
$DIMTXT
 40
0.18
  9
$DIMCEN
 40
0.09
  9
$DIMTSZ
 40
0.0
  9
$DIMTOL
 70
     0
  9
$DIMLIM
 70
     0
  9
$DIMTIH
 70
     1
  9
$DIMTOH
 70
     1
  9
$DIMSE1
 70
     0
  9
$DIMSE2
 70
     0
  9
$DIMTAD
 70
     0
  9
$DIMZIN
 70
     0
  9
$DIMBLK
  1

  9
$DIMASO
 70
     1
  9
$DIMSHO
 70
     1
  9
$DIMPOST
  1

  9
$DIMAPOST
  1

  9
$DIMALT
 70
     0
  9
$DIMALTD
 70
     2
  9
$DIMALTF
 40
25.4
  9
$DIMLFAC
 40
1.0
  9
$DIMTOFL
 70
     0
  9
$DIMTVP
 40
0.0
  9
$DIMTIX
 70
     0
  9
$DIMSOXD
 70
     0
  9
$DIMSAH
 70
     0
  9
$DIMBLK1
  1

  9
$DIMBLK2
  1

  9
$DIMSTYLE
  2
Standard
  9
$DIMCLRD
 70
     0
  9
$DIMCLRE
 70
     0
  9
$DIMCLRT
 70
     0
  9
$DIMTFAC
 40
1.0
  9
$DIMGAP
 40
0.09
  9
$DIMJUST
 70
     0
  9
$DIMSD1
 70
     0
  9
$DIMSD2
 70
     0
  9
$DIMTOLJ
 70
     1
  9
$DIMTZIN
 70
     0
  9
$DIMALTZ
 70
     0
  9
$DIMALTTZ
 70
     0
  9
$DIMUPT
 70
     0
  9
$DIMDEC
 70
     4
  9
$DIMTDEC
 70
     4
  9
$DIMALTU
 70
     2
  9
$DIMALTTD
 70
     2
  9
$DIMTXSTY
  7
Standard
  9
$DIMAUNIT
 70
     0
  9
$DIMADEC
 70
     0
  9
$DIMALTRND
 40
0.0
  9
$DIMAZIN
 70
     0
  9
$DIMDSEP
 70
    46
  9
$DIMATFIT
 70
     3
  9
$DIMFRAC
 70
     0
  9
$DIMLDRBLK
  1

  9
$DIMLUNIT
 70
     2
  9
$DIMLWD
 70
    -2
  9
$DIMLWE
 70
    -2
  9
$DIMTMOVE
 70
     0
  9
$DIMFXL
 40
1.0
  9
$DIMFXLON
 70
     0
  9
$DIMJOGANG
 40
0.7853981633974483
  9
$DIMTFILL
 70
     0
  9
$DIMTFILLCLR
 70
     0
  9
$DIMARCSYM
 70
     0
  9
$DIMLTYPE
  6

  9
$DIMLTEX1
  6

  9
$DIMLTEX2
  6

  9
$DIMTXTDIRECTION
 70
     0
  9
$LUNITS
 70
     2
  9
$LUPREC
 70
     4
  9
$SKETCHINC
 40
0.1
  9
$FILLETRAD
 40
0.5
  9
$AUNITS
 70
     0
  9
$AUPREC
 70
     0
  9
$MENU
  1
.
  9
$ELEVATION
 40
0.0
  9
$PELEVATION
 40
0.0
  9
$THICKNESS
 40
0.0
  9
$LIMCHECK
 70
     0
  9
$CHAMFERA
 40
0.5
  9
$CHAMFERB
 40
0.5
  9
$CHAMFERC
 40
1.0
  9
$CHAMFERD
 40
0.0
  9
$SKPOLY
 70
     0
  9
$TDCREATE
 40
2458895.50550081
  9
$TDUCREATE
 40
2458895.463834144
  9
$TDUPDATE
 40
2458895.505503275
  9
$TDUUPDATE
 40
2458895.463836609
  9
$TDINDWG
 40
0.0000000116
  9
$TDUSRTIMER
 40
0.0000000116
  9
$USRTIMER
 70
     1
  9
$ANGBASE
 50
0.0
  9
$ANGDIR
 70
     0
  9
$PDMODE
 70
     0
  9
$PDSIZE
 40
0.0
  9
$PLINEWID
 40
0.0
  9
$SPLFRAME
 70
     0
  9
$SPLINETYPE
 70
     6
  9
$SPLINESEGS
 70
     8
  9
$HANDSEED
  5
498
  9
$SURFTAB1
 70
     6
  9
$SURFTAB2
 70
     6
  9
$SURFTYPE
 70
     6
  9
$SURFU
 70
     6
  9
$SURFV
 70
     6
  9
$UCSBASE
  2

  9
$UCSNAME
  2

  9
$UCSORG
 10
0.0
 20
0.0
 30
0.0
  9
$UCSXDIR
 10
1.0
 20
0.0
 30
0.0
  9
$UCSYDIR
 10
0.0
 20
1.0
 30
0.0
  9
$UCSORTHOREF
  2

  9
$UCSORTHOVIEW
 70
     0
  9
$UCSORGTOP
 10
0.0
 20
0.0
 30
0.0
  9
$UCSORGBOTTOM
 10
0.0
 20
0.0
 30
0.0
  9
$UCSORGLEFT
 10
0.0
 20
0.0
 30
0.0
  9
$UCSORGRIGHT
 10
0.0
 20
0.0
 30
0.0
  9
$UCSORGFRONT
 10
0.0
 20
0.0
 30
0.0
  9
$UCSORGBACK
 10
0.0
 20
0.0
 30
0.0
  9
$PUCSBASE
  2

  9
$PUCSNAME
  2

  9
$PUCSORG
 10
0.0
 20
0.0
 30
0.0
  9
$PUCSXDIR
 10
1.0
 20
0.0
 30
0.0
  9
$PUCSYDIR
 10
0.0
 20
1.0
 30
0.0
  9
$PUCSORTHOREF
  2

  9
$PUCSORTHOVIEW
 70
     0
  9
$PUCSORGTOP
 10
0.0
 20
0.0
 30
0.0
  9
$PUCSORGBOTTOM
 10
0.0
 20
0.0
 30
0.0
  9
$PUCSORGLEFT
 10
0.0
 20
0.0
 30
0.0
  9
$PUCSORGRIGHT
 10
0.0
 20
0.0
 30
0.0
  9
$PUCSORGFRONT
 10
0.0
 20
0.0
 30
0.0
  9
$PUCSORGBACK
 10
0.0
 20
0.0
 30
0.0
  9
$USERI1
 70
     0
  9
$USERI2
 70
     0
  9
$USERI3
 70
     0
  9
$USERI4
 70
     0
  9
$USERI5
 70
     0
  9
$USERR1
 40
0.0
  9
$USERR2
 40
0.0
  9
$USERR3
 40
0.0
  9
$USERR4
 40
0.0
  9
$USERR5
 40
0.0
  9
$WORLDVIEW
 70
     1
  9
$SHADEDGE
 70
     3
  9
$SHADEDIF
 70
    70
  9
$TILEMODE
 70
     1
  9
$MAXACTVP
 70
    64
  9
$PINSBASE
 10
0.0
 20
0.0
 30
0.0
  9
$PLIMCHECK
 70
     0
  9
$PEXTMIN
 10
1.000000000000000E+20
 20
1.000000000000000E+20
 30
1.000000000000000E+20
  9
$PEXTMAX
 10
-1.000000000000000E+20
 20
-1.000000000000000E+20
 30
-1.000000000000000E+20
  9
$PLIMMIN
 10
0.0
 20
0.0
  9
$PLIMMAX
 10
12.0
 20
9.0
  9
$UNITMODE
 70
     0
  9
$VISRETAIN
 70
     1
  9
$PLINEGEN
 70
     0
  9
$PSLTSCALE
 70
     1
  9
$TREEDEPTH
 70
  3020
  9
$CMLSTYLE
  2
Standard
  9
$CMLJUST
 70
     0
  9
$CMLSCALE
 40
1.0
  9
$PROXYGRAPHICS
 70
     1
  9
$MEASUREMENT
 70
     0
  9
$CELWEIGHT
370
    -1
  9
$ENDCAPS
280
     0
  9
$JOINSTYLE
280
     0
  9
$LWDISPLAY
290
     1
  9
$INSUNITS
 70
     4
  9
$HYPERLINKBASE
  1

  9
$STYLESHEET
  1

  9
$XEDIT
290
     1
  9
$CEPSNTYPE
380
     0
  9
$PSTYLEMODE
290
     1
  9
$FINGERPRINTGUID
  2
{BA559869-A1D9-47EC-9EA4-04307F268D91}
  9
$VERSIONGUID
  2
{FAEB1C32-E019-11D5-929B-00C0DF256EC4}
  9
$EXTNAMES
290
     1
  9
$PSVPSCALE
 40
0.0
  9
$OLESTARTUP
290
     0
  9
$SORTENTS
280
   127
  9
$INDEXCTL
280
     0
  9
$HIDETEXT
280
     1
  9
$XCLIPFRAME
280
     2
  9
$HALOGAP
280
     0
  9
$OBSCOLOR
 70
   257
  9
$OBSLTYPE
280
     0
  9
$INTERSECTIONDISPLAY
280
     0
  9
$INTERSECTIONCOLOR
 70
   257
  9
$DIMASSOC
280
     2
  9
$PROJECTNAME
  1

  9
$CAMERADISPLAY
290
     0
  9
$LENSLENGTH
 40
50.0
  9
$CAMERAHEIGHT
 40
0.0
  9
$STEPSPERSEC
 40
2.0
  9
$STEPSIZE
 40
6.0
  9
$3DDWFPREC
 40
2.0
  9
$PSOLWIDTH
 40
0.25
  9
$PSOLHEIGHT
 40
4.0
  9
$LOFTANG1
 40
1.570796326794897
  9
$LOFTANG2
 40
1.570796326794897
  9
$LOFTMAG1
 40
0.0
  9
$LOFTMAG2
 40
0.0
  9
$LOFTPARAM
 70
     7
  9
$LOFTNORMALS
280
     1
  9
$LATITUDE
 40
37.795
  9
$LONGITUDE
 40
-122.394
  9
$NORTHDIRECTION
 40
0.0
  9
$TIMEZONE
 70
 -8000
  9
$LIGHTGLYPHDISPLAY
280
     1
  9
$TILEMODELIGHTSYNCH
280
     1
  9
$CMATERIAL
347
3C
  9
$SOLIDHIST
280
     1
  9
$SHOWHIST
280
     1
  9
$DWFFRAME
280
     2
  9
$DGNFRAME
280
     2
  9
$REALWORLDSCALE
290
     1
  9
$INTERFERECOLOR
 62
   256
  9
$CSHADOW
280
     0
  9
$SHADOWPLANELOCATION
 40
0.0
  0
ENDSEC
  0
SECTION
  2
CLASSES
  0
CLASS
  1
ACDBDICTIONARYWDFLT
  2
AcDbDictionaryWithDefault
  3
ObjectDBX Classes
 90
        0
 91
        4
280
     0
281
     0
  0
CLASS
  1
VISUALSTYLE
  2
AcDbVisualStyle
  3
ObjectDBX Classes
 90
     4095
 91
        4
280
     0
281
     0
  0
CLASS
  1
MATERIAL
  2
AcDbMaterial
  3
ObjectDBX Classes
 90
     1153
 91
        4
280
     0
281
     0
  0
CLASS
  1
SUN
  2
AcDbSun
  3
SCENEOE
 90
     1024
 91
        4
280
     0
281
     0
  0
ENDSEC
  0
SECTION
  2
TABLES
  0
TABLE
  2
VPORT
  5
8
330
0
100
AcDbSymbolTable
 70
     1
  0
VPORT
  5
29
330
8
100
AcDbSymbolTableRecord
100
AcDbViewportTableRecord
  2
*Active
 70
     0
 10
0.0
 20
0.0
 11
1.0
 21
1.0
 12
0.0
 22
0.0
 13
0.0
 23
0.0
 14
0.5
 24
0.5
 15
0.5
 25
0.5
 16
0.0
 26
0.0
 36
1.0
 17
3.17499999920625
 27
30.92685184412025
 37
0.0
 40
296.0981480741239
 41
0.7077045274027001
 42
50.0
 43
0.0
 44
0.0
 50
0.0
 51
0.0
 71
     0
 72
   100
 73
     1
 74
     3
 75
     0
 76
     0
 77
     0
 78
     0
281
     0
 65
     1
110
0.0
120
0.0
130
0.0
111
1.0
121
0.0
131
0.0
112
0.0
122
1.0
132
0.0
 79
     0
146
0.0
 60
     3
 61
     5
292
     1
282
     1
141
0.0
142
0.0
 63
   250
361
3F
  0
ENDTAB
  0
TABLE
  2
LTYPE
  5
5
330
0
100
AcDbSymbolTable
 70
     1
  0
LTYPE
  5
14
330
5
100
AcDbSymbolTableRecord
100
AcDbLinetypeTableRecord
  2
ByBlock
 70
     0
  3

 72
    65
 73
     0
 40
0.0
  0
LTYPE
  5
15
330
5
100
AcDbSymbolTableRecord
100
AcDbLinetypeTableRecord
  2
ByLayer
 70
     0
  3

 72
    65
 73
     0
 40
0.0
  0
LTYPE
  5
16
330
5
100
AcDbSymbolTableRecord
100
AcDbLinetypeTableRecord
  2
Continuous
 70
     0
  3
Solid line
 72
    65
 73
     0
 40
0.0
  0
ENDTAB
  0
TABLE
  2
LAYER
  5
2
330
0
100
AcDbSymbolTable
 70
     2
  0
LAYER
  5
10
330
2
100
AcDbSymbolTableRecord
100
AcDbLayerTableRecord
  2
0
 70
     0
 62
     7
  6
Continuous
370
    -3
390
F
347
3E
  0
LAYER
  5
40
330
2
100
AcDbSymbolTableRecord
100
AcDbLayerTableRecord
  2
Layer 1
 70
     0
 62
     7
  6
Continuous
370
    -3
390
F
347
3E
  0
ENDTAB
  0
TABLE
  2
STYLE
  5
3
330
0
100
AcDbSymbolTable
 70
     1
  0
STYLE
  5
11
330
3
100
AcDbSymbolTableRecord
100
AcDbTextStyleTableRecord
  2
Standard
 70
     0
 40
0.0
 41
1.0
 50
0.0
 71
     0
 42
0.2
  3
txt
  4

  0
ENDTAB
  0
TABLE
  2
VIEW
  5
6
330
0
100
AcDbSymbolTable
 70
     0
  0
ENDTAB
  0
TABLE
  2
UCS
  5
7
330
0
100
AcDbSymbolTable
 70
     0
  0
ENDTAB
  0
TABLE
  2
APPID
  5
9
330
0
100
AcDbSymbolTable
 70
     1
  0
APPID
  5
12
330
9
100
AcDbSymbolTableRecord
100
AcDbRegAppTableRecord
  2
ACAD
 70
     0
  0
ENDTAB
  0
TABLE
  2
DIMSTYLE
  5
A
330
0
100
AcDbSymbolTable
 70
     1
100
AcDbDimStyleTable
  0
DIMSTYLE
105
27
330
A
100
AcDbSymbolTableRecord
100
AcDbDimStyleTableRecord
  2
Standard
 70
     0
178
     0
340
11
  0
ENDTAB
  0
TABLE
  2
BLOCK_RECORD
  5
1
330
0
100
AcDbSymbolTable
 70
     8
  0
BLOCK_RECORD
  5
1F
330
1
100
AcDbSymbolTableRecord
100
AcDbBlockTableRecord
  2
*Model_Space
340
22
 70
     0
280
     1
281
     0
  0
BLOCK_RECORD
  5
1B
330
1
100
AcDbSymbolTableRecord
100
AcDbBlockTableRecord
  2
*Paper_Space
340
1E
 70
     0
280
     1
281
     0
  0
BLOCK_RECORD
  5
23
330
1
100
AcDbSymbolTableRecord
100
AcDbBlockTableRecord
  2
*Paper_Space0
340
26
 70
     0
280
     1
281
     0
  0
BLOCK_RECORD
  5
41
330
1
100
AcDbSymbolTableRecord
100
AcDbBlockTableRecord
  2
block 2
340
0
102
{BLKREFS
331
42
102
}
 70
     0
280
     1
281
     0
  0
BLOCK_RECORD
  5
4D
330
1
100
AcDbSymbolTableRecord
100
AcDbBlockTableRecord
  2
block 3
340
0
102
{BLKREFS
331
4E
102
}
 70
     0
280
     1
281
     0
  0
BLOCK_RECORD
  5
89
330
1
100
AcDbSymbolTableRecord
100
AcDbBlockTableRecord
  2
block 4
340
0
102
{BLKREFS
331
8A
102
}
 70
     0
280
     1
281
     0
  0
BLOCK_RECORD
  5
F1
330
1
100
AcDbSymbolTableRecord
100
AcDbBlockTableRecord
  2
block 5
340
0
102
{BLKREFS
331
F2
102
}
 70
     0
280
     1
281
     0
  0
BLOCK_RECORD
  5
146
330
1
100
AcDbSymbolTableRecord
100
AcDbBlockTableRecord
  2
block 6
340
0
102
{BLKREFS
331
147
102
}
 70
     0
280
     1
281
     0
  0
BLOCK_RECORD
  5
152
330
1
100
AcDbSymbolTableRecord
100
AcDbBlockTableRecord
  2
block 7
340
0
102
{BLKREFS
331
153
102
}
 70
     0
280
     1
281
     0
  0
BLOCK_RECORD
  5
2F9
330
1
100
AcDbSymbolTableRecord
100
AcDbBlockTableRecord
  2
block 8
340
0
102
{BLKREFS
331
2FA
102
}
 70
     0
280
     1
281
     0
  0
ENDTAB
  0
ENDSEC
  0
SECTION
  2
BLOCKS
  0
BLOCK
  5
20
330
1F
100
AcDbEntity
  8
0
100
AcDbBlockBegin
  2
*Model_Space
 70
     0
 10
0.0
 20
0.0
 30
0.0
  3
*Model_Space
  1

  0
ENDBLK
  5
21
330
1F
100
AcDbEntity
  8
0
100
AcDbBlockEnd
  0
BLOCK
  5
1C
330
1B
100
AcDbEntity
 67
     1
  8
0
100
AcDbBlockBegin
  2
*Paper_Space
 70
     0
 10
0.0
 20
0.0
 30
0.0
  3
*Paper_Space
  1

  0
ENDBLK
  5
1D
330
1B
100
AcDbEntity
 67
     1
  8
0
100
AcDbBlockEnd
  0
BLOCK
  5
24
330
23
100
AcDbEntity
  8
0
100
AcDbBlockBegin
  2
*Paper_Space0
 70
     0
 10
0.0
 20
0.0
 30
0.0
  3
*Paper_Space0
  1

  0
ENDBLK
  5
25
330
23
100
AcDbEntity
  8
0
100
AcDbBlockEnd
  0
BLOCK
  5
43
330
41
100
AcDbEntity
  8
0
100
AcDbBlockBegin
  2
block 2
 70
     0
 10
0.0
 20
0.0
 30
0.0
  3
block 2
  1

  0
POLYLINE
  5
45
330
41
100
AcDbEntity
  8
Layer 1
 62
    18
420
    65793
370
     9
100
AcDb2dPolyline
 66
     1
 10
0.0
 20
0.0
 30
0.0
  0
VERTEX
  5
46
330
45
100
AcDbEntity
  8
Layer 1
 62
    18
420
    65793
370
     9
100
AcDbVertex
100
AcDb2dVertex
 10
14.2112782015627
 20
37.72254641224547
 30
0.0
  0
VERTEX
  5
47
330
45
100
AcDbEntity
  8
Layer 1
 62
    18
420
    65793
370
     9
100
AcDbVertex
100
AcDb2dVertex
 10
53.99521969195733
 20
37.72254641224547
 30
0.0
  0
SEQEND
  5
48
330
45
100
AcDbEntity
  8
Layer 1
 62
    18
420
    65793
370
     9
  0
POLYLINE
  5
49
330
41
100
AcDbEntity
  8
Layer 1
 62
    18
420
    65793
370
     9
100
AcDb2dPolyline
 66
     1
 10
0.0
 20
0.0
 30
0.0
  0
VERTEX
  5
4A
330
49
100
AcDbEntity
  8
Layer 1
 62
    18
420
    65793
370
     9
100
AcDbVertex
100
AcDb2dVertex
 10
14.27651150766271
 20
-17.31100262518314
 30
0.0
  0
VERTEX
  5
4B
330
49
100
AcDbEntity
  8
Layer 1
 62
    18
420
    65793
370
     9
100
AcDbVertex
100
AcDb2dVertex
 10
14.22664675900545
 20
9.055358374176754
 30
0.0
  0
SEQEND
  5
4C
330
49
100
AcDbEntity
  8
Layer 1
 62
    18
420
    65793
370
     9
  0
INSERT
  5
4E
330
41
100
AcDbEntity
  8
Layer 1
100
AcDbBlockReference
  2
block 3
 10
0.0
 20
0.0
 30
0.0
  0
POLYLINE
  5
5E
330
41
100
AcDbEntity
  8
Layer 1
 62
    18
420
    65793
370
     9
100
AcDb2dPolyline
 66
     1
 10
0.0
 20
0.0
 30
0.0
  0
VERTEX
  5
5F
330
5E
100
AcDbEntity
  8
Layer 1
 62
    18
420
    65793
370
     9
100
AcDbVertex
100
AcDb2dVertex
 10
14.9439416564217
 20
-23.19364692911699
 30
0.0
  0
VERTEX
  5
60
330
5E
100
AcDbEntity
  8
Layer 1
 62
    18
420
    65793
370
     9
100
AcDbVertex
100
AcDb2dVertex
 10
54.79112605481743
 20
-23.19364692911699
 30
0.0
  0
SEQEND
  5
61
330
5E
100
AcDbEntity
  8
Layer 1
 62
    18
420
    65793
370
     9
  0
POLYLINE
  5
62
330
41
100
AcDbEntity
  8
Layer 1
 62
    18
420
    65793
370
     9
100
AcDb2dPolyline
 66
     1
 10
0.0
 20
0.0
 30
0.0
  0
VERTEX
  5
63
330
62
100
AcDbEntity
  8
Layer 1
 62
    18
420
    65793
370
     9
100
AcDbVertex
100
AcDb2dVertex
 10
54.97957044003677
 20
-19.7519802633108
 30
0.0
  0
VERTEX
  5
64
330
62
100
AcDbEntity
  8
Layer 1
 62
    18
420
    65793
370
     9
100
AcDbVertex
100
AcDb2dVertex
 10
54.97957044003677
 20
-24.25198026218574
 30
0.0
  0
SEQEND
  5
65
330
62
100
AcDbEntity
  8
Layer 1
 62
    18
420
    65793
370
     9
  0
POLYLINE
  5
66
330
41
100
AcDbEntity
  8
Layer 1
 62
    18
420
    65793
370
     9
100
AcDb2dPolyline
 66
     1
 10
0.0
 20
0.0
 30
0.0
  0
VERTEX
  5
67
330
66
100
AcDbEntity
  8
Layer 1
 62
    18
420
    65793
370
     9
100
AcDbVertex
100
AcDb2dVertex
 10
14.71279581847836
 20
-19.7519802633108
 30
0.0
  0
VERTEX
  5
68
330
66
100
AcDbEntity
  8
Layer 1
 62
    18
420
    65793
370
     9
100
AcDbVertex
100
AcDb2dVertex
 10
14.71279581847836
 20
-24.25198026218574
 30
0.0
  0
SEQEND
  5
69
330
66
100
AcDbEntity
  8
Layer 1
 62
    18
420
    65793
370
     9
  0
MTEXT
  5
6A
330
41
100
AcDbEntity
  8
Layer 1
 62
    18
420
    65793
100
AcDbMText
 10
31.88298067779315
 20
-27.69994573960279
 30
0.0
 40
2.49766666604225
 41
0.0
 46
0.0
 71
     7
 72
     1
  1
\fArial|b1|i0|c0|p34;\W1;555
 73
     1
 44
1.0
  0
POLYLINE
  5
6B
330
41
100
AcDbEntity
  8
Layer 1
 62
    18
420
    65793
370
     9
100
AcDb2dPolyline
 66
     1
 10
0.0
 20
0.0
 30
0.0
  0
VERTEX
  5
6C
330
6B
100
AcDbEntity
  8
Layer 1
 62
    18
420
    65793
370
     9
100
AcDbVertex
100
AcDb2dVertex
 10
14.71279581847836
 20
67.98603017917466
 30
0.0
  0
VERTEX
  5
6D
330
6B
100
AcDbEntity
  8
Layer 1
 62
    18
420
    65793
370
     9
100
AcDbVertex
100
AcDb2dVertex
 10
14.71279581847836
 20
45.46437932126723
 30
0.0
  0
SEQEND
  5
6E
330
6B
100
AcDbEntity
  8
Layer 1
 62
    18
420
    65793
370
     9
  0
POLYLINE
  5
6F
330
41
100
AcDbEntity
  8
Layer 1
 62
    18
420
    65793
370
     9
100
AcDb2dPolyline
 66
     1
 10
0.0
 20
0.0
 30
0.0
  0
VERTEX
  5
70
330
6F
100
AcDbEntity
  8
Layer 1
 62
    18
420
    65793
370
     9
100
AcDbVertex
100
AcDb2dVertex
 10
6.439906986330355
 20
52.65480914096088
 30
0.0
  0
VERTEX
  5
71
330
6F
100
AcDbEntity
  8
Layer 1
 62
    18
420
    65793
370
     9
100
AcDbVertex
100
AcDb2dVertex
 10
10.93990698520658
 20
52.65480914096088
 30
0.0
  0
SEQEND
  5
72
330
6F
100
AcDbEntity
  8
Layer 1
 62
    18
420
    65793
370
     9
  0
MTEXT
  5
73
330
41
100
AcDbEntity
  8
Layer 1
 62
    18
420
    65793
100
AcDbMText
 10
6.321750215433451
 20
42.15194904545159
 30
0.0
 40
2.49766666604225
 41
0.0
 46
0.0
 71
     7
 72
     1
  1
\fArial|b1|i0|c0|p34;\W1;195
 11
6.123233995736766E-17
 21
1.0
 31
0.0
 73
     1
 44
1.0
  0
POLYLINE
  5
74
330
41
100
AcDbEntity
  8
Layer 1
 62
    18
420
    65793
370
     9
100
AcDb2dPolyline
 66
     1
 10
0.0
 20
0.0
 30
0.0
  0
VERTEX
  5
75
330
74
100
AcDbEntity
  8
Layer 1
 62
    18
420
    65793
370
     9
100
AcDbVertex
100
AcDb2dVertex
 10
7.498240319400389
 20
52.65480914096088
 30
0.0
  0
VERTEX
  5
76
330
74
100
AcDbEntity
  8
Layer 1
 62
    18
420
    65793
370
     9
100
AcDbVertex
100
AcDb2dVertex
 10
7.498240319400389
 20
37.43869041241692
 30
0.0
  0
SEQEND
  5
77
330
74
100
AcDbEntity
  8
Layer 1
 62
    18
420
    65793
370
     9
  0
POLYLINE
  5
78
330
41
100
AcDbEntity
  8
Layer 1
 62
    18
420
    65793
370
     9
100
AcDb2dPolyline
 66
     1
 10
0.0
 20
0.0
 30
0.0
  0
VERTEX
  5
79
330
78
100
AcDbEntity
  8
Layer 1
 62
    18
420
    65793
370
     9
100
AcDbVertex
100
AcDb2dVertex
 10
6.439906986330355
 20
37.4392964815715
 30
0.0
  0
VERTEX
  5
7A
330
78
100
AcDbEntity
  8
Layer 1
 62
    18
420
    65793
370
     9
100
AcDbVertex
100
AcDb2dVertex
 10
10.93990698520658
 20
37.4392964815715
 30
0.0
  0
SEQEND
  5
7B
330
78
100
AcDbEntity
  8
Layer 1
 62
    18
420
    65793
370
     9
  0
POLYLINE
  5
7C
330
41
100
AcDbEntity
  8
Layer 1
 62
    18
420
    65793
370
     9
100
AcDb2dPolyline
 66
     1
 10
0.0
 20
0.0
 30
0.0
  0
VERTEX
  5
7D
330
7C
100
AcDbEntity
  8
Layer 1
 62
    18
420
    65793
370
     9
100
AcDbVertex
100
AcDb2dVertex
 10
14.37308599545153
 20
74.4239544964644
 30
0.0
  0
VERTEX
  5
7E
330
7C
100
AcDbEntity
  8
Layer 1
 62
    18
420
    65793
370
     9
100
AcDbVertex
100
AcDb2dVertex
 10
31.46744177301497
 20
74.4239544964644
 30
0.0
  0
SEQEND
  5
7F
330
7C
100
AcDbEntity
  8
Layer 1
 62
    18
420
    65793
370
     9
  0
POLYLINE
  5
80
330
41
100
AcDbEntity
  8
Layer 1
 62
    18
420
    65793
370
     9
100
AcDb2dPolyline
 66
     1
 10
0.0
 20
0.0
 30
0.0
  0
VERTEX
  5
81
330
80
100
AcDbEntity
  8
Layer 1
 62
    18
420
    65793
370
     9
100
AcDbVertex
100
AcDb2dVertex
 10
31.46744177301497
 20
71.03016304312492
 30
0.0
  0
VERTEX
  5
82
330
80
100
AcDbEntity
  8
Layer 1
 62
    18
420
    65793
370
     9
100
AcDbVertex
100
AcDb2dVertex
 10
31.46744177301497
 20
75.48228782953316
 30
0.0
  0
SEQEND
  5
83
330
80
100
AcDbEntity
  8
Layer 1
 62
    18
420
    65793
370
     9
  0
POLYLINE
  5
84
330
41
100
AcDbEntity
  8
Layer 1
 62
    18
420
    65793
370
     9
100
AcDb2dPolyline
 66
     1
 10
0.0
 20
0.0
 30
0.0
  0
VERTEX
  5
85
330
84
100
AcDbEntity
  8
Layer 1
 62
    18
420
    65793
370
     9
100
AcDbVertex
100
AcDb2dVertex
 10
14.37308599545153
 20
71.03016304312492
 30
0.0
  0
VERTEX
  5
86
330
84
100
AcDbEntity
  8
Layer 1
 62
    18
420
    65793
370
     9
100
AcDbVertex
100
AcDb2dVertex
 10
14.37308599545153
 20
75.48228782953316
 30
0.0
  0
SEQEND
  5
87
330
84
100
AcDbEntity
  8
Layer 1
 62
    18
420
    65793
370
     9
  0
MTEXT
  5
88
330
41
100
AcDbEntity
  8
Layer 1
 62
    18
420
    65793
100
AcDbMText
 10
19.96243353450592
 20
75.89131942547162
 30
0.0
 40
2.49766666604225
 41
0.0
 46
0.0
 71
     7
 72
     1
  1
\fArial|b1|i0|c0|p34;\W1;235
 73
     1
 44
1.0
  0
INSERT
  5
8A
330
41
100
AcDbEntity
  8
Layer 1
100
AcDbBlockReference
  2
block 4
 10
0.0
 20
0.0
 30
0.0
  0
POLYLINE
  5
A3
330
41
100
AcDbEntity
  8
Layer 1
 62
    18
420
    65793
370
     9
100
AcDb2dPolyline
 66
     1
 10
0.0
 20
0.0
 30
0.0
  0
VERTEX
  5
A4
330
A3
100
AcDbEntity
  8
Layer 1
 62
    18
420
    65793
370
     9
100
AcDbVertex
100
AcDb2dVertex
 10
19.76109010561219
 20
12.02564545513349
 30
0.0
  0
VERTEX
  5
A5
330
A3
100
AcDbEntity
  8
Layer 1
 62
    18
420
    65793
370
     9
100
AcDbVertex
100
AcDb2dVertex
 10
19.76109010561219
 20
16.52464485263594
 30
0.0
  0
SEQEND
  5
A6
330
A3
100
AcDbEntity
  8
Layer 1
 62
    18
420
    65793
370
     9
  0
POLYLINE
  5
A7
330
41
100
AcDbEntity
  8
Layer 1
 62
    18
420
    65793
370
     9
100
AcDb2dPolyline
 66
     1
 10
0.0
 20
0.0
 30
0.0
  0
VERTEX
  5
A8
330
A7
100
AcDbEntity
  8
Layer 1
 62
    18
420
    65793
370
     9
100
AcDbVertex
100
AcDb2dVertex
 10
14.21769665103168
 20
12.024644853761
 30
0.0
  0
VERTEX
  5
A9
330
A7
100
AcDbEntity
  8
Layer 1
 62
    18
420
    65793
370
     9
100
AcDbVertex
100
AcDb2dVertex
 10
14.21769665103168
 20
16.52464485263594
 30
0.0
  0
SEQEND
  5
AA
330
A7
100
AcDbEntity
  8
Layer 1
 62
    18
420
    65793
370
     9
  0
POLYLINE
  5
AB
330
41
100
AcDbEntity
  8
Layer 1
 62
    18
420
    65793
370
     9
100
AcDb2dPolyline
 66
     1
 10
0.0
 20
0.0
 30
0.0
  0
VERTEX
  5
AC
330
AB
100
AcDbEntity
  8
Layer 1
 62
    18
420
    65793
370
     9
100
AcDbVertex
100
AcDb2dVertex
 10
19.76109010561219
 20
15.46631151956719
 30
0.0
  0
VERTEX
  5
AD
330
AB
100
AcDbEntity
  8
Layer 1
 62
    18
420
    65793
370
     9
100
AcDbVertex
100
AcDb2dVertex
 10
14.21769665103168
 20
15.46631151956719
 30
0.0
  0
SEQEND
  5
AE
330
AB
100
AcDbEntity
  8
Layer 1
 62
    18
420
    65793
370
     9
  0
MTEXT
  5
AF
330
41
100
AcDbEntity
  8
Layer 1
 62
    18
420
    65793
100
AcDbMText
 10
15.0049411312314
 20
17.62373046434407
 30
0.0
 40
2.49766666604225
 41
0.0
 46
0.0
 71
     7
 72
     1
  1
\fArial|b1|i0|c0|p34;\W1;80
 73
     1
 44
1.0
  0
POLYLINE
  5
B0
330
41
100
AcDbEntity
  8
Layer 1
 62
    18
420
    65793
370
     9
100
AcDb2dPolyline
 66
     1
 10
0.0
 20
0.0
 30
0.0
  0
VERTEX
  5
B1
330
B0
100
AcDbEntity
  8
Layer 1
 62
    18
420
    65793
370
     9
100
AcDbVertex
100
AcDb2dVertex
 10
-44.6507165641924
 20
37.72254641224547
 30
0.0
  0
VERTEX
  5
B2
330
B0
100
AcDbEntity
  8
Layer 1
 62
    18
420
    65793
370
     9
100
AcDbVertex
100
AcDb2dVertex
 10
-16.45388416864384
 20
37.72254641224547
 30
0.0
  0
SEQEND
  5
B3
330
B0
100
AcDbEntity
  8
Layer 1
 62
    18
420
    65793
370
     9
  0
POLYLINE
  5
B4
330
41
100
AcDbEntity
  8
Layer 1
 62
    18
420
    65793
370
     9
100
AcDb2dPolyline
 66
     1
 10
0.0
 20
0.0
 30
0.0
  0
VERTEX
  5
B5
330
B4
100
AcDbEntity
  8
Layer 1
 62
    18
420
    65793
370
     9
100
AcDbVertex
100
AcDb2dVertex
 10
-52.11230282655684
 20
47.81713547241329
 30
0.0
  0
VERTEX
  5
B6
330
B4
100
AcDbEntity
  8
Layer 1
 62
    18
420
    65793
370
     9
100
AcDbVertex
100
AcDb2dVertex
 10
-47.61230282768189
 20
47.81713547241329
 30
0.0
  0
SEQEND
  5
B7
330
B4
100
AcDbEntity
  8
Layer 1
 62
    18
420
    65793
370
     9
  0
POLYLINE
  5
B8
330
41
100
AcDbEntity
  8
Layer 1
 62
    18
420
    65793
370
     9
100
AcDb2dPolyline
 66
     1
 10
0.0
 20
0.0
 30
0.0
  0
VERTEX
  5
B9
330
B8
100
AcDbEntity
  8
Layer 1
 62
    18
420
    65793
370
     9
100
AcDbVertex
100
AcDb2dVertex
 10
-51.05397758986904
 20
37.64899030344606
 30
0.0
  0
VERTEX
  5
BA
330
B8
100
AcDbEntity
  8
Layer 1
 62
    18
420
    65793
370
     9
100
AcDbVertex
100
AcDb2dVertex
 10
-51.05397758986904
 20
43.78871722772104
 30
0.0
  0
SEQEND
  5
BB
330
B8
100
AcDbEntity
  8
Layer 1
 62
    18
420
    65793
370
     9
  0
POLYLINE
  5
BC
330
41
100
AcDbEntity
  8
Layer 1
 62
    18
420
    65793
370
     9
100
AcDb2dPolyline
 66
     1
 10
0.0
 20
0.0
 30
0.0
  0
VERTEX
  5
BD
330
BC
100
AcDbEntity
  8
Layer 1
 62
    18
420
    65793
370
     9
100
AcDbVertex
100
AcDb2dVertex
 10
-52.11230282655684
 20
37.53446864431167
 30
0.0
  0
VERTEX
  5
BE
330
BC
100
AcDbEntity
  8
Layer 1
 62
    18
420
    65793
370
     9
100
AcDbVertex
100
AcDb2dVertex
 10
-47.61230282768189
 20
37.53446864431167
 30
0.0
  0
SEQEND
  5
BF
330
BC
100
AcDbEntity
  8
Layer 1
 62
    18
420
    65793
370
     9
  0
POLYLINE
  5
C0
330
41
100
AcDbEntity
  8
Layer 1
 62
    18
420
    65793
370
     9
100
AcDb2dPolyline
 66
     1
 10
0.0
 20
0.0
 30
0.0
  0
VERTEX
  5
C1
330
C0
100
AcDbEntity
  8
Layer 1
 62
    18
420
    65793
370
     9
100
AcDbVertex
100
AcDb2dVertex
 10
-13.17071350098869
 20
37.48168164321454
 30
0.0
  0
VERTEX
  5
C2
330
C0
100
AcDbEntity
  8
Layer 1
 62
    18
420
    65793
370
     9
100
AcDbVertex
100
AcDb2dVertex
 10
-8.670713502113754
 20
37.48168164321454
 30
0.0
  0
SEQEND
  5
C3
330
C0
100
AcDbEntity
  8
Layer 1
 62
    18
420
    65793
370
     9
  0
POLYLINE
  5
C4
330
41
100
AcDbEntity
  8
Layer 1
 62
    18
420
    65793
370
     9
100
AcDb2dPolyline
 66
     1
 10
0.0
 20
0.0
 30
0.0
  0
VERTEX
  5
C5
330
C4
100
AcDbEntity
  8
Layer 1
 62
    18
420
    65793
370
     9
100
AcDbVertex
100
AcDb2dVertex
 10
-9.729046835182503
 20
60.2769180770371
 30
0.0
  0
VERTEX
  5
C6
330
C4
100
AcDbEntity
  8
Layer 1
 62
    18
420
    65793
370
     9
100
AcDbVertex
100
AcDb2dVertex
 10
-9.729046835182503
 20
37.48168164321454
 30
0.0
  0
SEQEND
  5
C7
330
C4
100
AcDbEntity
  8
Layer 1
 62
    18
420
    65793
370
     9
  0
POLYLINE
  5
C8
330
41
100
AcDbEntity
  8
Layer 1
 62
    18
420
    65793
370
     9
100
AcDb2dPolyline
 66
     1
 10
0.0
 20
0.0
 30
0.0
  0
VERTEX
  5
C9
330
C8
100
AcDbEntity
  8
Layer 1
 62
    18
420
    65793
370
     9
100
AcDbVertex
100
AcDb2dVertex
 10
-8.670713502113754
 20
60.27794056005679
 30
0.0
  0
VERTEX
  5
CA
330
C8
100
AcDbEntity
  8
Layer 1
 62
    18
420
    65793
370
     9
100
AcDbVertex
100
AcDb2dVertex
 10
-13.17071350098869
 20
60.27794056005679
 30
0.0
  0
SEQEND
  5
CB
330
C8
100
AcDbEntity
  8
Layer 1
 62
    18
420
    65793
370
     9
  0
MTEXT
  5
CC
330
41
100
AcDbEntity
  8
Layer 1
 62
    18
420
    65793
100
AcDbMText
 10
-5.103564451849109
 20
43.71963974601454
 30
0.0
 40
2.49766666604225
 41
0.0
 46
0.0
 71
     7
 72
     1
  1
\fArial|b1|i0|c0|p34;\W1;310
 11
6.123233995736766E-17
 21
1.0
 31
0.0
 73
     1
 44
1.0
  0
POLYLINE
  5
CD
330
41
100
AcDbEntity
  8
Layer 1
 62
    18
420
    65793
370
     9
100
AcDb2dPolyline
 66
     1
 10
0.0
 20
0.0
 30
0.0
  0
VERTEX
  5
CE
330
CD
100
AcDbEntity
  8
Layer 1
 62
    18
420
    65793
370
     9
100
AcDbVertex
100
AcDb2dVertex
 10
-52.11230282655684
 20
43.78871675085524
 30
0.0
  0
VERTEX
  5
CF
330
CD
100
AcDbEntity
  8
Layer 1
 62
    18
420
    65793
370
     9
100
AcDbVertex
100
AcDb2dVertex
 10
-47.61230282768189
 20
43.78871675085524
 30
0.0
  0
SEQEND
  5
D0
330
CD
100
AcDbEntity
  8
Layer 1
 62
    18
420
    65793
370
     9
  0
MTEXT
  5
D1
330
41
100
AcDbEntity
  8
Layer 1
 62
    18
420
    65793
100
AcDbMText
 10
-53.28666990855334
 20
35.67844237389289
 30
0.0
 40
2.49766666604225
 41
0.0
 46
0.0
 71
     7
 72
     1
  1
\fArial|b1|i0|c0|p34;\W1;100
 11
6.123233995736766E-17
 21
1.0
 31
0.0
 73
     1
 44
1.0
  0
MTEXT
  5
D2
330
41
100
AcDbEntity
  8
Layer 1
 62
    18
420
    65793
100
AcDbMText
 10
-53.28804794674743
 20
47.51889104714806
 30
0.0
 40
2.49766666604225
 41
0.0
 46
0.0
 71
     7
 72
     1
  1
\fArial|b1|i0|c0|p34;\W1;65
 11
6.123233995736766E-17
 21
1.0
 31
0.0
 73
     1
 44
1.0
  0
POLYLINE
  5
D3
330
41
100
AcDbEntity
  8
Layer 1
 62
    18
420
    65793
370
     9
100
AcDb2dPolyline
 66
     1
 10
0.0
 20
0.0
 30
0.0
  0
VERTEX
  5
D4
330
D3
100
AcDbEntity
  8
Layer 1
 62
    18
420
    65793
370
     9
100
AcDbVertex
100
AcDb2dVertex
 10
-51.05394269843091
 20
43.78871456249724
 30
0.0
  0
VERTEX
  5
D5
330
D3
100
AcDbEntity
  8
Layer 1
 62
    18
420
    65793
370
     9
100
AcDbVertex
100
AcDb2dVertex
 10
-51.05394269843091
 20
47.81711281886761
 30
0.0
  0
SEQEND
  5
D6
330
D3
100
AcDbEntity
  8
Layer 1
 62
    18
420
    65793
370
     9
  0
POLYLINE
  5
D7
330
41
100
AcDbEntity
  8
Layer 1
 62
    18
420
    65793
370
     9
100
AcDb2dPolyline
 66
     1
 10
0.0
 20
0.0
 30
0.0
  0
VERTEX
  5
D8
330
D7
100
AcDbEntity
  8
Layer 1
 62
    18
420
    65793
370
     9
100
AcDbVertex
100
AcDb2dVertex
 10
-32.88537248822935
 20
73.1175789818085
 30
0.0
  0
VERTEX
  5
D9
330
D7
100
AcDbEntity
  8
Layer 1
 62
    18
420
    65793
370
     9
100
AcDbVertex
100
AcDb2dVertex
 10
-26.36159194195249
 20
73.1175789818085
 30
0.0
  0
SEQEND
  5
DA
330
D7
100
AcDbEntity
  8
Layer 1
 62
    18
420
    65793
370
     9
  0
POLYLINE
  5
DB
330
41
100
AcDbEntity
  8
Layer 1
 62
    18
420
    65793
370
     9
100
AcDb2dPolyline
 66
     1
 10
0.0
 20
0.0
 30
0.0
  0
VERTEX
  5
DC
330
DB
100
AcDbEntity
  8
Layer 1
 62
    18
420
    65793
370
     9
100
AcDbVertex
100
AcDb2dVertex
 10
-26.36159194195249
 20
69.67591231600233
 30
0.0
  0
VERTEX
  5
DD
330
DB
100
AcDbEntity
  8
Layer 1
 62
    18
420
    65793
370
     9
100
AcDbVertex
100
AcDb2dVertex
 10
-26.36159194195249
 20
74.17591231487854
 30
0.0
  0
SEQEND
  5
DE
330
DB
100
AcDbEntity
  8
Layer 1
 62
    18
420
    65793
370
     9
  0
POLYLINE
  5
DF
330
41
100
AcDbEntity
  8
Layer 1
 62
    18
420
    65793
370
     9
100
AcDb2dPolyline
 66
     1
 10
0.0
 20
0.0
 30
0.0
  0
VERTEX
  5
E0
330
DF
100
AcDbEntity
  8
Layer 1
 62
    18
420
    65793
370
     9
100
AcDbVertex
100
AcDb2dVertex
 10
-32.97004992245311
 20
69.67591231600233
 30
0.0
  0
VERTEX
  5
E1
330
DF
100
AcDbEntity
  8
Layer 1
 62
    18
420
    65793
370
     9
100
AcDbVertex
100
AcDb2dVertex
 10
-32.97004992245311
 20
74.17591231487854
 30
0.0
  0
SEQEND
  5
E2
330
DF
100
AcDbEntity
  8
Layer 1
 62
    18
420
    65793
370
     9
  0
MTEXT
  5
E3
330
41
100
AcDbEntity
  8
Layer 1
 62
    18
420
    65793
100
AcDbMText
 10
-32.54685057780079
 20
75.234684225983
 30
0.0
 40
2.49766666604225
 41
0.0
 46
0.0
 71
     7
 72
     1
  1
\fArial|b1|i0|c0|p34;\W1;100
 73
     1
 44
1.0
  0
POLYLINE
  5
E4
330
41
100
AcDbEntity
  8
Layer 1
 62
    18
420
    65793
370
     9
100
AcDb2dPolyline
 66
     1
 10
0.0
 20
0.0
 30
0.0
  0
VERTEX
  5
E5
330
E4
100
AcDbEntity
  8
Layer 1
 62
    18
420
    65793
370
     9
100
AcDbVertex
100
AcDb2dVertex
 10
-36.17511401392038
 20
81.92895377025677
 30
0.0
  0
VERTEX
  5
E6
330
E4
100
AcDbEntity
  8
Layer 1
 62
    18
420
    65793
370
     9
100
AcDbVertex
100
AcDb2dVertex
 10
-23.05864971059248
 20
81.92895377025677
 30
0.0
  0
SEQEND
  5
E7
330
E4
100
AcDbEntity
  8
Layer 1
 62
    18
420
    65793
370
     9
  0
POLYLINE
  5
E8
330
41
100
AcDbEntity
  8
Layer 1
 62
    18
420
    65793
370
     9
100
AcDb2dPolyline
 66
     1
 10
0.0
 20
0.0
 30
0.0
  0
VERTEX
  5
E9
330
E8
100
AcDbEntity
  8
Layer 1
 62
    18
420
    65793
370
     9
100
AcDbVertex
100
AcDb2dVertex
 10
-23.05864971059248
 20
78.48728710445059
 30
0.0
  0
VERTEX
  5
EA
330
E8
100
AcDbEntity
  8
Layer 1
 62
    18
420
    65793
370
     9
100
AcDbVertex
100
AcDb2dVertex
 10
-23.05864971059248
 20
82.98728710332553
 30
0.0
  0
SEQEND
  5
EB
330
E8
100
AcDbEntity
  8
Layer 1
 62
    18
420
    65793
370
     9
  0
POLYLINE
  5
EC
330
41
100
AcDbEntity
  8
Layer 1
 62
    18
420
    65793
370
     9
100
AcDb2dPolyline
 66
     1
 10
0.0
 20
0.0
 30
0.0
  0
VERTEX
  5
ED
330
EC
100
AcDbEntity
  8
Layer 1
 62
    18
420
    65793
370
     9
100
AcDbVertex
100
AcDb2dVertex
 10
-36.29223759112192
 20
78.48728710445059
 30
0.0
  0
VERTEX
  5
EE
330
EC
100
AcDbEntity
  8
Layer 1
 62
    18
420
    65793
370
     9
100
AcDbVertex
100
AcDb2dVertex
 10
-36.29223759112192
 20
82.98728710332553
 30
0.0
  0
SEQEND
  5
EF
330
EC
100
AcDbEntity
  8
Layer 1
 62
    18
420
    65793
370
     9
  0
MTEXT
  5
F0
330
41
100
AcDbEntity
  8
Layer 1
 62
    18
420
    65793
100
AcDbMText
 10
-32.52893608127749
 20
84.04586043905799
 30
0.0
 40
2.49766666604225
 41
0.0
 46
0.0
 71
     7
 72
     1
  1
\fArial|b1|i0|c0|p34;\W1;180
 73
     1
 44
1.0
  0
INSERT
  5
F2
330
41
100
AcDbEntity
  8
Layer 1
100
AcDbBlockReference
  2
block 5
 10
0.0
 20
0.0
 30
0.0
  0
INSERT
  5
147
330
41
100
AcDbEntity
  8
Layer 1
100
AcDbBlockReference
  2
block 6
 10
0.0
 20
0.0
 30
0.0
  0
POLYLINE
  5
2F5
330
41
100
AcDbEntity
  8
Layer 1
 62
    18
420
    65793
370
     9
100
AcDb2dPolyline
 66
     1
 10
0.0
 20
0.0
 30
0.0
  0
VERTEX
  5
2F6
330
2F5
100
AcDbEntity
  8
Layer 1
 62
    18
420
    65793
370
     9
100
AcDbVertex
100
AcDb2dVertex
 10
14.2112782015627
 20
68.94239675708454
 30
0.0
  0
VERTEX
  5
2F7
330
2F5
100
AcDbEntity
  8
Layer 1
 62
    18
420
    65793
370
     9
100
AcDbVertex
100
AcDb2dVertex
 10
14.2112782015627
 20
37.72254641224547
 30
0.0
  0
SEQEND
  5
2F8
330
2F5
100
AcDbEntity
  8
Layer 1
 62
    18
420
    65793
370
     9
  0
INSERT
  5
2FA
330
41
100
AcDbEntity
  8
Layer 1
100
AcDbBlockReference
  2
block 8
 10
0.0
 20
0.0
 30
0.0
  0
ENDBLK
  5
44
330
41
100
AcDbEntity
  8
0
100
AcDbBlockEnd
  0
BLOCK
  5
4F
330
4D
100
AcDbEntity
  8
0
100
AcDbBlockBegin
  2
block 3
 70
     0
 10
0.0
 20
0.0
 30
0.0
  3
block 3
  1

  0
POLYLINE
  5
51
330
4D
100
AcDbEntity
  8
Layer 1
 62
    18
420
    65793
370
     9
100
AcDb2dPolyline
 66
     1
 10
0.0
 20
0.0
 30
0.0
  0
VERTEX
  5
52
330
51
100
AcDbEntity
  8
Layer 1
 62
    18
420
    65793
370
     9
100
AcDbVertex
100
AcDb2dVertex
 10
60.53065575724721
 20
9.055358374176754
 30
0.0
  0
VERTEX
  5
53
330
51
100
AcDbEntity
  8
Layer 1
 62
    18
420
    65793
370
     9
100
AcDbVertex
100
AcDb2dVertex
 10
60.53065575724721
 20
-17.04866691374906
 30
0.0
  0
SEQEND
  5
54
330
51
100
AcDbEntity
  8
Layer 1
 62
    18
420
    65793
370
     9
  0
POLYLINE
  5
55
330
4D
100
AcDbEntity
  8
Layer 1
 62
    18
420
    65793
370
     9
100
AcDb2dPolyline
 66
     1
 10
0.0
 20
0.0
 30
0.0
  0
VERTEX
  5
56
330
55
100
AcDbEntity
  8
Layer 1
 62
    18
420
    65793
370
     9
100
AcDbVertex
100
AcDb2dVertex
 10
61.58898909031596
 20
-17.15110884664492
 30
0.0
  0
VERTEX
  5
57
330
55
100
AcDbEntity
  8
Layer 1
 62
    18
420
    65793
370
     9
100
AcDbVertex
100
AcDb2dVertex
 10
57.08898909144102
 20
-17.15110884664492
 30
0.0
  0
SEQEND
  5
58
330
55
100
AcDbEntity
  8
Layer 1
 62
    18
420
    65793
370
     9
  0
POLYLINE
  5
59
330
4D
100
AcDbEntity
  8
Layer 1
 62
    18
420
    65793
370
     9
100
AcDb2dPolyline
 66
     1
 10
0.0
 20
0.0
 30
0.0
  0
VERTEX
  5
5A
330
59
100
AcDbEntity
  8
Layer 1
 62
    18
420
    65793
370
     9
100
AcDbVertex
100
AcDb2dVertex
 10
61.58898909031596
 20
9.055358374176754
 30
0.0
  0
VERTEX
  5
5B
330
59
100
AcDbEntity
  8
Layer 1
 62
    18
420
    65793
370
     9
100
AcDbVertex
100
AcDb2dVertex
 10
57.08898909144102
 20
9.055358374176754
 30
0.0
  0
SEQEND
  5
5C
330
59
100
AcDbEntity
  8
Layer 1
 62
    18
420
    65793
370
     9
  0
MTEXT
  5
5D
330
4D
100
AcDbEntity
  8
Layer 1
 62
    18
420
    65793
100
AcDbMText
 10
65.17845050453873
 20
-7.627785913891665
 30
0.0
 40
2.49766666604225
 41
0.0
 46
0.0
 71
     7
 72
     1
  1
\fArial|b1|i0|c0|p34;\W1;360
 11
6.123233995736766E-17
 21
1.0
 31
0.0
 73
     1
 44
1.0
  0
ENDBLK
  5
50
330
4D
100
AcDbEntity
  8
0
100
AcDbBlockEnd
  0
BLOCK
  5
8B
330
89
100
AcDbEntity
  8
0
100
AcDbBlockBegin
  2
block 4
 70
     0
 10
0.0
 20
0.0
 30
0.0
  3
block 4
  1

  0
POLYLINE
  5
8D
330
89
100
AcDbEntity
  8
Layer 1
 62
    18
420
    65793
370
     9
100
AcDb2dPolyline
 66
     1
 10
0.0
 20
0.0
 30
0.0
  0
VERTEX
  5
8E
330
8D
100
AcDbEntity
  8
Layer 1
 62
    18
420
    65793
370
     9
100
AcDbVertex
100
AcDb2dVertex
 10
60.53065575724721
 20
66.86448755826783
 30
0.0
  0
VERTEX
  5
8F
330
8D
100
AcDbEntity
  8
Layer 1
 62
    18
420
    65793
370
     9
100
AcDbVertex
100
AcDb2dVertex
 10
60.53065575724721
 20
45.67677162896501
 30
0.0
  0
SEQEND
  5
90
330
8D
100
AcDbEntity
  8
Layer 1
 62
    18
420
    65793
370
     9
  0
POLYLINE
  5
91
330
89
100
AcDbEntity
  8
Layer 1
 62
    18
420
    65793
370
     9
100
AcDb2dPolyline
 66
     1
 10
0.0
 20
0.0
 30
0.0
  0
VERTEX
  5
92
330
91
100
AcDbEntity
  8
Layer 1
 62
    18
420
    65793
370
     9
100
AcDbVertex
100
AcDb2dVertex
 10
57.08898909144102
 20
45.67677162896501
 30
0.0
  0
VERTEX
  5
93
330
91
100
AcDbEntity
  8
Layer 1
 62
    18
420
    65793
370
     9
100
AcDbVertex
100
AcDb2dVertex
 10
61.58898909031596
 20
45.67677162896501
 30
0.0
  0
SEQEND
  5
94
330
91
100
AcDbEntity
  8
Layer 1
 62
    18
420
    65793
370
     9
  0
POLYLINE
  5
95
330
89
100
AcDbEntity
  8
Layer 1
 62
    18
420
    65793
370
     9
100
AcDb2dPolyline
 66
     1
 10
0.0
 20
0.0
 30
0.0
  0
VERTEX
  5
96
330
95
100
AcDbEntity
  8
Layer 1
 62
    18
420
    65793
370
     9
100
AcDbVertex
100
AcDb2dVertex
 10
57.08898909144102
 20
66.86448755826783
 30
0.0
  0
VERTEX
  5
97
330
95
100
AcDbEntity
  8
Layer 1
 62
    18
420
    65793
370
     9
100
AcDbVertex
100
AcDb2dVertex
 10
61.58898909031596
 20
66.86448755826783
 30
0.0
  0
SEQEND
  5
98
330
95
100
AcDbEntity
  8
Layer 1
 62
    18
420
    65793
370
     9
  0
MTEXT
  5
99
330
89
100
AcDbEntity
  8
Layer 1
 62
    18
420
    65793
100
AcDbMText
 10
65.13848739690982
 20
53.27013345022414
 30
0.0
 40
2.49766666604225
 41
0.0
 46
0.0
 71
     7
 72
     1
  1
\fArial|b1|i0|c0|p34;\W1;290
 11
6.123233995736766E-17
 21
1.0
 31
0.0
 73
     1
 44
1.0
  0
POLYLINE
  5
9A
330
89
100
AcDbEntity
  8
Layer 1
 62
    18
420
    65793
370
     9
100
AcDb2dPolyline
 66
     1
 10
0.0
 20
0.0
 30
0.0
  0
VERTEX
  5
9B
330
9A
100
AcDbEntity
  8
Layer 1
 62
    18
420
    65793
370
     9
100
AcDbVertex
100
AcDb2dVertex
 10
57.08898909144102
 20
37.72254641224547
 30
0.0
  0
VERTEX
  5
9C
330
9A
100
AcDbEntity
  8
Layer 1
 62
    18
420
    65793
370
     9
100
AcDbVertex
100
AcDb2dVertex
 10
61.58898909031596
 20
37.72254641224547
 30
0.0
  0
SEQEND
  5
9D
330
9A
100
AcDbEntity
  8
Layer 1
 62
    18
420
    65793
370
     9
  0
POLYLINE
  5
9E
330
89
100
AcDbEntity
  8
Layer 1
 62
    18
420
    65793
370
     9
100
AcDb2dPolyline
 66
     1
 10
0.0
 20
0.0
 30
0.0
  0
VERTEX
  5
9F
330
9E
100
AcDbEntity
  8
Layer 1
 62
    18
420
    65793
370
     9
100
AcDbVertex
100
AcDb2dVertex
 10
60.53065575724721
 20
45.67677162896501
 30
0.0
  0
VERTEX
  5
A0
330
9E
100
AcDbEntity
  8
Layer 1
 62
    18
420
    65793
370
     9
100
AcDbVertex
100
AcDb2dVertex
 10
60.53065575724721
 20
37.72254641224547
 30
0.0
  0
SEQEND
  5
A1
330
9E
100
AcDbEntity
  8
Layer 1
 62
    18
420
    65793
370
     9
  0
MTEXT
  5
A2
330
89
100
AcDbEntity
  8
Layer 1
 62
    18
420
    65793
100
AcDbMText
 10
65.13917641600688
 20
38.92492810441807
 30
0.0
 40
2.49766666604225
 41
0.0
 46
0.0
 71
     7
 72
     1
  1
\fArial|b1|i0|c0|p34;\W1;110
 11
6.123233995736766E-17
 21
1.0
 31
0.0
 73
     1
 44
1.0
  0
ENDBLK
  5
8C
330
89
100
AcDbEntity
  8
0
100
AcDbBlockEnd
  0
BLOCK
  5
F3
330
F1
100
AcDbEntity
  8
0
100
AcDbBlockBegin
  2
block 5
 70
     0
 10
0.0
 20
0.0
 30
0.0
  3
block 5
  1

  0
POLYLINE
  5
F5
330
F1
100
AcDbEntity
  8
Layer 1
 62
    18
420
    65793
370
     9
100
AcDb2dPolyline
 66
     1
 10
0.0
 20
0.0
 30
0.0
  0
VERTEX
  5
F6
330
F5
100
AcDbEntity
  8
Layer 1
 62
    18
420
    65793
370
     9
100
AcDbVertex
100
AcDb2dVertex
 10
-20.07773287785168
 20
44.09086927061108
 30
0.0
  0
VERTEX
  5
F7
330
F5
100
AcDbEntity
  8
Layer 1
 62
    18
420
    65793
370
     9
100
AcDbVertex
100
AcDb2dVertex
 10
-39.25872034587984
 20
44.09086927061108
 30
0.0
  0
SEQEND
  5
F8
330
F5
100
AcDbEntity
  8
Layer 1
 62
    18
420
    65793
370
     9
  0
POLYLINE
  5
F9
330
F1
100
AcDbEntity
  8
Layer 1
 62
    18
420
    65793
370
     9
100
AcDb2dPolyline
 66
     1
 10
0.0
 20
0.0
 30
0.0
  0
VERTEX
  5
FA
330
F9
100
AcDbEntity
  8
Layer 1
 62
    18
420
    65793
370
     9
100
AcDbVertex
100
AcDb2dVertex
 10
-39.80430611504686
 20
44.53910893248836
 30
0.0
  0
VERTEX
  5
FB
330
F9
100
AcDbEntity
  8
Layer 1
 62
    18
420
    65793
370
     9
100
AcDbVertex
100
AcDb2dVertex
 10
-39.70819082060308
 20
44.31442964116403
 30
0.0
  0
VERTEX
  5
FC
330
F9
100
AcDbEntity
  8
Layer 1
 62
    18
420
    65793
370
     9
100
AcDbVertex
100
AcDb2dVertex
 10
-39.48351152927874
 20
44.1569974883267
 30
0.0
  0
VERTEX
  5
FD
330
F9
100
AcDbEntity
  8
Layer 1
 62
    18
420
    65793
370
     9
100
AcDbVertex
100
AcDb2dVertex
 10
-39.25872034587984
 20
44.09086927061108
 30
0.0
  0
SEQEND
  5
FE
330
F9
100
AcDbEntity
  8
Layer 1
 62
    18
420
    65793
370
     9
  0
POLYLINE
  5
FF
330
F1
100
AcDbEntity
  8
Layer 1
 62
    18
420
    65793
370
     9
100
AcDb2dPolyline
 66
     1
 10
0.0
 20
0.0
 30
0.0
  0
VERTEX
  5
100
330
FF
100
AcDbEntity
  8
Layer 1
 62
    18
420
    65793
370
     9
100
AcDbVertex
100
AcDb2dVertex
 10
-42.88379986793619
 20
66.41613600431853
 30
0.0
  0
VERTEX
  5
101
330
FF
100
AcDbEntity
  8
Layer 1
 62
    18
420
    65793
370
     9
100
AcDbVertex
100
AcDb2dVertex
 10
-42.85258197835309
 20
65.03874453211233
 30
0.0
  0
VERTEX
  5
102
330
FF
100
AcDbEntity
  8
Layer 1
 62
    18
420
    65793
370
     9
100
AcDbVertex
100
AcDb2dVertex
 10
-42.78768457349241
 20
63.65889143420397
 30
0.0
  0
VERTEX
  5
103
330
FF
100
AcDbEntity
  8
Layer 1
 62
    18
420
    65793
370
     9
100
AcDbVertex
100
AcDb2dVertex
 10
-42.69145738696891
 20
62.27903833629689
 30
0.0
  0
VERTEX
  5
104
330
FF
100
AcDbEntity
  8
Layer 1
 62
    18
420
    65793
370
     9
100
AcDbVertex
100
AcDb2dVertex
 10
-42.59534209252384
 20
60.89907334631266
 30
0.0
  0
VERTEX
  5
105
330
FF
100
AcDbEntity
  8
Layer 1
 62
    18
420
    65793
370
     9
100
AcDbVertex
100
AcDb2dVertex
 10
-42.46789701641853
 20
59.52045106125409
 30
0.0
  0
VERTEX
  5
106
330
FF
100
AcDbEntity
  8
Layer 1
 62
    18
420
    65793
370
     9
100
AcDbVertex
100
AcDb2dVertex
 10
-42.33810220669075
 20
58.14059796334701
 30
0.0
  0
VERTEX
  5
107
330
FF
100
AcDbEntity
  8
Layer 1
 62
    18
420
    65793
370
     9
100
AcDbVertex
100
AcDb2dVertex
 10
-42.17820842815638
 20
56.76074486543864
 30
0.0
  0
VERTEX
  5
108
330
FF
100
AcDbEntity
  8
Layer 1
 62
    18
420
    65793
370
     9
100
AcDbVertex
100
AcDb2dVertex
 10
-41.98597783926367
 20
55.38089176753155
 30
0.0
  0
VERTEX
  5
109
330
FF
100
AcDbEntity
  8
Layer 1
 62
    18
420
    65793
370
     9
100
AcDbVertex
100
AcDb2dVertex
 10
-41.79352346621669
 20
54.00350029532535
 30
0.0
  0
VERTEX
  5
10A
330
FF
100
AcDbEntity
  8
Layer 1
 62
    18
420
    65793
370
     9
100
AcDbVertex
100
AcDb2dVertex
 10
-41.56761336204127
 20
52.65486508699752
 30
0.0
  0
VERTEX
  5
10B
330
FF
100
AcDbEntity
  8
Layer 1
 62
    18
420
    65793
370
     9
100
AcDbVertex
100
AcDb2dVertex
 10
-41.31160428906183
 20
51.27501198909044
 30
0.0
  0
VERTEX
  5
10C
330
FF
100
AcDbEntity
  8
Layer 1
 62
    18
420
    65793
370
     9
100
AcDbVertex
100
AcDb2dVertex
 10
-41.05682602893219
 20
49.92872651439021
 30
0.0
  0
VERTEX
  5
10D
330
FF
100
AcDbEntity
  8
Layer 1
 62
    18
420
    65793
370
     9
100
AcDbVertex
100
AcDb2dVertex
 10
-40.79958614309396
 20
48.58143401098803
 30
0.0
  0
VERTEX
  5
10E
330
FF
100
AcDbEntity
  8
Layer 1
 62
    18
420
    65793
370
     9
100
AcDbVertex
100
AcDb2dVertex
 10
-40.47744885240019
 20
47.23279880266406
 30
0.0
  0
VERTEX
  5
10F
330
FF
100
AcDbEntity
  8
Layer 1
 62
    18
420
    65793
370
     9
100
AcDbVertex
100
AcDb2dVertex
 10
-39.80430611504686
 20
44.53910893248836
 30
0.0
  0
SEQEND
  5
110
330
FF
100
AcDbEntity
  8
Layer 1
 62
    18
420
    65793
370
     9
  0
POLYLINE
  5
111
330
F1
100
AcDbEntity
  8
Layer 1
 62
    18
420
    65793
370
     9
100
AcDb2dPolyline
 66
     1
 10
0.0
 20
0.0
 30
0.0
  0
VERTEX
  5
112
330
111
100
AcDbEntity
  8
Layer 1
 62
    18
420
    65793
370
     9
100
AcDbVertex
100
AcDb2dVertex
 10
-20.07773287785168
 20
44.09086927061108
 30
0.0
  0
VERTEX
  5
113
330
111
100
AcDbEntity
  8
Layer 1
 62
    18
420
    65793
370
     9
100
AcDbVertex
100
AcDb2dVertex
 10
-19.85406061522544
 20
44.1569974883267
 30
0.0
  0
VERTEX
  5
114
330
111
100
AcDbEntity
  8
Layer 1
 62
    18
420
    65793
370
     9
100
AcDbVertex
100
AcDb2dVertex
 10
-19.6306121367509
 20
44.31442964116403
 30
0.0
  0
VERTEX
  5
115
330
111
100
AcDbEntity
  8
Layer 1
 62
    18
420
    65793
370
     9
100
AcDbVertex
100
AcDb2dVertex
 10
-19.53326602945603
 20
44.53910893248836
 30
0.0
  0
VERTEX
  5
116
330
111
100
AcDbEntity
  8
Layer 1
 62
    18
420
    65793
370
     9
100
AcDbVertex
100
AcDb2dVertex
 10
-19.17979895710073
 20
45.88651332796383
 30
0.0
  0
VERTEX
  5
117
330
111
100
AcDbEntity
  8
Layer 1
 62
    18
420
    65793
370
     9
100
AcDbVertex
100
AcDb2dVertex
 10
-18.85900437133133
 20
47.23279880266406
 30
0.0
  0
VERTEX
  5
118
330
111
100
AcDbEntity
  8
Layer 1
 62
    18
420
    65793
370
     9
100
AcDbVertex
100
AcDb2dVertex
 10
-18.57043470383671
 20
48.58143401098803
 30
0.0
  0
VERTEX
  5
119
330
111
100
AcDbEntity
  8
Layer 1
 62
    18
420
    65793
370
     9
100
AcDbVertex
100
AcDb2dVertex
 10
-18.28197692842564
 20
49.92872651439021
 30
0.0
  0
VERTEX
  5
11A
330
111
100
AcDbEntity
  8
Layer 1
 62
    18
420
    65793
370
     9
100
AcDbVertex
100
AcDb2dVertex
 10
-18.02596785544235
 20
51.27501198909044
 30
0.0
  0
VERTEX
  5
11B
330
111
100
AcDbEntity
  8
Layer 1
 62
    18
420
    65793
370
     9
100
AcDbVertex
100
AcDb2dVertex
 10
-17.76872796961182
 20
52.65486508699752
 30
0.0
  0
VERTEX
  5
11C
330
111
100
AcDbEntity
  8
Layer 1
 62
    18
420
    65793
370
     9
100
AcDbVertex
100
AcDb2dVertex
 10
-17.54393678620907
 20
54.00350029532535
 30
0.0
  0
VERTEX
  5
11D
330
111
100
AcDbEntity
  8
Layer 1
 62
    18
420
    65793
370
     9
100
AcDbVertex
100
AcDb2dVertex
 10
-17.35159430523794
 20
55.38089176753155
 30
0.0
  0
VERTEX
  5
11E
330
111
100
AcDbEntity
  8
Layer 1
 62
    18
420
    65793
370
     9
100
AcDbVertex
100
AcDb2dVertex
 10
-17.15936371635037
 20
56.76074486543864
 30
0.0
  0
VERTEX
  5
11F
330
111
100
AcDbEntity
  8
Layer 1
 62
    18
420
    65793
370
     9
100
AcDbVertex
100
AcDb2dVertex
 10
-16.99823912496235
 20
58.14059796334701
 30
0.0
  0
VERTEX
  5
120
330
111
100
AcDbEntity
  8
Layer 1
 62
    18
420
    65793
370
     9
100
AcDbVertex
100
AcDb2dVertex
 10
-16.8707940488596
 20
59.52045106125409
 30
0.0
  0
VERTEX
  5
121
330
111
100
AcDbEntity
  8
Layer 1
 62
    18
420
    65793
370
     9
100
AcDbVertex
100
AcDb2dVertex
 10
-16.74223005198162
 20
60.89907334631266
 30
0.0
  0
VERTEX
  5
122
330
111
100
AcDbEntity
  8
Layer 1
 62
    18
420
    65793
370
     9
100
AcDbVertex
100
AcDb2dVertex
 10
-16.64734557038764
 20
62.27903833629689
 30
0.0
  0
VERTEX
  5
123
330
111
100
AcDbEntity
  8
Layer 1
 62
    18
420
    65793
370
     9
100
AcDbVertex
100
AcDb2dVertex
 10
-16.55123027594128
 20
63.65889143420397
 30
0.0
  0
VERTEX
  5
124
330
111
100
AcDbEntity
  8
Layer 1
 62
    18
420
    65793
370
     9
100
AcDbVertex
100
AcDb2dVertex
 10
-16.48499016614853
 20
65.03874453211233
 30
0.0
  0
VERTEX
  5
125
330
111
100
AcDbEntity
  8
Layer 1
 62
    18
420
    65793
370
     9
100
AcDbVertex
100
AcDb2dVertex
 10
-16.45388416864384
 20
66.41613600431853
 30
0.0
  0
SEQEND
  5
126
330
111
100
AcDbEntity
  8
Layer 1
 62
    18
420
    65793
370
     9
  0
POLYLINE
  5
127
330
F1
100
AcDbEntity
  8
Layer 1
 62
    18
420
    65793
370
     9
100
AcDb2dPolyline
 66
     1
 10
0.0
 20
0.0
 30
0.0
  0
VERTEX
  5
128
330
127
100
AcDbEntity
  8
Layer 1
 62
    18
420
    65793
370
     9
100
AcDbVertex
100
AcDb2dVertex
 10
-42.4354483139869
 20
66.86448755826783
 30
0.0
  0
VERTEX
  5
129
330
127
100
AcDbEntity
  8
Layer 1
 62
    18
420
    65793
370
     9
100
AcDbVertex
100
AcDb2dVertex
 10
-42.53167550050912
 20
66.86448755826783
 30
0.0
  0
VERTEX
  5
12A
330
127
100
AcDbEntity
  8
Layer 1
 62
    18
420
    65793
370
     9
100
AcDbVertex
100
AcDb2dVertex
 10
-42.62779079495547
 20
66.83450048153709
 30
0.0
  0
VERTEX
  5
12B
330
127
100
AcDbEntity
  8
Layer 1
 62
    18
420
    65793
370
     9
100
AcDbVertex
100
AcDb2dVertex
 10
-42.69145738696891
 20
66.8007090741798
 30
0.0
  0
VERTEX
  5
12C
330
127
100
AcDbEntity
  8
Layer 1
 62
    18
420
    65793
370
     9
100
AcDbVertex
100
AcDb2dVertex
 10
-42.75646668391315
 20
66.73715437424221
 30
0.0
  0
VERTEX
  5
12D
330
127
100
AcDbEntity
  8
Layer 1
 62
    18
420
    65793
370
     9
100
AcDbVertex
100
AcDb2dVertex
 10
-42.82125219669798
 20
66.67460670300271
 30
0.0
  0
VERTEX
  5
12E
330
127
100
AcDbEntity
  8
Layer 1
 62
    18
420
    65793
370
     9
100
AcDbVertex
100
AcDb2dVertex
 10
-42.85258197835309
 20
66.6084784852871
 30
0.0
  0
VERTEX
  5
12F
330
127
100
AcDbEntity
  8
Layer 1
 62
    18
420
    65793
370
     9
100
AcDbVertex
100
AcDb2dVertex
 10
-42.88379986793619
 20
66.51236319084074
 30
0.0
  0
VERTEX
  5
130
330
127
100
AcDbEntity
  8
Layer 1
 62
    18
420
    65793
370
     9
100
AcDbVertex
100
AcDb2dVertex
 10
-42.88379986793619
 20
66.41613600431853
 30
0.0
  0
SEQEND
  5
131
330
127
100
AcDbEntity
  8
Layer 1
 62
    18
420
    65793
370
     9
  0
POLYLINE
  5
132
330
F1
100
AcDbEntity
  8
Layer 1
 62
    18
420
    65793
370
     9
100
AcDb2dPolyline
 66
     1
 10
0.0
 20
0.0
 30
0.0
  0
VERTEX
  5
133
330
132
100
AcDbEntity
  8
Layer 1
 62
    18
420
    65793
370
     9
100
AcDbVertex
100
AcDb2dVertex
 10
-16.45388416864384
 20
66.41613600431853
 30
0.0
  0
VERTEX
  5
134
330
132
100
AcDbEntity
  8
Layer 1
 62
    18
420
    65793
370
     9
100
AcDbVertex
100
AcDb2dVertex
 10
-16.45388416864384
 20
66.51236319084074
 30
0.0
  0
VERTEX
  5
135
330
132
100
AcDbEntity
  8
Layer 1
 62
    18
420
    65793
370
     9
100
AcDbVertex
100
AcDb2dVertex
 10
-16.48499016614853
 20
66.6084784852871
 30
0.0
  0
VERTEX
  5
136
330
132
100
AcDbEntity
  8
Layer 1
 62
    18
420
    65793
370
     9
100
AcDbVertex
100
AcDb2dVertex
 10
-16.51866968143123
 20
66.67460670300271
 30
0.0
  0
VERTEX
  5
137
330
132
100
AcDbEntity
  8
Layer 1
 62
    18
420
    65793
370
     9
100
AcDbVertex
100
AcDb2dVertex
 10
-16.58233627344468
 20
66.73715437424221
 30
0.0
  0
VERTEX
  5
138
330
132
100
AcDbEntity
  8
Layer 1
 62
    18
420
    65793
370
     9
100
AcDbVertex
100
AcDb2dVertex
 10
-16.64734557038764
 20
66.8007090741798
 30
0.0
  0
VERTEX
  5
139
330
132
100
AcDbEntity
  8
Layer 1
 62
    18
420
    65793
370
     9
100
AcDbVertex
100
AcDb2dVertex
 10
-16.70989324162585
 20
66.83450048153709
 30
0.0
  0
VERTEX
  5
13A
330
132
100
AcDbEntity
  8
Layer 1
 62
    18
420
    65793
370
     9
100
AcDbVertex
100
AcDb2dVertex
 10
-16.80723934892201
 20
66.86448755826783
 30
0.0
  0
VERTEX
  5
13B
330
132
100
AcDbEntity
  8
Layer 1
 62
    18
420
    65793
370
     9
100
AcDbVertex
100
AcDb2dVertex
 10
-16.90335464336836
 20
66.86448755826783
 30
0.0
  0
SEQEND
  5
13C
330
132
100
AcDbEntity
  8
Layer 1
 62
    18
420
    65793
370
     9
  0
POLYLINE
  5
13D
330
F1
100
AcDbEntity
  8
Layer 1
 62
    18
420
    65793
370
     9
100
AcDb2dPolyline
 66
     1
 10
0.0
 20
0.0
 30
0.0
  0
VERTEX
  5
13E
330
13D
100
AcDbEntity
  8
Layer 1
 62
    18
420
    65793
370
     9
100
AcDbVertex
100
AcDb2dVertex
 10
-42.4354483139869
 20
66.86448755826783
 30
0.0
  0
VERTEX
  5
13F
330
13D
100
AcDbEntity
  8
Layer 1
 62
    18
420
    65793
370
     9
100
AcDbVertex
100
AcDb2dVertex
 10
-16.90335464336836
 20
66.86448755826783
 30
0.0
  0
SEQEND
  5
140
330
13D
100
AcDbEntity
  8
Layer 1
 62
    18
420
    65793
370
     9
  0
SPLINE
  5
141
330
F1
100
AcDbEntity
  8
Layer 1
 62
    18
420
    65793
370
     9
100
AcDbSpline
210
0.0
220
0.0
230
1.0
 70
    11
 71
     3
 72
    17
 73
    13
 74
     0
 42
0.0000000001
 43
0.0000000001
 12
1.0
 22
0.0
 32
0.0
 13
1.0
 23
0.0
 33
0.0
 40
0.0
 40
0.0
 40
0.0
 40
0.0
 40
1.0
 40
1.0
 40
1.0
 40
2.0
 40
2.0
 40
2.0
 40
3.0
 40
3.0
 40
3.0
 40
4.0
 40
4.0
 40
4.0
 40
4.0
 10
-35.03736794361285
 20
61.15631323214576
 30
0.0
 10
-35.03736794361285
 20
60.46526776241698
 30
0.0
 10
-35.59984941646236
 20
59.90267439748905
 30
0.0
 10
-36.29223759112192
 20
59.90267439748905
 30
0.0
 10
-36.98451387369664
 20
59.90267439748905
 30
0.0
 10
-37.54464561291984
 20
60.46526776241698
 30
0.0
 10
-37.54464561291984
 20
61.15631323214576
 30
0.0
 10
-37.54464561291984
 20
61.84870140680018
 30
0.0
 10
-36.98451387369664
 20
62.41006395887575
 30
0.0
 10
-36.29223759112192
 20
62.41006395887575
 30
0.0
 10
-35.59984941646236
 20
62.41006395887575
 30
0.0
 10
-35.03736794361285
 20
61.84870140680018
 30
0.0
 10
-35.03736794361285
 20
61.15631323214576
 30
0.0
  0
SPLINE
  5
142
330
F1
100
AcDbEntity
  8
Layer 1
 62
    18
420
    65793
370
     9
100
AcDbSpline
210
0.0
220
0.0
230
1.0
 70
    11
 71
     3
 72
    17
 73
    13
 74
     0
 42
0.0000000001
 43
0.0000000001
 12
1.0
 22
0.0
 32
0.0
 13
1.0
 23
0.0
 33
0.0
 40
0.0
 40
0.0
 40
0.0
 40
0.0
 40
1.0
 40
1.0
 40
1.0
 40
2.0
 40
2.0
 40
2.0
 40
3.0
 40
3.0
 40
3.0
 40
4.0
 40
4.0
 40
4.0
 40
4.0
 10
-21.80612979671101
 20
61.15631323214576
 30
0.0
 10
-21.80612979671101
 20
60.46526776241698
 30
0.0
 10
-22.36626153593805
 20
59.90267439748905
 30
0.0
 10
-23.05864971059248
 20
59.90267439748905
 30
0.0
 10
-23.75092599316977
 20
59.90267439748905
 30
0.0
 10
-24.3121766531682
 20
60.46526776241698
 30
0.0
 10
-24.3121766531682
 20
61.15631323214576
 30
0.0
 10
-24.3121766531682
 20
61.84870140680018
 30
0.0
 10
-23.75092599316977
 20
62.41006395887575
 30
0.0
 10
-23.05864971059248
 20
62.41006395887575
 30
0.0
 10
-22.36626153593805
 20
62.41006395887575
 30
0.0
 10
-21.80612979671101
 20
61.84870140680018
 30
0.0
 10
-21.80612979671101
 20
61.15631323214576
 30
0.0
  0
SPLINE
  5
143
330
F1
100
AcDbEntity
  8
Layer 1
 62
    18
420
    65793
370
     9
100
AcDbSpline
210
0.0
220
0.0
230
1.0
 70
    11
 71
     3
 72
    17
 73
    13
 74
     0
 42
0.0000000001
 43
0.0000000001
 12
1.0
 22
0.0
 32
0.0
 13
1.0
 23
0.0
 33
0.0
 40
0.0
 40
0.0
 40
0.0
 40
0.0
 40
1.0
 40
1.0
 40
1.0
 40
2.0
 40
2.0
 40
2.0
 40
3.0
 40
3.0
 40
3.0
 40
4.0
 40
4.0
 40
4.0
 40
4.0
 10
-31.71629919572054
 20
48.48531871654554
 30
0.0
 10
-31.71629919572054
 20
47.7929305418911
 30
0.0
 10
-32.27766174779611
 20
47.23156798981169
 30
0.0
 10
-32.97004992245311
 20
47.23156798981169
 30
0.0
 10
-33.66232620502911
 20
47.23156798981169
 30
0.0
 10
-34.22245794425744
 20
47.7929305418911
 30
0.0
 10
-34.22245794425744
 20
48.48531871654554
 30
0.0
 10
-34.22245794425744
 20
49.17636418627431
 30
0.0
 10
-33.66232620502911
 20
49.73884565912125
 30
0.0
 10
-32.97004992245311
 20
49.73884565912125
 30
0.0
 10
-32.27766174779611
 20
49.73884565912125
 30
0.0
 10
-31.71629919572054
 20
49.17636418627431
 30
0.0
 10
-31.71629919572054
 20
48.48531871654554
 30
0.0
  0
SPLINE
  5
144
330
F1
100
AcDbEntity
  8
Layer 1
 62
    18
420
    65793
370
     9
100
AcDbSpline
210
0.0
220
0.0
230
1.0
 70
    11
 71
     3
 72
    17
 73
    13
 74
     0
 42
0.0000000001
 43
0.0000000001
 12
1.0
 22
0.0
 32
0.0
 13
1.0
 23
0.0
 33
0.0
 40
0.0
 40
0.0
 40
0.0
 40
0.0
 40
1.0
 40
1.0
 40
1.0
 40
2.0
 40
2.0
 40
2.0
 40
3.0
 40
3.0
 40
3.0
 40
4.0
 40
4.0
 40
4.0
 40
4.0
 10
-25.10918392014687
 20
48.48531871654554
 30
0.0
 10
-25.10918392014687
 20
47.7929305418911
 30
0.0
 10
-25.66931565937392
 20
47.23156798981169
 30
0.0
 10
-26.36159194195249
 20
47.23156798981169
 30
0.0
 10
-27.05398011660949
 20
47.23156798981169
 30
0.0
 10
-27.616461589459
 20
47.7929305418911
 30
0.0
 10
-27.616461589459
 20
48.48531871654554
 30
0.0
 10
-27.616461589459
 20
49.17636418627431
 30
0.0
 10
-27.05398011660949
 20
49.73884565912125
 30
0.0
 10
-26.36159194195249
 20
49.73884565912125
 30
0.0
 10
-25.66931565937392
 20
49.73884565912125
 30
0.0
 10
-25.10918392014687
 20
49.17636418627431
 30
0.0
 10
-25.10918392014687
 20
48.48531871654554
 30
0.0
  0
SPLINE
  5
145
330
F1
100
AcDbEntity
  8
Layer 1
 62
    18
420
    65793
370
     9
100
AcDbSpline
210
0.0
220
0.0
230
1.0
 70
    11
 71
     3
 72
    17
 73
    13
 74
     0
 42
0.0000000001
 43
0.0000000001
 12
1.0
 22
0.0
 32
0.0
 13
1.0
 23
0.0
 33
0.0
 40
0.0
 40
0.0
 40
0.0
 40
0.0
 40
1.0
 40
1.0
 40
1.0
 40
2.0
 40
2.0
 40
2.0
 40
3.0
 40
3.0
 40
3.0
 40
4.0
 40
4.0
 40
4.0
 40
4.0
 10
-27.83890303923415
 20
44.82644778712933
 30
0.0
 10
-27.83890303923415
 20
43.75675952764172
 30
0.0
 10
-28.70785691194989
 20
42.88769376284372
 30
0.0
 10
-29.78000679714224
 20
42.88769376284372
 30
0.0
 10
-30.85215668232816
 20
42.88769376284372
 30
0.0
 10
-31.72234136789755
 20
43.75675952764172
 30
0.0
 10
-31.72234136789755
 20
44.82644778712933
 30
0.0
 10
-31.72234136789755
 20
45.89982848516635
 30
0.0
 10
-30.85215668232816
 20
46.76878235788336
 30
0.0
 10
-29.78000679714224
 20
46.76878235788336
 30
0.0
 10
-28.70785691194989
 20
46.76878235788336
 30
0.0
 10
-27.83890303923415
 20
45.89982848516635
 30
0.0
 10
-27.83890303923415
 20
44.82644778712933
 30
0.0
  0
ENDBLK
  5
F4
330
F1
100
AcDbEntity
  8
0
100
AcDbBlockEnd
  0
BLOCK
  5
148
330
146
100
AcDbEntity
  8
0
100
AcDbBlockBegin
  2
block 6
 70
     0
 10
0.0
 20
0.0
 30
0.0
  3
block 6
  1

  0
POLYLINE
  5
14A
330
146
100
AcDbEntity
  8
Layer 1
 62
    18
420
    65793
370
     9
100
AcDb2dPolyline
 66
     1
 10
0.0
 20
0.0
 30
0.0
  0
VERTEX
  5
14B
330
14A
100
AcDbEntity
  8
Layer 1
 62
    18
420
    65793
370
     9
100
AcDbVertex
100
AcDb2dVertex
 10
21.00972875766251
 20
66.83450048153709
 30
0.0
  0
VERTEX
  5
14C
330
14A
100
AcDbEntity
  8
Layer 1
 62
    18
420
    65793
370
     9
100
AcDbVertex
100
AcDb2dVertex
 10
18.44471484123686
 20
66.83450048153709
 30
0.0
  0
SEQEND
  5
14D
330
14A
100
AcDbEntity
  8
Layer 1
 62
    18
420
    65793
370
     9
  0
POLYLINE
  5
14E
330
146
100
AcDbEntity
  8
Layer 1
 62
    18
420
    65793
370
     9
100
AcDb2dPolyline
 66
     1
 10
0.0
 20
0.0
 30
0.0
  0
VERTEX
  5
14F
330
14E
100
AcDbEntity
  8
Layer 1
 62
    18
420
    65793
370
     9
100
AcDbVertex
100
AcDb2dVertex
 10
21.00972875766251
 20
66.83450048153709
 30
0.0
  0
VERTEX
  5
150
330
14E
100
AcDbEntity
  8
Layer 1
 62
    18
420
    65793
370
     9
100
AcDbVertex
100
AcDb2dVertex
 10
25.21172372440012
 20
66.83450048153709
 30
0.0
  0
SEQEND
  5
151
330
14E
100
AcDbEntity
  8
Layer 1
 62
    18
420
    65793
370
     9
  0
INSERT
  5
153
330
146
100
AcDbEntity
  8
Layer 1
100
AcDbBlockReference
  2
block 7
 10
0.0
 20
0.0
 30
0.0
  0
POLYLINE
  5
2AC
330
146
100
AcDbEntity
  8
Layer 1
 62
    18
420
    65793
370
     9
100
AcDb2dPolyline
 66
     1
 10
0.0
 20
0.0
 30
0.0
  0
VERTEX
  5
2AD
330
2AC
100
AcDbEntity
  8
Layer 1
 62
    18
420
    65793
370
     9
100
AcDbVertex
100
AcDb2dVertex
 10
49.46276438877661
 20
44.09086927061237
 30
0.0
  0
VERTEX
  5
2AE
330
2AC
100
AcDbEntity
  8
Layer 1
 62
    18
420
    65793
370
     9
100
AcDbVertex
100
AcDb2dVertex
 10
49.68621286160804
 20
44.15699748832798
 30
0.0
  0
VERTEX
  5
2AF
330
2AC
100
AcDbEntity
  8
Layer 1
 62
    18
420
    65793
370
     9
100
AcDbVertex
100
AcDb2dVertex
 10
49.87855533771509
 20
44.25065115707088
 30
0.0
  0
VERTEX
  5
2B0
330
2AC
100
AcDbEntity
  8
Layer 1
 62
    18
420
    65793
370
     9
100
AcDbVertex
100
AcDb2dVertex
 10
50.00588851852579
 20
44.44422445089181
 30
0.0
  0
SEQEND
  5
2B1
330
2AC
100
AcDbEntity
  8
Layer 1
 62
    18
420
    65793
370
     9
  0
POLYLINE
  5
2B2
330
146
100
AcDbEntity
  8
Layer 1
 62
    18
420
    65793
370
     9
100
AcDb2dPolyline
 66
     1
 10
0.0
 20
0.0
 30
0.0
  0
VERTEX
  5
2B3
330
2B2
100
AcDbEntity
  8
Layer 1
 62
    18
420
    65793
370
     9
100
AcDbVertex
100
AcDb2dVertex
 10
54.97837231044373
 20
66.44858470674887
 30
0.0
  0
VERTEX
  5
2B4
330
2B2
100
AcDbEntity
  8
Layer 1
 62
    18
420
    65793
370
     9
100
AcDbVertex
100
AcDb2dVertex
 10
54.9459236088322
 20
66.6084784852871
 30
0.0
  0
VERTEX
  5
2B5
330
2B2
100
AcDbEntity
  8
Layer 1
 62
    18
420
    65793
370
     9
100
AcDbVertex
100
AcDb2dVertex
 10
54.91358679929395
 20
66.67460670300271
 30
0.0
  0
VERTEX
  5
2B6
330
2B2
100
AcDbEntity
  8
Layer 1
 62
    18
420
    65793
370
     9
100
AcDbVertex
100
AcDb2dVertex
 10
54.84980831681147
 20
66.73715437424221
 30
0.0
  0
VERTEX
  5
2B7
330
2B2
100
AcDbEntity
  8
Layer 1
 62
    18
420
    65793
370
     9
100
AcDbVertex
100
AcDb2dVertex
 10
54.7849109135884
 20
66.8007090741798
 30
0.0
  0
VERTEX
  5
2B8
330
2B2
100
AcDbEntity
  8
Layer 1
 62
    18
420
    65793
370
     9
100
AcDbVertex
100
AcDb2dVertex
 10
54.72113243110977
 20
66.83450048153709
 30
0.0
  0
VERTEX
  5
2B9
330
2B2
100
AcDbEntity
  8
Layer 1
 62
    18
420
    65793
370
     9
100
AcDbVertex
100
AcDb2dVertex
 10
54.62501713909288
 20
66.86448755826783
 30
0.0
  0
VERTEX
  5
2BA
330
2B2
100
AcDbEntity
  8
Layer 1
 62
    18
420
    65793
370
     9
100
AcDbVertex
100
AcDb2dVertex
 10
54.5612386566104
 20
66.86448755826783
 30
0.0
  0
SEQEND
  5
2BB
330
2B2
100
AcDbEntity
  8
Layer 1
 62
    18
420
    65793
370
     9
  0
POLYLINE
  5
2BC
330
146
100
AcDbEntity
  8
Layer 1
 62
    18
420
    65793
370
     9
100
AcDb2dPolyline
 66
     1
 10
0.0
 20
0.0
 30
0.0
  0
VERTEX
  5
2BD
330
2BC
100
AcDbEntity
  8
Layer 1
 62
    18
420
    65793
370
     9
100
AcDbVertex
100
AcDb2dVertex
 10
18.44471484123686
 20
66.83450048153709
 30
0.0
  0
VERTEX
  5
2BE
330
2BC
100
AcDbEntity
  8
Layer 1
 62
    18
420
    65793
370
     9
100
AcDbVertex
100
AcDb2dVertex
 10
14.4349504585407
 20
66.86448755826783
 30
0.0
  0
VERTEX
  5
2BF
330
2BC
100
AcDbEntity
  8
Layer 1
 62
    18
420
    65793
370
     9
100
AcDbVertex
100
AcDb2dVertex
 10
14.27505668404134
 20
66.83450048153709
 30
0.0
  0
VERTEX
  5
2C0
330
2BC
100
AcDbEntity
  8
Layer 1
 62
    18
420
    65793
370
     9
100
AcDbVertex
100
AcDb2dVertex
 10
14.2112782015627
 20
66.67460670300271
 30
0.0
  0
SEQEND
  5
2C1
330
2BC
100
AcDbEntity
  8
Layer 1
 62
    18
420
    65793
370
     9
  0
POLYLINE
  5
2C2
330
146
100
AcDbEntity
  8
Layer 1
 62
    18
420
    65793
370
     9
100
AcDb2dPolyline
 66
     1
 10
0.0
 20
0.0
 30
0.0
  0
VERTEX
  5
2C3
330
2C2
100
AcDbEntity
  8
Layer 1
 62
    18
420
    65793
370
     9
100
AcDbVertex
100
AcDb2dVertex
 10
50.00588851852579
 20
44.44422445089181
 30
0.0
  0
VERTEX
  5
2C4
330
2C2
100
AcDbEntity
  8
Layer 1
 62
    18
420
    65793
370
     9
100
AcDbVertex
100
AcDb2dVertex
 10
50.58403486759907
 20
45.72673144150402
 30
0.0
  0
VERTEX
  5
2C5
330
2C2
100
AcDbEntity
  8
Layer 1
 62
    18
420
    65793
370
     9
100
AcDbVertex
100
AcDb2dVertex
 10
51.12973251506467
 20
47.04045632169549
 30
0.0
  0
VERTEX
  5
2C6
330
2C2
100
AcDbEntity
  8
Layer 1
 62
    18
420
    65793
370
     9
100
AcDbVertex
100
AcDb2dVertex
 10
51.64286956883389
 20
48.3566428275917
 30
0.0
  0
VERTEX
  5
2C7
330
2C2
100
AcDbEntity
  8
Layer 1
 62
    18
420
    65793
370
     9
100
AcDbVertex
100
AcDb2dVertex
 10
52.12378170514586
 20
49.70404722306716
 30
0.0
  0
VERTEX
  5
2C8
330
2C2
100
AcDbEntity
  8
Layer 1
 62
    18
420
    65793
370
     9
100
AcDbVertex
100
AcDb2dVertex
 10
52.5409153589792
 20
51.052570539314
 30
0.0
  0
VERTEX
  5
2C9
330
2C2
100
AcDbEntity
  8
Layer 1
 62
    18
420
    65793
370
     9
100
AcDbVertex
100
AcDb2dVertex
 10
52.95793712073154
 20
52.43130471644971
 30
0.0
  0
VERTEX
  5
2CA
330
2C2
100
AcDbEntity
  8
Layer 1
 62
    18
420
    65793
370
     9
100
AcDbVertex
100
AcDb2dVertex
 10
53.34130651404161
 20
53.77870911192517
 30
0.0
  0
VERTEX
  5
2CB
330
2C2
100
AcDbEntity
  8
Layer 1
 62
    18
420
    65793
370
     9
100
AcDbVertex
100
AcDb2dVertex
 10
53.66229772987494
 20
55.15733139698374
 30
0.0
  0
VERTEX
  5
2CC
330
2C2
100
AcDbEntity
  8
Layer 1
 62
    18
420
    65793
370
     9
100
AcDbVertex
100
AcDb2dVertex
 10
53.95075549799887
 20
56.56851427654721
 30
0.0
  0
VERTEX
  5
2CD
330
2C2
100
AcDbEntity
  8
Layer 1
 62
    18
420
    65793
370
     9
100
AcDbVertex
100
AcDb2dVertex
 10
54.2078834852634
 20
57.94713656160578
 30
0.0
  0
VERTEX
  5
2CE
330
2C2
100
AcDbEntity
  8
Layer 1
 62
    18
420
    65793
370
     9
100
AcDbVertex
100
AcDb2dVertex
 10
54.43155574223756
 20
59.35932646986736
 30
0.0
  0
VERTEX
  5
2CF
330
2C2
100
AcDbEntity
  8
Layer 1
 62
    18
420
    65793
370
     9
100
AcDbVertex
100
AcDb2dVertex
 10
54.62501713909288
 20
60.77174016228449
 30
0.0
  0
VERTEX
  5
2D0
330
2C2
100
AcDbEntity
  8
Layer 1
 62
    18
420
    65793
370
     9
100
AcDbVertex
100
AcDb2dVertex
 10
54.75246221197687
 20
62.18158033692231
 30
0.0
  0
VERTEX
  5
2D1
330
2C2
100
AcDbEntity
  8
Layer 1
 62
    18
420
    65793
370
     9
100
AcDbVertex
100
AcDb2dVertex
 10
54.88225701842685
 20
63.59399402934072
 30
0.0
  0
VERTEX
  5
2D2
330
2C2
100
AcDbEntity
  8
Layer 1
 62
    18
420
    65793
370
     9
100
AcDbVertex
100
AcDb2dVertex
 10
54.9459236088322
 20
65.00383420397854
 30
0.0
  0
VERTEX
  5
2D3
330
2C2
100
AcDbEntity
  8
Layer 1
 62
    18
420
    65793
370
     9
100
AcDbVertex
100
AcDb2dVertex
 10
54.97837231044373
 20
66.44858470674887
 30
0.0
  0
SEQEND
  5
2D4
330
2C2
100
AcDbEntity
  8
Layer 1
 62
    18
420
    65793
370
     9
  0
POLYLINE
  5
2D5
330
146
100
AcDbEntity
  8
Layer 1
 62
    18
420
    65793
370
     9
100
AcDb2dPolyline
 66
     1
 10
0.0
 20
0.0
 30
0.0
  0
VERTEX
  5
2D6
330
2D5
100
AcDbEntity
  8
Layer 1
 62
    18
420
    65793
370
     9
100
AcDbVertex
100
AcDb2dVertex
 10
14.2112782015627
 20
45.78916722066639
 30
0.0
  0
VERTEX
  5
2D7
330
2D5
100
AcDbEntity
  8
Layer 1
 62
    18
420
    65793
370
     9
100
AcDbVertex
100
AcDb2dVertex
 10
14.27505668404134
 20
45.62938533420659
 30
0.0
  0
VERTEX
  5
2D8
330
2D5
100
AcDbEntity
  8
Layer 1
 62
    18
420
    65793
370
     9
100
AcDbVertex
100
AcDb2dVertex
 10
14.4349504585407
 20
45.56437603726491
 30
0.0
  0
VERTEX
  5
2D9
330
2D5
100
AcDbEntity
  8
Layer 1
 62
    18
420
    65793
370
     9
100
AcDbVertex
100
AcDb2dVertex
 10
22.29335463661977
 20
45.56437603726491
 30
0.0
  0
SEQEND
  5
2DA
330
2D5
100
AcDbEntity
  8
Layer 1
 62
    18
420
    65793
370
     9
  0
POLYLINE
  5
2DB
330
146
100
AcDbEntity
  8
Layer 1
 62
    18
420
    65793
370
     9
100
AcDb2dPolyline
 66
     1
 10
0.0
 20
0.0
 30
0.0
  0
VERTEX
  5
2DC
330
2DB
100
AcDbEntity
  8
Layer 1
 62
    18
420
    65793
370
     9
100
AcDbVertex
100
AcDb2dVertex
 10
22.5818124047514
 20
45.40459415080768
 30
0.0
  0
VERTEX
  5
2DD
330
2DB
100
AcDbEntity
  8
Layer 1
 62
    18
420
    65793
370
     9
100
AcDbVertex
100
AcDb2dVertex
 10
22.99894605857703
 20
44.95624259685711
 30
0.0
  0
VERTEX
  5
2DE
330
2DB
100
AcDbEntity
  8
Layer 1
 62
    18
420
    65793
370
     9
100
AcDbVertex
100
AcDb2dVertex
 10
23.47974630281572
 20
44.60165660372915
 30
0.0
  0
VERTEX
  5
2DF
330
2DB
100
AcDbEntity
  8
Layer 1
 62
    18
420
    65793
370
     9
100
AcDbVertex
100
AcDb2dVertex
 10
24.0242131374559
 20
44.31442964116532
 30
0.0
  0
VERTEX
  5
2E0
330
2DB
100
AcDbEntity
  8
Layer 1
 62
    18
420
    65793
370
     9
100
AcDbVertex
100
AcDb2dVertex
 10
24.63480818814456
 20
44.15699748832798
 30
0.0
  0
VERTEX
  5
2E1
330
2DB
100
AcDbEntity
  8
Layer 1
 62
    18
420
    65793
370
     9
100
AcDbVertex
100
AcDb2dVertex
 10
25.2429680493514
 20
44.09086927061237
 30
0.0
  0
SEQEND
  5
2E2
330
2DB
100
AcDbEntity
  8
Layer 1
 62
    18
420
    65793
370
     9
  0
POLYLINE
  5
2E3
330
146
100
AcDbEntity
  8
Layer 1
 62
    18
420
    65793
370
     9
100
AcDb2dPolyline
 66
     1
 10
0.0
 20
0.0
 30
0.0
  0
VERTEX
  5
2E4
330
2E3
100
AcDbEntity
  8
Layer 1
 62
    18
420
    65793
370
     9
100
AcDbVertex
100
AcDb2dVertex
 10
22.5818124047514
 20
45.40459415080768
 30
0.0
  0
VERTEX
  5
2E5
330
2E3
100
AcDbEntity
  8
Layer 1
 62
    18
420
    65793
370
     9
100
AcDbVertex
100
AcDb2dVertex
 10
22.5818124047514
 20
45.43704285323674
 30
0.0
  0
VERTEX
  5
2E6
330
2E3
100
AcDbEntity
  8
Layer 1
 62
    18
420
    65793
370
     9
100
AcDbVertex
100
AcDb2dVertex
 10
22.45212949037471
 20
45.53438896053547
 30
0.0
  0
VERTEX
  5
2E7
330
2E3
100
AcDbEntity
  8
Layer 1
 62
    18
420
    65793
370
     9
100
AcDbVertex
100
AcDb2dVertex
 10
22.29335463661977
 20
45.56437603726491
 30
0.0
  0
SEQEND
  5
2E8
330
2E3
100
AcDbEntity
  8
Layer 1
 62
    18
420
    65793
370
     9
  0
POLYLINE
  5
2E9
330
146
100
AcDbEntity
  8
Layer 1
 62
    18
420
    65793
370
     9
100
AcDb2dPolyline
 66
     1
 10
0.0
 20
0.0
 30
0.0
  0
VERTEX
  5
2EA
330
2E9
100
AcDbEntity
  8
Layer 1
 62
    18
420
    65793
370
     9
100
AcDbVertex
100
AcDb2dVertex
 10
25.2429680493514
 20
44.09086927061237
 30
0.0
  0
VERTEX
  5
2EB
330
2E9
100
AcDbEntity
  8
Layer 1
 62
    18
420
    65793
370
     9
100
AcDbVertex
100
AcDb2dVertex
 10
49.46276438877661
 20
44.09086927061237
 30
0.0
  0
SEQEND
  5
2EC
330
2E9
100
AcDbEntity
  8
Layer 1
 62
    18
420
    65793
370
     9
  0
POLYLINE
  5
2ED
330
146
100
AcDbEntity
  8
Layer 1
 62
    18
420
    65793
370
     9
100
AcDb2dPolyline
 66
     1
 10
0.0
 20
0.0
 30
0.0
  0
VERTEX
  5
2EE
330
2ED
100
AcDbEntity
  8
Layer 1
 62
    18
420
    65793
370
     9
100
AcDbVertex
100
AcDb2dVertex
 10
14.2112782015627
 20
45.78916722066639
 30
0.0
  0
VERTEX
  5
2EF
330
2ED
100
AcDbEntity
  8
Layer 1
 62
    18
420
    65793
370
     9
100
AcDbVertex
100
AcDb2dVertex
 10
14.2112782015627
 20
66.67460670300271
 30
0.0
  0
SEQEND
  5
2F0
330
2ED
100
AcDbEntity
  8
Layer 1
 62
    18
420
    65793
370
     9
  0
POLYLINE
  5
2F1
330
146
100
AcDbEntity
  8
Layer 1
 62
    18
420
    65793
370
     9
100
AcDb2dPolyline
 66
     1
 10
0.0
 20
0.0
 30
0.0
  0
VERTEX
  5
2F2
330
2F1
100
AcDbEntity
  8
Layer 1
 62
    18
420
    65793
370
     9
100
AcDbVertex
100
AcDb2dVertex
 10
14.4349504585407
 20
66.86448755826783
 30
0.0
  0
VERTEX
  5
2F3
330
2F1
100
AcDbEntity
  8
Layer 1
 62
    18
420
    65793
370
     9
100
AcDbVertex
100
AcDb2dVertex
 10
54.5612386566104
 20
66.86448755826783
 30
0.0
  0
SEQEND
  5
2F4
330
2F1
100
AcDbEntity
  8
Layer 1
 62
    18
420
    65793
370
     9
  0
ENDBLK
  5
149
330
146
100
AcDbEntity
  8
0
100
AcDbBlockEnd
  0
BLOCK
  5
154
330
152
100
AcDbEntity
  8
0
100
AcDbBlockBegin
  2
block 7
 70
     0
 10
0.0
 20
0.0
 30
0.0
  3
block 7
  1

  0
POLYLINE
  5
156
330
152
100
AcDbEntity
  8
Layer 1
 62
   252
420
  9672087
370
     9
100
AcDb2dPolyline
 66
     1
 10
0.0
 20
0.0
 30
0.0
  0
VERTEX
  5
157
330
156
100
AcDbEntity
  8
Layer 1
 62
   252
420
  9672087
370
     9
100
AcDbVertex
100
AcDb2dVertex
 10
35.63749155247084
 20
55.92658942877828
 30
0.0
  0
VERTEX
  5
158
330
156
100
AcDbEntity
  8
Layer 1
 62
   252
420
  9672087
370
     9
100
AcDbVertex
100
AcDb2dVertex
 10
34.25775038149671
 20
55.89537153919903
 30
0.0
  0
VERTEX
  5
159
330
156
100
AcDbEntity
  8
Layer 1
 62
   252
420
  9672087
370
     9
100
AcDbVertex
100
AcDb2dVertex
 10
28.70946997406763
 20
55.89537153919903
 30
0.0
  0
VERTEX
  5
15A
330
156
100
AcDbEntity
  8
Layer 1
 62
   252
420
  9672087
370
     9
100
AcDbVertex
100
AcDb2dVertex
 10
27.488279872698
 20
55.92658942877828
 30
0.0
  0
SEQEND
  5
15B
330
156
100
AcDbEntity
  8
Layer 1
 62
   252
420
  9672087
370
     9
  0
POLYLINE
  5
15C
330
152
100
AcDbEntity
  8
Layer 1
 62
   252
420
  9672087
370
     9
100
AcDb2dPolyline
 66
     1
 10
0.0
 20
0.0
 30
0.0
  0
VERTEX
  5
15D
330
15C
100
AcDbEntity
  8
Layer 1
 62
   252
420
  9672087
370
     9
100
AcDbVertex
100
AcDb2dVertex
 10
21.00972875766251
 20
65.84045126634108
 30
0.0
  0
VERTEX
  5
15E
330
15C
100
AcDbEntity
  8
Layer 1
 62
   252
420
  9672087
370
     9
100
AcDbVertex
100
AcDb2dVertex
 10
21.00972875766251
 20
66.83450048153709
 30
0.0
  0
SEQEND
  5
15F
330
15C
100
AcDbEntity
  8
Layer 1
 62
   252
420
  9672087
370
     9
  0
POLYLINE
  5
160
330
152
100
AcDbEntity
  8
Layer 1
 62
   252
420
  9672087
370
     9
100
AcDb2dPolyline
 66
     1
 10
0.0
 20
0.0
 30
0.0
  0
VERTEX
  5
161
330
160
100
AcDbEntity
  8
Layer 1
 62
   252
420
  9672087
370
     9
100
AcDbVertex
100
AcDb2dVertex
 10
35.92606121267191
 20
55.12488269455211
 30
0.0
  0
VERTEX
  5
162
330
160
100
AcDbEntity
  8
Layer 1
 62
   252
420
  9672087
370
     9
100
AcDbVertex
100
AcDb2dVertex
 10
34.70487111129844
 20
55.09243399211664
 30
0.0
  0
SEQEND
  5
163
330
160
100
AcDbEntity
  8
Layer 1
 62
   252
420
  9672087
370
     9
  0
POLYLINE
  5
164
330
152
100
AcDbEntity
  8
Layer 1
 62
   252
420
  9672087
370
     9
100
AcDb2dPolyline
 66
     1
 10
0.0
 20
0.0
 30
0.0
  0
VERTEX
  5
165
330
164
100
AcDbEntity
  8
Layer 1
 62
   252
420
  9672087
370
     9
100
AcDbVertex
100
AcDb2dVertex
 10
18.44471484123686
 20
65.93533574793506
 30
0.0
  0
VERTEX
  5
166
330
164
100
AcDbEntity
  8
Layer 1
 62
   252
420
  9672087
370
     9
100
AcDbVertex
100
AcDb2dVertex
 10
18.54083013325759
 20
65.93533574793506
 30
0.0
  0
VERTEX
  5
167
330
164
100
AcDbEntity
  8
Layer 1
 62
   252
420
  9672087
370
     9
100
AcDbVertex
100
AcDb2dVertex
 10
18.63694542527447
 20
65.9041178583558
 30
0.0
  0
VERTEX
  5
168
330
164
100
AcDbEntity
  8
Layer 1
 62
   252
420
  9672087
370
     9
100
AcDbVertex
100
AcDb2dVertex
 10
19.3414179264873
 20
65.9041178583558
 30
0.0
  0
VERTEX
  5
169
330
164
100
AcDbEntity
  8
Layer 1
 62
   252
420
  9672087
370
     9
100
AcDbVertex
100
AcDb2dVertex
 10
19.53611013616035
 20
65.87278807669556
 30
0.0
  0
VERTEX
  5
16A
330
164
100
AcDbEntity
  8
Layer 1
 62
   252
420
  9672087
370
     9
100
AcDbVertex
100
AcDb2dVertex
 10
20.40148344053985
 20
65.87278807669556
 30
0.0
  0
VERTEX
  5
16B
330
164
100
AcDbEntity
  8
Layer 1
 62
   252
420
  9672087
370
     9
100
AcDbVertex
100
AcDb2dVertex
 10
20.56252245370164
 20
65.84045126634108
 30
0.0
  0
VERTEX
  5
16C
330
164
100
AcDbEntity
  8
Layer 1
 62
   252
420
  9672087
370
     9
100
AcDbVertex
100
AcDb2dVertex
 10
21.00972875766251
 20
65.84045126634108
 30
0.0
  0
SEQEND
  5
16D
330
164
100
AcDbEntity
  8
Layer 1
 62
   252
420
  9672087
370
     9
  0
POLYLINE
  5
16E
330
152
100
AcDbEntity
  8
Layer 1
 62
   252
420
  9672087
370
     9
100
AcDb2dPolyline
 66
     1
 10
0.0
 20
0.0
 30
0.0
  0
VERTEX
  5
16F
330
16E
100
AcDbEntity
  8
Layer 1
 62
   252
420
  9672087
370
     9
100
AcDbVertex
100
AcDb2dVertex
 10
18.44471484123686
 20
66.83450048153709
 30
0.0
  0
VERTEX
  5
170
330
16E
100
AcDbEntity
  8
Layer 1
 62
   252
420
  9672087
370
     9
100
AcDbVertex
100
AcDb2dVertex
 10
18.44471484123686
 20
65.93533574793506
 30
0.0
  0
SEQEND
  5
171
330
16E
100
AcDbEntity
  8
Layer 1
 62
   252
420
  9672087
370
     9
  0
POLYLINE
  5
172
330
152
100
AcDbEntity
  8
Layer 1
 62
   252
420
  9672087
370
     9
100
AcDb2dPolyline
 66
     1
 10
0.0
 20
0.0
 30
0.0
  0
VERTEX
  5
173
330
172
100
AcDbEntity
  8
Layer 1
 62
   252
420
  9672087
370
     9
100
AcDbVertex
100
AcDb2dVertex
 10
25.78875115272897
 20
65.03874453211233
 30
0.0
  0
VERTEX
  5
174
330
172
100
AcDbEntity
  8
Layer 1
 62
   252
420
  9672087
370
     9
100
AcDbVertex
100
AcDb2dVertex
 10
25.81996904151894
 20
64.97384712724781
 30
0.0
  0
VERTEX
  5
175
330
172
100
AcDbEntity
  8
Layer 1
 62
   252
420
  9672087
370
     9
100
AcDbVertex
100
AcDb2dVertex
 10
25.81996904151894
 20
64.81272253586107
 30
0.0
  0
VERTEX
  5
176
330
172
100
AcDbEntity
  8
Layer 1
 62
   252
420
  9672087
370
     9
100
AcDbVertex
100
AcDb2dVertex
 10
25.8535366638749
 20
64.7166072414147
 30
0.0
  0
VERTEX
  5
177
330
172
100
AcDbEntity
  8
Layer 1
 62
   252
420
  9672087
370
     9
100
AcDbVertex
100
AcDb2dVertex
 10
25.8535366638749
 20
64.5892740573891
 30
0.0
  0
VERTEX
  5
178
330
172
100
AcDbEntity
  8
Layer 1
 62
   252
420
  9672087
370
     9
100
AcDbVertex
100
AcDb2dVertex
 10
25.88486644474586
 20
64.30070438989577
 30
0.0
  0
VERTEX
  5
179
330
172
100
AcDbEntity
  8
Layer 1
 62
   252
420
  9672087
370
     9
100
AcDbVertex
100
AcDb2dVertex
 10
25.91731514635739
 20
64.04223369121415
 30
0.0
  0
VERTEX
  5
17A
330
172
100
AcDbEntity
  8
Layer 1
 62
   252
420
  9672087
370
     9
100
AcDbVertex
100
AcDb2dVertex
 10
25.91731514635739
 20
63.9149005071847
 30
0.0
  0
VERTEX
  5
17B
330
172
100
AcDbEntity
  8
Layer 1
 62
   252
420
  9672087
370
     9
100
AcDbVertex
100
AcDb2dVertex
 10
25.94976384796892
 20
63.78622461823343
 30
0.0
  0
VERTEX
  5
17C
330
172
100
AcDbEntity
  8
Layer 1
 62
   252
420
  9672087
370
     9
100
AcDbVertex
100
AcDb2dVertex
 10
25.94976384796892
 20
63.62521191892126
 30
0.0
  0
VERTEX
  5
17D
330
172
100
AcDbEntity
  8
Layer 1
 62
   252
420
  9672087
370
     9
100
AcDbVertex
100
AcDb2dVertex
 10
25.98109362883602
 20
63.59399402934072
 30
0.0
  0
VERTEX
  5
17E
330
172
100
AcDbEntity
  8
Layer 1
 62
   252
420
  9672087
370
     9
100
AcDbVertex
100
AcDb2dVertex
 10
25.98109362883602
 20
63.5615453269091
 30
0.0
  0
SEQEND
  5
17F
330
172
100
AcDbEntity
  8
Layer 1
 62
   252
420
  9672087
370
     9
  0
POLYLINE
  5
180
330
152
100
AcDbEntity
  8
Layer 1
 62
   252
420
  9672087
370
     9
100
AcDb2dPolyline
 66
     1
 10
0.0
 20
0.0
 30
0.0
  0
VERTEX
  5
181
330
180
100
AcDbEntity
  8
Layer 1
 62
   252
420
  9672087
370
     9
100
AcDbVertex
100
AcDb2dVertex
 10
18.44471484123686
 20
65.93533574793506
 30
0.0
  0
VERTEX
  5
182
330
180
100
AcDbEntity
  8
Layer 1
 62
   252
420
  9672087
370
     9
100
AcDbVertex
100
AcDb2dVertex
 10
17.51433224155716
 20
65.96912715529619
 30
0.0
  0
VERTEX
  5
183
330
180
100
AcDbEntity
  8
Layer 1
 62
   252
420
  9672087
370
     9
100
AcDbVertex
100
AcDb2dVertex
 10
17.35331954631336
 20
65.96912715529619
 30
0.0
  0
VERTEX
  5
184
330
180
100
AcDbEntity
  8
Layer 1
 62
   252
420
  9672087
370
     9
100
AcDbVertex
100
AcDb2dVertex
 10
17.1934520046273
 20
65.9041178583558
 30
0.0
  0
VERTEX
  5
185
330
180
100
AcDbEntity
  8
Layer 1
 62
   252
420
  9672087
370
     9
100
AcDbVertex
100
AcDb2dVertex
 10
17.12967352053543
 20
65.74422407981758
 30
0.0
  0
VERTEX
  5
186
330
180
100
AcDbEntity
  8
Layer 1
 62
   252
420
  9672087
370
     9
100
AcDbVertex
100
AcDb2dVertex
 10
16.93618589248388
 20
60.25849120347066
 30
0.0
  0
SEQEND
  5
187
330
180
100
AcDbEntity
  8
Layer 1
 62
   252
420
  9672087
370
     9
  0
POLYLINE
  5
188
330
152
100
AcDbEntity
  8
Layer 1
 62
   252
420
  9672087
370
     9
100
AcDb2dPolyline
 66
     1
 10
0.0
 20
0.0
 30
0.0
  0
VERTEX
  5
189
330
188
100
AcDbEntity
  8
Layer 1
 62
   252
420
  9672087
370
     9
100
AcDbVertex
100
AcDb2dVertex
 10
16.7127374196563
 20
60.06626061457796
 30
0.0
  0
VERTEX
  5
18A
330
188
100
AcDbEntity
  8
Layer 1
 62
   252
420
  9672087
370
     9
100
AcDbVertex
100
AcDb2dVertex
 10
16.84007060046699
 20
60.12981531451555
 30
0.0
  0
VERTEX
  5
18B
330
188
100
AcDbEntity
  8
Layer 1
 62
   252
420
  9672087
370
     9
100
AcDbVertex
100
AcDb2dVertex
 10
16.93618589248388
 20
60.25849120347066
 30
0.0
  0
SEQEND
  5
18C
330
188
100
AcDbEntity
  8
Layer 1
 62
   252
420
  9672087
370
     9
  0
POLYLINE
  5
18D
330
152
100
AcDbEntity
  8
Layer 1
 62
   252
420
  9672087
370
     9
100
AcDb2dPolyline
 66
     1
 10
0.0
 20
0.0
 30
0.0
  0
VERTEX
  5
18E
330
18D
100
AcDbEntity
  8
Layer 1
 62
   252
420
  9672087
370
     9
100
AcDbVertex
100
AcDb2dVertex
 10
16.7127374196563
 20
60.06626061457796
 30
0.0
  0
VERTEX
  5
18F
330
18D
100
AcDbEntity
  8
Layer 1
 62
   252
420
  9672087
370
     9
100
AcDbVertex
100
AcDb2dVertex
 10
14.4349504585407
 20
60.06626061457796
 30
0.0
  0
SEQEND
  5
190
330
18D
100
AcDbEntity
  8
Layer 1
 62
   252
420
  9672087
370
     9
  0
POLYLINE
  5
191
330
152
100
AcDbEntity
  8
Layer 1
 62
   252
420
  9672087
370
     9
100
AcDb2dPolyline
 66
     1
 10
0.0
 20
0.0
 30
0.0
  0
VERTEX
  5
192
330
191
100
AcDbEntity
  8
Layer 1
 62
   252
420
  9672087
370
     9
100
AcDbVertex
100
AcDb2dVertex
 10
14.2112782015627
 20
60.28970909305249
 30
0.0
  0
VERTEX
  5
193
330
191
100
AcDbEntity
  8
Layer 1
 62
   252
420
  9672087
370
     9
100
AcDbVertex
100
AcDb2dVertex
 10
14.27505668404134
 20
60.12981531451555
 30
0.0
  0
VERTEX
  5
194
330
191
100
AcDbEntity
  8
Layer 1
 62
   252
420
  9672087
370
     9
100
AcDbVertex
100
AcDb2dVertex
 10
14.4349504585407
 20
60.06626061457796
 30
0.0
  0
SEQEND
  5
195
330
191
100
AcDbEntity
  8
Layer 1
 62
   252
420
  9672087
370
     9
  0
POLYLINE
  5
196
330
152
100
AcDbEntity
  8
Layer 1
 62
   252
420
  9672087
370
     9
100
AcDb2dPolyline
 66
     1
 10
0.0
 20
0.0
 30
0.0
  0
VERTEX
  5
197
330
196
100
AcDbEntity
  8
Layer 1
 62
   252
420
  9672087
370
     9
100
AcDbVertex
100
AcDb2dVertex
 10
34.70487111129844
 20
55.09243399211664
 30
0.0
  0
VERTEX
  5
198
330
196
100
AcDbEntity
  8
Layer 1
 62
   252
420
  9672087
370
     9
100
AcDbVertex
100
AcDb2dVertex
 10
34.54620814962448
 20
55.02876740010576
 30
0.0
  0
VERTEX
  5
199
330
196
100
AcDbEntity
  8
Layer 1
 62
   252
420
  9672087
370
     9
100
AcDbVertex
100
AcDb2dVertex
 10
34.41641334317065
 20
54.93265210565941
 30
0.0
  0
VERTEX
  5
19A
330
196
100
AcDbEntity
  8
Layer 1
 62
   252
420
  9672087
370
     9
100
AcDbVertex
100
AcDb2dVertex
 10
34.35397756558687
 20
54.77152751427266
 30
0.0
  0
VERTEX
  5
19B
330
196
100
AcDbEntity
  8
Layer 1
 62
   252
420
  9672087
370
     9
100
AcDbVertex
100
AcDb2dVertex
 10
34.0654079053858
 20
52.75098038144516
 30
0.0
  0
SEQEND
  5
19C
330
196
100
AcDbEntity
  8
Layer 1
 62
   252
420
  9672087
370
     9
  0
POLYLINE
  5
19D
330
152
100
AcDbEntity
  8
Layer 1
 62
   252
420
  9672087
370
     9
100
AcDb2dPolyline
 66
     1
 10
0.0
 20
0.0
 30
0.0
  0
VERTEX
  5
19E
330
19D
100
AcDbEntity
  8
Layer 1
 62
   252
420
  9672087
370
     9
100
AcDbVertex
100
AcDb2dVertex
 10
33.87194650853047
 20
52.5586379004766
 30
0.0
  0
VERTEX
  5
19F
330
19D
100
AcDbEntity
  8
Layer 1
 62
   252
420
  9672087
370
     9
100
AcDbVertex
100
AcDb2dVertex
 10
34.00051050215889
 20
52.58985579005842
 30
0.0
  0
VERTEX
  5
1A0
330
19D
100
AcDbEntity
  8
Layer 1
 62
   252
420
  9672087
370
     9
100
AcDbVertex
100
AcDb2dVertex
 10
34.0654079053858
 20
52.75098038144516
 30
0.0
  0
SEQEND
  5
1A1
330
19D
100
AcDbEntity
  8
Layer 1
 62
   252
420
  9672087
370
     9
  0
POLYLINE
  5
1A2
330
152
100
AcDbEntity
  8
Layer 1
 62
   252
420
  9672087
370
     9
100
AcDb2dPolyline
 66
     1
 10
0.0
 20
0.0
 30
0.0
  0
VERTEX
  5
1A3
330
1A2
100
AcDbEntity
  8
Layer 1
 62
   252
420
  9672087
370
     9
100
AcDbVertex
100
AcDb2dVertex
 10
33.16758589939092
 20
54.96498891601389
 30
0.0
  0
VERTEX
  5
1A4
330
1A2
100
AcDbEntity
  8
Layer 1
 62
   252
420
  9672087
370
     9
100
AcDbVertex
100
AcDb2dVertex
 10
34.25775038149671
 20
55.89537153919903
 30
0.0
  0
SEQEND
  5
1A5
330
1A2
100
AcDbEntity
  8
Layer 1
 62
   252
420
  9672087
370
     9
  0
POLYLINE
  5
1A6
330
152
100
AcDbEntity
  8
Layer 1
 62
   252
420
  9672087
370
     9
100
AcDb2dPolyline
 66
     1
 10
0.0
 20
0.0
 30
0.0
  0
VERTEX
  5
1A7
330
1A6
100
AcDbEntity
  8
Layer 1
 62
   252
420
  9672087
370
     9
100
AcDbVertex
100
AcDb2dVertex
 10
33.16758589939092
 20
52.5586379004766
 30
0.0
  0
VERTEX
  5
1A8
330
1A6
100
AcDbEntity
  8
Layer 1
 62
   252
420
  9672087
370
     9
100
AcDbVertex
100
AcDb2dVertex
 10
33.87194650853047
 20
52.5586379004766
 30
0.0
  0
SEQEND
  5
1A9
330
1A6
100
AcDbEntity
  8
Layer 1
 62
   252
420
  9672087
370
     9
  0
POLYLINE
  5
1AA
330
152
100
AcDbEntity
  8
Layer 1
 62
   252
420
  9672087
370
     9
100
AcDb2dPolyline
 66
     1
 10
0.0
 20
0.0
 30
0.0
  0
VERTEX
  5
1AB
330
1AA
100
AcDbEntity
  8
Layer 1
 62
   252
420
  9672087
370
     9
100
AcDbVertex
100
AcDb2dVertex
 10
25.98109362883602
 20
63.5615453269091
 30
0.0
  0
VERTEX
  5
1AC
330
1AA
100
AcDbEntity
  8
Layer 1
 62
   252
420
  9672087
370
     9
100
AcDbVertex
100
AcDb2dVertex
 10
26.30334280347019
 20
60.77174016228449
 30
0.0
  0
VERTEX
  5
1AD
330
1AA
100
AcDbEntity
  8
Layer 1
 62
   252
420
  9672087
370
     9
100
AcDbVertex
100
AcDb2dVertex
 10
26.78391926355845
 20
56.56851427654721
 30
0.0
  0
VERTEX
  5
1AE
330
1AA
100
AcDbEntity
  8
Layer 1
 62
   252
420
  9672087
370
     9
100
AcDbVertex
100
AcDb2dVertex
 10
26.84646693321552
 20
56.31250520356649
 30
0.0
  0
VERTEX
  5
1AF
330
1AA
100
AcDbEntity
  8
Layer 1
 62
   252
420
  9672087
370
     9
100
AcDbVertex
100
AcDb2dVertex
 10
27.00750610919433
 20
56.12016272259793
 30
0.0
  0
VERTEX
  5
1B0
330
1AA
100
AcDbEntity
  8
Layer 1
 62
   252
420
  9672087
370
     9
100
AcDbVertex
100
AcDb2dVertex
 10
27.23338972692618
 20
55.99025602079301
 30
0.0
  0
VERTEX
  5
1B1
330
1AA
100
AcDbEntity
  8
Layer 1
 62
   252
420
  9672087
370
     9
100
AcDbVertex
100
AcDb2dVertex
 10
27.488279872698
 20
55.92658942877828
 30
0.0
  0
SEQEND
  5
1B2
330
1AA
100
AcDbEntity
  8
Layer 1
 62
   252
420
  9672087
370
     9
  0
POLYLINE
  5
1B3
330
152
100
AcDbEntity
  8
Layer 1
 62
   252
420
  9672087
370
     9
100
AcDb2dPolyline
 66
     1
 10
0.0
 20
0.0
 30
0.0
  0
VERTEX
  5
1B4
330
1B3
100
AcDbEntity
  8
Layer 1
 62
   252
420
  9672087
370
     9
100
AcDbVertex
100
AcDb2dVertex
 10
28.70946997406763
 20
55.89537153919903
 30
0.0
  0
VERTEX
  5
1B5
330
1B3
100
AcDbEntity
  8
Layer 1
 62
   252
420
  9672087
370
     9
100
AcDbVertex
100
AcDb2dVertex
 10
29.79840364335184
 20
54.96498891601389
 30
0.0
  0
SEQEND
  5
1B6
330
1B3
100
AcDbEntity
  8
Layer 1
 62
   252
420
  9672087
370
     9
  0
POLYLINE
  5
1B7
330
152
100
AcDbEntity
  8
Layer 1
 62
   252
420
  9672087
370
     9
100
AcDb2dPolyline
 66
     1
 10
0.0
 20
0.0
 30
0.0
  0
VERTEX
  5
1B8
330
1B7
100
AcDbEntity
  8
Layer 1
 62
   252
420
  9672087
370
     9
100
AcDbVertex
100
AcDb2dVertex
 10
29.79840364335184
 20
52.5586379004766
 30
0.0
  0
VERTEX
  5
1B9
330
1B7
100
AcDbEntity
  8
Layer 1
 62
   252
420
  9672087
370
     9
100
AcDbVertex
100
AcDb2dVertex
 10
29.02914563098922
 20
52.5586379004766
 30
0.0
  0
VERTEX
  5
1BA
330
1B7
100
AcDbEntity
  8
Layer 1
 62
   252
420
  9672087
370
     9
100
AcDbVertex
100
AcDb2dVertex
 10
28.86802104367214
 20
52.62364719741699
 30
0.0
  0
VERTEX
  5
1BB
330
1B7
100
AcDbEntity
  8
Layer 1
 62
   252
420
  9672087
370
     9
100
AcDbVertex
100
AcDb2dVertex
 10
28.74071438737701
 20
52.72099330471443
 30
0.0
  0
VERTEX
  5
1BC
330
1B7
100
AcDbEntity
  8
Layer 1
 62
   252
420
  9672087
370
     9
100
AcDbVertex
100
AcDb2dVertex
 10
28.57967516761764
 20
52.78354097595393
 30
0.0
  0
VERTEX
  5
1BD
330
1B7
100
AcDbEntity
  8
Layer 1
 62
   252
420
  9672087
370
     9
100
AcDbVertex
100
AcDb2dVertex
 10
26.84646693321552
 20
52.91322389360713
 30
0.0
  0
SEQEND
  5
1BE
330
1B7
100
AcDbEntity
  8
Layer 1
 62
   252
420
  9672087
370
     9
  0
POLYLINE
  5
1BF
330
152
100
AcDbEntity
  8
Layer 1
 62
   252
420
  9672087
370
     9
100
AcDb2dPolyline
 66
     1
 10
0.0
 20
0.0
 30
0.0
  0
VERTEX
  5
1C0
330
1BF
100
AcDbEntity
  8
Layer 1
 62
   252
420
  9672087
370
     9
100
AcDbVertex
100
AcDb2dVertex
 10
24.50635608658943
 20
55.18743036579161
 30
0.0
  0
VERTEX
  5
1C1
330
1BF
100
AcDbEntity
  8
Layer 1
 62
   252
420
  9672087
370
     9
100
AcDbVertex
100
AcDb2dVertex
 10
24.63480818814456
 20
54.61040292288336
 30
0.0
  0
VERTEX
  5
1C2
330
1BF
100
AcDbEntity
  8
Layer 1
 62
   252
420
  9672087
370
     9
100
AcDbVertex
100
AcDb2dVertex
 10
24.89081725465696
 20
54.06716688733752
 30
0.0
  0
VERTEX
  5
1C3
330
1BF
100
AcDbEntity
  8
Layer 1
 62
   252
420
  9672087
370
     9
100
AcDbVertex
100
AcDb2dVertex
 10
25.2429680493514
 20
53.61635370768606
 30
0.0
  0
VERTEX
  5
1C4
330
1BF
100
AcDbEntity
  8
Layer 1
 62
   252
420
  9672087
370
     9
100
AcDbVertex
100
AcDb2dVertex
 10
25.72385374950206
 20
53.26546015311135
 30
0.0
  0
VERTEX
  5
1C5
330
1BF
100
AcDbEntity
  8
Layer 1
 62
   252
420
  9672087
370
     9
100
AcDbVertex
100
AcDb2dVertex
 10
26.26943950488667
 20
53.04066896970988
 30
0.0
  0
VERTEX
  5
1C6
330
1BF
100
AcDbEntity
  8
Layer 1
 62
   252
420
  9672087
370
     9
100
AcDbVertex
100
AcDb2dVertex
 10
26.84646693321552
 20
52.91322389360713
 30
0.0
  0
SEQEND
  5
1C7
330
1BF
100
AcDbEntity
  8
Layer 1
 62
   252
420
  9672087
370
     9
  0
POLYLINE
  5
1C8
330
152
100
AcDbEntity
  8
Layer 1
 62
   252
420
  9672087
370
     9
100
AcDb2dPolyline
 66
     1
 10
0.0
 20
0.0
 30
0.0
  0
VERTEX
  5
1C9
330
1C8
100
AcDbEntity
  8
Layer 1
 62
   252
420
  9672087
370
     9
100
AcDbVertex
100
AcDb2dVertex
 10
24.50635608658943
 20
55.18743036579161
 30
0.0
  0
VERTEX
  5
1CA
330
1C8
100
AcDbEntity
  8
Layer 1
 62
   252
420
  9672087
370
     9
100
AcDbVertex
100
AcDb2dVertex
 10
23.31873360757192
 20
65.45587819648237
 30
0.0
  0
VERTEX
  5
1CB
330
1C8
100
AcDbEntity
  8
Layer 1
 62
   252
420
  9672087
370
     9
100
AcDbVertex
100
AcDb2dVertex
 10
23.25495512509713
 20
65.61454116216822
 30
0.0
  0
VERTEX
  5
1CC
330
1C8
100
AcDbEntity
  8
Layer 1
 62
   252
420
  9672087
370
     9
100
AcDbVertex
100
AcDb2dVertex
 10
23.12627923938773
 20
65.71065645661201
 30
0.0
  0
VERTEX
  5
1CD
330
1C8
100
AcDbEntity
  8
Layer 1
 62
   252
420
  9672087
370
     9
100
AcDbVertex
100
AcDb2dVertex
 10
22.96649735696935
 20
65.77667278224921
 30
0.0
  0
SEQEND
  5
1CE
330
1C8
100
AcDbEntity
  8
Layer 1
 62
   252
420
  9672087
370
     9
  0
POLYLINE
  5
1CF
330
152
100
AcDbEntity
  8
Layer 1
 62
   252
420
  9672087
370
     9
100
AcDb2dPolyline
 66
     1
 10
0.0
 20
0.0
 30
0.0
  0
VERTEX
  5
1D0
330
1CF
100
AcDbEntity
  8
Layer 1
 62
   252
420
  9672087
370
     9
100
AcDbVertex
100
AcDb2dVertex
 10
25.62762656540804
 20
66.44858470674887
 30
0.0
  0
VERTEX
  5
1D1
330
1CF
100
AcDbEntity
  8
Layer 1
 62
   252
420
  9672087
370
     9
100
AcDbVertex
100
AcDb2dVertex
 10
25.59629678454094
 20
66.57602978285547
 30
0.0
  0
VERTEX
  5
1D2
330
1CF
100
AcDbEntity
  8
Layer 1
 62
   252
420
  9672087
370
     9
100
AcDbVertex
100
AcDb2dVertex
 10
25.56395997500269
 20
66.64204610849396
 30
0.0
  0
VERTEX
  5
1D3
330
1CF
100
AcDbEntity
  8
Layer 1
 62
   252
420
  9672087
370
     9
100
AcDbVertex
100
AcDb2dVertex
 10
25.50018149252406
 20
66.70582459258326
 30
0.0
  0
VERTEX
  5
1D4
330
1CF
100
AcDbEntity
  8
Layer 1
 62
   252
420
  9672087
370
     9
100
AcDbVertex
100
AcDb2dVertex
 10
25.43528408930099
 20
66.7694911845967
 30
0.0
  0
VERTEX
  5
1D5
330
1CF
100
AcDbEntity
  8
Layer 1
 62
   252
420
  9672087
370
     9
100
AcDbVertex
100
AcDb2dVertex
 10
25.37284831171721
 20
66.8007090741798
 30
0.0
  0
VERTEX
  5
1D6
330
1CF
100
AcDbEntity
  8
Layer 1
 62
   252
420
  9672087
370
     9
100
AcDbVertex
100
AcDb2dVertex
 10
25.27673301969648
 20
66.83450048153709
 30
0.0
  0
VERTEX
  5
1D7
330
1CF
100
AcDbEntity
  8
Layer 1
 62
   252
420
  9672087
370
     9
100
AcDbVertex
100
AcDb2dVertex
 10
25.21172372440012
 20
66.83450048153709
 30
0.0
  0
SEQEND
  5
1D8
330
1CF
100
AcDbEntity
  8
Layer 1
 62
   252
420
  9672087
370
     9
  0
POLYLINE
  5
1D9
330
152
100
AcDbEntity
  8
Layer 1
 62
   252
420
  9672087
370
     9
100
AcDb2dPolyline
 66
     1
 10
0.0
 20
0.0
 30
0.0
  0
VERTEX
  5
1DA
330
1D9
100
AcDbEntity
  8
Layer 1
 62
   252
420
  9672087
370
     9
100
AcDbVertex
100
AcDb2dVertex
 10
33.16758589939092
 20
54.96498891601389
 30
0.0
  0
VERTEX
  5
1DB
330
1D9
100
AcDbEntity
  8
Layer 1
 62
   252
420
  9672087
370
     9
100
AcDbVertex
100
AcDb2dVertex
 10
29.79840364335184
 20
54.96498891601389
 30
0.0
  0
SEQEND
  5
1DC
330
1D9
100
AcDbEntity
  8
Layer 1
 62
   252
420
  9672087
370
     9
  0
POLYLINE
  5
1DD
330
152
100
AcDbEntity
  8
Layer 1
 62
   252
420
  9672087
370
     9
100
AcDb2dPolyline
 66
     1
 10
0.0
 20
0.0
 30
0.0
  0
VERTEX
  5
1DE
330
1DD
100
AcDbEntity
  8
Layer 1
 62
   252
420
  9672087
370
     9
100
AcDbVertex
100
AcDb2dVertex
 10
29.79840364335184
 20
52.5586379004766
 30
0.0
  0
VERTEX
  5
1DF
330
1DD
100
AcDbEntity
  8
Layer 1
 62
   252
420
  9672087
370
     9
100
AcDbVertex
100
AcDb2dVertex
 10
33.16758589939092
 20
52.5586379004766
 30
0.0
  0
SEQEND
  5
1E0
330
1DD
100
AcDbEntity
  8
Layer 1
 62
   252
420
  9672087
370
     9
  0
POLYLINE
  5
1E1
330
152
100
AcDbEntity
  8
Layer 1
 62
   252
420
  9672087
370
     9
100
AcDb2dPolyline
 66
     1
 10
0.0
 20
0.0
 30
0.0
  0
VERTEX
  5
1E2
330
1E1
100
AcDbEntity
  8
Layer 1
 62
   252
420
  9672087
370
     9
100
AcDbVertex
100
AcDb2dVertex
 10
22.96649735696935
 20
65.77667278224921
 30
0.0
  0
VERTEX
  5
1E3
330
1E1
100
AcDbEntity
  8
Layer 1
 62
   252
420
  9672087
370
     9
100
AcDbVertex
100
AcDb2dVertex
 10
21.00972875766251
 20
65.84045126634108
 30
0.0
  0
SEQEND
  5
1E4
330
1E1
100
AcDbEntity
  8
Layer 1
 62
   252
420
  9672087
370
     9
  0
POLYLINE
  5
1E5
330
152
100
AcDbEntity
  8
Layer 1
 62
   252
420
  9672087
370
     9
100
AcDb2dPolyline
 66
     1
 10
0.0
 20
0.0
 30
0.0
  0
VERTEX
  5
1E6
330
1E5
100
AcDbEntity
  8
Layer 1
 62
   252
420
  9672087
370
     9
100
AcDbVertex
100
AcDb2dVertex
 10
25.62762656540804
 20
66.44858470674887
 30
0.0
  0
VERTEX
  5
1E7
330
1E5
100
AcDbEntity
  8
Layer 1
 62
   252
420
  9672087
370
     9
100
AcDbVertex
100
AcDb2dVertex
 10
25.78875115272897
 20
65.03874453211233
 30
0.0
  0
SEQEND
  5
1E8
330
1E5
100
AcDbEntity
  8
Layer 1
 62
   252
420
  9672087
370
     9
  0
POLYLINE
  5
1E9
330
152
100
AcDbEntity
  8
Layer 1
 62
   252
420
  9672087
370
     9
100
AcDb2dPolyline
 66
     1
 10
0.0
 20
0.0
 30
0.0
  0
VERTEX
  5
1EA
330
1E9
100
AcDbEntity
  8
Layer 1
 62
   252
420
  9672087
370
     9
100
AcDbVertex
100
AcDb2dVertex
 10
16.93618589248388
 20
60.25849120347066
 30
0.0
  0
VERTEX
  5
1EB
330
1E9
100
AcDbEntity
  8
Layer 1
 62
   252
420
  9672087
370
     9
100
AcDbVertex
100
AcDb2dVertex
 10
16.93618589248388
 20
60.22369276741401
 30
0.0
  0
VERTEX
  5
1EC
330
1E9
100
AcDbEntity
  8
Layer 1
 62
   252
420
  9672087
370
     9
100
AcDbVertex
100
AcDb2dVertex
 10
16.90373719087234
 20
60.12981531451555
 30
0.0
  0
VERTEX
  5
1ED
330
1E9
100
AcDbEntity
  8
Layer 1
 62
   252
420
  9672087
370
     9
100
AcDbVertex
100
AcDb2dVertex
 10
16.90373719087234
 20
59.39311787722848
 30
0.0
  0
VERTEX
  5
1EE
330
1E9
100
AcDbEntity
  8
Layer 1
 62
   252
420
  9672087
370
     9
100
AcDbVertex
100
AcDb2dVertex
 10
16.87240741000139
 20
59.16832669382701
 30
0.0
  0
VERTEX
  5
1EF
330
1E9
100
AcDbEntity
  8
Layer 1
 62
   252
420
  9672087
370
     9
100
AcDbVertex
100
AcDb2dVertex
 10
16.87240741000139
 20
58.36538914674848
 30
0.0
  0
VERTEX
  5
1F0
330
1E9
100
AcDbEntity
  8
Layer 1
 62
   252
420
  9672087
370
     9
100
AcDbVertex
100
AcDb2dVertex
 10
16.84007060046699
 20
58.07681947925642
 30
0.0
  0
VERTEX
  5
1F1
330
1E9
100
AcDbEntity
  8
Layer 1
 62
   252
420
  9672087
370
     9
100
AcDbVertex
100
AcDb2dVertex
 10
16.84007060046699
 20
57.72469511182806
 30
0.0
  0
VERTEX
  5
1F2
330
1E9
100
AcDbEntity
  8
Layer 1
 62
   252
420
  9672087
370
     9
100
AcDbVertex
100
AcDb2dVertex
 10
16.80762189885546
 20
57.40143890035649
 30
0.0
  0
VERTEX
  5
1F3
330
1E9
100
AcDbEntity
  8
Layer 1
 62
   252
420
  9672087
370
     9
100
AcDbVertex
100
AcDb2dVertex
 10
16.80762189885546
 20
56.66462957099357
 30
0.0
  0
VERTEX
  5
1F4
330
1E9
100
AcDbEntity
  8
Layer 1
 62
   252
420
  9672087
370
     9
100
AcDbVertex
100
AcDb2dVertex
 10
16.77629211798836
 20
56.31250520356649
 30
0.0
  0
VERTEX
  5
1F5
330
1E9
100
AcDbEntity
  8
Layer 1
 62
   252
420
  9672087
370
     9
100
AcDbVertex
100
AcDb2dVertex
 10
16.77629211798836
 20
55.92658942877828
 30
0.0
  0
VERTEX
  5
1F6
330
1E9
100
AcDbEntity
  8
Layer 1
 62
   252
420
  9672087
370
     9
100
AcDbVertex
100
AcDb2dVertex
 10
16.74395530845011
 20
55.47700706197662
 30
0.0
  0
VERTEX
  5
1F7
330
1E9
100
AcDbEntity
  8
Layer 1
 62
   252
420
  9672087
370
     9
100
AcDbVertex
100
AcDb2dVertex
 10
14.2112782015627
 20
55.47700706197662
 30
0.0
  0
SEQEND
  5
1F8
330
1E9
100
AcDbEntity
  8
Layer 1
 62
   252
420
  9672087
370
     9
  0
POLYLINE
  5
1F9
330
152
100
AcDbEntity
  8
Layer 1
 62
   252
420
  9672087
370
     9
100
AcDb2dPolyline
 66
     1
 10
0.0
 20
0.0
 30
0.0
  0
VERTEX
  5
1FA
330
1F9
100
AcDbEntity
  8
Layer 1
 62
   252
420
  9672087
370
     9
100
AcDbVertex
100
AcDb2dVertex
 10
16.32682165461678
 20
65.99911423202693
 30
0.0
  0
VERTEX
  5
1FB
330
1F9
100
AcDbEntity
  8
Layer 1
 62
   252
420
  9672087
370
     9
100
AcDbVertex
100
AcDb2dVertex
 10
16.13459107058302
 20
60.86785545672956
 30
0.0
  0
SEQEND
  5
1FC
330
1F9
100
AcDbEntity
  8
Layer 1
 62
   252
420
  9672087
370
     9
  0
POLYLINE
  5
1FD
330
152
100
AcDbEntity
  8
Layer 1
 62
   252
420
  9672087
370
     9
100
AcDb2dPolyline
 66
     1
 10
0.0
 20
0.0
 30
0.0
  0
VERTEX
  5
1FE
330
1FD
100
AcDbEntity
  8
Layer 1
 62
   252
420
  9672087
370
     9
100
AcDbVertex
100
AcDb2dVertex
 10
15.01186599479242
 20
60.86785545672956
 30
0.0
  0
VERTEX
  5
1FF
330
1FD
100
AcDbEntity
  8
Layer 1
 62
   252
420
  9672087
370
     9
100
AcDbVertex
100
AcDb2dVertex
 10
15.01186599479242
 20
66.0314510423814
 30
0.0
  0
VERTEX
  5
200
330
1FD
100
AcDbEntity
  8
Layer 1
 62
   252
420
  9672087
370
     9
100
AcDbVertex
100
AcDb2dVertex
 10
16.32682165461678
 20
65.99911423202693
 30
0.0
  0
SEQEND
  5
201
330
1FD
100
AcDbEntity
  8
Layer 1
 62
   252
420
  9672087
370
     9
  0
POLYLINE
  5
202
330
152
100
AcDbEntity
  8
Layer 1
 62
   252
420
  9672087
370
     9
100
AcDb2dPolyline
 66
     1
 10
0.0
 20
0.0
 30
0.0
  0
VERTEX
  5
203
330
202
100
AcDbEntity
  8
Layer 1
 62
   252
420
  9672087
370
     9
100
AcDbVertex
100
AcDb2dVertex
 10
25.14682632117321
 20
63.5615453269091
 30
0.0
  0
VERTEX
  5
204
330
202
100
AcDbEntity
  8
Layer 1
 62
   252
420
  9672087
370
     9
100
AcDbVertex
100
AcDb2dVertex
 10
25.98109362883602
 20
63.5615453269091
 30
0.0
  0
SEQEND
  5
205
330
202
100
AcDbEntity
  8
Layer 1
 62
   252
420
  9672087
370
     9
  0
POLYLINE
  5
206
330
152
100
AcDbEntity
  8
Layer 1
 62
   252
420
  9672087
370
     9
100
AcDb2dPolyline
 66
     1
 10
0.0
 20
0.0
 30
0.0
  0
VERTEX
  5
207
330
206
100
AcDbEntity
  8
Layer 1
 62
   252
420
  9672087
370
     9
100
AcDbVertex
100
AcDb2dVertex
 10
24.98693254667769
 20
65.03874453211233
 30
0.0
  0
VERTEX
  5
208
330
206
100
AcDbEntity
  8
Layer 1
 62
   252
420
  9672087
370
     9
100
AcDbVertex
100
AcDb2dVertex
 10
25.78875115272897
 20
65.03874453211233
 30
0.0
  0
SEQEND
  5
209
330
206
100
AcDbEntity
  8
Layer 1
 62
   252
420
  9672087
370
     9
  0
POLYLINE
  5
20A
330
152
100
AcDbEntity
  8
Layer 1
 62
   252
420
  9672087
370
     9
100
AcDb2dPolyline
 66
     1
 10
0.0
 20
0.0
 30
0.0
  0
VERTEX
  5
20B
330
20A
100
AcDbEntity
  8
Layer 1
 62
   252
420
  9672087
370
     9
100
AcDbVertex
100
AcDb2dVertex
 10
29.79840364335184
 20
53.3615754475577
 30
0.0
  0
VERTEX
  5
20C
330
20A
100
AcDbEntity
  8
Layer 1
 62
   252
420
  9672087
370
     9
100
AcDbVertex
100
AcDb2dVertex
 10
29.79840364335184
 20
52.5586379004766
 30
0.0
  0
SEQEND
  5
20D
330
20A
100
AcDbEntity
  8
Layer 1
 62
   252
420
  9672087
370
     9
  0
POLYLINE
  5
20E
330
152
100
AcDbEntity
  8
Layer 1
 62
   252
420
  9672087
370
     9
100
AcDb2dPolyline
 66
     1
 10
0.0
 20
0.0
 30
0.0
  0
VERTEX
  5
20F
330
20E
100
AcDbEntity
  8
Layer 1
 62
   252
420
  9672087
370
     9
100
AcDbVertex
100
AcDb2dVertex
 10
33.16758589939092
 20
53.3615754475577
 30
0.0
  0
VERTEX
  5
210
330
20E
100
AcDbEntity
  8
Layer 1
 62
   252
420
  9672087
370
     9
100
AcDbVertex
100
AcDb2dVertex
 10
33.16758589939092
 20
52.5586379004766
 30
0.0
  0
SEQEND
  5
211
330
20E
100
AcDbEntity
  8
Layer 1
 62
   252
420
  9672087
370
     9
  0
POLYLINE
  5
212
330
152
100
AcDbEntity
  8
Layer 1
 62
   252
420
  9672087
370
     9
100
AcDb2dPolyline
 66
     1
 10
0.0
 20
0.0
 30
0.0
  0
VERTEX
  5
213
330
212
100
AcDbEntity
  8
Layer 1
 62
   252
420
  9672087
370
     9
100
AcDbVertex
100
AcDb2dVertex
 10
33.16758589939092
 20
54.96498891601389
 30
0.0
  0
VERTEX
  5
214
330
212
100
AcDbEntity
  8
Layer 1
 62
   252
420
  9672087
370
     9
100
AcDbVertex
100
AcDb2dVertex
 10
33.16758589939092
 20
54.16339407386101
 30
0.0
  0
SEQEND
  5
215
330
212
100
AcDbEntity
  8
Layer 1
 62
   252
420
  9672087
370
     9
  0
POLYLINE
  5
216
330
152
100
AcDbEntity
  8
Layer 1
 62
   252
420
  9672087
370
     9
100
AcDb2dPolyline
 66
     1
 10
0.0
 20
0.0
 30
0.0
  0
VERTEX
  5
217
330
216
100
AcDbEntity
  8
Layer 1
 62
   252
420
  9672087
370
     9
100
AcDbVertex
100
AcDb2dVertex
 10
33.35992837549797
 20
53.3615754475577
 30
0.0
  0
VERTEX
  5
218
330
216
100
AcDbEntity
  8
Layer 1
 62
   252
420
  9672087
370
     9
100
AcDbVertex
100
AcDb2dVertex
 10
33.45604366751871
 20
54.16339407386101
 30
0.0
  0
SEQEND
  5
219
330
216
100
AcDbEntity
  8
Layer 1
 62
   252
420
  9672087
370
     9
  0
POLYLINE
  5
21A
330
152
100
AcDbEntity
  8
Layer 1
 62
   252
420
  9672087
370
     9
100
AcDb2dPolyline
 66
     1
 10
0.0
 20
0.0
 30
0.0
  0
VERTEX
  5
21B
330
21A
100
AcDbEntity
  8
Layer 1
 62
   252
420
  9672087
370
     9
100
AcDbVertex
100
AcDb2dVertex
 10
29.79840364335184
 20
54.96498891601389
 30
0.0
  0
VERTEX
  5
21C
330
21A
100
AcDbEntity
  8
Layer 1
 62
   252
420
  9672087
370
     9
100
AcDbVertex
100
AcDb2dVertex
 10
29.79840364335184
 20
54.16339407386101
 30
0.0
  0
SEQEND
  5
21D
330
21A
100
AcDbEntity
  8
Layer 1
 62
   252
420
  9672087
370
     9
  0
POLYLINE
  5
21E
330
152
100
AcDbEntity
  8
Layer 1
 62
   252
420
  9672087
370
     9
100
AcDb2dPolyline
 66
     1
 10
0.0
 20
0.0
 30
0.0
  0
VERTEX
  5
21F
330
21E
100
AcDbEntity
  8
Layer 1
 62
   252
420
  9672087
370
     9
100
AcDbVertex
100
AcDb2dVertex
 10
29.79840364335184
 20
53.3615754475577
 30
0.0
  0
VERTEX
  5
220
330
21E
100
AcDbEntity
  8
Layer 1
 62
   252
420
  9672087
370
     9
100
AcDbVertex
100
AcDb2dVertex
 10
33.35992837549797
 20
53.3615754475577
 30
0.0
  0
SEQEND
  5
221
330
21E
100
AcDbEntity
  8
Layer 1
 62
   252
420
  9672087
370
     9
  0
POLYLINE
  5
222
330
152
100
AcDbEntity
  8
Layer 1
 62
   252
420
  9672087
370
     9
100
AcDb2dPolyline
 66
     1
 10
0.0
 20
0.0
 30
0.0
  0
VERTEX
  5
223
330
222
100
AcDbEntity
  8
Layer 1
 62
   252
420
  9672087
370
     9
100
AcDbVertex
100
AcDb2dVertex
 10
33.45604366751871
 20
54.16339407386101
 30
0.0
  0
VERTEX
  5
224
330
222
100
AcDbEntity
  8
Layer 1
 62
   252
420
  9672087
370
     9
100
AcDbVertex
100
AcDb2dVertex
 10
29.47883987850738
 20
54.16339407386101
 30
0.0
  0
SEQEND
  5
225
330
222
100
AcDbEntity
  8
Layer 1
 62
   252
420
  9672087
370
     9
  0
POLYLINE
  5
226
330
152
100
AcDbEntity
  8
Layer 1
 62
   252
420
  9672087
370
     9
100
AcDb2dPolyline
 66
     1
 10
0.0
 20
0.0
 30
0.0
  0
VERTEX
  5
227
330
226
100
AcDbEntity
  8
Layer 1
 62
   252
420
  9672087
370
     9
100
AcDbVertex
100
AcDb2dVertex
 10
24.08911054068281
 20
65.74422407981758
 30
0.0
  0
VERTEX
  5
228
330
226
100
AcDbEntity
  8
Layer 1
 62
   252
420
  9672087
370
     9
100
AcDbVertex
100
AcDb2dVertex
 10
24.92326595627234
 20
65.71065645661201
 30
0.0
  0
SEQEND
  5
229
330
226
100
AcDbEntity
  8
Layer 1
 62
   252
420
  9672087
370
     9
  0
POLYLINE
  5
22A
330
152
100
AcDbEntity
  8
Layer 1
 62
   252
420
  9672087
370
     9
100
AcDb2dPolyline
 66
     1
 10
0.0
 20
0.0
 30
0.0
  0
VERTEX
  5
22B
330
22A
100
AcDbEntity
  8
Layer 1
 62
   252
420
  9672087
370
     9
100
AcDbVertex
100
AcDb2dVertex
 10
28.48344798352748
 20
54.99508788482176
 30
0.0
  0
VERTEX
  5
22C
330
22A
100
AcDbEntity
  8
Layer 1
 62
   252
420
  9672087
370
     9
100
AcDbVertex
100
AcDb2dVertex
 10
29.47883987850738
 20
54.16339407386101
 30
0.0
  0
SEQEND
  5
22D
330
22A
100
AcDbEntity
  8
Layer 1
 62
   252
420
  9672087
370
     9
  0
POLYLINE
  5
22E
330
152
100
AcDbEntity
  8
Layer 1
 62
   252
420
  9672087
370
     9
100
AcDb2dPolyline
 66
     1
 10
0.0
 20
0.0
 30
0.0
  0
VERTEX
  5
22F
330
22E
100
AcDbEntity
  8
Layer 1
 62
   252
420
  9672087
370
     9
100
AcDbVertex
100
AcDb2dVertex
 10
28.25865680580504
 20
55.09243399211664
 30
0.0
  0
VERTEX
  5
230
330
22E
100
AcDbEntity
  8
Layer 1
 62
   252
420
  9672087
370
     9
100
AcDbVertex
100
AcDb2dVertex
 10
27.45706198390418
 20
55.12488269455211
 30
0.0
  0
SEQEND
  5
231
330
22E
100
AcDbEntity
  8
Layer 1
 62
   252
420
  9672087
370
     9
  0
POLYLINE
  5
232
330
152
100
AcDbEntity
  8
Layer 1
 62
   252
420
  9672087
370
     9
100
AcDb2dPolyline
 66
     1
 10
0.0
 20
0.0
 30
0.0
  0
VERTEX
  5
233
330
232
100
AcDbEntity
  8
Layer 1
 62
   252
420
  9672087
370
     9
100
AcDbVertex
100
AcDb2dVertex
 10
26.91136433644244
 20
53.71258089420955
 30
0.0
  0
VERTEX
  5
234
330
232
100
AcDbEntity
  8
Layer 1
 62
   252
420
  9672087
370
     9
100
AcDbVertex
100
AcDb2dVertex
 10
29.79840364335184
 20
53.3615754475577
 30
0.0
  0
SEQEND
  5
235
330
232
100
AcDbEntity
  8
Layer 1
 62
   252
420
  9672087
370
     9
  0
POLYLINE
  5
236
330
152
100
AcDbEntity
  8
Layer 1
 62
   252
420
  9672087
370
     9
100
AcDb2dPolyline
 66
     1
 10
0.0
 20
0.0
 30
0.0
  0
VERTEX
  5
237
330
236
100
AcDbEntity
  8
Layer 1
 62
   252
420
  9672087
370
     9
100
AcDbVertex
100
AcDb2dVertex
 10
25.30795090849029
 20
55.28477647308648
 30
0.0
  0
VERTEX
  5
238
330
236
100
AcDbEntity
  8
Layer 1
 62
   252
420
  9672087
370
     9
100
AcDbVertex
100
AcDb2dVertex
 10
24.08911054068281
 20
65.74422407981758
 30
0.0
  0
SEQEND
  5
239
330
236
100
AcDbEntity
  8
Layer 1
 62
   252
420
  9672087
370
     9
  0
POLYLINE
  5
23A
330
152
100
AcDbEntity
  8
Layer 1
 62
   252
420
  9672087
370
     9
100
AcDb2dPolyline
 66
     1
 10
0.0
 20
0.0
 30
0.0
  0
VERTEX
  5
23B
330
23A
100
AcDbEntity
  8
Layer 1
 62
   252
420
  9672087
370
     9
100
AcDbVertex
100
AcDb2dVertex
 10
24.92326595627234
 20
65.71065645661201
 30
0.0
  0
VERTEX
  5
23C
330
23A
100
AcDbEntity
  8
Layer 1
 62
   252
420
  9672087
370
     9
100
AcDbVertex
100
AcDb2dVertex
 10
25.98109362883602
 20
56.47351790287609
 30
0.0
  0
SEQEND
  5
23D
330
23A
100
AcDbEntity
  8
Layer 1
 62
   252
420
  9672087
370
     9
  0
POLYLINE
  5
23E
330
152
100
AcDbEntity
  8
Layer 1
 62
   252
420
  9672087
370
     9
100
AcDb2dPolyline
 66
     1
 10
0.0
 20
0.0
 30
0.0
  0
VERTEX
  5
23F
330
23E
100
AcDbEntity
  8
Layer 1
 62
   252
420
  9672087
370
     9
100
AcDbVertex
100
AcDb2dVertex
 10
16.13459107058302
 20
60.86785545672956
 30
0.0
  0
VERTEX
  5
240
330
23E
100
AcDbEntity
  8
Layer 1
 62
   252
420
  9672087
370
     9
100
AcDbVertex
100
AcDb2dVertex
 10
15.01186599479242
 20
60.86785545672956
 30
0.0
  0
SEQEND
  5
241
330
23E
100
AcDbEntity
  8
Layer 1
 62
   252
420
  9672087
370
     9
  0
POLYLINE
  5
242
330
152
100
AcDbEntity
  8
Layer 1
 62
   252
420
  9672087
370
     9
100
AcDb2dPolyline
 66
     1
 10
0.0
 20
0.0
 30
0.0
  0
VERTEX
  5
243
330
242
100
AcDbEntity
  8
Layer 1
 62
   252
420
  9672087
370
     9
100
AcDbVertex
100
AcDb2dVertex
 10
25.30795090849029
 20
55.28477647308648
 30
0.0
  0
VERTEX
  5
244
330
242
100
AcDbEntity
  8
Layer 1
 62
   252
420
  9672087
370
     9
100
AcDbVertex
100
AcDb2dVertex
 10
25.40409264073429
 20
54.80397621670429
 30
0.0
  0
VERTEX
  5
245
330
242
100
AcDbEntity
  8
Layer 1
 62
   252
420
  9672087
370
     9
100
AcDbVertex
100
AcDb2dVertex
 10
25.66130607984114
 20
54.38807336518534
 30
0.0
  0
VERTEX
  5
246
330
242
100
AcDbEntity
  8
Layer 1
 62
   252
420
  9672087
370
     9
100
AcDbVertex
100
AcDb2dVertex
 10
26.01466125119199
 20
54.06716688733752
 30
0.0
  0
VERTEX
  5
247
330
242
100
AcDbEntity
  8
Layer 1
 62
   252
420
  9672087
370
     9
100
AcDbVertex
100
AcDb2dVertex
 10
26.43056409220375
 20
53.80757726788196
 30
0.0
  0
VERTEX
  5
248
330
242
100
AcDbEntity
  8
Layer 1
 62
   252
420
  9672087
370
     9
100
AcDbVertex
100
AcDb2dVertex
 10
26.91136433644244
 20
53.71258089420955
 30
0.0
  0
SEQEND
  5
249
330
242
100
AcDbEntity
  8
Layer 1
 62
   252
420
  9672087
370
     9
  0
POLYLINE
  5
24A
330
152
100
AcDbEntity
  8
Layer 1
 62
   252
420
  9672087
370
     9
100
AcDb2dPolyline
 66
     1
 10
0.0
 20
0.0
 30
0.0
  0
VERTEX
  5
24B
330
24A
100
AcDbEntity
  8
Layer 1
 62
   252
420
  9672087
370
     9
100
AcDbVertex
100
AcDb2dVertex
 10
28.48344798352748
 20
54.99508788482176
 30
0.0
  0
VERTEX
  5
24C
330
24A
100
AcDbEntity
  8
Layer 1
 62
   252
420
  9672087
370
     9
100
AcDbVertex
100
AcDb2dVertex
 10
28.25865680580504
 20
55.09243399211664
 30
0.0
  0
SEQEND
  5
24D
330
24A
100
AcDbEntity
  8
Layer 1
 62
   252
420
  9672087
370
     9
  0
POLYLINE
  5
24E
330
152
100
AcDbEntity
  8
Layer 1
 62
   252
420
  9672087
370
     9
100
AcDb2dPolyline
 66
     1
 10
0.0
 20
0.0
 30
0.0
  0
VERTEX
  5
24F
330
24E
100
AcDbEntity
  8
Layer 1
 62
   252
420
  9672087
370
     9
100
AcDbVertex
100
AcDb2dVertex
 10
25.98109362883602
 20
56.47351790287609
 30
0.0
  0
VERTEX
  5
250
330
24E
100
AcDbEntity
  8
Layer 1
 62
   252
420
  9672087
370
     9
100
AcDbVertex
100
AcDb2dVertex
 10
26.0773208129262
 20
56.05761505135843
 30
0.0
  0
VERTEX
  5
251
330
24E
100
AcDbEntity
  8
Layer 1
 62
   252
420
  9672087
370
     9
100
AcDbVertex
100
AcDb2dVertex
 10
26.30334280347019
 20
55.67058035579755
 30
0.0
  0
VERTEX
  5
252
330
24E
100
AcDbEntity
  8
Layer 1
 62
   252
420
  9672087
370
     9
100
AcDbVertex
100
AcDb2dVertex
 10
26.62279467623752
 20
55.38089176753284
 30
0.0
  0
VERTEX
  5
253
330
24E
100
AcDbEntity
  8
Layer 1
 62
   252
420
  9672087
370
     9
100
AcDbVertex
100
AcDb2dVertex
 10
27.00750610919433
 20
55.18743036579161
 30
0.0
  0
VERTEX
  5
254
330
24E
100
AcDbEntity
  8
Layer 1
 62
   252
420
  9672087
370
     9
100
AcDbVertex
100
AcDb2dVertex
 10
27.45706198390418
 20
55.12488269455211
 30
0.0
  0
SEQEND
  5
255
330
24E
100
AcDbEntity
  8
Layer 1
 62
   252
420
  9672087
370
     9
  0
POLYLINE
  5
256
330
152
100
AcDbEntity
  8
Layer 1
 62
   252
420
  9672087
370
     9
100
AcDb2dPolyline
 66
     1
 10
0.0
 20
0.0
 30
0.0
  0
VERTEX
  5
257
330
256
100
AcDbEntity
  8
Layer 1
 62
   252
420
  9672087
370
     9
100
AcDbVertex
100
AcDb2dVertex
 10
32.30098178218987
 20
66.86448755826783
 30
0.0
  0
VERTEX
  5
258
330
256
100
AcDbEntity
  8
Layer 1
 62
   252
420
  9672087
370
     9
100
AcDbVertex
100
AcDb2dVertex
 10
32.33219967098368
 20
66.06647326259491
 30
0.0
  0
VERTEX
  5
259
330
256
100
AcDbEntity
  8
Layer 1
 62
   252
420
  9672087
370
     9
100
AcDbVertex
100
AcDb2dVertex
 10
32.36464837259521
 20
65.68055748780414
 30
0.0
  0
VERTEX
  5
25A
330
256
100
AcDbEntity
  8
Layer 1
 62
   252
420
  9672087
370
     9
100
AcDbVertex
100
AcDb2dVertex
 10
32.42831496300056
 20
65.29352279224327
 30
0.0
  0
VERTEX
  5
25B
330
256
100
AcDbEntity
  8
Layer 1
 62
   252
420
  9672087
370
     9
100
AcDbVertex
100
AcDb2dVertex
 10
32.49332425830077
 20
64.94139842481619
 30
0.0
  0
VERTEX
  5
25C
330
256
100
AcDbEntity
  8
Layer 1
 62
   252
420
  9672087
370
     9
100
AcDbVertex
100
AcDb2dVertex
 10
32.58943955031764
 20
64.5892740573891
 30
0.0
  0
VERTEX
  5
25D
330
256
100
AcDbEntity
  8
Layer 1
 62
   252
420
  9672087
370
     9
100
AcDbVertex
100
AcDb2dVertex
 10
32.75056413763473
 20
64.26702487461306
 30
0.0
  0
VERTEX
  5
25E
330
256
100
AcDbEntity
  8
Layer 1
 62
   252
420
  9672087
370
     9
100
AcDbVertex
100
AcDb2dVertex
 10
32.94279472166849
 20
63.97856709920071
 30
0.0
  0
VERTEX
  5
25F
330
256
100
AcDbEntity
  8
Layer 1
 62
   252
420
  9672087
370
     9
100
AcDbVertex
100
AcDb2dVertex
 10
33.13390638496168
 20
63.72132721336633
 30
0.0
  0
VERTEX
  5
260
330
256
100
AcDbEntity
  8
Layer 1
 62
   252
420
  9672087
370
     9
100
AcDbVertex
100
AcDb2dVertex
 10
33.39103437221851
 20
63.46531814038561
 30
0.0
  0
VERTEX
  5
261
330
256
100
AcDbEntity
  8
Layer 1
 62
   252
420
  9672087
370
     9
100
AcDbVertex
100
AcDb2dVertex
 10
33.68083484524114
 20
63.24063884906128
 30
0.0
  0
VERTEX
  5
262
330
256
100
AcDbEntity
  8
Layer 1
 62
   252
420
  9672087
370
     9
100
AcDbVertex
100
AcDb2dVertex
 10
34.00051050215889
 20
63.01696658643503
 30
0.0
  0
VERTEX
  5
263
330
256
100
AcDbEntity
  8
Layer 1
 62
   252
420
  9672087
370
     9
100
AcDbVertex
100
AcDb2dVertex
 10
34.60998663210312
 20
62.59871400129234
 30
0.0
  0
VERTEX
  5
264
330
256
100
AcDbEntity
  8
Layer 1
 62
   252
420
  9672087
370
     9
100
AcDbVertex
100
AcDb2dVertex
 10
35.2505954477291
 20
62.14913163449069
 30
0.0
  0
VERTEX
  5
265
330
256
100
AcDbEntity
  8
Layer 1
 62
   252
420
  9672087
370
     9
100
AcDbVertex
100
AcDb2dVertex
 10
35.57270604132106
 20
61.89435337436105
 30
0.0
  0
VERTEX
  5
266
330
256
100
AcDbEntity
  8
Layer 1
 62
   252
420
  9672087
370
     9
100
AcDbVertex
100
AcDb2dVertex
 10
35.861163809445
 20
61.63834430137775
 30
0.0
  0
VERTEX
  5
267
330
256
100
AcDbEntity
  8
Layer 1
 62
   252
420
  9672087
370
     9
100
AcDbVertex
100
AcDb2dVertex
 10
36.11851558085225
 20
61.34865571311175
 30
0.0
  0
VERTEX
  5
268
330
256
100
AcDbEntity
  8
Layer 1
 62
   252
420
  9672087
370
     9
100
AcDbVertex
100
AcDb2dVertex
 10
36.34196405368368
 20
61.02651842241541
 30
0.0
  0
VERTEX
  5
269
330
256
100
AcDbEntity
  8
Layer 1
 62
   252
420
  9672087
370
     9
100
AcDbVertex
100
AcDb2dVertex
 10
36.43807934570441
 20
60.8366375671503
 30
0.0
  0
VERTEX
  5
26A
330
256
100
AcDbEntity
  8
Layer 1
 62
   252
420
  9672087
370
     9
100
AcDbVertex
100
AcDb2dVertex
 10
36.53430652979073
 20
60.6756248678407
 30
0.0
  0
VERTEX
  5
26B
330
256
100
AcDbEntity
  8
Layer 1
 62
   252
420
  9672087
370
     9
100
AcDbVertex
100
AcDb2dVertex
 10
36.59920393301764
 20
60.48205157401848
 30
0.0
  0
VERTEX
  5
26C
330
256
100
AcDbEntity
  8
Layer 1
 62
   252
420
  9672087
370
     9
100
AcDbVertex
100
AcDb2dVertex
 10
36.66298241549628
 20
60.28970909305249
 30
0.0
  0
VERTEX
  5
26D
330
256
100
AcDbEntity
  8
Layer 1
 62
   252
420
  9672087
370
     9
100
AcDbVertex
100
AcDb2dVertex
 10
36.69531922503452
 20
60.09624769131126
 30
0.0
  0
VERTEX
  5
26E
330
256
100
AcDbEntity
  8
Layer 1
 62
   252
420
  9672087
370
     9
100
AcDbVertex
100
AcDb2dVertex
 10
36.72653711382834
 20
59.90267439748905
 30
0.0
  0
VERTEX
  5
26F
330
256
100
AcDbEntity
  8
Layer 1
 62
   252
420
  9672087
370
     9
100
AcDbVertex
100
AcDb2dVertex
 10
36.72653711382834
 20
59.74524224465556
 30
0.0
  0
VERTEX
  5
270
330
256
100
AcDbEntity
  8
Layer 1
 62
   252
420
  9672087
370
     9
100
AcDbVertex
100
AcDb2dVertex
 10
36.69531922503452
 20
59.55178084291434
 30
0.0
  0
VERTEX
  5
271
330
256
100
AcDbEntity
  8
Layer 1
 62
   252
420
  9672087
370
     9
100
AcDbVertex
100
AcDb2dVertex
 10
36.66298241549628
 20
59.39311787722848
 30
0.0
  0
VERTEX
  5
272
330
256
100
AcDbEntity
  8
Layer 1
 62
   252
420
  9672087
370
     9
100
AcDbVertex
100
AcDb2dVertex
 10
36.59920393301764
 20
59.19965647548726
 30
0.0
  0
VERTEX
  5
273
330
256
100
AcDbEntity
  8
Layer 1
 62
   252
420
  9672087
370
     9
100
AcDbVertex
100
AcDb2dVertex
 10
36.53430652979073
 20
59.03853188409795
 30
0.0
  0
VERTEX
  5
274
330
256
100
AcDbEntity
  8
Layer 1
 62
   252
420
  9672087
370
     9
100
AcDbVertex
100
AcDb2dVertex
 10
36.43807934570441
 20
58.8798689184121
 30
0.0
  0
VERTEX
  5
275
330
256
100
AcDbEntity
  8
Layer 1
 62
   252
420
  9672087
370
     9
100
AcDbVertex
100
AcDb2dVertex
 10
36.21451898079584
 20
58.55773162771575
 30
0.0
  0
VERTEX
  5
276
330
256
100
AcDbEntity
  8
Layer 1
 62
   252
420
  9672087
370
     9
100
AcDbVertex
100
AcDb2dVertex
 10
35.98872077440612
 20
58.23559433701814
 30
0.0
  0
VERTEX
  5
277
330
256
100
AcDbEntity
  8
Layer 1
 62
   252
420
  9672087
370
     9
100
AcDbVertex
100
AcDb2dVertex
 10
35.76504851742811
 20
57.91714948487505
 30
0.0
  0
VERTEX
  5
278
330
256
100
AcDbEntity
  8
Layer 1
 62
   252
420
  9672087
370
     9
100
AcDbVertex
100
AcDb2dVertex
 10
35.66882133333409
 20
57.75479408063594
 30
0.0
  0
VERTEX
  5
279
330
256
100
AcDbEntity
  8
Layer 1
 62
   252
420
  9672087
370
     9
100
AcDbVertex
100
AcDb2dVertex
 10
35.6051547429326
 20
57.59378138132762
 30
0.0
  0
VERTEX
  5
27A
330
256
100
AcDbEntity
  8
Layer 1
 62
   252
420
  9672087
370
     9
100
AcDbVertex
100
AcDb2dVertex
 10
35.5401454476324
 20
57.43511841564048
 30
0.0
  0
VERTEX
  5
27B
330
256
100
AcDbEntity
  8
Layer 1
 62
   252
420
  9672087
370
     9
100
AcDbVertex
100
AcDb2dVertex
 10
35.50780863809415
 20
57.27399382425374
 30
0.0
  0
VERTEX
  5
27C
330
256
100
AcDbEntity
  8
Layer 1
 62
   252
420
  9672087
370
     9
100
AcDbVertex
100
AcDb2dVertex
 10
35.47661744398294
 20
57.08176323536232
 30
0.0
  0
VERTEX
  5
27D
330
256
100
AcDbEntity
  8
Layer 1
 62
   252
420
  9672087
370
     9
100
AcDbVertex
100
AcDb2dVertex
 10
35.47661744398294
 20
56.72952697585681
 30
0.0
  0
VERTEX
  5
27E
330
256
100
AcDbEntity
  8
Layer 1
 62
   252
420
  9672087
370
     9
100
AcDbVertex
100
AcDb2dVertex
 10
35.50780863809415
 20
56.53729638696539
 30
0.0
  0
VERTEX
  5
27F
330
256
100
AcDbEntity
  8
Layer 1
 62
   252
420
  9672087
370
     9
100
AcDbVertex
100
AcDb2dVertex
 10
35.57270604132106
 20
56.15261142502955
 30
0.0
  0
VERTEX
  5
280
330
256
100
AcDbEntity
  8
Layer 1
 62
   252
420
  9672087
370
     9
100
AcDbVertex
100
AcDb2dVertex
 10
35.66882133333409
 20
55.79802543190159
 30
0.0
  0
VERTEX
  5
281
330
256
100
AcDbEntity
  8
Layer 1
 62
   252
420
  9672087
370
     9
100
AcDbVertex
100
AcDb2dVertex
 10
35.82994592065503
 20
55.41210965711338
 30
0.0
  0
VERTEX
  5
282
330
256
100
AcDbEntity
  8
Layer 1
 62
   252
420
  9672087
370
     9
100
AcDbVertex
100
AcDb2dVertex
 10
35.98872077440612
 20
55.02876740010576
 30
0.0
  0
VERTEX
  5
283
330
256
100
AcDbEntity
  8
Layer 1
 62
   252
420
  9672087
370
     9
100
AcDbVertex
100
AcDb2dVertex
 10
36.1498453617232
 20
54.67664303267611
 30
0.0
  0
VERTEX
  5
284
330
256
100
AcDbEntity
  8
Layer 1
 62
   252
420
  9672087
370
     9
100
AcDbVertex
100
AcDb2dVertex
 10
36.53430652979073
 20
53.97105159289245
 30
0.0
  0
VERTEX
  5
285
330
256
100
AcDbEntity
  8
Layer 1
 62
   252
420
  9672087
370
     9
100
AcDbVertex
100
AcDb2dVertex
 10
36.69531922503452
 20
53.61635370768606
 30
0.0
  0
VERTEX
  5
286
330
256
100
AcDbEntity
  8
Layer 1
 62
   252
420
  9672087
370
     9
100
AcDbVertex
100
AcDb2dVertex
 10
36.85644381235161
 20
53.26546015311135
 30
0.0
  0
VERTEX
  5
287
330
256
100
AcDbEntity
  8
Layer 1
 62
   252
420
  9672087
370
     9
100
AcDbVertex
100
AcDb2dVertex
 10
36.98380372591564
 20
52.94332286241501
 30
0.0
  0
VERTEX
  5
288
330
256
100
AcDbEntity
  8
Layer 1
 62
   252
420
  9672087
370
     9
100
AcDbVertex
100
AcDb2dVertex
 10
37.07989228517919
 20
52.58985579005842
 30
0.0
  0
VERTEX
  5
289
330
256
100
AcDbEntity
  8
Layer 1
 62
   252
420
  9672087
370
     9
100
AcDbVertex
100
AcDb2dVertex
 10
37.14492831730237
 20
52.20651353304824
 30
0.0
  0
VERTEX
  5
28A
330
256
100
AcDbEntity
  8
Layer 1
 62
   252
420
  9672087
370
     9
100
AcDbVertex
100
AcDb2dVertex
 10
37.14492831730237
 20
51.85192753992028
 30
0.0
  0
VERTEX
  5
28B
330
256
100
AcDbEntity
  8
Layer 1
 62
   252
420
  9672087
370
     9
100
AcDbVertex
100
AcDb2dVertex
 10
37.1124796148746
 20
51.46847339083295
 30
0.0
  0
VERTEX
  5
28C
330
256
100
AcDbEntity
  8
Layer 1
 62
   252
420
  9672087
370
     9
100
AcDbVertex
100
AcDb2dVertex
 10
37.04870113078273
 20
51.08266950812188
 30
0.0
  0
VERTEX
  5
28D
330
256
100
AcDbEntity
  8
Layer 1
 62
   252
420
  9672087
370
     9
100
AcDbVertex
100
AcDb2dVertex
 10
36.91899148201253
 20
50.69686562541466
 30
0.0
  0
VERTEX
  5
28E
330
256
100
AcDbEntity
  8
Layer 1
 62
   252
420
  9672087
370
     9
100
AcDbVertex
100
AcDb2dVertex
 10
36.76032852033473
 20
50.3146422891797
 30
0.0
  0
VERTEX
  5
28F
330
256
100
AcDbEntity
  8
Layer 1
 62
   252
420
  9672087
370
     9
100
AcDbVertex
100
AcDb2dVertex
 10
36.56664333933282
 20
49.96128710890026
 30
0.0
  0
VERTEX
  5
290
330
256
100
AcDbEntity
  8
Layer 1
 62
   252
420
  9672087
370
     9
100
AcDbVertex
100
AcDb2dVertex
 10
36.34196405368368
 20
49.63914981820135
 30
0.0
  0
VERTEX
  5
291
330
256
100
AcDbEntity
  8
Layer 1
 62
   252
420
  9672087
370
     9
100
AcDbVertex
100
AcDb2dVertex
 10
36.05339439348261
 20
49.31813144827638
 30
0.0
  0
VERTEX
  5
292
330
256
100
AcDbEntity
  8
Layer 1
 62
   252
420
  9672087
370
     9
100
AcDbVertex
100
AcDb2dVertex
 10
35.76504851742811
 20
49.06335318814674
 30
0.0
  0
VERTEX
  5
293
330
256
100
AcDbEntity
  8
Layer 1
 62
   252
420
  9672087
370
     9
100
AcDbVertex
100
AcDb2dVertex
 10
35.6051547429326
 20
48.93355837842025
 30
0.0
  0
VERTEX
  5
294
330
256
100
AcDbEntity
  8
Layer 1
 62
   252
420
  9672087
370
     9
100
AcDbVertex
100
AcDb2dVertex
 10
35.44403015561551
 20
48.83621227112152
 30
0.0
  0
VERTEX
  5
295
330
256
100
AcDbEntity
  8
Layer 1
 62
   252
420
  9672087
370
     9
100
AcDbVertex
100
AcDb2dVertex
 10
35.09190579708238
 20
48.64621952377928
 30
0.0
  0
VERTEX
  5
296
330
256
100
AcDbEntity
  8
Layer 1
 62
   252
420
  9672087
370
     9
100
AcDbVertex
100
AcDb2dVertex
 10
34.35397756558687
 20
48.3566428275917
 30
0.0
  0
VERTEX
  5
297
330
256
100
AcDbEntity
  8
Layer 1
 62
   252
420
  9672087
370
     9
100
AcDbVertex
100
AcDb2dVertex
 10
34.03295920377427
 20
48.19551823620496
 30
0.0
  0
VERTEX
  5
298
330
256
100
AcDbEntity
  8
Layer 1
 62
   252
420
  9672087
370
     9
100
AcDbVertex
100
AcDb2dVertex
 10
33.87194650853047
 20
48.0994029417586
 30
0.0
  0
VERTEX
  5
299
330
256
100
AcDbEntity
  8
Layer 1
 62
   252
420
  9672087
370
     9
100
AcDbVertex
100
AcDb2dVertex
 10
33.74327062282492
 20
48.00328764731226
 30
0.0
  0
VERTEX
  5
29A
330
256
100
AcDbEntity
  8
Layer 1
 62
   252
420
  9672087
370
     9
100
AcDbVertex
100
AcDb2dVertex
 10
33.61593744201807
 20
47.9071723528659
 30
0.0
  0
VERTEX
  5
29B
330
256
100
AcDbEntity
  8
Layer 1
 62
   252
420
  9672087
370
     9
100
AcDbVertex
100
AcDb2dVertex
 10
33.58348874040269
 20
47.84339386877532
 30
0.0
  0
VERTEX
  5
29C
330
256
100
AcDbEntity
  8
Layer 1
 62
   252
420
  9672087
370
     9
100
AcDbVertex
100
AcDb2dVertex
 10
33.5197102579279
 20
47.74604776148044
 30
0.0
  0
VERTEX
  5
29D
330
256
100
AcDbEntity
  8
Layer 1
 62
   252
420
  9672087
370
     9
100
AcDbVertex
100
AcDb2dVertex
 10
33.48726155631253
 20
47.64993246703281
 30
0.0
  0
VERTEX
  5
29E
330
256
100
AcDbEntity
  8
Layer 1
 62
   252
420
  9672087
370
     9
100
AcDbVertex
100
AcDb2dVertex
 10
33.42359496590717
 20
47.52360631170144
 30
0.0
  0
VERTEX
  5
29F
330
256
100
AcDbEntity
  8
Layer 1
 62
   252
420
  9672087
370
     9
100
AcDbVertex
100
AcDb2dVertex
 10
33.39103437221851
 20
47.39392339405208
 30
0.0
  0
VERTEX
  5
2A0
330
256
100
AcDbEntity
  8
Layer 1
 62
   252
420
  9672087
370
     9
100
AcDbVertex
100
AcDb2dVertex
 10
33.35992837549797
 20
47.2028117259346
 30
0.0
  0
VERTEX
  5
2A1
330
256
100
AcDbEntity
  8
Layer 1
 62
   252
420
  9672087
370
     9
100
AcDbVertex
100
AcDb2dVertex
 10
33.32624886106873
 20
46.97678972968461
 30
0.0
  0
VERTEX
  5
2A2
330
256
100
AcDbEntity
  8
Layer 1
 62
   252
420
  9672087
370
     9
100
AcDbVertex
100
AcDb2dVertex
 10
33.29614989302319
 20
46.72078065670004
 30
0.0
  0
VERTEX
  5
2A3
330
256
100
AcDbEntity
  8
Layer 1
 62
   252
420
  9672087
370
     9
100
AcDbVertex
100
AcDb2dVertex
 10
33.26258227066338
 20
46.43109206843532
 30
0.0
  0
VERTEX
  5
2A4
330
256
100
AcDbEntity
  8
Layer 1
 62
   252
420
  9672087
370
     9
100
AcDbVertex
100
AcDb2dVertex
 10
33.26258227066338
 20
46.27119828990095
 30
0.0
  0
VERTEX
  5
2A5
330
256
100
AcDbEntity
  8
Layer 1
 62
   252
420
  9672087
370
     9
100
AcDbVertex
100
AcDb2dVertex
 10
33.23002167697856
 20
46.0788558089311
 30
0.0
  0
VERTEX
  5
2A6
330
256
100
AcDbEntity
  8
Layer 1
 62
   252
420
  9672087
370
     9
100
AcDbVertex
100
AcDb2dVertex
 10
33.23002167697856
 20
45.69305192622004
 30
0.0
  0
VERTEX
  5
2A7
330
256
100
AcDbEntity
  8
Layer 1
 62
   252
420
  9672087
370
     9
100
AcDbVertex
100
AcDb2dVertex
 10
33.20003460100246
 20
45.46826074281984
 30
0.0
  0
VERTEX
  5
2A8
330
256
100
AcDbEntity
  8
Layer 1
 62
   252
420
  9672087
370
     9
100
AcDbVertex
100
AcDb2dVertex
 10
33.20003460100246
 20
44.95624259685711
 30
0.0
  0
VERTEX
  5
2A9
330
256
100
AcDbEntity
  8
Layer 1
 62
   252
420
  9672087
370
     9
100
AcDbVertex
100
AcDb2dVertex
 10
33.16758589939092
 20
44.69900271102402
 30
0.0
  0
VERTEX
  5
2AA
330
256
100
AcDbEntity
  8
Layer 1
 62
   252
420
  9672087
370
     9
100
AcDbVertex
100
AcDb2dVertex
 10
33.16758589939092
 20
44.09086927061237
 30
0.0
  0
SEQEND
  5
2AB
330
256
100
AcDbEntity
  8
Layer 1
 62
   252
420
  9672087
370
     9
  0
ENDBLK
  5
155
330
152
100
AcDbEntity
  8
0
100
AcDbBlockEnd
  0
BLOCK
  5
2FB
330
2F9
100
AcDbEntity
  8
0
100
AcDbBlockBegin
  2
block 8
 70
     0
 10
0.0
 20
0.0
 30
0.0
  3
block 8
  1

  0
POLYLINE
  5
2FD
330
2F9
100
AcDbEntity
  8
Layer 1
 62
    18
420
    65793
370
     9
100
AcDb2dPolyline
 66
     1
 10
0.0
 20
0.0
 30
0.0
  0
VERTEX
  5
2FE
330
2FD
100
AcDbEntity
  8
Layer 1
 62
    18
420
    65793
370
     9
100
AcDbVertex
100
AcDb2dVertex
 10
41.76522833063569
 20
9.055358374176754
 30
0.0
  0
VERTEX
  5
2FF
330
2FD
100
AcDbEntity
  8
Layer 1
 62
    18
420
    65793
370
     9
100
AcDbVertex
100
AcDb2dVertex
 10
42.40592234936988
 20
9.055358374176754
 30
0.0
  0
VERTEX
  5
300
330
2FD
100
AcDbEntity
  8
Layer 1
 62
    18
420
    65793
370
     9
100
AcDbVertex
100
AcDb2dVertex
 10
43.07895317764233
 20
8.991691782158174
 30
0.0
  0
VERTEX
  5
301
330
2FD
100
AcDbEntity
  8
Layer 1
 62
    18
420
    65793
370
     9
100
AcDbVertex
100
AcDb2dVertex
 10
43.68966012040043
 20
8.926794377294927
 30
0.0
  0
VERTEX
  5
302
330
2FD
100
AcDbEntity
  8
Layer 1
 62
    18
420
    65793
370
     9
100
AcDbVertex
100
AcDb2dVertex
 10
44.33035413913848
 20
8.800580114044546
 30
0.0
  0
VERTEX
  5
303
330
2FD
100
AcDbEntity
  8
Layer 1
 62
    18
420
    65793
370
     9
100
AcDbVertex
100
AcDb2dVertex
 10
44.9731741072844
 20
8.672016117166569
 30
0.0
  0
VERTEX
  5
304
330
2FD
100
AcDbEntity
  8
Layer 1
 62
    18
420
    65793
370
     9
100
AcDbVertex
100
AcDb2dVertex
 10
45.58153131648036
 20
8.478442823348205
 30
0.0
  0
VERTEX
  5
305
330
2FD
100
AcDbEntity
  8
Layer 1
 62
    18
420
    65793
370
     9
100
AcDbVertex
100
AcDb2dVertex
 10
46.19223825924615
 20
8.28610034237836
 30
0.0
  0
VERTEX
  5
306
330
2FD
100
AcDbEntity
  8
Layer 1
 62
    18
420
    65793
370
     9
100
AcDbVertex
100
AcDb2dVertex
 10
46.8002597922184
 20
8.031322082242303
 30
0.0
  0
VERTEX
  5
307
330
2FD
100
AcDbEntity
  8
Layer 1
 62
    18
420
    65793
370
     9
100
AcDbVertex
100
AcDb2dVertex
 10
47.41085484290321
 20
7.772851383564541
 30
0.0
  0
VERTEX
  5
308
330
2FD
100
AcDbEntity
  8
Layer 1
 62
    18
420
    65793
370
     9
100
AcDbVertex
100
AcDb2dVertex
 10
47.98665145841049
 20
7.484505500225479
 30
0.0
  0
VERTEX
  5
309
330
2FD
100
AcDbEntity
  8
Layer 1
 62
    18
420
    65793
370
     9
100
AcDbVertex
100
AcDb2dVertex
 10
48.53226423826225
 20
7.164717943152886
 30
0.0
  0
VERTEX
  5
30A
330
2FD
100
AcDbEntity
  8
Layer 1
 62
    18
420
    65793
370
     9
100
AcDbVertex
100
AcDb2dVertex
 10
49.07916567407842
 20
6.81013195002492
 30
0.0
  0
VERTEX
  5
30B
330
2FD
100
AcDbEntity
  8
Layer 1
 62
    18
420
    65793
370
     9
100
AcDbVertex
100
AcDb2dVertex
 10
49.62486332154017
 20
6.458007582597841
 30
0.0
  0
VERTEX
  5
30C
330
2FD
100
AcDbEntity
  8
Layer 1
 62
    18
420
    65793
370
     9
100
AcDbVertex
100
AcDb2dVertex
 10
50.13688145456496
 20
6.040873918230377
 30
0.0
  0
VERTEX
  5
30D
330
2FD
100
AcDbEntity
  8
Layer 1
 62
    18
420
    65793
370
     9
100
AcDbVertex
100
AcDb2dVertex
 10
50.61768169880749
 20
5.62497106671143
 30
0.0
  0
VERTEX
  5
30E
330
2FD
100
AcDbEntity
  8
Layer 1
 62
    18
420
    65793
370
     9
100
AcDbVertex
100
AcDb2dVertex
 10
51.09848194304233
 20
5.175500591985628
 30
0.0
  0
VERTEX
  5
30F
330
2FD
100
AcDbEntity
  8
Layer 1
 62
    18
420
    65793
370
     9
100
AcDbVertex
100
AcDb2dVertex
 10
51.54672159359234
 20
4.725918225186539
 30
0.0
  0
VERTEX
  5
310
330
2FD
100
AcDbEntity
  8
Layer 1
 62
    18
420
    65793
370
     9
100
AcDbVertex
100
AcDb2dVertex
 10
51.96385524742183
 20
4.21155034559749
 30
0.0
  0
VERTEX
  5
311
330
2FD
100
AcDbEntity
  8
Layer 1
 62
    18
420
    65793
370
     9
100
AcDbVertex
100
AcDb2dVertex
 10
52.34977101246134
 20
3.731869009986675
 30
0.0
  0
VERTEX
  5
312
330
2FD
100
AcDbEntity
  8
Layer 1
 62
    18
420
    65793
370
     9
100
AcDbVertex
100
AcDb2dVertex
 10
52.73311325978829
 20
3.185052427966002
 30
0.0
  0
VERTEX
  5
313
330
2FD
100
AcDbEntity
  8
Layer 1
 62
    18
420
    65793
370
     9
100
AcDbVertex
100
AcDb2dVertex
 10
53.08646843113914
 20
2.639242874639571
 30
0.0
  0
VERTEX
  5
314
330
2FD
100
AcDbEntity
  8
Layer 1
 62
    18
420
    65793
370
     9
100
AcDbVertex
100
AcDb2dVertex
 10
53.40628312772267
 20
2.063670028740528
 30
0.0
  0
VERTEX
  5
315
330
2FD
100
AcDbEntity
  8
Layer 1
 62
    18
420
    65793
370
     9
100
AcDbVertex
100
AcDb2dVertex
 10
53.69706348182395
 20
1.485411772986323
 30
0.0
  0
VERTEX
  5
316
330
2FD
100
AcDbEntity
  8
Layer 1
 62
    18
420
    65793
370
     9
100
AcDbVertex
100
AcDb2dVertex
 10
53.98563314202502
 20
0.9072654093092565
 30
0.0
  0
VERTEX
  5
317
330
2FD
100
AcDbEntity
  8
Layer 1
 62
    18
420
    65793
370
     9
100
AcDbVertex
100
AcDb2dVertex
 10
54.20908161485644
 20
0.2979011560452335
 30
0.0
  0
VERTEX
  5
318
330
2FD
100
AcDbEntity
  8
Layer 1
 62
    18
420
    65793
370
     9
100
AcDbVertex
100
AcDb2dVertex
 10
54.40153598303679
 20
-0.309113363591191
 30
0.0
  0
VERTEX
  5
319
330
2FD
100
AcDbEntity
  8
Layer 1
 62
    18
420
    65793
370
     9
100
AcDbVertex
100
AcDb2dVertex
 10
54.5937665670744
 20
-0.9197084296998818
 30
0.0
  0
VERTEX
  5
31A
330
2FD
100
AcDbEntity
  8
Layer 1
 62
    18
420
    65793
370
     9
100
AcDbVertex
100
AcDb2dVertex
 10
54.72233056070281
 20
-1.561633277468816
 30
0.0
  0
VERTEX
  5
31B
330
2FD
100
AcDbEntity
  8
Layer 1
 62
    18
420
    65793
370
     9
100
AcDbVertex
100
AcDb2dVertex
 10
54.85100644640451
 20
-2.202215420312095
 30
0.0
  0
VERTEX
  5
31C
330
2FD
100
AcDbEntity
  8
Layer 1
 62
    18
420
    65793
370
     9
100
AcDbVertex
100
AcDb2dVertex
 10
54.914784928887
 20
-2.84525918885241
 30
0.0
  0
VERTEX
  5
31D
330
2FD
100
AcDbEntity
  8
Layer 1
 62
    18
420
    65793
370
     9
100
AcDbVertex
100
AcDb2dVertex
 10
54.97957044003677
 20
-3.488302957396575
 30
0.0
  0
VERTEX
  5
31E
330
2FD
100
AcDbEntity
  8
Layer 1
 62
    18
420
    65793
370
     9
100
AcDbVertex
100
AcDb2dVertex
 10
54.97957044003677
 20
-4.76957913515642
 30
0.0
  0
VERTEX
  5
31F
330
2FD
100
AcDbEntity
  8
Layer 1
 62
    18
420
    65793
370
     9
100
AcDbVertex
100
AcDb2dVertex
 10
54.914784928887
 20
-5.443952685360829
 30
0.0
  0
VERTEX
  5
320
330
2FD
100
AcDbEntity
  8
Layer 1
 62
    18
420
    65793
370
     9
100
AcDbVertex
100
AcDb2dVertex
 10
54.85100644640451
 20
-6.086996453901143
 30
0.0
  0
VERTEX
  5
321
330
2FD
100
AcDbEntity
  8
Layer 1
 62
    18
420
    65793
370
     9
100
AcDbVertex
100
AcDb2dVertex
 10
54.72233056070281
 20
-6.726347783895904
 30
0.0
  0
VERTEX
  5
322
330
2FD
100
AcDbEntity
  8
Layer 1
 62
    18
420
    65793
370
     9
100
AcDbVertex
100
AcDb2dVertex
 10
54.5937665670744
 20
-7.335823929233215
 30
0.0
  0
VERTEX
  5
323
330
2FD
100
AcDbEntity
  8
Layer 1
 62
    18
420
    65793
370
     9
100
AcDbVertex
100
AcDb2dVertex
 10
54.40153598303679
 20
-7.977636884925012
 30
0.0
  0
VERTEX
  5
324
330
2FD
100
AcDbEntity
  8
Layer 1
 62
    18
420
    65793
370
     9
100
AcDbVertex
100
AcDb2dVertex
 10
54.20908161485644
 20
-8.587113030258472
 30
0.0
  0
VERTEX
  5
325
330
2FD
100
AcDbEntity
  8
Layer 1
 62
    18
420
    65793
370
     9
100
AcDbVertex
100
AcDb2dVertex
 10
53.98563314202502
 20
-9.196477283522496
 30
0.0
  0
VERTEX
  5
326
330
2FD
100
AcDbEntity
  8
Layer 1
 62
    18
420
    65793
370
     9
100
AcDbVertex
100
AcDb2dVertex
 10
53.72839326269105
 20
-9.774623647199562
 30
0.0
  0
VERTEX
  5
327
330
2FD
100
AcDbEntity
  8
Layer 1
 62
    18
420
    65793
370
     9
100
AcDbVertex
100
AcDb2dVertex
 10
53.40628312772267
 20
-10.35030838517959
 30
0.0
  0
VERTEX
  5
328
330
2FD
100
AcDbEntity
  8
Layer 1
 62
    18
420
    65793
370
     9
100
AcDbVertex
100
AcDb2dVertex
 10
53.08646843113914
 20
-10.92845474885666
 30
0.0
  0
VERTEX
  5
329
330
2FD
100
AcDbEntity
  8
Layer 1
 62
    18
420
    65793
370
     9
100
AcDbVertex
100
AcDb2dVertex
 10
52.73311325978829
 20
-11.47303348933072
 30
0.0
  0
VERTEX
  5
32A
330
2FD
100
AcDbEntity
  8
Layer 1
 62
    18
420
    65793
370
     9
100
AcDbVertex
100
AcDb2dVertex
 10
52.38221971407673
 20
-11.98751326099691
 30
0.0
  0
VERTEX
  5
32B
330
2FD
100
AcDbEntity
  8
Layer 1
 62
    18
420
    65793
370
     9
100
AcDbVertex
100
AcDb2dVertex
 10
51.96385524742183
 20
-12.50076221981073
 30
0.0
  0
VERTEX
  5
32C
330
2FD
100
AcDbEntity
  8
Layer 1
 62
    18
420
    65793
370
     9
100
AcDbVertex
100
AcDb2dVertex
 10
51.54672159359234
 20
-13.01278036577218
 30
0.0
  0
VERTEX
  5
32D
330
2FD
100
AcDbEntity
  8
Layer 1
 62
    18
420
    65793
370
     9
100
AcDbVertex
100
AcDb2dVertex
 10
51.09848194304233
 20
-13.46225084049798
 30
0.0
  0
VERTEX
  5
32E
330
2FD
100
AcDbEntity
  8
Layer 1
 62
    18
420
    65793
370
     9
100
AcDbVertex
100
AcDb2dVertex
 10
50.6490114796746
 20
-13.9129521280723
 30
0.0
  0
VERTEX
  5
32F
330
2FD
100
AcDbEntity
  8
Layer 1
 62
    18
420
    65793
370
     9
100
AcDbVertex
100
AcDb2dVertex
 10
50.13688145456496
 20
-14.33008579244362
 30
0.0
  0
VERTEX
  5
330
330
2FD
100
AcDbEntity
  8
Layer 1
 62
    18
420
    65793
370
     9
100
AcDbVertex
100
AcDb2dVertex
 10
49.62486332154017
 20
-14.74475783110634
 30
0.0
  0
VERTEX
  5
331
330
2FD
100
AcDbEntity
  8
Layer 1
 62
    18
420
    65793
370
     9
100
AcDbVertex
100
AcDb2dVertex
 10
49.11049545494552
 20
-15.09811301138579
 30
0.0
  0
VERTEX
  5
332
330
2FD
100
AcDbEntity
  8
Layer 1
 62
    18
420
    65793
370
     9
100
AcDbVertex
100
AcDb2dVertex
 10
48.56345510258892
 20
-15.45023737881672
 30
0.0
  0
VERTEX
  5
333
330
2FD
100
AcDbEntity
  8
Layer 1
 62
    18
420
    65793
370
     9
100
AcDbVertex
100
AcDb2dVertex
 10
47.98665145841049
 20
-15.77002493588931
 30
0.0
  0
VERTEX
  5
334
330
2FD
100
AcDbEntity
  8
Layer 1
 62
    18
420
    65793
370
     9
100
AcDbVertex
100
AcDb2dVertex
 10
47.41085484290321
 20
-16.05848271130166
 30
0.0
  0
VERTEX
  5
335
330
2FD
100
AcDbEntity
  8
Layer 1
 62
    18
420
    65793
370
     9
100
AcDbVertex
100
AcDb2dVertex
 10
46.83150466250734
 20
-16.34805940749309
 30
0.0
  0
VERTEX
  5
336
330
2FD
100
AcDbEntity
  8
Layer 1
 62
    18
420
    65793
370
     9
100
AcDbVertex
100
AcDb2dVertex
 10
46.22334425595898
 20
-16.57285059089071
 30
0.0
  0
VERTEX
  5
337
330
2FD
100
AcDbEntity
  8
Layer 1
 62
    18
420
    65793
370
     9
100
AcDbVertex
100
AcDb2dVertex
 10
45.61274920527802
 20
-16.76519307186056
 30
0.0
  0
VERTEX
  5
338
330
2FD
100
AcDbEntity
  8
Layer 1
 62
    18
420
    65793
370
     9
100
AcDbVertex
100
AcDb2dVertex
 10
44.9731741072844
 20
-16.95876636567892
 30
0.0
  0
VERTEX
  5
339
330
2FD
100
AcDbEntity
  8
Layer 1
 62
    18
420
    65793
370
     9
100
AcDbVertex
100
AcDb2dVertex
 10
44.36257905660344
 20
-17.0873303625569
 30
0.0
  0
VERTEX
  5
33A
330
2FD
100
AcDbEntity
  8
Layer 1
 62
    18
420
    65793
370
     9
100
AcDbVertex
100
AcDb2dVertex
 10
43.72076611712096
 20
-17.21365651788442
 30
0.0
  0
VERTEX
  5
33B
330
2FD
100
AcDbEntity
  8
Layer 1
 62
    18
420
    65793
370
     9
100
AcDbVertex
100
AcDb2dVertex
 10
43.07895317764233
 20
-17.31100262518314
 30
0.0
  0
VERTEX
  5
33C
330
2FD
100
AcDbEntity
  8
Layer 1
 62
    18
420
    65793
370
     9
100
AcDbVertex
100
AcDb2dVertex
 10
42.4371402381637
 20
-17.34210862268911
 30
0.0
  0
VERTEX
  5
33D
330
2FD
100
AcDbEntity
  8
Layer 1
 62
    18
420
    65793
370
     9
100
AcDbVertex
100
AcDb2dVertex
 10
41.76522833063569
 20
-17.37578813796925
 30
0.0
  0
SEQEND
  5
33E
330
2FD
100
AcDbEntity
  8
Layer 1
 62
    18
420
    65793
370
     9
  0
POLYLINE
  5
33F
330
2F9
100
AcDbEntity
  8
Layer 1
 62
    18
420
    65793
370
     9
100
AcDb2dPolyline
 66
     1
 10
0.0
 20
0.0
 30
0.0
  0
VERTEX
  5
340
330
33F
100
AcDbEntity
  8
Layer 1
 62
    18
420
    65793
370
     9
100
AcDbVertex
100
AcDb2dVertex
 10
41.76522833063569
 20
7.03492313342254
 30
0.0
  0
VERTEX
  5
341
330
33F
100
AcDbEntity
  8
Layer 1
 62
    18
420
    65793
370
     9
100
AcDbVertex
100
AcDb2dVertex
 10
42.30969516527971
 20
7.03492313342254
 30
0.0
  0
VERTEX
  5
342
330
33F
100
AcDbEntity
  8
Layer 1
 62
    18
420
    65793
370
     9
100
AcDbVertex
100
AcDb2dVertex
 10
42.85539281274146
 20
6.971256541411661
 30
0.0
  0
VERTEX
  5
343
330
33F
100
AcDbEntity
  8
Layer 1
 62
    18
420
    65793
370
     9
100
AcDbVertex
100
AcDb2dVertex
 10
43.40109046020321
 20
6.906247244471275
 30
0.0
  0
VERTEX
  5
344
330
33F
100
AcDbEntity
  8
Layer 1
 62
    18
420
    65793
370
     9
100
AcDbVertex
100
AcDb2dVertex
 10
43.94566918692053
 20
6.81013195002492
 30
0.0
  0
VERTEX
  5
345
330
33F
100
AcDbEntity
  8
Layer 1
 62
    18
420
    65793
370
     9
100
AcDbVertex
100
AcDb2dVertex
 10
44.45903002484018
 20
6.681456061069805
 30
0.0
  0
VERTEX
  5
346
330
33F
100
AcDbEntity
  8
Layer 1
 62
    18
420
    65793
370
     9
100
AcDbVertex
100
AcDb2dVertex
 10
45.0045038881515
 20
6.555353689896563
 30
0.0
  0
VERTEX
  5
347
330
33F
100
AcDbEntity
  8
Layer 1
 62
    18
420
    65793
370
     9
100
AcDbVertex
100
AcDb2dVertex
 10
45.516522021184
 20
6.363011208922868
 30
0.0
  0
VERTEX
  5
348
330
33F
100
AcDbEntity
  8
Layer 1
 62
    18
420
    65793
370
     9
100
AcDbVertex
100
AcDb2dVertex
 10
46.03111367192522
 20
6.169437915104504
 30
0.0
  0
VERTEX
  5
349
330
33F
100
AcDbEntity
  8
Layer 1
 62
    18
420
    65793
370
     9
100
AcDbVertex
100
AcDb2dVertex
 10
46.5442507256983
 20
5.944758623784023
 30
0.0
  0
VERTEX
  5
34A
330
33F
100
AcDbEntity
  8
Layer 1
 62
    18
420
    65793
370
     9
100
AcDbVertex
100
AcDb2dVertex
 10
47.02619687710094
 20
5.686287925098561
 30
0.0
  0
VERTEX
  5
34B
330
33F
100
AcDbEntity
  8
Layer 1
 62
    18
420
    65793
370
     9
100
AcDbVertex
100
AcDb2dVertex
 10
47.50697013492009
 20
5.431509664966353
 30
0.0
  0
VERTEX
  5
34C
330
33F
100
AcDbEntity
  8
Layer 1
 62
    18
420
    65793
370
     9
100
AcDbVertex
100
AcDb2dVertex
 10
47.95655249036496
 20
5.142939997476866
 30
0.0
  0
VERTEX
  5
34D
330
33F
100
AcDbEntity
  8
Layer 1
 62
    18
420
    65793
370
     9
100
AcDbVertex
100
AcDb2dVertex
 10
48.40367322016669
 20
4.822145411706181
 30
0.0
  0
VERTEX
  5
34E
330
33F
100
AcDbEntity
  8
Layer 1
 62
    18
420
    65793
370
     9
100
AcDbVertex
100
AcDb2dVertex
 10
48.85325557561156
 20
4.469909152201963
 30
0.0
  0
VERTEX
  5
34F
330
33F
100
AcDbEntity
  8
Layer 1
 62
    18
420
    65793
370
     9
100
AcDbVertex
100
AcDb2dVertex
 10
49.27150815018932
 20
4.116442079845378
 30
0.0
  0
VERTEX
  5
350
330
33F
100
AcDbEntity
  8
Layer 1
 62
    18
420
    65793
370
     9
100
AcDbVertex
100
AcDb2dVertex
 10
49.65608121033013
 20
3.731869009986675
 30
0.0
  0
VERTEX
  5
351
330
33F
100
AcDbEntity
  8
Layer 1
 62
    18
420
    65793
370
     9
100
AcDbVertex
100
AcDb2dVertex
 10
50.03953534973422
 20
3.345953235198465
 30
0.0
  0
VERTEX
  5
352
330
33F
100
AcDbEntity
  8
Layer 1
 62
    18
420
    65793
370
     9
100
AcDbVertex
100
AcDb2dVertex
 10
50.39414840540005
 20
2.929043354981426
 30
0.0
  0
VERTEX
  5
353
330
33F
100
AcDbEntity
  8
Layer 1
 62
    18
420
    65793
370
     9
100
AcDbVertex
100
AcDb2dVertex
 10
50.71390888289766
 20
2.514371316318698
 30
0.0
  0
VERTEX
  5
354
330
33F
100
AcDbEntity
  8
Layer 1
 62
    18
420
    65793
370
     9
100
AcDbVertex
100
AcDb2dVertex
 10
51.03470346056369
 20
2.063670028740528
 30
0.0
  0
VERTEX
  5
355
330
33F
100
AcDbEntity
  8
Layer 1
 62
    18
420
    65793
370
     9
100
AcDbVertex
100
AcDb2dVertex
 10
51.32204230794319
 20
1.582757880281195
 30
0.0
  0
VERTEX
  5
356
330
33F
100
AcDbEntity
  8
Layer 1
 62
    18
420
    65793
370
     9
100
AcDbVertex
100
AcDb2dVertex
 10
51.61050007606713
 20
1.099607890275252
 30
0.0
  0
VERTEX
  5
357
330
33F
100
AcDbEntity
  8
Layer 1
 62
    18
420
    65793
370
     9
100
AcDbVertex
100
AcDb2dVertex
 10
51.83652206661112
 20
0.6200384467454252
 30
0.0
  0
VERTEX
  5
358
330
33F
100
AcDbEntity
  8
Layer 1
 62
    18
420
    65793
370
     9
100
AcDbVertex
100
AcDb2dVertex
 10
52.06120135226027
 20
0.138007377510862
 30
0.0
  0
VERTEX
  5
359
330
33F
100
AcDbEntity
  8
Layer 1
 62
    18
420
    65793
370
     9
100
AcDbVertex
100
AcDb2dVertex
 10
52.2524249076229
 20
-0.3752415813029569
 30
0.0
  0
VERTEX
  5
35A
330
33F
100
AcDbEntity
  8
Layer 1
 62
    18
420
    65793
370
     9
100
AcDbVertex
100
AcDb2dVertex
 10
52.44588630447822
 20
-0.888490540120626
 30
0.0
  0
VERTEX
  5
35B
330
33F
100
AcDbEntity
  8
Layer 1
 62
    18
420
    65793
370
     9
100
AcDbVertex
100
AcDb2dVertex
 10
52.57456219018378
 20
-1.432957388517551
 30
0.0
  0
VERTEX
  5
35C
330
33F
100
AcDbEntity
  8
Layer 1
 62
    18
420
    65793
370
     9
100
AcDbVertex
100
AcDb2dVertex
 10
52.70189537099062
 20
-1.978655049762994
 30
0.0
  0
VERTEX
  5
35D
330
33F
100
AcDbEntity
  8
Layer 1
 62
    18
420
    65793
370
     9
100
AcDbVertex
100
AcDb2dVertex
 10
52.79801066301135
 20
-2.524352711008437
 30
0.0
  0
VERTEX
  5
35E
330
33F
100
AcDbEntity
  8
Layer 1
 62
    18
420
    65793
370
     9
100
AcDbVertex
100
AcDb2dVertex
 10
52.8630199583077
 20
-3.068819559405362
 30
0.0
  0
VERTEX
  5
35F
330
33F
100
AcDbEntity
  8
Layer 1
 62
    18
420
    65793
370
     9
100
AcDbVertex
100
AcDb2dVertex
 10
52.92545573589534
 20
-3.583187438994411
 30
0.0
  0
VERTEX
  5
360
330
33F
100
AcDbEntity
  8
Layer 1
 62
    18
420
    65793
370
     9
100
AcDbVertex
100
AcDb2dVertex
 10
52.92545573589534
 20
-4.705800651068403
 30
0.0
  0
VERTEX
  5
361
330
33F
100
AcDbEntity
  8
Layer 1
 62
    18
420
    65793
370
     9
100
AcDbVertex
100
AcDb2dVertex
 10
52.8630199583077
 20
-5.250379391542465
 30
0.0
  0
VERTEX
  5
362
330
33F
100
AcDbEntity
  8
Layer 1
 62
    18
420
    65793
370
     9
100
AcDbVertex
100
AcDb2dVertex
 10
52.79801066301135
 20
-5.797307865640276
 30
0.0
  0
VERTEX
  5
363
330
33F
100
AcDbEntity
  8
Layer 1
 62
    18
420
    65793
370
     9
100
AcDbVertex
100
AcDb2dVertex
 10
52.70189537099062
 20
-6.341774714037201
 30
0.0
  0
VERTEX
  5
364
330
33F
100
AcDbEntity
  8
Layer 1
 62
    18
420
    65793
370
     9
100
AcDbVertex
100
AcDb2dVertex
 10
52.6070108917953
 20
-6.85390475207579
 30
0.0
  0
VERTEX
  5
365
330
33F
100
AcDbEntity
  8
Layer 1
 62
    18
420
    65793
370
     9
100
AcDbVertex
100
AcDb2dVertex
 10
52.44588630447822
 20
-7.399490521247944
 30
0.0
  0
VERTEX
  5
366
330
33F
100
AcDbEntity
  8
Layer 1
 62
    18
420
    65793
370
     9
100
AcDbVertex
100
AcDb2dVertex
 10
52.28599252998271
 20
-7.912739480061764
 30
0.0
  0
VERTEX
  5
367
330
33F
100
AcDbEntity
  8
Layer 1
 62
    18
420
    65793
370
     9
100
AcDbVertex
100
AcDb2dVertex
 10
52.09378906037973
 20
-8.425988438875583
 30
0.0
  0
VERTEX
  5
368
330
33F
100
AcDbEntity
  8
Layer 1
 62
    18
420
    65793
370
     9
100
AcDbVertex
100
AcDb2dVertex
 10
51.86776706412974
 20
-8.909250320958664
 30
0.0
  0
VERTEX
  5
369
330
33F
100
AcDbEntity
  8
Layer 1
 62
    18
420
    65793
370
     9
100
AcDbVertex
100
AcDb2dVertex
 10
51.61050007606713
 20
-9.422499279772483
 30
0.0
  0
VERTEX
  5
36A
330
33F
100
AcDbEntity
  8
Layer 1
 62
    18
420
    65793
370
     9
100
AcDbVertex
100
AcDb2dVertex
 10
51.32204230794319
 20
-9.901956831229022
 30
0.0
  0
VERTEX
  5
36B
330
33F
100
AcDbEntity
  8
Layer 1
 62
    18
420
    65793
370
     9
100
AcDbVertex
100
AcDb2dVertex
 10
51.03470346056369
 20
-10.35030838517959
 30
0.0
  0
VERTEX
  5
36C
330
33F
100
AcDbEntity
  8
Layer 1
 62
    18
420
    65793
370
     9
100
AcDbVertex
100
AcDb2dVertex
 10
50.71390888289766
 20
-10.80112156483105
 30
0.0
  0
VERTEX
  5
36D
330
33F
100
AcDbEntity
  8
Layer 1
 62
    18
420
    65793
370
     9
100
AcDbVertex
100
AcDb2dVertex
 10
50.39414840540005
 20
-11.21702441634615
 30
0.0
  0
VERTEX
  5
36E
330
33F
100
AcDbEntity
  8
Layer 1
 62
    18
420
    65793
370
     9
100
AcDbVertex
100
AcDb2dVertex
 10
50.03953534973422
 20
-11.63404618864032
 30
0.0
  0
VERTEX
  5
36F
330
33F
100
AcDbEntity
  8
Layer 1
 62
    18
420
    65793
370
     9
100
AcDbVertex
100
AcDb2dVertex
 10
49.65608121033013
 20
-12.05106796093835
 30
0.0
  0
VERTEX
  5
370
330
33F
100
AcDbEntity
  8
Layer 1
 62
    18
420
    65793
370
     9
100
AcDbVertex
100
AcDb2dVertex
 10
49.27150815018932
 20
-12.40442314121395
 30
0.0
  0
VERTEX
  5
371
330
33F
100
AcDbEntity
  8
Layer 1
 62
    18
420
    65793
370
     9
100
AcDbVertex
100
AcDb2dVertex
 10
48.85325557561156
 20
-12.78798918237456
 30
0.0
  0
VERTEX
  5
372
330
33F
100
AcDbEntity
  8
Layer 1
 62
    18
420
    65793
370
     9
100
AcDbVertex
100
AcDb2dVertex
 10
48.40367322016669
 20
-13.1101264730709
 30
0.0
  0
VERTEX
  5
373
330
33F
100
AcDbEntity
  8
Layer 1
 62
    18
420
    65793
370
     9
100
AcDbVertex
100
AcDb2dVertex
 10
47.95655249036496
 20
-13.42969024598922
 30
0.0
  0
VERTEX
  5
374
330
33F
100
AcDbEntity
  8
Layer 1
 62
    18
420
    65793
370
     9
100
AcDbVertex
100
AcDb2dVertex
 10
47.50697013492009
 20
-13.71949072633107
 30
0.0
  0
VERTEX
  5
375
330
33F
100
AcDbEntity
  8
Layer 1
 62
    18
420
    65793
370
     9
100
AcDbVertex
100
AcDb2dVertex
 10
47.02619687710094
 20
-14.00794850174727
 30
0.0
  0
VERTEX
  5
376
330
33F
100
AcDbEntity
  8
Layer 1
 62
    18
420
    65793
370
     9
100
AcDbVertex
100
AcDb2dVertex
 10
46.5442507256983
 20
-14.23273968514489
 30
0.0
  0
VERTEX
  5
377
330
33F
100
AcDbEntity
  8
Layer 1
 62
    18
420
    65793
370
     9
100
AcDbVertex
100
AcDb2dVertex
 10
46.03111367192522
 20
-14.45495735076834
 30
0.0
  0
VERTEX
  5
378
330
33F
100
AcDbEntity
  8
Layer 1
 62
    18
420
    65793
370
     9
100
AcDbVertex
100
AcDb2dVertex
 10
45.516522021184
 20
-14.68097934701833
 30
0.0
  0
VERTEX
  5
379
330
33F
100
AcDbEntity
  8
Layer 1
 62
    18
420
    65793
370
     9
100
AcDbVertex
100
AcDb2dVertex
 10
45.0045038881515
 20
-14.84333475126128
 30
0.0
  0
VERTEX
  5
37A
330
33F
100
AcDbEntity
  8
Layer 1
 62
    18
420
    65793
370
     9
100
AcDbVertex
100
AcDb2dVertex
 10
44.49125494230514
 20
-15.00199771694329
 30
0.0
  0
VERTEX
  5
37B
330
33F
100
AcDbEntity
  8
Layer 1
 62
    18
420
    65793
370
     9
100
AcDbVertex
100
AcDb2dVertex
 10
43.94566918692053
 20
-15.09811301138579
 30
0.0
  0
VERTEX
  5
37C
330
33F
100
AcDbEntity
  8
Layer 1
 62
    18
420
    65793
370
     9
100
AcDbVertex
100
AcDb2dVertex
 10
43.40109046020321
 20
-15.22667700826377
 30
0.0
  0
VERTEX
  5
37D
330
33F
100
AcDbEntity
  8
Layer 1
 62
    18
420
    65793
370
     9
100
AcDbVertex
100
AcDb2dVertex
 10
42.85539281274146
 20
-15.29157441313087
 30
0.0
  0
VERTEX
  5
37E
330
33F
100
AcDbEntity
  8
Layer 1
 62
    18
420
    65793
370
     9
100
AcDbVertex
100
AcDb2dVertex
 10
42.30969516527971
 20
-15.32279230271397
 30
0.0
  0
VERTEX
  5
37F
330
33F
100
AcDbEntity
  8
Layer 1
 62
    18
420
    65793
370
     9
100
AcDbVertex
100
AcDb2dVertex
 10
41.76522833063569
 20
-15.35412208437037
 30
0.0
  0
SEQEND
  5
380
330
33F
100
AcDbEntity
  8
Layer 1
 62
    18
420
    65793
370
     9
  0
POLYLINE
  5
381
330
2F9
100
AcDbEntity
  8
Layer 1
 62
    18
420
    65793
370
     9
100
AcDb2dPolyline
 66
     1
 10
0.0
 20
0.0
 30
0.0
  0
VERTEX
  5
382
330
381
100
AcDbEntity
  8
Layer 1
 62
    18
420
    65793
370
     9
100
AcDbVertex
100
AcDb2dVertex
 10
21.01092688725556
 20
-4.15898406904773
 30
0.0
  0
VERTEX
  5
383
330
381
100
AcDbEntity
  8
Layer 1
 62
    18
420
    65793
370
     9
100
AcDbVertex
100
AcDb2dVertex
 10
20.97847818564403
 20
-3.904205808915522
 30
0.0
  0
VERTEX
  5
384
330
381
100
AcDbEntity
  8
Layer 1
 62
    18
420
    65793
370
     9
100
AcDbVertex
100
AcDb2dVertex
 10
20.91481159523868
 20
-3.644504297385392
 30
0.0
  0
VERTEX
  5
385
330
381
100
AcDbEntity
  8
Layer 1
 62
    18
420
    65793
370
     9
100
AcDbVertex
100
AcDb2dVertex
 10
20.78725463027756
 20
-3.422286631758097
 30
0.0
  0
VERTEX
  5
386
330
381
100
AcDbEntity
  8
Layer 1
 62
    18
420
    65793
370
     9
100
AcDbVertex
100
AcDb2dVertex
 10
20.62624193503761
 20
-3.229832258714963
 30
0.0
  0
VERTEX
  5
387
330
381
100
AcDbEntity
  8
Layer 1
 62
    18
420
    65793
370
     9
100
AcDbVertex
100
AcDb2dVertex
 10
20.43392577356819
 20
-3.068819559405362
 30
0.0
  0
VERTEX
  5
388
330
381
100
AcDbEntity
  8
Layer 1
 62
    18
420
    65793
370
     9
100
AcDbVertex
100
AcDb2dVertex
 10
20.21033909402584
 20
-2.973823185734238
 30
0.0
  0
VERTEX
  5
389
330
381
100
AcDbEntity
  8
Layer 1
 62
    18
420
    65793
370
     9
100
AcDbVertex
100
AcDb2dVertex
 10
19.98442899555898
 20
-2.876477078435516
 30
0.0
  0
VERTEX
  5
38A
330
381
100
AcDbEntity
  8
Layer 1
 62
    18
420
    65793
370
     9
100
AcDbVertex
100
AcDb2dVertex
 10
19.47129194178205
 20
-2.876477078435516
 30
0.0
  0
VERTEX
  5
38B
330
381
100
AcDbEntity
  8
Layer 1
 62
    18
420
    65793
370
     9
100
AcDbVertex
100
AcDb2dVertex
 10
19.21517098319637
 20
-2.973823185734238
 30
0.0
  0
VERTEX
  5
38C
330
381
100
AcDbEntity
  8
Layer 1
 62
    18
420
    65793
370
     9
100
AcDbVertex
100
AcDb2dVertex
 10
18.99163689649874
 20
-3.068819559405362
 30
0.0
  0
VERTEX
  5
38D
330
381
100
AcDbEntity
  8
Layer 1
 62
    18
420
    65793
370
     9
100
AcDbVertex
100
AcDb2dVertex
 10
18.7992681421846
 20
-3.229832258714963
 30
0.0
  0
VERTEX
  5
38E
330
381
100
AcDbEntity
  8
Layer 1
 62
    18
420
    65793
370
     9
100
AcDbVertex
100
AcDb2dVertex
 10
18.63814355486751
 20
-3.422286631758097
 30
0.0
  0
VERTEX
  5
38F
330
381
100
AcDbEntity
  8
Layer 1
 62
    18
420
    65793
370
     9
100
AcDbVertex
100
AcDb2dVertex
 10
18.54202826285063
 20
-3.644504297385392
 30
0.0
  0
VERTEX
  5
390
330
381
100
AcDbEntity
  8
Layer 1
 62
    18
420
    65793
370
     9
100
AcDbVertex
100
AcDb2dVertex
 10
18.4459129708299
 20
-3.904205808915522
 30
0.0
  0
VERTEX
  5
391
330
381
100
AcDbEntity
  8
Layer 1
 62
    18
420
    65793
370
     9
100
AcDbVertex
100
AcDb2dVertex
 10
18.4459129708299
 20
-4.383775252449198
 30
0.0
  0
VERTEX
  5
392
330
381
100
AcDbEntity
  8
Layer 1
 62
    18
420
    65793
370
     9
100
AcDbVertex
100
AcDb2dVertex
 10
18.54202826285063
 20
-4.641015138282293
 30
0.0
  0
VERTEX
  5
393
330
381
100
AcDbEntity
  8
Layer 1
 62
    18
420
    65793
370
     9
100
AcDbVertex
100
AcDb2dVertex
 10
18.63814355486751
 20
-4.865694429602774
 30
0.0
  0
VERTEX
  5
394
330
381
100
AcDbEntity
  8
Layer 1
 62
    18
420
    65793
370
     9
100
AcDbVertex
100
AcDb2dVertex
 10
18.7992681421846
 20
-5.058148802649757
 30
0.0
  0
VERTEX
  5
395
330
381
100
AcDbEntity
  8
Layer 1
 62
    18
420
    65793
370
     9
100
AcDbVertex
100
AcDb2dVertex
 10
18.99163689649874
 20
-5.218042581184129
 30
0.0
  0
VERTEX
  5
396
330
381
100
AcDbEntity
  8
Layer 1
 62
    18
420
    65793
370
     9
100
AcDbVertex
100
AcDb2dVertex
 10
19.21517098319637
 20
-5.346606578062107
 30
0.0
  0
VERTEX
  5
397
330
381
100
AcDbEntity
  8
Layer 1
 62
    18
420
    65793
370
     9
100
AcDbVertex
100
AcDb2dVertex
 10
19.47129194178205
 20
-5.411503982929205
 30
0.0
  0
VERTEX
  5
398
330
381
100
AcDbEntity
  8
Layer 1
 62
    18
420
    65793
370
     9
100
AcDbVertex
100
AcDb2dVertex
 10
19.72841992904273
 20
-5.443952685360829
 30
0.0
  0
VERTEX
  5
399
330
381
100
AcDbEntity
  8
Layer 1
 62
    18
420
    65793
370
     9
100
AcDbVertex
100
AcDb2dVertex
 10
19.95309921469187
 20
-5.411503982929205
 30
0.0
  0
VERTEX
  5
39A
330
381
100
AcDbEntity
  8
Layer 1
 62
    18
420
    65793
370
     9
100
AcDbVertex
100
AcDb2dVertex
 10
20.21033909402584
 20
-5.346606578062107
 30
0.0
  0
VERTEX
  5
39B
330
381
100
AcDbEntity
  8
Layer 1
 62
    18
420
    65793
370
     9
100
AcDbVertex
100
AcDb2dVertex
 10
20.43392577356819
 20
-5.218042581184129
 30
0.0
  0
VERTEX
  5
39C
330
381
100
AcDbEntity
  8
Layer 1
 62
    18
420
    65793
370
     9
100
AcDbVertex
100
AcDb2dVertex
 10
20.62624193503761
 20
-5.058148802649757
 30
0.0
  0
VERTEX
  5
39D
330
381
100
AcDbEntity
  8
Layer 1
 62
    18
420
    65793
370
     9
100
AcDbVertex
100
AcDb2dVertex
 10
20.78725463027756
 20
-4.865694429602774
 30
0.0
  0
VERTEX
  5
39E
330
381
100
AcDbEntity
  8
Layer 1
 62
    18
420
    65793
370
     9
100
AcDbVertex
100
AcDb2dVertex
 10
20.91481159523868
 20
-4.641015138282293
 30
0.0
  0
VERTEX
  5
39F
330
381
100
AcDbEntity
  8
Layer 1
 62
    18
420
    65793
370
     9
100
AcDbVertex
100
AcDb2dVertex
 10
20.97847818564403
 20
-4.417454767729341
 30
0.0
  0
VERTEX
  5
3A0
330
381
100
AcDbEntity
  8
Layer 1
 62
    18
420
    65793
370
     9
100
AcDbVertex
100
AcDb2dVertex
 10
21.01092688725556
 20
-4.15898406904773
 30
0.0
  0
SEQEND
  5
3A1
330
381
100
AcDbEntity
  8
Layer 1
 62
    18
420
    65793
370
     9
  0
POLYLINE
  5
3A2
330
2F9
100
AcDbEntity
  8
Layer 1
 62
    18
420
    65793
370
     9
100
AcDb2dPolyline
 66
     1
 10
0.0
 20
0.0
 30
0.0
  0
VERTEX
  5
3A3
330
3A2
100
AcDbEntity
  8
Layer 1
 62
    18
420
    65793
370
     9
100
AcDbVertex
100
AcDb2dVertex
 10
26.3667529264966
 20
7.03492313342254
 30
0.0
  0
VERTEX
  5
3A4
330
3A2
100
AcDbEntity
  8
Layer 1
 62
    18
420
    65793
370
     9
100
AcDbVertex
100
AcDb2dVertex
 10
41.76522833063569
 20
7.03492313342254
 30
0.0
  0
SEQEND
  5
3A5
330
3A2
100
AcDbEntity
  8
Layer 1
 62
    18
420
    65793
370
     9
  0
POLYLINE
  5
3A6
330
2F9
100
AcDbEntity
  8
Layer 1
 62
    18
420
    65793
370
     9
100
AcDb2dPolyline
 66
     1
 10
0.0
 20
0.0
 30
0.0
  0
VERTEX
  5
3A7
330
3A6
100
AcDbEntity
  8
Layer 1
 62
    18
420
    65793
370
     9
100
AcDbVertex
100
AcDb2dVertex
 10
41.76522833063569
 20
-15.35412208437037
 30
0.0
  0
VERTEX
  5
3A8
330
3A6
100
AcDbEntity
  8
Layer 1
 62
    18
420
    65793
370
     9
100
AcDbVertex
100
AcDb2dVertex
 10
31.46679368337566
 20
-15.35412208437037
 30
0.0
  0
SEQEND
  5
3A9
330
3A6
100
AcDbEntity
  8
Layer 1
 62
    18
420
    65793
370
     9
  0
POLYLINE
  5
3AA
330
2F9
100
AcDbEntity
  8
Layer 1
 62
    18
420
    65793
370
     9
100
AcDb2dPolyline
 66
     1
 10
0.0
 20
0.0
 30
0.0
  0
VERTEX
  5
3AB
330
3AA
100
AcDbEntity
  8
Layer 1
 62
    18
420
    65793
370
     9
100
AcDbVertex
100
AcDb2dVertex
 10
25.18047315237779
 20
5.878630406068407
 30
0.0
  0
VERTEX
  5
3AC
330
3AA
100
AcDbEntity
  8
Layer 1
 62
    18
420
    65793
370
     9
100
AcDbVertex
100
AcDb2dVertex
 10
25.21292185399317
 20
6.103421589466026
 30
0.0
  0
VERTEX
  5
3AD
330
3AA
100
AcDbEntity
  8
Layer 1
 62
    18
420
    65793
370
     9
100
AcDbVertex
100
AcDb2dVertex
 10
25.27793114928953
 20
6.296882991211102
 30
0.0
  0
VERTEX
  5
3AE
330
3AA
100
AcDbEntity
  8
Layer 1
 62
    18
420
    65793
370
     9
100
AcDbVertex
100
AcDb2dVertex
 10
25.40529077032734
 20
6.521674174612571
 30
0.0
  0
VERTEX
  5
3AF
330
3AA
100
AcDbEntity
  8
Layer 1
 62
    18
420
    65793
370
     9
100
AcDbVertex
100
AcDb2dVertex
 10
25.53270940298421
 20
6.681456061069805
 30
0.0
  0
VERTEX
  5
3B0
330
3AA
100
AcDbEntity
  8
Layer 1
 62
    18
420
    65793
370
     9
100
AcDbVertex
100
AcDb2dVertex
 10
25.693722098228
 20
6.842580652460395
 30
0.0
  0
VERTEX
  5
3B1
330
3AA
100
AcDbEntity
  8
Layer 1
 62
    18
420
    65793
370
     9
100
AcDbVertex
100
AcDb2dVertex
 10
25.91851327595043
 20
6.939926759751416
 30
0.0
  0
VERTEX
  5
3B2
330
3AA
100
AcDbEntity
  8
Layer 1
 62
    18
420
    65793
370
     9
100
AcDbVertex
100
AcDb2dVertex
 10
26.14341634574616
 20
7.003593351766146
 30
0.0
  0
VERTEX
  5
3B3
330
3AA
100
AcDbEntity
  8
Layer 1
 62
    18
420
    65793
370
     9
100
AcDbVertex
100
AcDb2dVertex
 10
26.3667529264966
 20
7.03492313342254
 30
0.0
  0
SEQEND
  5
3B4
330
3AA
100
AcDbEntity
  8
Layer 1
 62
    18
420
    65793
370
     9
  0
POLYLINE
  5
3B5
330
2F9
100
AcDbEntity
  8
Layer 1
 62
    18
420
    65793
370
     9
100
AcDb2dPolyline
 66
     1
 10
0.0
 20
0.0
 30
0.0
  0
VERTEX
  5
3B6
330
3B5
100
AcDbEntity
  8
Layer 1
 62
    18
420
    65793
370
     9
100
AcDbVertex
100
AcDb2dVertex
 10
25.18047315237779
 20
-14.16661146743313
 30
0.0
  0
VERTEX
  5
3B7
330
3B5
100
AcDbEntity
  8
Layer 1
 62
    18
420
    65793
370
     9
100
AcDbVertex
100
AcDb2dVertex
 10
25.21292185399317
 20
-4.15898406904773
 30
0.0
  0
VERTEX
  5
3B8
330
3B5
100
AcDbEntity
  8
Layer 1
 62
    18
420
    65793
370
     9
100
AcDbVertex
100
AcDb2dVertex
 10
25.18047315237779
 20
5.878630406068407
 30
0.0
  0
SEQEND
  5
3B9
330
3B5
100
AcDbEntity
  8
Layer 1
 62
    18
420
    65793
370
     9
  0
POLYLINE
  5
3BA
330
2F9
100
AcDbEntity
  8
Layer 1
 62
    18
420
    65793
370
     9
100
AcDb2dPolyline
 66
     1
 10
0.0
 20
0.0
 30
0.0
  0
VERTEX
  5
3BB
330
3BA
100
AcDbEntity
  8
Layer 1
 62
    18
420
    65793
370
     9
100
AcDbVertex
100
AcDb2dVertex
 10
26.3667529264966
 20
-15.32279230271397
 30
0.0
  0
VERTEX
  5
3BC
330
3BA
100
AcDbEntity
  8
Layer 1
 62
    18
420
    65793
370
     9
100
AcDbVertex
100
AcDb2dVertex
 10
26.14341634574616
 20
-15.32279230271397
 30
0.0
  0
VERTEX
  5
3BD
330
3BA
100
AcDbEntity
  8
Layer 1
 62
    18
420
    65793
370
     9
100
AcDbVertex
100
AcDb2dVertex
 10
25.91851327595043
 20
-15.25800678992401
 30
0.0
  0
VERTEX
  5
3BE
330
3BA
100
AcDbEntity
  8
Layer 1
 62
    18
420
    65793
370
     9
100
AcDbVertex
100
AcDb2dVertex
 10
25.72505187909511
 20
-15.13056171382127
 30
0.0
  0
VERTEX
  5
3BF
330
3BA
100
AcDbEntity
  8
Layer 1
 62
    18
420
    65793
370
     9
100
AcDbVertex
100
AcDb2dVertex
 10
25.53270940298421
 20
-15.00199771694329
 30
0.0
  0
VERTEX
  5
3C0
330
3BA
100
AcDbEntity
  8
Layer 1
 62
    18
420
    65793
370
     9
100
AcDbVertex
100
AcDb2dVertex
 10
25.40529077032734
 20
-14.80853631519821
 30
0.0
  0
VERTEX
  5
3C1
330
3BA
100
AcDbEntity
  8
Layer 1
 62
    18
420
    65793
370
     9
100
AcDbVertex
100
AcDb2dVertex
 10
25.27793114928953
 20
-14.61608194215508
 30
0.0
  0
VERTEX
  5
3C2
330
3BA
100
AcDbEntity
  8
Layer 1
 62
    18
420
    65793
370
     9
100
AcDbVertex
100
AcDb2dVertex
 10
25.21292185399317
 20
-14.39140265083075
 30
0.0
  0
VERTEX
  5
3C3
330
3BA
100
AcDbEntity
  8
Layer 1
 62
    18
420
    65793
370
     9
100
AcDbVertex
100
AcDb2dVertex
 10
25.18047315237779
 20
-14.16661146743313
 30
0.0
  0
SEQEND
  5
3C4
330
3BA
100
AcDbEntity
  8
Layer 1
 62
    18
420
    65793
370
     9
  0
POLYLINE
  5
3C5
330
2F9
100
AcDbEntity
  8
Layer 1
 62
    18
420
    65793
370
     9
100
AcDb2dPolyline
 66
     1
 10
0.0
 20
0.0
 30
0.0
  0
VERTEX
  5
3C6
330
3C5
100
AcDbEntity
  8
Layer 1
 62
    18
420
    65793
370
     9
100
AcDbVertex
100
AcDb2dVertex
 10
31.46679368337566
 20
-15.35412208437037
 30
0.0
  0
VERTEX
  5
3C7
330
3C5
100
AcDbEntity
  8
Layer 1
 62
    18
420
    65793
370
     9
100
AcDbVertex
100
AcDb2dVertex
 10
26.3667529264966
 20
-15.32279230271397
 30
0.0
  0
SEQEND
  5
3C8
330
3C5
100
AcDbEntity
  8
Layer 1
 62
    18
420
    65793
370
     9
  0
POLYLINE
  5
3C9
330
2F9
100
AcDbEntity
  8
Layer 1
 62
    18
420
    65793
370
     9
100
AcDb2dPolyline
 66
     1
 10
0.0
 20
0.0
 30
0.0
  0
VERTEX
  5
3CA
330
3C9
100
AcDbEntity
  8
Layer 1
 62
    18
420
    65793
370
     9
100
AcDbVertex
100
AcDb2dVertex
 10
14.43614858813375
 20
9.055358374176754
 30
0.0
  0
VERTEX
  5
3CB
330
3C9
100
AcDbEntity
  8
Layer 1
 62
    18
420
    65793
370
     9
100
AcDbVertex
100
AcDb2dVertex
 10
14.27625481363438
 20
8.991691782158174
 30
0.0
  0
VERTEX
  5
3CC
330
3C9
100
AcDbEntity
  8
Layer 1
 62
    18
420
    65793
370
     9
100
AcDbVertex
100
AcDb2dVertex
 10
14.21247633115575
 20
8.864246706059276
 30
0.0
  0
SEQEND
  5
3CD
330
3C9
100
AcDbEntity
  8
Layer 1
 62
    18
420
    65793
370
     9
  0
POLYLINE
  5
3CE
330
2F9
100
AcDbEntity
  8
Layer 1
 62
    18
420
    65793
370
     9
100
AcDb2dPolyline
 66
     1
 10
0.0
 20
0.0
 30
0.0
  0
VERTEX
  5
3CF
330
3CE
100
AcDbEntity
  8
Layer 1
 62
    18
420
    65793
370
     9
100
AcDbVertex
100
AcDb2dVertex
 10
14.21247633115575
 20
-17.15110884664492
 30
0.0
  0
VERTEX
  5
3D0
330
3CE
100
AcDbEntity
  8
Layer 1
 62
    18
420
    65793
370
     9
100
AcDbVertex
100
AcDb2dVertex
 10
14.27625481363438
 20
-17.31100262518314
 30
0.0
  0
VERTEX
  5
3D1
330
3CE
100
AcDbEntity
  8
Layer 1
 62
    18
420
    65793
370
     9
100
AcDbVertex
100
AcDb2dVertex
 10
14.43614858813375
 20
-17.37578813796925
 30
0.0
  0
SEQEND
  5
3D2
330
3CE
100
AcDbEntity
  8
Layer 1
 62
    18
420
    65793
370
     9
  0
POLYLINE
  5
3D3
330
2F9
100
AcDbEntity
  8
Layer 1
 62
    18
420
    65793
370
     9
100
AcDb2dPolyline
 66
     1
 10
0.0
 20
0.0
 30
0.0
  0
VERTEX
  5
3D4
330
3D3
100
AcDbEntity
  8
Layer 1
 62
    18
420
    65793
370
     9
100
AcDbVertex
100
AcDb2dVertex
 10
38.17248570969573
 20
-12.53309903016521
 30
0.0
  0
VERTEX
  5
3D5
330
3D3
100
AcDbEntity
  8
Layer 1
 62
    18
420
    65793
370
     9
100
AcDbVertex
100
AcDb2dVertex
 10
31.46679368337566
 20
-12.53309903016521
 30
0.0
  0
SEQEND
  5
3D6
330
3D3
100
AcDbEntity
  8
Layer 1
 62
    18
420
    65793
370
     9
  0
POLYLINE
  5
3D7
330
2F9
100
AcDbEntity
  8
Layer 1
 62
    18
420
    65793
370
     9
100
AcDb2dPolyline
 66
     1
 10
0.0
 20
0.0
 30
0.0
  0
VERTEX
  5
3D8
330
3D7
100
AcDbEntity
  8
Layer 1
 62
    18
420
    65793
370
     9
100
AcDbVertex
100
AcDb2dVertex
 10
38.17248570969573
 20
4.245117968804344
 30
0.0
  0
VERTEX
  5
3D9
330
3D7
100
AcDbEntity
  8
Layer 1
 62
    18
420
    65793
370
     9
100
AcDbVertex
100
AcDb2dVertex
 10
38.55605174116926
 20
4.21155034559749
 30
0.0
  0
VERTEX
  5
3DA
330
3D7
100
AcDbEntity
  8
Layer 1
 62
    18
420
    65793
370
     9
100
AcDbVertex
100
AcDb2dVertex
 10
38.97296161085216
 20
4.181451376789614
 30
0.0
  0
VERTEX
  5
3DB
330
3D7
100
AcDbEntity
  8
Layer 1
 62
    18
420
    65793
370
     9
100
AcDbVertex
100
AcDb2dVertex
 10
39.35764656307011
 20
4.116442079845378
 30
0.0
  0
VERTEX
  5
3DC
330
3D7
100
AcDbEntity
  8
Layer 1
 62
    18
420
    65793
370
     9
100
AcDbVertex
100
AcDb2dVertex
 10
39.77601102972116
 20
4.051656567063119
 30
0.0
  0
VERTEX
  5
3DD
330
3D7
100
AcDbEntity
  8
Layer 1
 62
    18
420
    65793
370
     9
100
AcDbVertex
100
AcDb2dVertex
 10
40.16058408986582
 20
3.956660193388144
 30
0.0
  0
VERTEX
  5
3DE
330
3D7
100
AcDbEntity
  8
Layer 1
 62
    18
420
    65793
370
     9
100
AcDbVertex
100
AcDb2dVertex
 10
40.54526904208377
 20
3.826865383657799
 30
0.0
  0
VERTEX
  5
3DF
330
3D7
100
AcDbEntity
  8
Layer 1
 62
    18
420
    65793
370
     9
100
AcDbVertex
100
AcDb2dVertex
 10
40.92995399430173
 20
3.698301386779821
 30
0.0
  0
VERTEX
  5
3E0
330
3D7
100
AcDbEntity
  8
Layer 1
 62
    18
420
    65793
370
     9
100
AcDbVertex
100
AcDb2dVertex
 10
41.31452705445024
 20
3.539638421093967
 30
0.0
  0
VERTEX
  5
3E1
330
3D7
100
AcDbEntity
  8
Layer 1
 62
    18
420
    65793
370
     9
100
AcDbVertex
100
AcDb2dVertex
 10
41.66788222580109
 20
3.378513829711077
 30
0.0
  0
VERTEX
  5
3E2
330
3D7
100
AcDbEntity
  8
Layer 1
 62
    18
420
    65793
370
     9
100
AcDbVertex
100
AcDb2dVertex
 10
42.02126425713493
 20
3.185052427966002
 30
0.0
  0
VERTEX
  5
3E3
330
3D7
100
AcDbEntity
  8
Layer 1
 62
    18
420
    65793
370
     9
100
AcDbVertex
100
AcDb2dVertex
 10
42.37459256850663
 20
2.993828867771386
 30
0.0
  0
VERTEX
  5
3E4
330
3D7
100
AcDbEntity
  8
Layer 1
 62
    18
420
    65793
370
     9
100
AcDbVertex
100
AcDb2dVertex
 10
42.72559800629148
 20
2.767918763598537
 30
0.0
  0
VERTEX
  5
3E5
330
3D7
100
AcDbEntity
  8
Layer 1
 62
    18
420
    65793
370
     9
100
AcDbVertex
100
AcDb2dVertex
 10
43.04773528885237
 20
2.514371316318698
 30
0.0
  0
VERTEX
  5
3E6
330
3D7
100
AcDbEntity
  8
Layer 1
 62
    18
420
    65793
370
     9
100
AcDbVertex
100
AcDb2dVertex
 10
43.36864175858783
 20
2.254669804784718
 30
0.0
  0
VERTEX
  5
3E7
330
3D7
100
AcDbEntity
  8
Layer 1
 62
    18
420
    65793
370
     9
100
AcDbVertex
100
AcDb2dVertex
 10
43.6558687138979
 20
1.999891544652511
 30
0.0
  0
VERTEX
  5
3E8
330
3D7
100
AcDbEntity
  8
Layer 1
 62
    18
420
    65793
370
     9
100
AcDbVertex
100
AcDb2dVertex
 10
43.94566918692053
 20
1.710091064306805
 30
0.0
  0
VERTEX
  5
3E9
330
3D7
100
AcDbEntity
  8
Layer 1
 62
    18
420
    65793
370
     9
100
AcDbVertex
100
AcDb2dVertex
 10
44.20167825343293
 20
1.421745180971594
 30
0.0
  0
VERTEX
  5
3EA
330
3D7
100
AcDbEntity
  8
Layer 1
 62
    18
420
    65793
370
     9
100
AcDbVertex
100
AcDb2dVertex
 10
44.45903002484018
 20
1.099607890275252
 30
0.0
  0
VERTEX
  5
3EB
330
3D7
100
AcDbEntity
  8
Layer 1
 62
    18
420
    65793
370
     9
100
AcDbVertex
100
AcDb2dVertex
 10
44.71593422795429
 20
0.7799322252797968
 30
0.0
  0
VERTEX
  5
3EC
330
3D7
100
AcDbEntity
  8
Layer 1
 62
    18
420
    65793
370
     9
100
AcDbVertex
100
AcDb2dVertex
 10
44.93960648492844
 20
0.4589138553586855
 30
0.0
  0
VERTEX
  5
3ED
330
3D7
100
AcDbEntity
  8
Layer 1
 62
    18
420
    65793
370
     9
100
AcDbVertex
100
AcDb2dVertex
 10
45.16439766264702
 20
0.1055586750792381
 30
0.0
  0
VERTEX
  5
3EE
330
3D7
100
AcDbEntity
  8
Layer 1
 62
    18
420
    65793
370
     9
100
AcDbVertex
100
AcDb2dVertex
 10
45.35788600377765
 20
-0.2453348794993231
 30
0.0
  0
VERTEX
  5
3EF
330
3D7
100
AcDbEntity
  8
Layer 1
 62
    18
420
    65793
370
     9
100
AcDbVertex
100
AcDb2dVertex
 10
45.516522021184
 20
-0.6300198414351642
 30
0.0
  0
VERTEX
  5
3F0
330
3D7
100
AcDbEntity
  8
Layer 1
 62
    18
420
    65793
370
     9
100
AcDbVertex
100
AcDb2dVertex
 10
45.67764660849723
 20
-0.9846058345631297
 30
0.0
  0
VERTEX
  5
3F1
330
3D7
100
AcDbEntity
  8
Layer 1
 62
    18
420
    65793
370
     9
100
AcDbVertex
100
AcDb2dVertex
 10
45.83877119581432
 20
-1.369290796498971
 30
0.0
  0
VERTEX
  5
3F2
330
3D7
100
AcDbEntity
  8
Layer 1
 62
    18
420
    65793
370
     9
100
AcDbVertex
100
AcDb2dVertex
 10
45.96733518944659
 20
-1.753863866361524
 30
0.0
  0
VERTEX
  5
3F3
330
3D7
100
AcDbEntity
  8
Layer 1
 62
    18
420
    65793
370
     9
100
AcDbVertex
100
AcDb2dVertex
 10
46.06221966864575
 20
-2.139779641145883
 30
0.0
  0
VERTEX
  5
3F4
330
3D7
100
AcDbEntity
  8
Layer 1
 62
    18
420
    65793
370
     9
100
AcDbVertex
100
AcDb2dVertex
 10
46.15833496066263
 20
-2.524352711008437
 30
0.0
  0
VERTEX
  5
3F5
330
3D7
100
AcDbEntity
  8
Layer 1
 62
    18
420
    65793
370
     9
100
AcDbVertex
100
AcDb2dVertex
 10
46.22334425595898
 20
-2.941486375379752
 30
0.0
  0
VERTEX
  5
3F6
330
3D7
100
AcDbEntity
  8
Layer 1
 62
    18
420
    65793
370
     9
100
AcDbVertex
100
AcDb2dVertex
 10
46.25445025267951
 20
-3.327178366009835
 30
0.0
  0
VERTEX
  5
3F7
330
3D7
100
AcDbEntity
  8
Layer 1
 62
    18
420
    65793
370
     9
100
AcDbVertex
100
AcDb2dVertex
 10
46.2882416591859
 20
-3.743081217528782
 30
0.0
  0
VERTEX
  5
3F8
330
3D7
100
AcDbEntity
  8
Layer 1
 62
    18
420
    65793
370
     9
100
AcDbVertex
100
AcDb2dVertex
 10
46.2882416591859
 20
-4.544899843835939
 30
0.0
  0
VERTEX
  5
3F9
330
3D7
100
AcDbEntity
  8
Layer 1
 62
    18
420
    65793
370
     9
100
AcDbVertex
100
AcDb2dVertex
 10
46.25445025267951
 20
-4.962033508203404
 30
0.0
  0
VERTEX
  5
3FA
330
3D7
100
AcDbEntity
  8
Layer 1
 62
    18
420
    65793
370
     9
100
AcDbVertex
100
AcDb2dVertex
 10
46.22334425595898
 20
-5.346606578062107
 30
0.0
  0
VERTEX
  5
3FB
330
3D7
100
AcDbEntity
  8
Layer 1
 62
    18
420
    65793
370
     9
100
AcDbVertex
100
AcDb2dVertex
 10
46.15833496066263
 20
-5.764859163204802
 30
0.0
  0
VERTEX
  5
3FC
330
3D7
100
AcDbEntity
  8
Layer 1
 62
    18
420
    65793
370
     9
100
AcDbVertex
100
AcDb2dVertex
 10
46.06221966864575
 20
-6.149432233067356
 30
0.0
  0
VERTEX
  5
3FD
330
3D7
100
AcDbEntity
  8
Layer 1
 62
    18
420
    65793
370
     9
100
AcDbVertex
100
AcDb2dVertex
 10
45.96733518944659
 20
-6.535348007851715
 30
0.0
  0
VERTEX
  5
3FE
330
3D7
100
AcDbEntity
  8
Layer 1
 62
    18
420
    65793
370
     9
100
AcDbVertex
100
AcDb2dVertex
 10
45.83877119581432
 20
-6.917459452009531
 30
0.0
  0
VERTEX
  5
3FF
330
3D7
100
AcDbEntity
  8
Layer 1
 62
    18
420
    65793
370
     9
100
AcDbVertex
100
AcDb2dVertex
 10
45.67764660849723
 20
-7.303375226801591
 30
0.0
  0
VERTEX
  5
400
330
3D7
100
AcDbEntity
  8
Layer 1
 62
    18
420
    65793
370
     9
100
AcDbVertex
100
AcDb2dVertex
 10
45.516522021184
 20
-7.689179109512662
 30
0.0
  0
VERTEX
  5
401
330
3D7
100
AcDbEntity
  8
Layer 1
 62
    18
420
    65793
370
     9
100
AcDbVertex
100
AcDb2dVertex
 10
45.35788600377765
 20
-8.04130347693589
 30
0.0
  0
VERTEX
  5
402
330
3D7
100
AcDbEntity
  8
Layer 1
 62
    18
420
    65793
370
     9
100
AcDbVertex
100
AcDb2dVertex
 10
45.16439766264702
 20
-8.394770549296327
 30
0.0
  0
VERTEX
  5
403
330
3D7
100
AcDbEntity
  8
Layer 1
 62
    18
420
    65793
370
     9
100
AcDbVertex
100
AcDb2dVertex
 10
44.93960648492844
 20
-8.748125729575774
 30
0.0
  0
VERTEX
  5
404
330
3D7
100
AcDbEntity
  8
Layer 1
 62
    18
420
    65793
370
     9
100
AcDbVertex
100
AcDb2dVertex
 10
44.71593422795429
 20
-9.067801394567379
 30
0.0
  0
VERTEX
  5
405
330
3D7
100
AcDbEntity
  8
Layer 1
 62
    18
420
    65793
370
     9
100
AcDbVertex
100
AcDb2dVertex
 10
44.49125494230514
 20
-9.388707872415203
 30
0.0
  0
VERTEX
  5
406
330
3D7
100
AcDbEntity
  8
Layer 1
 62
    18
420
    65793
370
     9
100
AcDbVertex
100
AcDb2dVertex
 10
44.23412695504446
 20
-9.710957055188683
 30
0.0
  0
VERTEX
  5
407
330
3D7
100
AcDbEntity
  8
Layer 1
 62
    18
420
    65793
370
     9
100
AcDbVertex
100
AcDb2dVertex
 10
43.94566918692053
 20
-9.998184017752514
 30
0.0
  0
VERTEX
  5
408
330
3D7
100
AcDbEntity
  8
Layer 1
 62
    18
420
    65793
370
     9
100
AcDbVertex
100
AcDb2dVertex
 10
43.6558687138979
 20
-10.28787260601723
 30
0.0
  0
VERTEX
  5
409
330
3D7
100
AcDbEntity
  8
Layer 1
 62
    18
420
    65793
370
     9
100
AcDbVertex
100
AcDb2dVertex
 10
43.36864175858783
 20
-10.57633038142958
 30
0.0
  0
VERTEX
  5
40A
330
3D7
100
AcDbEntity
  8
Layer 1
 62
    18
420
    65793
370
     9
100
AcDbVertex
100
AcDb2dVertex
 10
43.04773528885237
 20
-10.83110864156179
 30
0.0
  0
VERTEX
  5
40B
330
3D7
100
AcDbEntity
  8
Layer 1
 62
    18
420
    65793
370
     9
100
AcDbVertex
100
AcDb2dVertex
 10
42.72559800629148
 20
-11.05589982496326
 30
0.0
  0
VERTEX
  5
40C
330
3D7
100
AcDbEntity
  8
Layer 1
 62
    18
420
    65793
370
     9
100
AcDbVertex
100
AcDb2dVertex
 10
42.37459256850663
 20
-11.28180992913611
 30
0.0
  0
VERTEX
  5
40D
330
3D7
100
AcDbEntity
  8
Layer 1
 62
    18
420
    65793
370
     9
100
AcDbVertex
100
AcDb2dVertex
 10
42.02126425713493
 20
-11.50783192538995
 30
0.0
  0
VERTEX
  5
40E
330
3D7
100
AcDbEntity
  8
Layer 1
 62
    18
420
    65793
370
     9
100
AcDbVertex
100
AcDb2dVertex
 10
41.66788222580109
 20
-11.66649489107195
 30
0.0
  0
VERTEX
  5
40F
330
3D7
100
AcDbEntity
  8
Layer 1
 62
    18
420
    65793
370
     9
100
AcDbVertex
100
AcDb2dVertex
 10
41.31452705445024
 20
-11.85883737204179
 30
0.0
  0
VERTEX
  5
410
330
3D7
100
AcDbEntity
  8
Layer 1
 62
    18
420
    65793
370
     9
100
AcDbVertex
100
AcDb2dVertex
 10
40.92995399430173
 20
-12.0198500713514
 30
0.0
  0
VERTEX
  5
411
330
3D7
100
AcDbEntity
  8
Layer 1
 62
    18
420
    65793
370
     9
100
AcDbVertex
100
AcDb2dVertex
 10
40.54526904208377
 20
-12.14841406823322
 30
0.0
  0
VERTEX
  5
412
330
3D7
100
AcDbEntity
  8
Layer 1
 62
    18
420
    65793
370
     9
100
AcDbVertex
100
AcDb2dVertex
 10
40.16058408986582
 20
-12.24452936267188
 30
0.0
  0
VERTEX
  5
413
330
3D7
100
AcDbEntity
  8
Layer 1
 62
    18
420
    65793
370
     9
100
AcDbVertex
100
AcDb2dVertex
 10
39.77601102972116
 20
-12.34086844127636
 30
0.0
  0
VERTEX
  5
414
330
3D7
100
AcDbEntity
  8
Layer 1
 62
    18
420
    65793
370
     9
100
AcDbVertex
100
AcDb2dVertex
 10
39.39009526468164
 20
-12.43698373571886
 30
0.0
  0
VERTEX
  5
415
330
3D7
100
AcDbEntity
  8
Layer 1
 62
    18
420
    65793
370
     9
100
AcDbVertex
100
AcDb2dVertex
 10
38.97296161085216
 20
-12.46943243815048
 30
0.0
  0
VERTEX
  5
416
330
3D7
100
AcDbEntity
  8
Layer 1
 62
    18
420
    65793
370
     9
100
AcDbVertex
100
AcDb2dVertex
 10
38.55605174116926
 20
-12.53309903016521
 30
0.0
  0
VERTEX
  5
417
330
3D7
100
AcDbEntity
  8
Layer 1
 62
    18
420
    65793
370
     9
100
AcDbVertex
100
AcDb2dVertex
 10
38.17248570969573
 20
-12.53309903016521
 30
0.0
  0
SEQEND
  5
418
330
3D7
100
AcDbEntity
  8
Layer 1
 62
    18
420
    65793
370
     9
  0
POLYLINE
  5
419
330
2F9
100
AcDbEntity
  8
Layer 1
 62
    18
420
    65793
370
     9
100
AcDb2dPolyline
 66
     1
 10
0.0
 20
0.0
 30
0.0
  0
VERTEX
  5
41A
330
419
100
AcDbEntity
  8
Layer 1
 62
    18
420
    65793
370
     9
100
AcDbVertex
100
AcDb2dVertex
 10
27.45826011349723
 20
4.276335858383599
 30
0.0
  0
VERTEX
  5
41B
330
419
100
AcDbEntity
  8
Layer 1
 62
    18
420
    65793
370
     9
100
AcDbVertex
100
AcDb2dVertex
 10
32.81665967045084
 20
4.245117968804344
 30
0.0
  0
VERTEX
  5
41C
330
419
100
AcDbEntity
  8
Layer 1
 62
    18
420
    65793
370
     9
100
AcDbVertex
100
AcDb2dVertex
 10
38.17248570969573
 20
4.245117968804344
 30
0.0
  0
SEQEND
  5
41D
330
419
100
AcDbEntity
  8
Layer 1
 62
    18
420
    65793
370
     9
  0
POLYLINE
  5
41E
330
2F9
100
AcDbEntity
  8
Layer 1
 62
    18
420
    65793
370
     9
100
AcDb2dPolyline
 66
     1
 10
0.0
 20
0.0
 30
0.0
  0
VERTEX
  5
41F
330
41E
100
AcDbEntity
  8
Layer 1
 62
    18
420
    65793
370
     9
100
AcDbVertex
100
AcDb2dVertex
 10
31.46679368337566
 20
-12.53309903016521
 30
0.0
  0
VERTEX
  5
420
330
41E
100
AcDbEntity
  8
Layer 1
 62
    18
420
    65793
370
     9
100
AcDbVertex
100
AcDb2dVertex
 10
27.45826011349723
 20
-12.56554773259684
 30
0.0
  0
SEQEND
  5
421
330
41E
100
AcDbEntity
  8
Layer 1
 62
    18
420
    65793
370
     9
  0
POLYLINE
  5
422
330
2F9
100
AcDbEntity
  8
Layer 1
 62
    18
420
    65793
370
     9
100
AcDb2dPolyline
 66
     1
 10
0.0
 20
0.0
 30
0.0
  0
VERTEX
  5
423
330
422
100
AcDbEntity
  8
Layer 1
 62
    18
420
    65793
370
     9
100
AcDbVertex
100
AcDb2dVertex
 10
27.45826011349723
 20
4.276335858383599
 30
0.0
  0
VERTEX
  5
424
330
422
100
AcDbEntity
  8
Layer 1
 62
    18
420
    65793
370
     9
100
AcDbVertex
100
AcDb2dVertex
 10
27.20102023415942
 20
4.21155034559749
 30
0.0
  0
VERTEX
  5
425
330
422
100
AcDbEntity
  8
Layer 1
 62
    18
420
    65793
370
     9
100
AcDbVertex
100
AcDb2dVertex
 10
26.97737445712713
 20
4.051656567063119
 30
0.0
  0
VERTEX
  5
426
330
422
100
AcDbEntity
  8
Layer 1
 62
    18
420
    65793
370
     9
100
AcDbVertex
100
AcDb2dVertex
 10
26.8164471740186
 20
3.826865383657799
 30
0.0
  0
VERTEX
  5
427
330
422
100
AcDbEntity
  8
Layer 1
 62
    18
420
    65793
370
     9
100
AcDbVertex
100
AcDb2dVertex
 10
26.7514378787184
 20
3.570856310677073
 30
0.0
  0
SEQEND
  5
428
330
422
100
AcDbEntity
  8
Layer 1
 62
    18
420
    65793
370
     9
  0
POLYLINE
  5
429
330
2F9
100
AcDbEntity
  8
Layer 1
 62
    18
420
    65793
370
     9
100
AcDb2dPolyline
 66
     1
 10
0.0
 20
0.0
 30
0.0
  0
VERTEX
  5
42A
330
429
100
AcDbEntity
  8
Layer 1
 62
    18
420
    65793
370
     9
100
AcDbVertex
100
AcDb2dVertex
 10
26.7514378787184
 20
-11.85883737204179
 30
0.0
  0
VERTEX
  5
42B
330
429
100
AcDbEntity
  8
Layer 1
 62
    18
420
    65793
370
     9
100
AcDbVertex
100
AcDb2dVertex
 10
26.8164471740186
 20
-12.14841406823322
 30
0.0
  0
VERTEX
  5
42C
330
429
100
AcDbEntity
  8
Layer 1
 62
    18
420
    65793
370
     9
100
AcDbVertex
100
AcDb2dVertex
 10
26.97737445712713
 20
-12.37320525163084
 30
0.0
  0
VERTEX
  5
42D
330
429
100
AcDbEntity
  8
Layer 1
 62
    18
420
    65793
370
     9
100
AcDbVertex
100
AcDb2dVertex
 10
27.20102023415942
 20
-12.50076221981073
 30
0.0
  0
VERTEX
  5
42E
330
429
100
AcDbEntity
  8
Layer 1
 62
    18
420
    65793
370
     9
100
AcDbVertex
100
AcDb2dVertex
 10
27.45826011349723
 20
-12.56554773259684
 30
0.0
  0
SEQEND
  5
42F
330
429
100
AcDbEntity
  8
Layer 1
 62
    18
420
    65793
370
     9
  0
POLYLINE
  5
430
330
2F9
100
AcDbEntity
  8
Layer 1
 62
    18
420
    65793
370
     9
100
AcDb2dPolyline
 66
     1
 10
0.0
 20
0.0
 30
0.0
  0
VERTEX
  5
431
330
430
100
AcDbEntity
  8
Layer 1
 62
    18
420
    65793
370
     9
100
AcDbVertex
100
AcDb2dVertex
 10
26.7514378787184
 20
-11.85883737204179
 30
0.0
  0
VERTEX
  5
432
330
430
100
AcDbEntity
  8
Layer 1
 62
    18
420
    65793
370
     9
100
AcDbVertex
100
AcDb2dVertex
 10
26.7851173931515
 20
-4.15898406904773
 30
0.0
  0
VERTEX
  5
433
330
430
100
AcDbEntity
  8
Layer 1
 62
    18
420
    65793
370
     9
100
AcDbVertex
100
AcDb2dVertex
 10
26.7514378787184
 20
3.570856310677073
 30
0.0
  0
SEQEND
  5
434
330
430
100
AcDbEntity
  8
Layer 1
 62
    18
420
    65793
370
     9
  0
POLYLINE
  5
435
330
2F9
100
AcDbEntity
  8
Layer 1
 62
    18
420
    65793
370
     9
100
AcDb2dPolyline
 66
     1
 10
0.0
 20
0.0
 30
0.0
  0
VERTEX
  5
436
330
435
100
AcDbEntity
  8
Layer 1
 62
    18
420
    65793
370
     9
100
AcDbVertex
100
AcDb2dVertex
 10
25.8860645743389
 20
-3.422286631758097
 30
0.0
  0
VERTEX
  5
437
330
435
100
AcDbEntity
  8
Layer 1
 62
    18
420
    65793
370
     9
100
AcDbVertex
100
AcDb2dVertex
 10
25.91851327595043
 20
-3.422286631758097
 30
0.0
  0
VERTEX
  5
438
330
435
100
AcDbEntity
  8
Layer 1
 62
    18
420
    65793
370
     9
100
AcDbVertex
100
AcDb2dVertex
 10
25.91851327595043
 20
-3.551969549415155
 30
0.0
  0
VERTEX
  5
439
330
435
100
AcDbEntity
  8
Layer 1
 62
    18
420
    65793
370
     9
100
AcDbVertex
100
AcDb2dVertex
 10
25.95096197756197
 20
-3.615748033503173
 30
0.0
  0
VERTEX
  5
43A
330
435
100
AcDbEntity
  8
Layer 1
 62
    18
420
    65793
370
     9
100
AcDbVertex
100
AcDb2dVertex
 10
25.95096197756197
 20
-3.86940737286015
 30
0.0
  0
VERTEX
  5
43B
330
435
100
AcDbEntity
  8
Layer 1
 62
    18
420
    65793
370
     9
100
AcDbVertex
100
AcDb2dVertex
 10
25.98229175842907
 20
-4.15898406904773
 30
0.0
  0
VERTEX
  5
43C
330
435
100
AcDbEntity
  8
Layer 1
 62
    18
420
    65793
370
     9
100
AcDbVertex
100
AcDb2dVertex
 10
25.95096197756197
 20
-4.417454767729341
 30
0.0
  0
VERTEX
  5
43D
330
435
100
AcDbEntity
  8
Layer 1
 62
    18
420
    65793
370
     9
100
AcDbVertex
100
AcDb2dVertex
 10
25.95096197756197
 20
-4.672233027865398
 30
0.0
  0
VERTEX
  5
43E
330
435
100
AcDbEntity
  8
Layer 1
 62
    18
420
    65793
370
     9
100
AcDbVertex
100
AcDb2dVertex
 10
25.91851327595043
 20
-4.76957913515642
 30
0.0
  0
VERTEX
  5
43F
330
435
100
AcDbEntity
  8
Layer 1
 62
    18
420
    65793
370
     9
100
AcDbVertex
100
AcDb2dVertex
 10
25.91851327595043
 20
-4.865694429602774
 30
0.0
  0
VERTEX
  5
440
330
435
100
AcDbEntity
  8
Layer 1
 62
    18
420
    65793
370
     9
100
AcDbVertex
100
AcDb2dVertex
 10
25.8860645743389
 20
-4.898255024115386
 30
0.0
  0
VERTEX
  5
441
330
435
100
AcDbEntity
  8
Layer 1
 62
    18
420
    65793
370
     9
100
AcDbVertex
100
AcDb2dVertex
 10
25.85473479346795
 20
-4.865694429602774
 30
0.0
  0
VERTEX
  5
442
330
435
100
AcDbEntity
  8
Layer 1
 62
    18
420
    65793
370
     9
100
AcDbVertex
100
AcDb2dVertex
 10
25.85473479346795
 20
-4.76957913515642
 30
0.0
  0
VERTEX
  5
443
330
435
100
AcDbEntity
  8
Layer 1
 62
    18
420
    65793
370
     9
100
AcDbVertex
100
AcDb2dVertex
 10
25.82116717111199
 20
-4.672233027865398
 30
0.0
  0
VERTEX
  5
444
330
435
100
AcDbEntity
  8
Layer 1
 62
    18
420
    65793
370
     9
100
AcDbVertex
100
AcDb2dVertex
 10
25.82116717111199
 20
-4.447553736537216
 30
0.0
  0
VERTEX
  5
445
330
435
100
AcDbEntity
  8
Layer 1
 62
    18
420
    65793
370
     9
100
AcDbVertex
100
AcDb2dVertex
 10
25.78994928232202
 20
-4.15898406904773
 30
0.0
  0
VERTEX
  5
446
330
435
100
AcDbEntity
  8
Layer 1
 62
    18
420
    65793
370
     9
100
AcDbVertex
100
AcDb2dVertex
 10
25.82116717111199
 20
-3.86940737286015
 30
0.0
  0
VERTEX
  5
447
330
435
100
AcDbEntity
  8
Layer 1
 62
    18
420
    65793
370
     9
100
AcDbVertex
100
AcDb2dVertex
 10
25.82116717111199
 20
-3.615748033503173
 30
0.0
  0
VERTEX
  5
448
330
435
100
AcDbEntity
  8
Layer 1
 62
    18
420
    65793
370
     9
100
AcDbVertex
100
AcDb2dVertex
 10
25.85473479346795
 20
-3.551969549415155
 30
0.0
  0
VERTEX
  5
449
330
435
100
AcDbEntity
  8
Layer 1
 62
    18
420
    65793
370
     9
100
AcDbVertex
100
AcDb2dVertex
 10
25.85473479346795
 20
-3.422286631758097
 30
0.0
  0
VERTEX
  5
44A
330
435
100
AcDbEntity
  8
Layer 1
 62
    18
420
    65793
370
     9
100
AcDbVertex
100
AcDb2dVertex
 10
25.8860645743389
 20
-3.422286631758097
 30
0.0
  0
SEQEND
  5
44B
330
435
100
AcDbEntity
  8
Layer 1
 62
    18
420
    65793
370
     9
  0
POLYLINE
  5
44C
330
2F9
100
AcDbEntity
  8
Layer 1
 62
    18
420
    65793
370
     9
100
AcDb2dPolyline
 66
     1
 10
0.0
 20
0.0
 30
0.0
  0
VERTEX
  5
44D
330
44C
100
AcDbEntity
  8
Layer 1
 62
    18
420
    65793
370
     9
100
AcDbVertex
100
AcDb2dVertex
 10
34.25894851108975
 20
-4.15898406904773
 30
0.0
  0
VERTEX
  5
44E
330
44C
100
AcDbEntity
  8
Layer 1
 62
    18
420
    65793
370
     9
100
AcDbVertex
100
AcDb2dVertex
 10
34.19405110786283
 20
-3.615748033503173
 30
0.0
  0
VERTEX
  5
44F
330
44C
100
AcDbEntity
  8
Layer 1
 62
    18
420
    65793
370
     9
100
AcDbVertex
100
AcDb2dVertex
 10
34.03415733336732
 20
-3.102499074685503
 30
0.0
  0
VERTEX
  5
450
330
44C
100
AcDbEntity
  8
Layer 1
 62
    18
420
    65793
370
     9
100
AcDbVertex
100
AcDb2dVertex
 10
33.77817491859631
 20
-2.619237192602422
 30
0.0
  0
VERTEX
  5
451
330
44C
100
AcDbEntity
  8
Layer 1
 62
    18
420
    65793
370
     9
100
AcDbVertex
100
AcDb2dVertex
 10
33.42479309550022
 20
-2.202215420312095
 30
0.0
  0
VERTEX
  5
452
330
44C
100
AcDbEntity
  8
Layer 1
 62
    18
420
    65793
370
     9
100
AcDbVertex
100
AcDb2dVertex
 10
33.00765944167074
 20
-1.849979160804028
 30
0.0
  0
VERTEX
  5
453
330
44C
100
AcDbEntity
  8
Layer 1
 62
    18
420
    65793
370
     9
100
AcDbVertex
100
AcDb2dVertex
 10
32.5268591974282
 20
-1.593970087827153
 30
0.0
  0
VERTEX
  5
454
330
44C
100
AcDbEntity
  8
Layer 1
 62
    18
420
    65793
370
     9
100
AcDbVertex
100
AcDb2dVertex
 10
32.01363685874953
 20
-1.432957388517551
 30
0.0
  0
VERTEX
  5
455
330
44C
100
AcDbEntity
  8
Layer 1
 62
    18
420
    65793
370
     9
100
AcDbVertex
100
AcDb2dVertex
 10
31.46679368337566
 20
-1.369290796498971
 30
0.0
  0
VERTEX
  5
456
330
44C
100
AcDbEntity
  8
Layer 1
 62
    18
420
    65793
370
     9
100
AcDbVertex
100
AcDb2dVertex
 10
30.92344576947991
 20
-1.432957388517551
 30
0.0
  0
VERTEX
  5
457
330
44C
100
AcDbEntity
  8
Layer 1
 62
    18
420
    65793
370
     9
100
AcDbVertex
100
AcDb2dVertex
 10
30.41022339029335
 20
-1.593970087827153
 30
0.0
  0
VERTEX
  5
458
330
44C
100
AcDbEntity
  8
Layer 1
 62
    18
420
    65793
370
     9
100
AcDbVertex
100
AcDb2dVertex
 10
29.92827765865044
 20
-1.849979160804028
 30
0.0
  0
VERTEX
  5
459
330
44C
100
AcDbEntity
  8
Layer 1
 62
    18
420
    65793
370
     9
100
AcDbVertex
100
AcDb2dVertex
 10
29.5111440048171
 20
-2.202215420312095
 30
0.0
  0
VERTEX
  5
45A
330
44C
100
AcDbEntity
  8
Layer 1
 62
    18
420
    65793
370
     9
100
AcDbVertex
100
AcDb2dVertex
 10
29.15778883346626
 20
-2.619237192602422
 30
0.0
  0
VERTEX
  5
45B
330
44C
100
AcDbEntity
  8
Layer 1
 62
    18
420
    65793
370
     9
100
AcDbVertex
100
AcDb2dVertex
 10
28.93422846856154
 20
-3.102499074685503
 30
0.0
  0
VERTEX
  5
45C
330
44C
100
AcDbEntity
  8
Layer 1
 62
    18
420
    65793
370
     9
100
AcDbVertex
100
AcDb2dVertex
 10
28.7731038812483
 20
-3.615748033503173
 30
0.0
  0
VERTEX
  5
45D
330
44C
100
AcDbEntity
  8
Layer 1
 62
    18
420
    65793
370
     9
100
AcDbVertex
100
AcDb2dVertex
 10
28.71066810366067
 20
-4.15898406904773
 30
0.0
  0
VERTEX
  5
45E
330
44C
100
AcDbEntity
  8
Layer 1
 62
    18
420
    65793
370
     9
100
AcDbVertex
100
AcDb2dVertex
 10
28.7731038812483
 20
-4.705800651068403
 30
0.0
  0
VERTEX
  5
45F
330
44C
100
AcDbEntity
  8
Layer 1
 62
    18
420
    65793
370
     9
100
AcDbVertex
100
AcDb2dVertex
 10
28.93422846856154
 20
-5.218042581184129
 30
0.0
  0
VERTEX
  5
460
330
44C
100
AcDbEntity
  8
Layer 1
 62
    18
420
    65793
370
     9
100
AcDbVertex
100
AcDb2dVertex
 10
29.15778883346626
 20
-5.701080679116784
 30
0.0
  0
VERTEX
  5
461
330
44C
100
AcDbEntity
  8
Layer 1
 62
    18
420
    65793
370
     9
100
AcDbVertex
100
AcDb2dVertex
 10
29.5111440048171
 20
-6.116983530635731
 30
0.0
  0
VERTEX
  5
462
330
44C
100
AcDbEntity
  8
Layer 1
 62
    18
420
    65793
370
     9
100
AcDbVertex
100
AcDb2dVertex
 10
29.92827765865044
 20
-6.469219790136099
 30
0.0
  0
VERTEX
  5
463
330
44C
100
AcDbEntity
  8
Layer 1
 62
    18
420
    65793
370
     9
100
AcDbVertex
100
AcDb2dVertex
 10
30.41022339029335
 20
-6.694010973537568
 30
0.0
  0
VERTEX
  5
464
330
44C
100
AcDbEntity
  8
Layer 1
 62
    18
420
    65793
370
     9
100
AcDbVertex
100
AcDb2dVertex
 10
30.92344576947991
 20
-6.85390475207579
 30
0.0
  0
VERTEX
  5
465
330
44C
100
AcDbEntity
  8
Layer 1
 62
    18
420
    65793
370
     9
100
AcDbVertex
100
AcDb2dVertex
 10
31.46679368337566
 20
-6.917459452009531
 30
0.0
  0
VERTEX
  5
466
330
44C
100
AcDbEntity
  8
Layer 1
 62
    18
420
    65793
370
     9
100
AcDbVertex
100
AcDb2dVertex
 10
32.01363685874953
 20
-6.85390475207579
 30
0.0
  0
VERTEX
  5
467
330
44C
100
AcDbEntity
  8
Layer 1
 62
    18
420
    65793
370
     9
100
AcDbVertex
100
AcDb2dVertex
 10
32.5268591974282
 20
-6.694010973537568
 30
0.0
  0
VERTEX
  5
468
330
44C
100
AcDbEntity
  8
Layer 1
 62
    18
420
    65793
370
     9
100
AcDbVertex
100
AcDb2dVertex
 10
33.00765944167074
 20
-6.469219790136099
 30
0.0
  0
VERTEX
  5
469
330
44C
100
AcDbEntity
  8
Layer 1
 62
    18
420
    65793
370
     9
100
AcDbVertex
100
AcDb2dVertex
 10
33.42479309550022
 20
-6.116983530635731
 30
0.0
  0
VERTEX
  5
46A
330
44C
100
AcDbEntity
  8
Layer 1
 62
    18
420
    65793
370
     9
100
AcDbVertex
100
AcDb2dVertex
 10
33.77817491859631
 20
-5.701080679116784
 30
0.0
  0
VERTEX
  5
46B
330
44C
100
AcDbEntity
  8
Layer 1
 62
    18
420
    65793
370
     9
100
AcDbVertex
100
AcDb2dVertex
 10
34.03415733336732
 20
-5.218042581184129
 30
0.0
  0
VERTEX
  5
46C
330
44C
100
AcDbEntity
  8
Layer 1
 62
    18
420
    65793
370
     9
100
AcDbVertex
100
AcDb2dVertex
 10
34.19405110786283
 20
-4.705800651068403
 30
0.0
  0
VERTEX
  5
46D
330
44C
100
AcDbEntity
  8
Layer 1
 62
    18
420
    65793
370
     9
100
AcDbVertex
100
AcDb2dVertex
 10
34.25894851108975
 20
-4.15898406904773
 30
0.0
  0
SEQEND
  5
46E
330
44C
100
AcDbEntity
  8
Layer 1
 62
    18
420
    65793
370
     9
  0
POLYLINE
  5
46F
330
2F9
100
AcDbEntity
  8
Layer 1
 62
    18
420
    65793
370
     9
100
AcDb2dPolyline
 66
     1
 10
0.0
 20
0.0
 30
0.0
  0
VERTEX
  5
470
330
46F
100
AcDbEntity
  8
Layer 1
 62
    18
420
    65793
370
     9
100
AcDbVertex
100
AcDb2dVertex
 10
33.16878402898397
 20
-4.15898406904773
 30
0.0
  0
VERTEX
  5
471
330
46F
100
AcDbEntity
  8
Layer 1
 62
    18
420
    65793
370
     9
100
AcDbVertex
100
AcDb2dVertex
 10
33.10500554650533
 20
-3.710744407174296
 30
0.0
  0
VERTEX
  5
472
330
46F
100
AcDbEntity
  8
Layer 1
 62
    18
420
    65793
370
     9
100
AcDbVertex
100
AcDb2dVertex
 10
32.94399285126154
 20
-3.294841555659199
 30
0.0
  0
VERTEX
  5
473
330
46F
100
AcDbEntity
  8
Layer 1
 62
    18
420
    65793
370
     9
100
AcDbVertex
100
AcDb2dVertex
 10
32.68686486400086
 20
-2.941486375379752
 30
0.0
  0
VERTEX
  5
474
330
46F
100
AcDbEntity
  8
Layer 1
 62
    18
420
    65793
370
     9
100
AcDbVertex
100
AcDb2dVertex
 10
32.33339780057673
 20
-2.685365410318038
 30
0.0
  0
VERTEX
  5
475
330
46F
100
AcDbEntity
  8
Layer 1
 62
    18
420
    65793
370
     9
100
AcDbVertex
100
AcDb2dVertex
 10
31.91629075145081
 20
-2.524352711008437
 30
0.0
  0
VERTEX
  5
476
330
46F
100
AcDbEntity
  8
Layer 1
 62
    18
420
    65793
370
     9
100
AcDbVertex
100
AcDb2dVertex
 10
31.46679368337566
 20
-2.460574226916569
 30
0.0
  0
VERTEX
  5
477
330
46F
100
AcDbEntity
  8
Layer 1
 62
    18
420
    65793
370
     9
100
AcDbVertex
100
AcDb2dVertex
 10
31.05100273443718
 20
-2.524352711008437
 30
0.0
  0
VERTEX
  5
478
330
46F
100
AcDbEntity
  8
Layer 1
 62
    18
420
    65793
370
     9
100
AcDbVertex
100
AcDb2dVertex
 10
30.63375718853056
 20
-2.685365410318038
 30
0.0
  0
VERTEX
  5
479
330
46F
100
AcDbEntity
  8
Layer 1
 62
    18
420
    65793
370
     9
100
AcDbVertex
100
AcDb2dVertex
 10
30.28163283000128
 20
-2.941486375379752
 30
0.0
  0
VERTEX
  5
47A
330
46F
100
AcDbEntity
  8
Layer 1
 62
    18
420
    65793
370
     9
100
AcDbVertex
100
AcDb2dVertex
 10
30.02562376348503
 20
-3.294841555659199
 30
0.0
  0
VERTEX
  5
47B
330
46F
100
AcDbEntity
  8
Layer 1
 62
    18
420
    65793
370
     9
100
AcDbVertex
100
AcDb2dVertex
 10
29.83328128737798
 20
-3.710744407174296
 30
0.0
  0
VERTEX
  5
47C
330
46F
100
AcDbEntity
  8
Layer 1
 62
    18
420
    65793
370
     9
100
AcDbVertex
100
AcDb2dVertex
 10
29.79960177294488
 20
-4.15898406904773
 30
0.0
  0
VERTEX
  5
47D
330
46F
100
AcDbEntity
  8
Layer 1
 62
    18
420
    65793
370
     9
100
AcDbVertex
100
AcDb2dVertex
 10
29.83328128737798
 20
-4.577348546267562
 30
0.0
  0
VERTEX
  5
47E
330
46F
100
AcDbEntity
  8
Layer 1
 62
    18
420
    65793
370
     9
100
AcDbVertex
100
AcDb2dVertex
 10
30.02562376348503
 20
-4.994370318557889
 30
0.0
  0
VERTEX
  5
47F
330
46F
100
AcDbEntity
  8
Layer 1
 62
    18
420
    65793
370
     9
100
AcDbVertex
100
AcDb2dVertex
 10
30.28163283000128
 20
-5.346606578062107
 30
0.0
  0
VERTEX
  5
480
330
46F
100
AcDbEntity
  8
Layer 1
 62
    18
420
    65793
370
     9
100
AcDbVertex
100
AcDb2dVertex
 10
30.63375718853056
 20
-5.603734571818062
 30
0.0
  0
VERTEX
  5
481
330
46F
100
AcDbEntity
  8
Layer 1
 62
    18
420
    65793
370
     9
100
AcDbVertex
100
AcDb2dVertex
 10
31.05100273443718
 20
-5.797307865640276
 30
0.0
  0
VERTEX
  5
482
330
46F
100
AcDbEntity
  8
Layer 1
 62
    18
420
    65793
370
     9
100
AcDbVertex
100
AcDb2dVertex
 10
31.46679368337566
 20
-5.827406834448152
 30
0.0
  0
VERTEX
  5
483
330
46F
100
AcDbEntity
  8
Layer 1
 62
    18
420
    65793
370
     9
100
AcDbVertex
100
AcDb2dVertex
 10
31.91629075145081
 20
-5.797307865640276
 30
0.0
  0
VERTEX
  5
484
330
46F
100
AcDbEntity
  8
Layer 1
 62
    18
420
    65793
370
     9
100
AcDbVertex
100
AcDb2dVertex
 10
32.33339780057673
 20
-5.603734571818062
 30
0.0
  0
VERTEX
  5
485
330
46F
100
AcDbEntity
  8
Layer 1
 62
    18
420
    65793
370
     9
100
AcDbVertex
100
AcDb2dVertex
 10
32.68686486400086
 20
-5.346606578062107
 30
0.0
  0
VERTEX
  5
486
330
46F
100
AcDbEntity
  8
Layer 1
 62
    18
420
    65793
370
     9
100
AcDbVertex
100
AcDb2dVertex
 10
32.94399285126154
 20
-4.994370318557889
 30
0.0
  0
VERTEX
  5
487
330
46F
100
AcDbEntity
  8
Layer 1
 62
    18
420
    65793
370
     9
100
AcDbVertex
100
AcDb2dVertex
 10
33.10500554650533
 20
-4.577348546267562
 30
0.0
  0
VERTEX
  5
488
330
46F
100
AcDbEntity
  8
Layer 1
 62
    18
420
    65793
370
     9
100
AcDbVertex
100
AcDb2dVertex
 10
33.16878402898397
 20
-4.15898406904773
 30
0.0
  0
SEQEND
  5
489
330
46F
100
AcDbEntity
  8
Layer 1
 62
    18
420
    65793
370
     9
  0
POLYLINE
  5
48A
330
2F9
100
AcDbEntity
  8
Layer 1
 62
    18
420
    65793
370
     9
100
AcDb2dPolyline
 66
     1
 10
0.0
 20
0.0
 30
0.0
  0
VERTEX
  5
48B
330
48A
100
AcDbEntity
  8
Layer 1
 62
    18
420
    65793
370
     9
100
AcDbVertex
100
AcDb2dVertex
 10
41.76522833063569
 20
-17.37578813796925
 30
0.0
  0
VERTEX
  5
48C
330
48A
100
AcDbEntity
  8
Layer 1
 62
    18
420
    65793
370
     9
100
AcDbVertex
100
AcDb2dVertex
 10
14.43614858813375
 20
-17.37578813796925
 30
0.0
  0
SEQEND
  5
48D
330
48A
100
AcDbEntity
  8
Layer 1
 62
    18
420
    65793
370
     9
  0
POLYLINE
  5
48E
330
2F9
100
AcDbEntity
  8
Layer 1
 62
    18
420
    65793
370
     9
100
AcDb2dPolyline
 66
     1
 10
0.0
 20
0.0
 30
0.0
  0
VERTEX
  5
48F
330
48E
100
AcDbEntity
  8
Layer 1
 62
    18
420
    65793
370
     9
100
AcDbVertex
100
AcDb2dVertex
 10
14.43614858813375
 20
9.055358374176754
 30
0.0
  0
VERTEX
  5
490
330
48E
100
AcDbEntity
  8
Layer 1
 62
    18
420
    65793
370
     9
100
AcDbVertex
100
AcDb2dVertex
 10
41.76522833063569
 20
9.055358374176754
 30
0.0
  0
SEQEND
  5
491
330
48E
100
AcDbEntity
  8
Layer 1
 62
    18
420
    65793
370
     9
  0
POLYLINE
  5
492
330
2F9
100
AcDbEntity
  8
Layer 1
 62
    18
420
    65793
370
     9
100
AcDb2dPolyline
 66
     1
 10
0.0
 20
0.0
 30
0.0
  0
VERTEX
  5
493
330
492
100
AcDbEntity
  8
Layer 1
 62
    18
420
    65793
370
     9
100
AcDbVertex
100
AcDb2dVertex
 10
14.21247633115575
 20
-17.15110884664492
 30
0.0
  0
VERTEX
  5
494
330
492
100
AcDbEntity
  8
Layer 1
 62
    18
420
    65793
370
     9
100
AcDbVertex
100
AcDb2dVertex
 10
14.21247633115575
 20
8.864246706059276
 30
0.0
  0
SEQEND
  5
495
330
492
100
AcDbEntity
  8
Layer 1
 62
    18
420
    65793
370
     9
  0
ENDBLK
  5
2FC
330
2F9
100
AcDbEntity
  8
0
100
AcDbBlockEnd
  0
ENDSEC
  0
SECTION
  2
ENTITIES
  0
INSERT
  5
42
330
1F
100
AcDbEntity
  8
Layer 1
100
AcDbBlockReference
  2
block 2
 10
0.0
 20
0.0
 30
0.0
  0
ENDSEC
  0
SECTION
  2
OBJECTS
  0
DICTIONARY
  5
C
330
0
100
AcDbDictionary
281
     1
  3
ACAD_GROUP
350
D
  3
ACAD_LAYOUT
350
1A
  3
ACAD_MATERIAL
350
3B
  3
ACAD_MLEADERSTYLE
350
497
  3
ACAD_MLINESTYLE
350
17
  3
ACAD_PLOTSETTINGS
350
19
  3
ACAD_PLOTSTYLENAME
350
E
  3
ACAD_TABLESTYLE
350
496
  3
ACAD_VISUALSTYLE
350
2A
  0
SUN
  5
3F
330
29
100
AcDbSun
 90
        1
290
     0
 63
     7
421
 16777215
 40
1.0
291
     1
 91
  2455826
 92
 54000000
292
     0
 70
     2
 71
   256
280
     1
  0
DICTIONARY
  5
D
102
{ACAD_REACTORS
330
C
102
}
330
C
100
AcDbDictionary
281
     1
  0
DICTIONARY
  5
1A
102
{ACAD_REACTORS
330
C
102
}
330
C
100
AcDbDictionary
281
     1
  3
Layout1
350
1E
  3
Layout2
350
26
  3
Model
350
22
  0
DICTIONARY
  5
3B
102
{ACAD_REACTORS
330
C
102
}
330
C
100
AcDbDictionary
281
     1
  3
ByBlock
350
3D
  3
ByLayer
350
3C
  3
Global
350
3E
  0
DICTIONARY
  5
497
102
{ACAD_REACTORS
330
C
102
}
330
C
100
AcDbDictionary
281
     1
  0
DICTIONARY
  5
17
102
{ACAD_REACTORS
330
C
102
}
330
C
100
AcDbDictionary
281
     1
  3
Standard
350
18
  0
DICTIONARY
  5
19
102
{ACAD_REACTORS
330
C
102
}
330
C
100
AcDbDictionary
281
     1
  0
ACDBDICTIONARYWDFLT
  5
E
102
{ACAD_REACTORS
330
C
102
}
330
C
100
AcDbDictionary
281
     1
  3
Normal
350
F
100
AcDbDictionaryWithDefault
340
F
  0
DICTIONARY
  5
496
102
{ACAD_REACTORS
330
C
102
}
330
C
100
AcDbDictionary
281
     1
  0
DICTIONARY
  5
2A
102
{ACAD_REACTORS
330
C
102
}
330
C
100
AcDbDictionary
281
     1
  3
2dWireframe
350
2F
  3
3D Hidden
350
31
  3
3dWireframe
350
30
  3
Basic
350
32
  3
Brighten
350
36
  3
ColorChange
350
3A
  3
Conceptual
350
34
  3
Dim
350
35
  3
Facepattern
350
39
  3
Flat
350
2B
  3
FlatWithEdges
350
2C
  3
Gouraud
350
2D
  3
GouraudWithEdges
350
2E
  3
Linepattern
350
38
  3
Realistic
350
33
  3
Thicken
350
37
  0
LAYOUT
  5
1E
102
{ACAD_REACTORS
330
1A
102
}
330
1A
100
AcDbPlotSettings
  1

  2
none_device
  4

  6

 40
0.0
 41
0.0
 42
0.0
 43
0.0
 44
0.0
 45
0.0
 46
0.0
 47
0.0
 48
0.0
 49
0.0
140
0.0
141
0.0
142
1.0
143
1.0
 70
   688
 72
     0
 73
     0
 74
     5
  7

 75
    16
 76
     0
 77
     2
 78
   300
147
1.0
148
0.0
149
0.0
100
AcDbLayout
  1
Layout1
 70
     1
 71
     1
 10
0.0
 20
0.0
 11
12.0
 21
9.0
 12
0.0
 22
0.0
 32
0.0
 14
1.000000000000000E+20
 24
1.000000000000000E+20
 34
1.000000000000000E+20
 15
-1.000000000000000E+20
 25
-1.000000000000000E+20
 35
-1.000000000000000E+20
146
0.0
 13
0.0
 23
0.0
 33
0.0
 16
1.0
 26
0.0
 36
0.0
 17
0.0
 27
1.0
 37
0.0
 76
     0
330
1B
  0
LAYOUT
  5
26
102
{ACAD_REACTORS
330
1A
102
}
330
1A
100
AcDbPlotSettings
  1

  2
none_device
  4

  6

 40
0.0
 41
0.0
 42
0.0
 43
0.0
 44
0.0
 45
0.0
 46
0.0
 47
0.0
 48
0.0
 49
0.0
140
0.0
141
0.0
142
1.0
143
1.0
 70
   688
 72
     0
 73
     0
 74
     5
  7

 75
    16
 76
     0
 77
     2
 78
   300
147
1.0
148
0.0
149
0.0
100
AcDbLayout
  1
Layout2
 70
     1
 71
     2
 10
0.0
 20
0.0
 11
0.0
 21
0.0
 12
0.0
 22
0.0
 32
0.0
 14
0.0
 24
0.0
 34
0.0
 15
0.0
 25
0.0
 35
0.0
146
0.0
 13
0.0
 23
0.0
 33
0.0
 16
1.0
 26
0.0
 36
0.0
 17
0.0
 27
1.0
 37
0.0
 76
     0
330
23
  0
LAYOUT
  5
22
102
{ACAD_REACTORS
330
1A
102
}
330
1A
100
AcDbPlotSettings
  1

  2
none_device
  4

  6

 40
0.0
 41
0.0
 42
0.0
 43
0.0
 44
0.0
 45
0.0
 46
0.0
 47
0.0
 48
0.0
 49
0.0
140
0.0
141
0.0
142
1.0
143
1.0
 70
  1712
 72
     0
 73
     0
 74
     0
  7

 75
     0
 76
     0
 77
     2
 78
   300
147
1.0
148
0.0
149
0.0
100
AcDbLayout
  1
Model
 70
     1
 71
     0
 10
0.0
 20
0.0
 11
12.0
 21
9.0
 12
0.0
 22
0.0
 32
0.0
 14
1.000000000000000E+20
 24
1.000000000000000E+20
 34
1.000000000000000E+20
 15
-1.000000000000000E+20
 25
-1.000000000000000E+20
 35
-1.000000000000000E+20
146
0.0
 13
0.0
 23
0.0
 33
0.0
 16
1.0
 26
0.0
 36
0.0
 17
0.0
 27
1.0
 37
0.0
 76
     0
330
1F
331
29
  0
MATERIAL
  5
3D
102
{ACAD_REACTORS
330
3B
102
}
330
3B
100
AcDbMaterial
  1
ByBlock
 72
     1
 94
      127
  0
MATERIAL
  5
3C
102
{ACAD_REACTORS
330
3B
102
}
330
3B
100
AcDbMaterial
  1
ByLayer
 72
     1
 94
      127
  0
MATERIAL
  5
3E
102
{ACAD_REACTORS
330
3B
102
}
330
3B
100
AcDbMaterial
  1
Global
 72
     1
 94
      127
  0
MLINESTYLE
  5
18
102
{ACAD_REACTORS
330
17
102
}
330
17
100
AcDbMlineStyle
  2
Standard
 70
     0
  3

 62
   256
 51
90.0
 52
90.0
 71
     2
 49
0.5
 62
   256
  6
BYLAYER
 49
-0.5
 62
   256
  6
BYLAYER
  0
ACDBPLACEHOLDER
  5
F
102
{ACAD_REACTORS
330
E
102
}
330
E
  0
VISUALSTYLE
  5
2F
102
{ACAD_REACTORS
330
2A
102
}
330
2A
100
AcDbVisualStyle
  2
2dWireframe
 70
     4
177
     2
291
     0
 71
     0
176
     1
 72
     2
176
     1
 73
     0
176
     1
 90
        0
176
     1
 40
-0.6
176
     1
 41
-30.0
176
     1
 62
     5
 63
     7
421
 16777215
176
     1
 74
     1
176
     1
 91
        4
176
     1
 64
     7
176
     1
 65
   257
176
     1
 75
     1
176
     1
175
     1
176
     1
 42
1.0
176
     1
 92
        0
176
     1
 66
   257
176
     1
 43
1.0
176
     1
 76
     1
176
     1
 77
     6
176
     1
 78
     2
176
     1
 67
     7
176
     1
 79
     5
176
     1
170
     0
176
     1
171
     0
176
     1
290
     0
176
     1
 93
        1
176
     1
 44
0.0
176
     1
173
     0
176
     1
  0
VISUALSTYLE
  5
31
102
{ACAD_REACTORS
330
2A
102
}
330
2A
100
AcDbVisualStyle
  2
3D Hidden
 70
     6
177
     2
291
     0
 71
     1
176
     1
 72
     2
176
     1
 73
     2
176
     1
 90
        0
176
     1
 40
-0.6
176
     1
 41
-30.0
176
     1
 62
     5
 63
     7
421
 16777215
176
     1
 74
     2
176
     1
 91
        2
176
     1
 64
     7
176
     1
 65
   257
176
     1
 75
     2
176
     1
175
     1
176
     1
 42
40.0
176
     1
 92
        0
176
     1
 66
   257
176
     1
 43
1.0
176
     1
 76
     1
176
     1
 77
     6
176
     1
 78
     2
176
     1
 67
     7
176
     1
 79
     3
176
     1
170
     0
176
     1
171
     0
176
     1
290
     0
176
     1
 93
        1
176
     1
 44
0.0
176
     1
173
     0
176
     1
  0
VISUALSTYLE
  5
30
102
{ACAD_REACTORS
330
2A
102
}
330
2A
100
AcDbVisualStyle
  2
3dWireframe
 70
     5
177
     2
291
     0
 71
     0
176
     1
 72
     2
176
     1
 73
     0
176
     1
 90
        0
176
     1
 40
-0.6
176
     1
 41
-30.0
176
     1
 62
     5
 63
     7
421
 16777215
176
     1
 74
     1
176
     1
 91
        4
176
     1
 64
     7
176
     1
 65
   257
176
     1
 75
     1
176
     1
175
     1
176
     1
 42
1.0
176
     1
 92
        0
176
     1
 66
   257
176
     1
 43
1.0
176
     1
 76
     1
176
     1
 77
     6
176
     1
 78
     2
176
     1
 67
     7
176
     1
 79
     5
176
     1
170
     0
176
     1
171
     0
176
     1
290
     0
176
     1
 93
        1
176
     1
 44
0.0
176
     1
173
     0
176
     1
  0
VISUALSTYLE
  5
32
102
{ACAD_REACTORS
330
2A
102
}
330
2A
100
AcDbVisualStyle
  2
Basic
 70
     7
177
     2
291
     1
 71
     1
176
     1
 72
     0
176
     1
 73
     1
176
     1
 90
        0
176
     1
 40
-0.6
176
     1
 41
-30.0
176
     1
 62
     5
 63
     7
421
 16777215
176
     1
 74
     0
176
     1
 91
        4
176
     1
 64
     7
176
     1
 65
   257
176
     1
 75
     1
176
     1
175
     1
176
     1
 42
1.0
176
     1
 92
        8
176
     1
 66
     7
176
     1
 43
1.0
176
     1
 76
     1
176
     1
 77
     6
176
     1
 78
     2
176
     1
 67
     7
176
     1
 79
     5
176
     1
170
     0
176
     1
171
     0
176
     1
290
     0
176
     1
 93
        1
176
     1
 44
0.0
176
     1
173
     0
176
     1
  0
VISUALSTYLE
  5
36
102
{ACAD_REACTORS
330
2A
102
}
330
2A
100
AcDbVisualStyle
  2
Brighten
 70
    12
177
     2
291
     1
 71
     2
176
     1
 72
     2
176
     1
 73
     0
176
     1
 90
        0
176
     1
 40
-0.6
176
     1
 41
-30.0
176
     1
 62
     5
 63
     7
421
 16777215
176
     1
 74
     1
176
     1
 91
        4
176
     1
 64
     7
176
     1
 65
   257
176
     1
 75
     1
176
     1
175
     1
176
     1
 42
1.0
176
     1
 92
        8
176
     1
 66
     7
176
     1
 43
1.0
176
     1
 76
     1
176
     1
 77
     6
176
     1
 78
     2
176
     1
 67
     7
176
     1
 79
     5
176
     1
170
     0
176
     1
171
     0
176
     1
290
     0
176
     1
 93
        1
176
     1
 44
50.0
176
     1
173
     0
176
     1
  0
VISUALSTYLE
  5
3A
102
{ACAD_REACTORS
330
2A
102
}
330
2A
100
AcDbVisualStyle
  2
ColorChange
 70
    16
177
     2
291
     1
 71
     2
176
     1
 72
     2
176
     1
 73
     3
176
     1
 90
        0
176
     1
 40
-0.6
176
     1
 41
-30.0
176
     1
 62
     5
 63
     8
421
  8421504
176
     1
 74
     1
176
     1
 91
        4
176
     1
 64
     7
176
     1
 65
   257
176
     1
 75
     1
176
     1
175
     1
176
     1
 42
1.0
176
     1
 92
        8
176
     1
 66
     8
424
  8421504
176
     1
 43
1.0
176
     1
 76
     1
176
     1
 77
     6
176
     1
 78
     2
176
     1
 67
     7
176
     1
 79
     5
176
     1
170
     0
176
     1
171
     0
176
     1
290
     0
176
     1
 93
        1
176
     1
 44
0.0
176
     1
173
     0
176
     1
  0
VISUALSTYLE
  5
34
102
{ACAD_REACTORS
330
2A
102
}
330
2A
100
AcDbVisualStyle
  2
Conceptual
 70
     9
177
     2
291
     0
 71
     3
176
     1
 72
     2
176
     1
 73
     0
176
     1
 90
        0
176
     1
 40
-0.6
176
     1
 41
-30.0
176
     1
 62
     5
 63
     7
421
 16777215
176
     1
 74
     2
176
     1
 91
        2
176
     1
 64
     7
176
     1
 65
   257
176
     1
 75
     1
176
     1
175
     1
176
     1
 42
40.0
176
     1
 92
        8
176
     1
 66
     7
176
     1
 43
1.0
176
     1
 76
     1
176
     1
 77
     6
176
     1
 78
     2
176
     1
 67
     7
176
     1
 79
     3
176
     1
170
     0
176
     1
171
     0
176
     1
290
     0
176
     1
 93
        1
176
     1
 44
0.0
176
     1
173
     0
176
     1
  0
VISUALSTYLE
  5
35
102
{ACAD_REACTORS
330
2A
102
}
330
2A
100
AcDbVisualStyle
  2
Dim
 70
    11
177
     2
291
     1
 71
     2
176
     1
 72
     2
176
     1
 73
     0
176
     1
 90
        0
176
     1
 40
-0.6
176
     1
 41
-30.0
176
     1
 62
     5
 63
     7
421
 16777215
176
     1
 74
     1
176
     1
 91
        4
176
     1
 64
     7
176
     1
 65
   257
176
     1
 75
     1
176
     1
175
     1
176
     1
 42
1.0
176
     1
 92
        8
176
     1
 66
     7
176
     1
 43
1.0
176
     1
 76
     1
176
     1
 77
     6
176
     1
 78
     2
176
     1
 67
     7
176
     1
 79
     5
176
     1
170
     0
176
     1
171
     0
176
     1
290
     0
176
     1
 93
        1
176
     1
 44
-50.0
176
     1
173
     0
176
     1
  0
VISUALSTYLE
  5
39
102
{ACAD_REACTORS
330
2A
102
}
330
2A
100
AcDbVisualStyle
  2
Facepattern
 70
    15
177
     2
291
     1
 71
     2
176
     1
 72
     2
176
     1
 73
     0
176
     1
 90
        0
176
     1
 40
-0.6
176
     1
 41
-30.0
176
     1
 62
     5
 63
     7
421
 16777215
176
     1
 74
     1
176
     1
 91
        4
176
     1
 64
     7
176
     1
 65
   257
176
     1
 75
     1
176
     1
175
     1
176
     1
 42
1.0
176
     1
 92
        8
176
     1
 66
     7
176
     1
 43
1.0
176
     1
 76
     1
176
     1
 77
     6
176
     1
 78
     2
176
     1
 67
     7
176
     1
 79
     5
176
     1
170
     0
176
     1
171
     0
176
     1
290
     0
176
     1
 93
        1
176
     1
 44
0.0
176
     1
173
     0
176
     1
  0
VISUALSTYLE
  5
2B
102
{ACAD_REACTORS
330
2A
102
}
330
2A
100
AcDbVisualStyle
  2
Flat
 70
     0
177
     2
291
     1
 71
     2
176
     1
 72
     1
176
     1
 73
     1
176
     1
 90
        2
176
     1
 40
-0.6
176
     1
 41
30.0
176
     1
 62
     5
 63
     7
421
 16777215
176
     1
 74
     0
176
     1
 91
        4
176
     1
 64
     7
176
     1
 65
   257
176
     1
 75
     1
176
     1
175
     1
176
     1
 42
1.0
176
     1
 92
        8
176
     1
 66
     7
176
     1
 43
1.0
176
     1
 76
     1
176
     1
 77
     6
176
     1
 78
     2
176
     1
 67
     7
176
     1
 79
     5
176
     1
170
     0
176
     1
171
     0
176
     1
290
     0
176
     1
 93
       13
176
     1
 44
0.0
176
     1
173
     0
176
     1
  0
VISUALSTYLE
  5
2C
102
{ACAD_REACTORS
330
2A
102
}
330
2A
100
AcDbVisualStyle
  2
FlatWithEdges
 70
     1
177
     2
291
     1
 71
     2
176
     1
 72
     1
176
     1
 73
     1
176
     1
 90
        2
176
     1
 40
-0.6
176
     1
 41
30.0
176
     1
 62
     5
 63
     7
421
 16777215
176
     1
 74
     1
176
     1
 91
        4
176
     1
 64
     7
176
     1
 65
   257
176
     1
 75
     1
176
     1
175
     1
176
     1
 42
1.0
176
     1
 92
        0
176
     1
 66
   257
176
     1
 43
1.0
176
     1
 76
     1
176
     1
 77
     6
176
     1
 78
     2
176
     1
 67
     7
176
     1
 79
     5
176
     1
170
     0
176
     1
171
     0
176
     1
290
     0
176
     1
 93
       13
176
     1
 44
0.0
176
     1
173
     0
176
     1
  0
VISUALSTYLE
  5
2D
102
{ACAD_REACTORS
330
2A
102
}
330
2A
100
AcDbVisualStyle
  2
Gouraud
 70
     2
177
     2
291
     1
 71
     2
176
     1
 72
     2
176
     1
 73
     1
176
     1
 90
        2
176
     1
 40
-0.6
176
     1
 41
30.0
176
     1
 62
     5
 63
     7
421
 16777215
176
     1
 74
     0
176
     1
 91
        4
176
     1
 64
     7
176
     1
 65
   257
176
     1
 75
     1
176
     1
175
     1
176
     1
 42
1.0
176
     1
 92
        0
176
     1
 66
     7
176
     1
 43
1.0
176
     1
 76
     1
176
     1
 77
     6
176
     1
 78
     2
176
     1
 67
     7
176
     1
 79
     5
176
     1
170
     0
176
     1
171
     0
176
     1
290
     0
176
     1
 93
       13
176
     1
 44
0.0
176
     1
173
     0
176
     1
  0
VISUALSTYLE
  5
2E
102
{ACAD_REACTORS
330
2A
102
}
330
2A
100
AcDbVisualStyle
  2
GouraudWithEdges
 70
     3
177
     2
291
     1
 71
     2
176
     1
 72
     2
176
     1
 73
     1
176
     1
 90
        2
176
     1
 40
-0.6
176
     1
 41
30.0
176
     1
 62
     5
 63
     7
421
 16777215
176
     1
 74
     1
176
     1
 91
        4
176
     1
 64
     7
176
     1
 65
   257
176
     1
 75
     1
176
     1
175
     1
176
     1
 42
1.0
176
     1
 92
        0
176
     1
 66
   257
176
     1
 43
1.0
176
     1
 76
     1
176
     1
 77
     6
176
     1
 78
     2
176
     1
 67
     7
176
     1
 79
     5
176
     1
170
     0
176
     1
171
     0
176
     1
290
     0
176
     1
 93
       13
176
     1
 44
0.0
176
     1
173
     0
176
     1
  0
VISUALSTYLE
  5
38
102
{ACAD_REACTORS
330
2A
102
}
330
2A
100
AcDbVisualStyle
  2
Linepattern
 70
    14
177
     2
291
     1
 71
     2
176
     1
 72
     2
176
     1
 73
     0
176
     1
 90
        0
176
     1
 40
-0.6
176
     1
 41
-30.0
176
     1
 62
     5
 63
     7
421
 16777215
176
     1
 74
     1
176
     1
 91
        4
176
     1
 64
     7
176
     1
 65
   257
176
     1
 75
     7
176
     1
175
     7
176
     1
 42
1.0
176
     1
 92
        8
176
     1
 66
     7
176
     1
 43
1.0
176
     1
 76
     1
176
     1
 77
     6
176
     1
 78
     2
176
     1
 67
     7
176
     1
 79
     5
176
     1
170
     0
176
     1
171
     0
176
     1
290
     0
176
     1
 93
        1
176
     1
 44
0.0
176
     1
173
     0
176
     1
  0
VISUALSTYLE
  5
33
102
{ACAD_REACTORS
330
2A
102
}
330
2A
100
AcDbVisualStyle
  2
Realistic
 70
     8
177
     2
291
     0
 71
     2
176
     1
 72
     2
176
     1
 73
     0
176
     1
 90
        0
176
     1
 40
-0.6
176
     1
 41
-30.0
176
     1
 62
     5
 63
     7
421
 16777215
176
     1
 74
     1
176
     1
 91
        0
176
     1
 64
     7
176
     1
 65
   257
176
     1
 75
     1
176
     1
175
     1
176
     1
 42
1.0
176
     1
 92
        8
176
     1
 66
     8
424
  7895160
176
     1
 43
1.0
176
     1
 76
     1
176
     1
 77
     6
176
     1
 78
     2
176
     1
 67
     7
176
     1
 79
     5
176
     1
170
     0
176
     1
171
     0
176
     1
290
     0
176
     1
 93
       13
176
     1
 44
0.0
176
     1
173
     0
176
     1
  0
VISUALSTYLE
  5
37
102
{ACAD_REACTORS
330
2A
102
}
330
2A
100
AcDbVisualStyle
  2
Thicken
 70
    13
177
     2
291
     1
 71
     2
176
     1
 72
     2
176
     1
 73
     0
176
     1
 90
        0
176
     1
 40
-0.6
176
     1
 41
-30.0
176
     1
 62
     5
 63
     7
421
 16777215
176
     1
 74
     1
176
     1
 91
        4
176
     1
 64
     7
176
     1
 65
   257
176
     1
 75
     1
176
     1
175
     1
176
     1
 42
1.0
176
     1
 92
       12
176
     1
 66
     7
176
     1
 43
1.0
176
     1
 76
     1
176
     1
 77
     6
176
     1
 78
     2
176
     1
 67
     7
176
     1
 79
     5
176
     1
170
     0
176
     1
171
     0
176
     1
290
     0
176
     1
 93
        1
176
     1
 44
0.0
176
     1
173
     0
176
     1
  0
ENDSEC
  0
EOF
