  0
SECTION
  2
HEADER
  9
$ACADVER
  1
AC1015
  9
$ACADMAINTVER
 70
    20
  9
$DWGCODEPAGE
  3
ANSI_1252
  9
$INSBASE
 10
0.0
 20
0.0
 30
0.0
  9
$EXTMIN
 10
19.05806190055455
 20
12.6664384926803
 30
-0.0015258207003583
  9
$EXTMAX
 10
709.8075663518572
 20
573.9223116046107
 30
0.0000000349246037
  9
$LIMMIN
 10
0.0
 20
0.0
  9
$LIMMAX
 10
12.0
 20
9.0
  9
$ORTHOMODE
 70
     0
  9
$REGENMODE
 70
     1
  9
$FILLMODE
 70
     1
  9
$QTEXTMODE
 70
     0
  9
$MIRRTEXT
 70
     0
  9
$LTSCALE
 40
1.0
  9
$ATTMODE
 70
     1
  9
$TEXTSIZE
 40
0.2
  9
$TRACEWID
 40
0.05
  9
$TEXTSTYLE
  7
Standard
  9
$CLAYER
  8
0
  9
$CELTYPE
  6
ByLayer
  9
$CECOLOR
 62
   256
  9
$CELTSCALE
 40
1.0
  9
$DISPSILH
 70
     0
  9
$DIMSCALE
 40
1.0
  9
$DIMASZ
 40
0.18
  9
$DIMEXO
 40
0.0625
  9
$DIMDLI
 40
0.38
  9
$DIMRND
 40
0.0
  9
$DIMDLE
 40
0.0
  9
$DIMEXE
 40
0.18
  9
$DIMTP
 40
0.0
  9
$DIMTM
 40
0.0
  9
$DIMTXT
 40
0.18
  9
$DIMCEN
 40
0.09
  9
$DIMTSZ
 40
0.0
  9
$DIMTOL
 70
     0
  9
$DIMLIM
 70
     0
  9
$DIMTIH
 70
     1
  9
$DIMTOH
 70
     1
  9
$DIMSE1
 70
     0
  9
$DIMSE2
 70
     0
  9
$DIMTAD
 70
     0
  9
$DIMZIN
 70
     0
  9
$DIMBLK
  1

  9
$DIMASO
 70
     1
  9
$DIMSHO
 70
     1
  9
$DIMPOST
  1

  9
$DIMAPOST
  1

  9
$DIMALT
 70
     0
  9
$DIMALTD
 70
     2
  9
$DIMALTF
 40
25.4
  9
$DIMLFAC
 40
1.0
  9
$DIMTOFL
 70
     0
  9
$DIMTVP
 40
0.0
  9
$DIMTIX
 70
     0
  9
$DIMSOXD
 70
     0
  9
$DIMSAH
 70
     0
  9
$DIMBLK1
  1

  9
$DIMBLK2
  1

  9
$DIMSTYLE
  2
Standard
  9
$DIMCLRD
 70
     0
  9
$DIMCLRE
 70
     0
  9
$DIMCLRT
 70
     0
  9
$DIMTFAC
 40
1.0
  9
$DIMGAP
 40
0.09
  9
$DIMJUST
 70
     0
  9
$DIMSD1
 70
     0
  9
$DIMSD2
 70
     0
  9
$DIMTOLJ
 70
     1
  9
$DIMTZIN
 70
     0
  9
$DIMALTZ
 70
     0
  9
$DIMALTTZ
 70
     0
  9
$DIMUPT
 70
     0
  9
$DIMDEC
 70
     4
  9
$DIMTDEC
 70
     4
  9
$DIMALTU
 70
     2
  9
$DIMALTTD
 70
     2
  9
$DIMTXSTY
  7
Standard
  9
$DIMAUNIT
 70
     0
  9
$DIMADEC
 70
     0
  9
$DIMALTRND
 40
0.0
  9
$DIMAZIN
 70
     0
  9
$DIMDSEP
 70
    46
  9
$DIMATFIT
 70
     3
  9
$DIMFRAC
 70
     0
  9
$DIMLDRBLK
  1

  9
$DIMLUNIT
 70
     2
  9
$DIMLWD
 70
    -2
  9
$DIMLWE
 70
    -2
  9
$DIMTMOVE
 70
     0
  9
$LUNITS
 70
     2
  9
$LUPREC
 70
     4
  9
$SKETCHINC
 40
0.1
  9
$FILLETRAD
 40
0.0
  9
$AUNITS
 70
     0
  9
$AUPREC
 70
     0
  9
$MENU
  1
.
  9
$ELEVATION
 40
0.0
  9
$PELEVATION
 40
0.0
  9
$THICKNESS
 40
0.0
  9
$LIMCHECK
 70
     0
  9
$CHAMFERA
 40
0.0
  9
$CHAMFERB
 40
0.0
  9
$CHAMFERC
 40
0.0
  9
$CHAMFERD
 40
0.0
  9
$SKPOLY
 70
     0
  9
$TDCREATE
 40
2454473.167406447
  9
$TDUCREATE
 40
2454473.084073113
  9
$TDUPDATE
 40
2454572.560574364
  9
$TDUUPDATE
 40
2454572.477241030
  9
$TDINDWG
 40
0.0176616782
  9
$TDUSRTIMER
 40
0.0176616782
  9
$USRTIMER
 70
     1
  9
$ANGBASE
 50
0.0
  9
$ANGDIR
 70
     0
  9
$PDMODE
 70
     0
  9
$PDSIZE
 40
0.0
  9
$PLINEWID
 40
0.0
  9
$SPLFRAME
 70
     0
  9
$SPLINETYPE
 70
     6
  9
$SPLINESEGS
 70
     8
  9
$HANDSEED
  5
2B9
  9
$SURFTAB1
 70
     6
  9
$SURFTAB2
 70
     6
  9
$SURFTYPE
 70
     6
  9
$SURFU
 70
     6
  9
$SURFV
 70
     6
  9
$UCSBASE
  2

  9
$UCSNAME
  2

  9
$UCSORG
 10
0.0
 20
0.0
 30
0.0
  9
$UCSXDIR
 10
1.0
 20
0.0
 30
0.0
  9
$UCSYDIR
 10
0.0
 20
1.0
 30
0.0
  9
$UCSORTHOREF
  2

  9
$UCSORTHOVIEW
 70
     0
  9
$UCSORGTOP
 10
0.0
 20
0.0
 30
0.0
  9
$UCSORGBOTTOM
 10
0.0
 20
0.0
 30
0.0
  9
$UCSORGLEFT
 10
0.0
 20
0.0
 30
0.0
  9
$UCSORGRIGHT
 10
0.0
 20
0.0
 30
0.0
  9
$UCSORGFRONT
 10
0.0
 20
0.0
 30
0.0
  9
$UCSORGBACK
 10
0.0
 20
0.0
 30
0.0
  9
$PUCSBASE
  2

  9
$PUCSNAME
  2

  9
$PUCSORG
 10
0.0
 20
0.0
 30
0.0
  9
$PUCSXDIR
 10
1.0
 20
0.0
 30
0.0
  9
$PUCSYDIR
 10
0.0
 20
1.0
 30
0.0
  9
$PUCSORTHOREF
  2

  9
$PUCSORTHOVIEW
 70
     0
  9
$PUCSORGTOP
 10
0.0
 20
0.0
 30
0.0
  9
$PUCSORGBOTTOM
 10
0.0
 20
0.0
 30
0.0
  9
$PUCSORGLEFT
 10
0.0
 20
0.0
 30
0.0
  9
$PUCSORGRIGHT
 10
0.0
 20
0.0
 30
0.0
  9
$PUCSORGFRONT
 10
0.0
 20
0.0
 30
0.0
  9
$PUCSORGBACK
 10
0.0
 20
0.0
 30
0.0
  9
$USERI1
 70
     0
  9
$USERI2
 70
     0
  9
$USERI3
 70
     0
  9
$USERI4
 70
     0
  9
$USERI5
 70
     0
  9
$USERR1
 40
0.0
  9
$USERR2
 40
0.0
  9
$USERR3
 40
0.0
  9
$USERR4
 40
0.0
  9
$USERR5
 40
0.0
  9
$WORLDVIEW
 70
     1
  9
$SHADEDGE
 70
     3
  9
$SHADEDIF
 70
    70
  9
$TILEMODE
 70
     1
  9
$MAXACTVP
 70
    64
  9
$PINSBASE
 10
0.0
 20
0.0
 30
0.0
  9
$PLIMCHECK
 70
     0
  9
$PEXTMIN
 10
0.0
 20
0.0
 30
0.0
  9
$PEXTMAX
 10
0.0
 20
0.0
 30
0.0
  9
$PLIMMIN
 10
0.0
 20
0.0
  9
$PLIMMAX
 10
12.0
 20
9.0
  9
$UNITMODE
 70
     0
  9
$VISRETAIN
 70
     1
  9
$PLINEGEN
 70
     0
  9
$PSLTSCALE
 70
     1
  9
$TREEDEPTH
 70
  3020
  9
$CMLSTYLE
  2
Standard
  9
$CMLJUST
 70
     0
  9
$CMLSCALE
 40
1.0
  9
$PROXYGRAPHICS
 70
     1
  9
$MEASUREMENT
 70
     0
  9
$CELWEIGHT
370
    -1
  9
$ENDCAPS
280
     0
  9
$JOINSTYLE
280
     0
  9
$LWDISPLAY
290
     0
  9
$INSUNITS
 70
     1
  9
$HYPERLINKBASE
  1

  9
$STYLESHEET
  1

  9
$XEDIT
290
     1
  9
$CEPSNTYPE
380
     0
  9
$PSTYLEMODE
290
     1
  9
$FINGERPRINTGUID
  2
{FDEAD576-A652-11D2-9A35-0060089B3A3F}
  9
$VERSIONGUID
  2
{38BAFEA4-BE52-4CFF-B563-FD4294AF79B5}
  9
$EXTNAMES
290
     1
  9
$PSVPSCALE
 40
0.0
  9
$OLESTARTUP
290
     0
  0
ENDSEC
  0
SECTION
  2
CLASSES
  0
CLASS
  1
ACDBDICTIONARYWDFLT
  2
AcDbDictionaryWithDefault
  3
ObjectDBX Classes
 90
        0
280
     0
281
     0
  0
CLASS
  1
DICTIONARYVAR
  2
AcDbDictionaryVar
  3
ObjectDBX Classes
 90
        0
280
     0
281
     0
  0
CLASS
  1
SORTENTSTABLE
  2
AcDbSortentsTable
  3
ObjectDBX Classes
 90
        0
280
     0
281
     0
  0
CLASS
  1
TABLESTYLE
  2
AcDbTableStyle
  3
ObjectDBX Classes
 90
     2047
280
     0
281
     0
  0
CLASS
  1
ACDBPLACEHOLDER
  2
AcDbPlaceHolder
  3
ObjectDBX Classes
 90
        0
280
     0
281
     0
  0
CLASS
  1
LAYOUT
  2
AcDbLayout
  3
ObjectDBX Classes
 90
        0
280
     0
281
     0
  0
ENDSEC
  0
SECTION
  2
TABLES
  0
TABLE
  2
VPORT
  5
8
330
0
100
AcDbSymbolTable
 70
     3
  0
VPORT
  5
2B0
330
8
100
AcDbSymbolTableRecord
100
AcDbViewportTableRecord
  2
*Active
 70
     0
 10
0.0
 20
0.0
 11
1.0
 21
1.0
 12
348.0952053589779
 22
267.6874401830444
 13
0.0
 23
0.0
 14
0.5
 24
0.5
 15
0.5
 25
0.5
 16
0.0
 26
0.0
 36
1.0
 17
0.0
 27
0.0
 37
0.0
 40
904.0670076818283
 41
1.454088050314465
 42
50.0
 43
0.0
 44
0.0
 50
0.0
 51
0.0
 71
     0
 72
  1000
 73
     1
 74
     3
 75
     0
 76
     0
 77
     0
 78
     0
281
     0
 65
     1
110
0.0
120
0.0
130
0.0
111
1.0
121
0.0
131
0.0
112
0.0
122
1.0
132
0.0
 79
     0
146
0.0
  0
ENDTAB
  0
TABLE
  2
LTYPE
  5
5
330
0
100
AcDbSymbolTable
 70
     3
  0
LTYPE
  5
14
330
5
100
AcDbSymbolTableRecord
100
AcDbLinetypeTableRecord
  2
ByBlock
 70
     0
  3

 72
    65
 73
     0
 40
0.0
  0
LTYPE
  5
15
330
5
100
AcDbSymbolTableRecord
100
AcDbLinetypeTableRecord
  2
ByLayer
 70
     0
  3

 72
    65
 73
     0
 40
0.0
  0
LTYPE
  5
16
330
5
100
AcDbSymbolTableRecord
100
AcDbLinetypeTableRecord
  2
Continuous
 70
     0
  3
Solid line
 72
    65
 73
     0
 40
0.0
  0
ENDTAB
  0
TABLE
  2
LAYER
  5
2
102
{ACAD_XDICTIONARY
360
96
102
}
330
0
100
AcDbSymbolTable
 70
     5
  0
LAYER
  5
10
330
2
100
AcDbSymbolTableRecord
100
AcDbLayerTableRecord
  2
0
 70
     0
 62
     7
  6
Continuous
370
    -3
390
F
  0
ENDTAB
  0
TABLE
  2
STYLE
  5
3
330
0
100
AcDbSymbolTable
 70
     5
  0
STYLE
  5
11
330
3
100
AcDbSymbolTableRecord
100
AcDbTextStyleTableRecord
  2
Standard
 70
     0
 40
0.0
 41
1.0
 50
0.0
 71
     0
 42
0.2
  3
txt
  4

  0
ENDTAB
  0
TABLE
  2
VIEW
  5
6
330
0
100
AcDbSymbolTable
 70
     0
  0
ENDTAB
  0
TABLE
  2
UCS
  5
7
330
0
100
AcDbSymbolTable
 70
     0
  0
ENDTAB
  0
TABLE
  2
APPID
  5
9
330
0
100
AcDbSymbolTable
 70
     2
  0
APPID
  5
12
330
9
100
AcDbSymbolTableRecord
100
AcDbRegAppTableRecord
  2
ACAD
 70
     0
  0
APPID
  5
95
330
9
100
AcDbSymbolTableRecord
100
AcDbRegAppTableRecord
  2
ACAD_PSEXT
 70
     0
  0
ENDTAB
  0
TABLE
  2
DIMSTYLE
  5
A
330
0
100
AcDbSymbolTable
 70
     1
100
AcDbDimStyleTable
 71
     0
  0
DIMSTYLE
105
27
330
A
100
AcDbSymbolTableRecord
100
AcDbDimStyleTableRecord
  2
Standard
 70
     0
340
11
  0
ENDTAB
  0
TABLE
  2
BLOCK_RECORD
  5
1
330
0
100
AcDbSymbolTable
 70
     6
  0
BLOCK_RECORD
  5
1F
102
{ACAD_XDICTIONARY
360
1C8
102
}
330
1
100
AcDbSymbolTableRecord
100
AcDbBlockTableRecord
  2
*Model_Space
340
22
  0
BLOCK_RECORD
  5
58
330
1
100
AcDbSymbolTableRecord
100
AcDbBlockTableRecord
  2
*Paper_Space
340
59
  0
BLOCK_RECORD
  5
5D
330
1
100
AcDbSymbolTableRecord
100
AcDbBlockTableRecord
  2
*Paper_Space0
340
5E
  0
BLOCK_RECORD
  5
26B
330
1
100
AcDbSymbolTableRecord
100
AcDbBlockTableRecord
  2
25040-430-P
340
0
310
2800000020000000200000000100080000000000000400000000000000000000000000000000000000000000000080000080000000808000800000008000800080800000C0C0C000C0DCC000F0CAA6000020400000206000002080000020A0000020C0000020E00000400000004020000040400000406000004080000040A0
310
000040C0000040E00000600000006020000060400000606000006080000060A0000060C0000060E00000800000008020000080400000806000008080000080A0000080C0000080E00000A0000000A0200000A0400000A0600000A0800000A0A00000A0C00000A0E00000C0000000C0200000C0400000C0600000C0800000C0
310
A00000C0C00000C0E00000E0000000E0200000E0400000E0600000E0800000E0A00000E0C00000E0E00040000000400020004000400040006000400080004000A0004000C0004000E00040200000402020004020400040206000402080004020A0004020C0004020E000404000004040200040404000404060004040800040
310
40A0004040C0004040E00040600000406020004060400040606000406080004060A0004060C0004060E00040800000408020004080400040806000408080004080A0004080C0004080E00040A0000040A0200040A0400040A0600040A0800040A0A00040A0C00040A0E00040C0000040C0200040C0400040C0600040C08000
310
40C0A00040C0C00040C0E00040E0000040E0200040E0400040E0600040E0800040E0A00040E0C00040E0E00080000000800020008000400080006000800080008000A0008000C0008000E00080200000802020008020400080206000802080008020A0008020C0008020E00080400000804020008040400080406000804080
310
008040A0008040C0008040E00080600000806020008060400080606000806080008060A0008060C0008060E00080800000808020008080400080806000808080008080A0008080C0008080E00080A0000080A0200080A0400080A0600080A0800080A0A00080A0C00080A0E00080C0000080C0200080C0400080C0600080C0
310
800080C0A00080C0C00080C0E00080E0000080E0200080E0400080E0600080E0800080E0A00080E0C00080E0E000C0000000C0002000C0004000C0006000C0008000C000A000C000C000C000E000C0200000C0202000C0204000C0206000C0208000C020A000C020C000C020E000C0400000C0402000C0404000C0406000C0
310
408000C040A000C040C000C040E000C0600000C0602000C0604000C0606000C0608000C060A000C060C000C060E000C0800000C0802000C0804000C0806000C0808000C080A000C080C000C080E000C0A00000C0A02000C0A04000C0A06000C0A08000C0A0A000C0A0C000C0A0E000C0C00000C0C02000C0C04000C0C06000
310
C0C08000C0C0A000F0FBFF00A4A0A000808080000000FF0000FF000000FFFF00FF000000FF00FF00FFFF0000FFFFFF0000000000000000000000000000000000000000000000000000000000000000000000000000000000000000000000000000000000000000000000000000000000000000000000000000000000000000
310
0000000000000000000000000000000000000000000000000000000000000000000000000000000000000000000000000000000000000000000000000000FFFFFFFFFFFF00000000000000000000000000000000000000000000FFFFFFFF000000000000FFFFFFFF000000000000000000000000000000FFFFFF000000FFFF
310
FFFFFFFFFFFF000000FFFFFF0000000000000000000000FFFF00FFFFFFFF0000000000000000FFFFFFFF00FFFF0000000000000000FFFF0000FF00000000000000000000000000000000FF0000FFFF0000000000FFFF00FFFF000000000000000000000000000000000000FFFF00FFFF00000000FF00FFFF00000000000000
310
00000000000000000000000000FFFF00FF00000000FF00FF00000000000000000000000000000000000000000000FF00FF00000000FF00FF00000000000000000000000000000000000000000000FF00FF00000000FF00FF00000000000000000000000000000000000000000000FF00FF00000000FF00FF00000000000000
310
000000000000000000000000000000FF00FF00000000FF00FF0000000000000000000000FF00000000000000000000FF00FF00000000FF00FF00000000000000000000FFFF00000000000000000000FF00FF000000FF0000FF000000000000000000FF0000FF000000000000000000FF0000FF0000FF0000FF000000000000
310
000000FFFFFFFF000000000000000000FF0000FF0000FF0000FF00000000000000000000FFFF00000000000000000000FF0000FF0000FF0000FFFFFFFFFFFFFFFFFFFFFFFFFFFFFFFFFFFFFFFFFFFFFFFF0000FF0000FF0000FF00000000000000000000000000000000000000000000FF0000FF0000FF0000FF0000000000
310
0000000000000000000000000000000000FF0000FF0000FF0000FF00000000000000000000FFFF00000000000000000000FF0000FF0000FF0000FF00000000000000000000FFFF00000000000000000000FF0000FF0000FF0000FF00000000000000000000FF0000000000000000000000FF0000FF0000FF0000FFFFFFFFFF
310
FFFFFFFFFFFFFFFFFFFFFFFFFFFFFFFFFFFFFF0000FF000000FFFFFFFFFFFFFFFFFFFFFFFFFFFFFFFFFFFFFFFFFFFFFFFFFFFFFFFF0000000000000000000000000000000000000000000000000000000000000000000000000000000000000000000000000000000000000000000000000000000000000000000000000000
310
0000000000000000000000000000000000000000000000000000000000000000000000000000000000000000000000000000000000000000
102
{BLKREFS
331
2A2
102
}
1001
ACAD
1000
DesignCenter Data
1002
{
1070
     1
1070
     1
1002
}
  0
ENDTAB
  0
ENDSEC
  0
SECTION
  2
BLOCKS
  0
BLOCK
  5
20
330
1F
100
AcDbEntity
  8
0
100
AcDbBlockBegin
  2
*Model_Space
 70
     0
 10
0.0
 20
0.0
 30
0.0
  3
*Model_Space
  1

  0
ENDBLK
  5
21
330
1F
100
AcDbEntity
  8
0
100
AcDbBlockEnd
  0
BLOCK
  5
5A
330
58
100
AcDbEntity
 67
     1
  8
0
100
AcDbBlockBegin
  2
*Paper_Space
 70
     0
 10
0.0
 20
0.0
 30
0.0
  3
*Paper_Space
  1

  0
ENDBLK
  5
5B
330
58
100
AcDbEntity
 67
     1
  8
0
100
AcDbBlockEnd
  0
BLOCK
  5
5F
330
5D
100
AcDbEntity
  8
0
100
AcDbBlockBegin
  2
*Paper_Space0
 70
     0
 10
0.0
 20
0.0
 30
0.0
  3
*Paper_Space0
  1

  0
ENDBLK
  5
60
330
5D
100
AcDbEntity
  8
0
100
AcDbBlockEnd
  0
BLOCK
  5
26C
330
26B
100
AcDbEntity
  8
0
100
AcDbBlockBegin
  2
25040-430-P
 70
     0
 10
0.0
 20
0.0
 30
0.0
  3
25040-430-P
  1

  0
LWPOLYLINE
  5
26E
330
26B
100
AcDbEntity
  8
0
370
    15
100
AcDbPolyline
 90
       26
 70
   128
 43
0.0
 10
266.6660160954634
 20
-385.973636301284
 10
269.2915112908522
 20
-383.5122624952841
 10
272.7062017853896
 20
-379.8912207205344
 10
275.8828909333388
 20
-376.0639766771842
 10
278.8178832467238
 20
-372.0345238764334
 10
281.2026054795424
 20
-368.2783881743003
 10
283.4583432610671
 20
-364.1566375811148
 10
285.4457409318129
 20
-359.8700801451255
 10
287.134131902043
 20
-355.4742673952628
 10
288.5053069527785
 20
-350.9762326796103
 10
289.501896613423
 20
-346.6564456541587
 10
290.2694852288405
 20
-342.1177903730918
 10
290.8402593072096
 20
-337.1844629366446
 10
291.25016044933
 20
-331.9347540457297
 10
291.8035299714247
 20
-324.3620137293387
 10
293.9043850835005
 20
-292.9075697977591
 10
295.6750900681655
 20
-261.6179923136283
 10
297.1135587628523
 20
-230.5577437002707
 10
298.2223541672865
 20
-199.7274498064566
 10
299.0049929555098
 20
-169.1254268009711
 10
299.4682104523818
 20
-138.5924706776191
 10
299.6103675301711
 20
-108.2415322382499
 10
299.4334013398329
 20
-78.08031538320074
 10
298.9392490323226
 20
-48.10845875931272
 10
298.142215722386
 20
-18.45259243441114
 10
297.5647361214797
 20
-1.9192705005903
  0
ARC
  5
26F
330
26B
100
AcDbEntity
  8
0
370
    15
100
AcDbCircle
 10
295.543610998242
 20
-1.99994884151738
 30
0.0
 40
1.99994884170346
100
AcDbArc
 50
2.625468261190476
 51
90.0011052286406
  0
LWPOLYLINE
  5
270
330
26B
100
AcDbEntity
  8
0
370
    15
100
AcDbPolyline
 90
       54
 70
   128
 43
0.0
 10
-266.6326551501115
 20
-385.9422842581321
 10
-262.9844038550218
 20
-389.0595773775626
 10
-258.6951642100175
 20
-392.4249748308707
 10
-253.5170106951555
 20
-396.2605337221671
 10
-245.8793460194429
 20
-401.719335706954
 10
-235.9871207539399
 20
-408.4415475447226
 10
-225.9714840714296
 20
-414.8630539495993
 10
-215.831839925464
 20
-420.9861198980856
 10
-205.5672942463716
 20
-426.8114010412741
 10
-195.273601895984
 20
-432.2879056055594
 10
-184.83666468304
 20
-437.483553083663
 10
-174.2507158581575
 20
-442.4012939055014
 10
-163.5266779724916
 20
-447.0354656298209
 10
-152.6757119957765
 20
-451.3806740362692
 10
-141.709485537227
 20
-455.431882532363
 10
-130.6407092873414
 20
-459.1841737349081
 10
-119.4811849657853
 20
-462.6334647257376
 10
-108.2428260509332
 20
-465.7761196215201
 10
-96.93754602115951
 20
-468.6090389807272
 10
-85.57722110193571
 20
-471.1294213850546
 10
-74.17364556234679
 20
-473.3350912649679
 10
-62.73847956102691
 20
-475.224260481124
 10
-51.28317464035354
 20
-476.7955283243704
 10
-39.81895509999595
 20
-478.0480603296805
 10
-28.3566969249805
 20
-478.9813200552512
 10
-16.91359233003459
 20
-479.5946220476675
 10
-5.491582657065009
 20
-479.8915425856161
 10
5.971662719879532
 20
-479.875389726882
 10
17.46454510945477
 20
-479.5450309832144
 10
28.97525999802747
 20
-478.8996616919089
 10
40.49168016869225
 20
-477.9388944227743
 10
52.00138922888436
 20
-476.662818582778
 10
63.49175285655656
 20
-475.0719706137228
 10
74.94995605308213
 20
-473.1673339922476
 10
86.36306833583512
 20
-470.9504286367941
 10
97.71812569457688
 20
-468.4232513029623
 10
109.0017617877165
 20
-465.5883351881552
 10
120.200021677796
 20
-462.4490181524802
 10
131.3002170260588
 20
-459.0088168699789
 10
142.2898830111662
 20
-455.2717248518515
 10
153.1568528350035
 20
-451.242063434844
 10
163.8879389699141
 20
-446.9254354555655
 10
174.4795502360503
 20
-442.3286060411978
 10
185.0309581692854
 20
-437.4081830103445
 10
195.4736919339339
 20
-432.1921209414053
 10
205.8005840714614
 20
-426.6830424387503
 10
216.004109495465
 20
-420.8838383276511
 10
226.0766090090911
 20
-414.7977868635702
 10
236.0102595027129
 20
-408.4284941275168
 10
245.7930804427306
 20
-401.7827848513174
 10
254.3309838708083
 20
-395.784233005767
 10
259.3612582619826
 20
-392.0526544172813
 10
263.9062912400405
 20
-388.4090820868064
 10
266.6675658162276
 20
-385.9751860220481
  0
LINE
  5
271
330
26B
100
AcDbEntity
  8
0
370
    15
100
AcDbLine
 10
-295.5435724194686
 20
0.0000000001859917
 30
0.0
 11
295.5435724194686
 21
-0.0000000001859917
 31
0.0
  0
ARC
  5
272
330
26B
100
AcDbEntity
  8
0
370
     0
100
AcDbCircle
 10
-0.0415707097490667
 20
-41.23431594140993
 30
0.0
 40
399.3866008118023
100
AcDbArc
 50
270.0
 51
281.8187137182759
  0
LINE
  5
273
330
26B
100
AcDbEntity
  8
0
370
     0
100
AcDbLine
 10
86.35045056417766
 20
-431.1642536593422
 30
0.0
 11
81.75909734429479
 21
-432.1541384292418
 31
0.0
  0
ARC
  5
274
330
26B
100
AcDbEntity
  8
0
370
     0
100
AcDbCircle
 10
-1.924607265291342
 20
-33.83590137956935
 30
0.0
 40
407.016345323078
100
AcDbArc
 50
282.5260412683024
 51
290.5545910152693
  0
LINE
  5
275
330
26B
100
AcDbEntity
  8
0
370
     0
100
AcDbLine
 10
145.2962960489658
 20
-413.294700886307
 30
0.0
 11
140.9528608806995
 21
-414.9505775228112
 31
0.0
  0
LWPOLYLINE
  5
276
330
26B
100
AcDbEntity
  8
0
370
     0
100
AcDbPolyline
 90
        3
 70
   128
 43
0.0
 10
149.02057755658
 20
-411.8292402178281
 10
149.0024576471387
 20
-411.8364657767702
 10
145.2470570274872
 20
-413.3137709950701
  0
ARC
  5
277
330
26B
100
AcDbEntity
  8
0
370
     0
100
AcDbCircle
 10
39.92558601059682
 20
-128.4815565726426
 30
0.0
 40
303.6238051838785
100
AcDbArc
 50
291.0688429938424
 51
304.1117041749418
  0
LINE
  5
278
330
26B
100
AcDbEntity
  8
0
370
     0
100
AcDbLine
 10
213.6905580413477
 20
-377.4371005755443
 30
0.0
 11
210.2002862529953
 21
-379.8656084369145
 31
0.0
  0
LINE
  5
279
330
26B
100
AcDbEntity
  8
0
370
     0
100
AcDbLine
 10
217.0867697204885
 20
-375.001067785925
 30
0.0
 11
213.5893773488042
 21
-377.5077460108837
 31
0.0
  0
LWPOLYLINE
  5
27A
330
26B
100
AcDbEntity
  8
0
370
     0
100
AcDbPolyline
 90
        3
 70
   128
 43
0.0
 10
222.8572872733239
 20
-369.9488584901769
 10
220.1004980592388
 20
-372.5590784222863
 10
217.0867697204885
 20
-375.001067785925
  0
LWPOLYLINE
  5
27B
330
26B
100
AcDbEntity
  8
0
370
     0
100
AcDbPolyline
 90
       11
 70
   128
 43
0.0
 10
237.8413619282019
 20
-322.814153115331
 10
237.2301823213602
 20
-331.7431760802979
 10
236.5438055745108
 20
-340.5249751018723
 10
235.9566168024048
 20
-344.610399593003
 10
235.0617774594921
 20
-348.5857004617478
 10
233.7988005524821
 20
-352.5716769351161
 10
232.1975106837872
 20
-356.4370160627909
 10
230.3324691660237
 20
-360.0437532926339
 10
228.1734727099356
 20
-363.482176560427
 10
225.6556693281837
 20
-366.8265237010314
 10
222.8572872733239
 20
-369.948858490176
  0
LWPOLYLINE
  5
27C
330
26B
100
AcDbEntity
  8
0
370
     0
100
AcDbPolyline
 90
        9
 70
   128
 43
0.0
 10
241.5584558173159
 20
-36.68526560207329
 10
242.5627012369095
 20
-72.07803542071224
 10
243.2164360823062
 20
-107.3618152939784
 10
243.5417609062006
 20
-142.6609722364451
 10
243.4692656636453
 20
-177.94778613079
 10
242.8649530145703
 20
-214.1699335850285
 10
241.712912599327
 20
-250.3788831079642
 10
240.0287874839669
 20
-286.6015378140551
 10
237.8413619282019
 20
-322.814153115331
  0
ARC
  5
27D
330
26B
100
AcDbEntity
  8
0
370
     0
100
AcDbCircle
 10
221.8435582444054
 20
-36.87459660281684
 30
0.0
 40
19.71580666719548
100
AcDbArc
 50
0.5502201452473901
 51
55.93371995581001
  0
LWPOLYLINE
  5
27E
330
26B
100
AcDbEntity
  8
0
100
AcDbPolyline
 90
       11
 70
   128
 43
0.0
 10
238.4528727467696
 20
-38.06090751481543
 10
238.2869036133925
 20
-34.73161930037031
 10
237.5490130122344
 20
-31.48100176644812
 10
236.4438683922926
 20
-28.90596004021654
 10
234.9123121436278
 20
-26.55983367753516
 10
234.3047769005934
 20
-25.83501325738917
 10
232.0105196173827
 20
-23.70918379915247
 10
229.3773354228179
 20
-22.02267223787794
 10
226.2562723096053
 20
-20.69160179985056
 10
222.9752899344603
 20
-19.83251446676741
 10
219.5994765694722
 20
-19.39012693059931
  0
ARC
  5
27F
330
26B
100
AcDbEntity
  8
0
370
     0
100
AcDbCircle
 10
218.3163068621634
 20
-158.6073465248814
 30
0.0
 40
22.66247640408152
100
AcDbArc
 50
55.90975659203346
 51
88.84975003050586
  0
LWPOLYLINE
  5
280
330
26B
100
AcDbEntity
  8
0
370
     0
100
AcDbPolyline
 90
        9
 70
   128
 43
0.0
 10
240.1426644261519
 20
-149.7290174086142
 10
240.1261688407103
 20
-149.7262457926322
 10
240.1022822793166
 20
-149.7106889803458
 10
240.0305480893294
 20
-149.6207306702185
 10
239.7773326571623
 20
-149.2190251667548
 10
238.6872382100264
 20
-147.587541731124
 10
236.6126091416518
 20
-145.004768164878
 10
234.1077835496108
 20
-142.4588600714255
 10
231.0185791190306
 20
-139.8848334868003
  0
LWPOLYLINE
  5
281
330
26B
100
AcDbEntity
  8
0
370
     0
100
AcDbPolyline
 90
       13
 70
   128
 43
0.0
 10
-231.0145585600694
 20
-139.8848632891227
 10
-232.8110872570833
 20
-141.3169244844962
 10
-234.4618378941377
 20
-142.793897779708
 10
-236.7724119488557
 20
-145.1900044996787
 10
-238.7038855616411
 20
-147.6161668617774
 10
-239.4466935459932
 20
-148.7048009951163
 10
-239.7289662424882
 20
-149.1477529127646
 10
-239.8874400917848
 20
-149.4023541529227
 10
-239.9813770119508
 20
-149.5518575031806
 10
-240.0389401976426
 20
-149.6384332497168
 10
-240.1038198534807
 20
-149.715159328704
 10
-240.122759229358
 20
-149.7263202984381
 10
-240.1386587683519
 20
-149.7288534958411
  0
ARC
  5
282
330
26B
100
AcDbEntity
  8
0
370
     0
100
AcDbCircle
 10
-218.5559068533348
 20
-157.7983325263135
 30
0.0
 40
21.84993158474954
100
AcDbArc
 50
90.55388724258412
 51
124.7636012712352
  0
ARC
  5
283
330
26B
100
AcDbEntity
  8
0
370
     0
100
AcDbCircle
 10
0.0019283230940346
 20
-4630.000003965623
 30
0.0
 40
4621.893217182441
100
AcDbArc
 50
87.04499831542163
 51
92.95498937306524
  0
LINE
  5
284
330
26B
100
AcDbEntity
  8
0
370
     0
100
AcDbLine
 10
238.2681430514494
 20
-14.25238070828118
 30
0.0
 11
245.7427443202178
 21
-14.61847616178284
 31
0.0
  0
LINE
  5
285
330
26B
100
AcDbEntity
  8
0
370
     0
100
AcDbLine
 10
-245.7375912730058
 20
-14.61840072465429
 30
0.0
 11
-238.2632880274614
 21
-14.25232948554048
 31
0.0
  0
LWPOLYLINE
  5
286
330
26B
100
AcDbEntity
  8
0
100
AcDbPolyline
 90
        4
 70
   128
 43
0.0
 10
238.4528727467696
 20
-38.06090751481543
 10
239.4759864743392
 20
-85.21945426059255
 10
240.0447488959471
 20
-132.3911587317038
 10
240.1440651353041
 20
-149.8466471750785
  0
ARC
  5
287
330
26B
100
AcDbEntity
  8
0
100
AcDbCircle
 10
0.0000192893949134
 20
-4631.611778864395
 30
0.0
 40
4617.446533334699
100
AcDbArc
 50
87.27406264064214
 51
92.72593735935785
  0
ARC
  5
288
330
26B
100
AcDbEntity
  8
0
370
     0
100
AcDbCircle
 10
0.0019283230940346
 20
-4630.000003965623
 30
0.0
 40
4499.372196933971
100
AcDbArc
 50
87.21305447789447
 51
92.78694233716667
  0
SPLINE
  5
289
330
26B
100
AcDbEntity
  8
0
100
AcDbSpline
210
0.0
220
0.0
230
1.0
 70
     8
 71
     3
 72
     9
 73
     5
 74
     0
 42
0.0000000001
 43
0.0000000001
 40
13.4635172327934
 40
13.4635172327934
 40
13.4635172327934
 40
13.4635172327934
 40
231.5809529433067
 40
449.7022617207048
 40
449.7022617207048
 40
449.7022617207048
 40
449.7022617207048
 10
-217.5838059676025
 20
-141.3001895485708
 30
0.0
 10
-145.0549319244892
 20
-148.8885174758829
 30
0.0
 10
0.0038490168426506
 20
-156.051308755756
 30
0.0
 10
145.0597029298387
 20
-148.855616975607
 30
0.0
 10
217.5881462985862
 20
-141.2507035008334
 30
0.0
  0
ARC
  5
28A
330
26B
100
AcDbEntity
  8
0
370
     0
100
AcDbCircle
 10
0.0416092885225226
 20
-41.23431594140993
 30
0.0
 40
399.3866008118023
100
AcDbArc
 50
258.1812862817242
 51
270.0
  0
LINE
  5
28B
330
26B
100
AcDbEntity
  8
0
370
     0
100
AcDbLine
 10
-86.3504119854042
 20
-431.1642536593422
 30
0.0
 11
-81.75905876552134
 21
-432.1541384292418
 31
0.0
  0
ARC
  5
28C
330
26B
100
AcDbEntity
  8
0
370
     0
100
AcDbCircle
 10
1.924645844063888
 20
-33.83590137956935
 30
0.0
 40
407.016345323078
100
AcDbArc
 50
249.4454089847307
 51
257.4739587316976
  0
LINE
  5
28D
330
26B
100
AcDbEntity
  8
0
370
     0
100
AcDbLine
 10
-145.2962574701942
 20
-413.294700886307
 30
0.0
 11
-140.9528223019279
 21
-414.9505775228112
 31
0.0
  0
LWPOLYLINE
  5
28E
330
26B
100
AcDbEntity
  8
0
370
     0
100
AcDbPolyline
 90
        3
 70
   128
 43
0.0
 10
-149.0205389778075
 20
-411.8292402178281
 10
-149.0024190683671
 20
-411.8364657767702
 10
-145.2470184487138
 20
-413.3137709950701
  0
ARC
  5
28F
330
26B
100
AcDbEntity
  8
0
370
     0
100
AcDbCircle
 10
-39.92554743182336
 20
-128.4815565726426
 30
0.0
 40
303.6238051838785
100
AcDbArc
 50
235.8882958250582
 51
248.9311570061575
  0
LINE
  5
290
330
26B
100
AcDbEntity
  8
0
370
     0
100
AcDbLine
 10
-213.690519462576
 20
-377.4371005755443
 30
0.0
 11
-210.2002476742236
 21
-379.8656084369145
 31
0.0
  0
LINE
  5
291
330
26B
100
AcDbEntity
  8
0
370
     0
100
AcDbLine
 10
-217.0867311417169
 20
-375.001067785925
 30
0.0
 11
-213.5893387700307
 21
-377.5077460108837
 31
0.0
  0
LWPOLYLINE
  5
292
330
26B
100
AcDbEntity
  8
0
370
     0
100
AcDbPolyline
 90
        3
 70
   128
 43
0.0
 10
-222.8572486945505
 20
-369.9488584901769
 10
-220.1004594804654
 20
-372.5590784222863
 10
-217.0867311417169
 20
-375.001067785925
  0
LWPOLYLINE
  5
293
330
26B
100
AcDbEntity
  8
0
370
     0
100
AcDbPolyline
 90
       11
 70
   128
 43
0.0
 10
-237.8413233494303
 20
-322.814153115331
 10
-237.2301437425885
 20
-331.7431760802979
 10
-236.5437669957382
 20
-340.5249751018723
 10
-235.9565782236314
 20
-344.610399593003
 10
-235.0617388807204
 20
-348.5857004617478
 10
-233.7987619737096
 20
-352.5716769351161
 10
-232.1974721050156
 20
-356.4370160627909
 10
-230.3324305872502
 20
-360.0437532926339
 10
-228.1734341311621
 20
-363.482176560427
 10
-225.655630749412
 20
-366.8265237010314
 10
-222.8572486945523
 20
-369.948858490176
  0
LWPOLYLINE
  5
294
330
26B
100
AcDbEntity
  8
0
370
     0
100
AcDbPolyline
 90
        9
 70
   128
 43
0.0
 10
-241.5584172385443
 20
-36.68526560207329
 10
-242.5626626581361
 20
-72.07803542071224
 10
-243.2163975035346
 20
-107.3618152939784
 10
-243.5417223274271
 20
-142.6609722364451
 10
-243.4692270848736
 20
-177.94778613079
 10
-242.8649144357978
 20
-214.1699335850285
 10
-241.7128740205553
 20
-250.3788831079642
 10
-240.0287489051934
 20
-286.6015378140551
 10
-237.8413233494303
 20
-322.814153115331
  0
ARC
  5
295
330
26B
100
AcDbEntity
  8
0
370
     0
100
AcDbCircle
 10
-221.8435196656319
 20
-36.87459660281684
 30
0.0
 40
19.71580666719548
100
AcDbArc
 50
124.06628004419
 51
179.4497798547526
  0
LWPOLYLINE
  5
296
330
26B
100
AcDbEntity
  8
0
100
AcDbPolyline
 90
       11
 70
   128
 43
0.0
 10
-238.452834167997
 20
-38.06090751481543
 10
-238.286865034619
 20
-34.73161930037031
 10
-237.5489744334618
 20
-31.48100176644812
 10
-236.4438298135192
 20
-28.90596004021654
 10
-234.9122735648553
 20
-26.55983367753516
 10
-234.30473832182
 20
-25.83501325738917
 10
-232.0104810386101
 20
-23.70918379915247
 10
-229.3772968440444
 20
-22.02267223787794
 10
-226.2562337308318
 20
-20.69160179985056
 10
-222.9752513556868
 20
-19.83251446676741
 10
-219.5994379906997
 20
-19.39012693059931
  0
ARC
  5
297
330
26B
100
AcDbEntity
  8
0
370
     0
100
AcDbCircle
 10
-218.3162682833909
 20
-158.6073465248814
 30
0.0
 40
22.66247640408152
100
AcDbArc
 50
91.15024996949413
 51
124.0902434079665
  0
LWPOLYLINE
  5
298
330
26B
100
AcDbEntity
  8
0
370
     0
100
AcDbPolyline
 90
        9
 70
   128
 43
0.0
 10
-240.1426258473794
 20
-149.7290174086142
 10
-240.1261302619378
 20
-149.7262457926322
 10
-240.102243700544
 20
-149.7106889803458
 10
-240.0305095105569
 20
-149.6207306702185
 10
-239.7772940783898
 20
-149.2190251667548
 10
-238.6871996312539
 20
-147.587541731124
 10
-236.6125705628792
 20
-145.004768164878
 10
-234.1077449708382
 20
-142.4588600714255
 10
-231.0185405402581
 20
-139.8848334868003
  0
LINE
  5
299
330
26B
100
AcDbEntity
  8
0
370
     0
100
AcDbLine
 10
-238.2681044726778
 20
-14.25238070828118
 30
0.0
 11
-245.7427057414461
 21
-14.61847616178284
 31
0.0
  0
LWPOLYLINE
  5
29A
330
26B
100
AcDbEntity
  8
0
100
AcDbPolyline
 90
        4
 70
   128
 43
0.0
 10
-238.452834167997
 20
-38.06090751481543
 10
-239.4759478955666
 20
-85.21945426059255
 10
-240.0447103171746
 20
-132.3911587317038
 10
-240.1440265565325
 20
-149.8466471750785
  0
LWPOLYLINE
  5
29B
330
26B
100
AcDbEntity
  8
0
370
    15
100
AcDbPolyline
 90
       26
 70
   128
 43
0.0
 10
-266.6621594492735
 20
-385.973636301284
 10
-269.2876546446623
 20
-383.5122624952841
 10
-272.7023451391997
 20
-379.8912207205344
 10
-275.8790342871489
 20
-376.0639766771842
 10
-278.8140266005339
 20
-372.0345238764334
 10
-281.1987488333525
 20
-368.2783881743003
 10
-283.4544866148771
 20
-364.1566375811148
 10
-285.441884285623
 20
-359.8700801451255
 10
-287.1302752558531
 20
-355.4742673952628
 10
-288.5014503065886
 20
-350.9762326796103
 10
-289.4980399672331
 20
-346.6564456541587
 10
-290.2656285826506
 20
-342.1177903730918
 10
-290.8364026610197
 20
-337.1844629366446
 10
-291.2463038031401
 20
-331.9347540457297
 10
-291.7996733252348
 20
-324.3620137293387
 10
-293.9005284373106
 20
-292.9075697977591
 10
-295.6712334219755
 20
-261.6179923136283
 10
-297.1097021166624
 20
-230.5577437002707
 10
-298.2184975210966
 20
-199.7274498064566
 10
-299.0011363093199
 20
-169.1254268009711
 10
-299.4643538061918
 20
-138.5924706776191
 10
-299.6065108839811
 20
-108.2415322382499
 10
-299.429544693643
 20
-78.08031538320074
 10
-298.9353923861326
 20
-48.10845875931272
 10
-298.1383590761961
 20
-18.45259243441114
 10
-297.5608794752897
 20
-1.9192705005903
  0
ARC
  5
29C
330
26B
100
AcDbEntity
  8
0
370
    15
100
AcDbCircle
 10
-295.5435724194686
 20
-1.99994884151738
 30
0.0
 40
1.99994884170346
100
AcDbArc
 50
89.99889477135941
 51
177.3745317388095
  0
ARC
  5
29D
330
26B
100
AcDbEntity
  8
0
100
AcDbCircle
 10
0.0019283230958536
 20
-205.0000000000018
 30
0.0
 40
23.0
100
AcDbArc
 50
270.0
 51
90.0
  0
ARC
  5
29E
330
26B
100
AcDbEntity
  8
0
100
AcDbCircle
 10
0.0019283230958536
 20
-205.0000000000018
 30
0.0
 40
36.0
100
AcDbArc
 50
270.0
 51
90.0
  0
ARC
  5
29F
330
26B
100
AcDbEntity
  8
0
100
AcDbCircle
 10
0.0019283230958536
 20
-205.0000000000018
 30
0.0
 40
36.0
100
AcDbArc
 50
90.0
 51
270.0
  0
ARC
  5
2A0
330
26B
100
AcDbEntity
  8
0
100
AcDbCircle
 10
0.0019283230958536
 20
-205.0000000000018
 30
0.0
 40
23.0
100
AcDbArc
 50
90.0
 51
270.0
  0
CIRCLE
  5
2A1
330
26B
100
AcDbEntity
  8
0
370
     0
100
AcDbCircle
 10
0.0000192893858184
 20
-64.84568527417787
 30
0.0
 40
17.5
  0
ENDBLK
  5
26D
330
26B
100
AcDbEntity
  8
0
100
AcDbBlockEnd
  0
ENDSEC
  0
SECTION
  2
ENTITIES
  0
MTEXT
  5
BB
330
1F
100
AcDbEntity
  8
0
100
AcDbMText
 10
19.65616043981684
 20
39.08438319788589
 30
0.0
 40
20.0
 41
0.0000000000009095
 71
     1
 72
     5
  1
{\fTimes New Roman|b0|i0|c0|p18;\C0;LAVABO DE 60CM. CON PEDESTAL. SERIE SMART}
 73
     1
 44
1.0
1001
ACAD
1000
MTEXTBEGIN
1070
    73
1070
     1
1070
    44
1040
1.0
1070
    74
1070
     0
1000
MTEXTEND
  0
INSERT
  5
2A2
330
1F
100
AcDbEntity
  8
0
100
AcDbBlockReference
  2
25040-430-P
 10
346.015635082641
 20
573.4754984636452
 30
0.0
  0
ENDSEC
  0
SECTION
  2
OBJECTS
  0
DICTIONARY
  5
C
330
0
100
AcDbDictionary
281
     1
  3
ACAD_COLOR
350
73
  3
ACAD_GROUP
350
D
  3
ACAD_LAYOUT
350
1A
  3
ACAD_MATERIAL
350
72
  3
ACAD_MLINESTYLE
350
17
  3
ACAD_PLOTSETTINGS
350
19
  3
ACAD_PLOTSTYLENAME
350
E
  3
ACAD_TABLESTYLE
350
104
  3
ACDBHEADERROUNDTRIPXREC
350
2B2
  3
AcDbVariableDictionary
350
66
  3
DWGPROPS
350
2B1
  0
DICTIONARY
  5
96
330
2
100
AcDbDictionary
280
     1
281
     1
  3
ACAD_LAYERSTATES
360
97
  0
DICTIONARY
  5
1C8
330
1F
100
AcDbDictionary
280
     1
281
     1
  3
ACAD_SORTENTS
360
1C9
  0
DICTIONARY
  5
73
102
{ACAD_REACTORS
330
C
102
}
330
C
100
AcDbDictionary
281
     1
  0
DICTIONARY
  5
D
102
{ACAD_REACTORS
330
C
102
}
330
C
100
AcDbDictionary
281
     1
  0
DICTIONARY
  5
1A
102
{ACAD_REACTORS
330
C
102
}
330
C
100
AcDbDictionary
281
     1
  3
Model
350
22
  3
Presentación1
350
59
  3
Presentación2
350
5E
  0
DICTIONARY
  5
72
102
{ACAD_REACTORS
330
C
102
}
330
C
100
AcDbDictionary
281
     1
  0
DICTIONARY
  5
17
102
{ACAD_REACTORS
330
C
102
}
330
C
100
AcDbDictionary
281
     1
  3
Standard
350
18
  0
DICTIONARY
  5
19
102
{ACAD_REACTORS
330
C
102
}
330
C
100
AcDbDictionary
281
     1
  0
ACDBDICTIONARYWDFLT
  5
E
102
{ACAD_REACTORS
330
C
102
}
330
C
100
AcDbDictionary
281
     1
  3
Normal
350
F
100
AcDbDictionaryWithDefault
340
F
  0
DICTIONARY
  5
104
102
{ACAD_REACTORS
330
C
102
}
330
C
100
AcDbDictionary
281
     1
  3
Standard
350
105
  0
DICTIONARY
  5
2B2
102
{ACAD_REACTORS
330
C
102
}
330
C
100
AcDbDictionary
281
     1
  0
DICTIONARY
  5
66
102
{ACAD_REACTORS
330
C
102
}
330
C
100
AcDbDictionary
281
     1
  3
CTABLESTYLE
350
2AE
  3
DIMASSOC
350
67
  3
HIDETEXT
350
6B
  3
PROJECTNAME
350
2AF
  0
XRECORD
  5
2B1
102
{ACAD_REACTORS
330
C
102
}
330
C
100
AcDbXrecord
280
     1
  1
DWGPROPS COOKIE
  2

  3

  4

  6

  7

  8

  9

300
=
301
=
302
=
303
=
304
=
305
=
306
=
307
=
308
=
309
=
 40
0.0176614930555556
 41
2454473.167406447
 42
2454572.560574364
  1

 90
        0
  0
DICTIONARY
  5
97
102
{ACAD_REACTORS
330
96
102
}
330
96
100
AcDbDictionary
281
     1
  0
SORTENTSTABLE
  5
1C9
102
{ACAD_REACTORS
330
1C8
102
}
330
1C8
100
AcDbSortentsTable
330
1F
331
2A2
  5
26A
331
BB
  5
2A2
  0
LAYOUT
  5
22
102
{ACAD_XDICTIONARY
360
2B3
102
}
102
{ACAD_REACTORS
330
1A
102
}
330
1A
100
AcDbPlotSettings
  1

  2
none_device
  4
ANSI_A_(8.50_x_11.00_Inches)
  6

 40
6.349999904632567
 41
19.04999923706055
 42
6.350006103515625
 43
19.04998779296875
 44
215.8999938964844
 45
279.3999938964844
 46
0.0
 47
0.0
 48
0.0
 49
0.0
140
0.0
141
0.0
142
1.0
143
2.584895464708373
 70
 11952
 72
     0
 73
     1
 74
     0
  7

 75
     0
147
0.3868628397755418
148
0.0
149
0.0
100
AcDbLayout
  1
Model
 70
     1
 71
     0
 10
0.0
 20
0.0
 11
12.0
 21
9.0
 12
0.0
 22
0.0
 32
0.0
 14
0.0
 24
0.0
 34
0.0
 15
0.0
 25
0.0
 35
0.0
146
0.0
 13
0.0
 23
0.0
 33
0.0
 16
1.0
 26
0.0
 36
0.0
 17
0.0
 27
1.0
 37
0.0
 76
     0
330
1F
  0
LAYOUT
  5
59
102
{ACAD_XDICTIONARY
360
2B5
102
}
102
{ACAD_REACTORS
330
1A
102
}
330
1A
100
AcDbPlotSettings
  1

  2
None
  4

  6

 40
0.0
 41
0.0
 42
0.0
 43
0.0
 44
0.0
 45
0.0
 46
0.0
 47
0.0
 48
0.0
 49
0.0
140
0.0
141
0.0
142
1.0
143
1.0
 70
   688
 72
     0
 73
     0
 74
     5
  7

 75
    16
147
1.0
148
0.0
149
0.0
100
AcDbLayout
  1
Presentación1
 70
     1
 71
     1
 10
0.0
 20
0.0
 11
12.0
 21
9.0
 12
0.0
 22
0.0
 32
0.0
 14
0.0
 24
0.0
 34
0.0
 15
0.0
 25
0.0
 35
0.0
146
0.0
 13
0.0
 23
0.0
 33
0.0
 16
1.0
 26
0.0
 36
0.0
 17
0.0
 27
1.0
 37
0.0
 76
     0
330
58
  0
LAYOUT
  5
5E
102
{ACAD_XDICTIONARY
360
2B7
102
}
102
{ACAD_REACTORS
330
1A
102
}
330
1A
100
AcDbPlotSettings
  1

  2
None
  4

  6

 40
0.0
 41
0.0
 42
0.0
 43
0.0
 44
0.0
 45
0.0
 46
0.0
 47
0.0
 48
0.0
 49
0.0
140
0.0
141
0.0
142
1.0
143
1.0
 70
   688
 72
     0
 73
     0
 74
     5
  7

 75
    16
147
1.0
148
0.0
149
0.0
100
AcDbLayout
  1
Presentación2
 70
     1
 71
     2
 10
0.0
 20
0.0
 11
12.0
 21
9.0
 12
0.0
 22
0.0
 32
0.0
 14
0.0
 24
0.0
 34
0.0
 15
0.0
 25
0.0
 35
0.0
146
0.0
 13
0.0
 23
0.0
 33
0.0
 16
1.0
 26
0.0
 36
0.0
 17
0.0
 27
1.0
 37
0.0
 76
     0
330
5D
  0
MLINESTYLE
  5
18
102
{ACAD_REACTORS
330
17
102
}
330
17
100
AcDbMlineStyle
  2
STANDARD
 70
     0
  3

 62
   256
 51
90.0
 52
90.0
 71
     2
 49
0.5
 62
   256
  6
BYLAYER
 49
-0.5
 62
   256
  6
BYLAYER
  0
ACDBPLACEHOLDER
  5
F
102
{ACAD_REACTORS
330
E
102
}
330
E
  0
TABLESTYLE
  5
105
102
{ACAD_REACTORS
330
104
102
}
330
104
100
AcDbTableStyle
  3
Standard
 70
     0
 71
     0
 40
0.06
 41
0.06
280
     0
281
     0
  7
Standard
140
0.18
170
     2
 62
     0
 63
     7
283
     0
274
    -2
284
     1
 64
     0
275
    -2
285
     1
 65
     0
276
    -2
286
     1
 66
     0
277
    -2
287
     1
 67
     0
278
    -2
288
     1
 68
     0
279
    -2
289
     1
 69
     0
  7
Standard
140
0.25
170
     5
 62
     0
 63
     7
283
     0
274
    -2
284
     1
 64
     0
275
    -2
285
     1
 65
     0
276
    -2
286
     1
 66
     0
277
    -2
287
     1
 67
     0
278
    -2
288
     1
 68
     0
279
    -2
289
     1
 69
     0
  7
Standard
140
0.18
170
     5
 62
     0
 63
     7
283
     0
274
    -2
284
     1
 64
     0
275
    -2
285
     1
 65
     0
276
    -2
286
     1
 66
     0
277
    -2
287
     1
 67
     0
278
    -2
288
     1
 68
     0
279
    -2
289
     1
 69
     0
  0
DICTIONARYVAR
  5
2AE
102
{ACAD_REACTORS
330
66
102
}
330
66
100
DictionaryVariables
280
     0
  1
STANDARD
  0
DICTIONARYVAR
  5
67
102
{ACAD_REACTORS
330
66
102
}
330
66
100
DictionaryVariables
280
     0
  1
2
  0
DICTIONARYVAR
  5
6B
102
{ACAD_REACTORS
330
66
102
}
330
66
100
DictionaryVariables
280
     0
  1
1
  0
DICTIONARYVAR
  5
2AF
102
{ACAD_REACTORS
330
66
102
}
330
66
100
DictionaryVariables
280
     0
  1

  0
DICTIONARY
  5
2B3
330
22
100
AcDbDictionary
280
     1
281
     1
  3
ACAD_XREC_ROUNDTRIP
360
2B4
  0
DICTIONARY
  5
2B5
330
59
100
AcDbDictionary
280
     1
281
     1
  3
ACAD_XREC_ROUNDTRIP
360
2B6
  0
DICTIONARY
  5
2B7
330
5E
100
AcDbDictionary
280
     1
281
     1
  3
ACAD_XREC_ROUNDTRIP
360
2B8
  0
XRECORD
  5
2B4
102
{ACAD_REACTORS
330
2B3
102
}
330
2B3
100
AcDbXrecord
280
     1
102
SHADEPLOT
 70
     0
102
SHADEPLOTRESLEVEL
 70
     2
102
SHADEPLOTCUSTOMDPI
 70
   300
  0
XRECORD
  5
2B6
102
{ACAD_REACTORS
330
2B5
102
}
330
2B5
100
AcDbXrecord
280
     1
102
SHADEPLOT
 70
     0
102
SHADEPLOTRESLEVEL
 70
     2
102
SHADEPLOTCUSTOMDPI
 70
   300
  0
XRECORD
  5
2B8
102
{ACAD_REACTORS
330
2B7
102
}
330
2B7
100
AcDbXrecord
280
     1
102
SHADEPLOT
 70
     0
102
SHADEPLOTRESLEVEL
 70
     2
102
SHADEPLOTCUSTOMDPI
 70
   300
  0
ENDSEC
  0
EOF
