  0
SECTION
  2
HEADER
  9
$ACADVER
  1
AC1015
  9
$ACADMAINTVER
 70
    20
  9
$DWGCODEPAGE
  3
ANSI_1252
  9
$INSBASE
 10
0.0
 20
0.0
 30
0.0
  9
$EXTMIN
 10
-557.3256459888189
 20
20.16825228219318
 30
-0.0015258207003583
  9
$EXTMAX
 10
1454.997937012992
 20
973.2830266615914
 30
0.0000000349246037
  9
$LIMMIN
 10
0.0
 20
0.0
  9
$LIMMAX
 10
12.0
 20
9.0
  9
$ORTHOMODE
 70
     1
  9
$REGENMODE
 70
     1
  9
$FILLMODE
 70
     1
  9
$QTEXTMODE
 70
     0
  9
$MIRRTEXT
 70
     0
  9
$LTSCALE
 40
1.0
  9
$ATTMODE
 70
     1
  9
$TEXTSIZE
 40
0.2
  9
$TRACEWID
 40
0.05
  9
$TEXTSTYLE
  7
Standard
  9
$CLAYER
  8
0
  9
$CELTYPE
  6
ByLayer
  9
$CECOLOR
 62
   256
  9
$CELTSCALE
 40
1.0
  9
$DISPSILH
 70
     0
  9
$DIMSCALE
 40
1.0
  9
$DIMASZ
 40
0.18
  9
$DIMEXO
 40
0.0625
  9
$DIMDLI
 40
0.38
  9
$DIMRND
 40
0.0
  9
$DIMDLE
 40
0.0
  9
$DIMEXE
 40
0.18
  9
$DIMTP
 40
0.0
  9
$DIMTM
 40
0.0
  9
$DIMTXT
 40
0.18
  9
$DIMCEN
 40
0.09
  9
$DIMTSZ
 40
0.0
  9
$DIMTOL
 70
     0
  9
$DIMLIM
 70
     0
  9
$DIMTIH
 70
     1
  9
$DIMTOH
 70
     1
  9
$DIMSE1
 70
     0
  9
$DIMSE2
 70
     0
  9
$DIMTAD
 70
     0
  9
$DIMZIN
 70
     0
  9
$DIMBLK
  1

  9
$DIMASO
 70
     1
  9
$DIMSHO
 70
     1
  9
$DIMPOST
  1

  9
$DIMAPOST
  1

  9
$DIMALT
 70
     0
  9
$DIMALTD
 70
     2
  9
$DIMALTF
 40
25.4
  9
$DIMLFAC
 40
1.0
  9
$DIMTOFL
 70
     0
  9
$DIMTVP
 40
0.0
  9
$DIMTIX
 70
     0
  9
$DIMSOXD
 70
     0
  9
$DIMSAH
 70
     0
  9
$DIMBLK1
  1

  9
$DIMBLK2
  1

  9
$DIMSTYLE
  2
Standard
  9
$DIMCLRD
 70
     0
  9
$DIMCLRE
 70
     0
  9
$DIMCLRT
 70
     0
  9
$DIMTFAC
 40
1.0
  9
$DIMGAP
 40
0.09
  9
$DIMJUST
 70
     0
  9
$DIMSD1
 70
     0
  9
$DIMSD2
 70
     0
  9
$DIMTOLJ
 70
     1
  9
$DIMTZIN
 70
     0
  9
$DIMALTZ
 70
     0
  9
$DIMALTTZ
 70
     0
  9
$DIMUPT
 70
     0
  9
$DIMDEC
 70
     4
  9
$DIMTDEC
 70
     4
  9
$DIMALTU
 70
     2
  9
$DIMALTTD
 70
     2
  9
$DIMTXSTY
  7
Standard
  9
$DIMAUNIT
 70
     0
  9
$DIMADEC
 70
     0
  9
$DIMALTRND
 40
0.0
  9
$DIMAZIN
 70
     0
  9
$DIMDSEP
 70
    46
  9
$DIMATFIT
 70
     3
  9
$DIMFRAC
 70
     0
  9
$DIMLDRBLK
  1

  9
$DIMLUNIT
 70
     2
  9
$DIMLWD
 70
    -2
  9
$DIMLWE
 70
    -2
  9
$DIMTMOVE
 70
     0
  9
$LUNITS
 70
     2
  9
$LUPREC
 70
     4
  9
$SKETCHINC
 40
0.1
  9
$FILLETRAD
 40
0.0
  9
$AUNITS
 70
     0
  9
$AUPREC
 70
     0
  9
$MENU
  1
.
  9
$ELEVATION
 40
0.0
  9
$PELEVATION
 40
0.0
  9
$THICKNESS
 40
0.0
  9
$LIMCHECK
 70
     0
  9
$CHAMFERA
 40
0.0
  9
$CHAMFERB
 40
0.0
  9
$CHAMFERC
 40
0.0
  9
$CHAMFERD
 40
0.0
  9
$SKPOLY
 70
     0
  9
$TDCREATE
 40
2454473.099372060
  9
$TDUCREATE
 40
2454473.016038727
  9
$TDUPDATE
 40
2454572.557172303
  9
$TDUUPDATE
 40
2454572.473838970
  9
$TDINDWG
 40
0.0140917940
  9
$TDUSRTIMER
 40
0.0140917940
  9
$USRTIMER
 70
     1
  9
$ANGBASE
 50
0.0
  9
$ANGDIR
 70
     0
  9
$PDMODE
 70
     0
  9
$PDSIZE
 40
0.0
  9
$PLINEWID
 40
0.0
  9
$SPLFRAME
 70
     0
  9
$SPLINETYPE
 70
     6
  9
$SPLINESEGS
 70
     8
  9
$HANDSEED
  5
4F7
  9
$SURFTAB1
 70
     6
  9
$SURFTAB2
 70
     6
  9
$SURFTYPE
 70
     6
  9
$SURFU
 70
     6
  9
$SURFV
 70
     6
  9
$UCSBASE
  2

  9
$UCSNAME
  2

  9
$UCSORG
 10
0.0
 20
0.0
 30
0.0
  9
$UCSXDIR
 10
1.0
 20
0.0
 30
0.0
  9
$UCSYDIR
 10
0.0
 20
1.0
 30
0.0
  9
$UCSORTHOREF
  2

  9
$UCSORTHOVIEW
 70
     0
  9
$UCSORGTOP
 10
0.0
 20
0.0
 30
0.0
  9
$UCSORGBOTTOM
 10
0.0
 20
0.0
 30
0.0
  9
$UCSORGLEFT
 10
0.0
 20
0.0
 30
0.0
  9
$UCSORGRIGHT
 10
0.0
 20
0.0
 30
0.0
  9
$UCSORGFRONT
 10
0.0
 20
0.0
 30
0.0
  9
$UCSORGBACK
 10
0.0
 20
0.0
 30
0.0
  9
$PUCSBASE
  2

  9
$PUCSNAME
  2

  9
$PUCSORG
 10
0.0
 20
0.0
 30
0.0
  9
$PUCSXDIR
 10
1.0
 20
0.0
 30
0.0
  9
$PUCSYDIR
 10
0.0
 20
1.0
 30
0.0
  9
$PUCSORTHOREF
  2

  9
$PUCSORTHOVIEW
 70
     0
  9
$PUCSORGTOP
 10
0.0
 20
0.0
 30
0.0
  9
$PUCSORGBOTTOM
 10
0.0
 20
0.0
 30
0.0
  9
$PUCSORGLEFT
 10
0.0
 20
0.0
 30
0.0
  9
$PUCSORGRIGHT
 10
0.0
 20
0.0
 30
0.0
  9
$PUCSORGFRONT
 10
0.0
 20
0.0
 30
0.0
  9
$PUCSORGBACK
 10
0.0
 20
0.0
 30
0.0
  9
$USERI1
 70
     0
  9
$USERI2
 70
     0
  9
$USERI3
 70
     0
  9
$USERI4
 70
     0
  9
$USERI5
 70
     0
  9
$USERR1
 40
0.0
  9
$USERR2
 40
0.0
  9
$USERR3
 40
0.0
  9
$USERR4
 40
0.0
  9
$USERR5
 40
0.0
  9
$WORLDVIEW
 70
     1
  9
$SHADEDGE
 70
     3
  9
$SHADEDIF
 70
    70
  9
$TILEMODE
 70
     1
  9
$MAXACTVP
 70
    64
  9
$PINSBASE
 10
0.0
 20
0.0
 30
0.0
  9
$PLIMCHECK
 70
     0
  9
$PEXTMIN
 10
0.0
 20
0.0
 30
0.0
  9
$PEXTMAX
 10
0.0
 20
0.0
 30
0.0
  9
$PLIMMIN
 10
0.0
 20
0.0
  9
$PLIMMAX
 10
12.0
 20
9.0
  9
$UNITMODE
 70
     0
  9
$VISRETAIN
 70
     1
  9
$PLINEGEN
 70
     0
  9
$PSLTSCALE
 70
     1
  9
$TREEDEPTH
 70
  3020
  9
$CMLSTYLE
  2
Standard
  9
$CMLJUST
 70
     0
  9
$CMLSCALE
 40
1.0
  9
$PROXYGRAPHICS
 70
     1
  9
$MEASUREMENT
 70
     0
  9
$CELWEIGHT
370
    -1
  9
$ENDCAPS
280
     0
  9
$JOINSTYLE
280
     0
  9
$LWDISPLAY
290
     0
  9
$INSUNITS
 70
     1
  9
$HYPERLINKBASE
  1

  9
$STYLESHEET
  1

  9
$XEDIT
290
     1
  9
$CEPSNTYPE
380
     0
  9
$PSTYLEMODE
290
     1
  9
$FINGERPRINTGUID
  2
{FDEAD576-A652-11D2-9A35-0060089B3A3F}
  9
$VERSIONGUID
  2
{5EC0C9D9-0650-4E84-9584-3CFC29EB0697}
  9
$EXTNAMES
290
     1
  9
$PSVPSCALE
 40
0.0
  9
$OLESTARTUP
290
     0
  0
ENDSEC
  0
SECTION
  2
CLASSES
  0
CLASS
  1
ACDBDICTIONARYWDFLT
  2
AcDbDictionaryWithDefault
  3
ObjectDBX Classes
 90
        0
280
     0
281
     0
  0
CLASS
  1
DICTIONARYVAR
  2
AcDbDictionaryVar
  3
ObjectDBX Classes
 90
        0
280
     0
281
     0
  0
CLASS
  1
TABLESTYLE
  2
AcDbTableStyle
  3
ObjectDBX Classes
 90
     2047
280
     0
281
     0
  0
CLASS
  1
SORTENTSTABLE
  2
AcDbSortentsTable
  3
ObjectDBX Classes
 90
        0
280
     0
281
     0
  0
CLASS
  1
ACDBPLACEHOLDER
  2
AcDbPlaceHolder
  3
ObjectDBX Classes
 90
        0
280
     0
281
     0
  0
CLASS
  1
LAYOUT
  2
AcDbLayout
  3
ObjectDBX Classes
 90
        0
280
     0
281
     0
  0
ENDSEC
  0
SECTION
  2
TABLES
  0
TABLE
  2
VPORT
  5
8
330
0
100
AcDbSymbolTable
 70
    12
  0
VPORT
  5
4EA
330
8
100
AcDbSymbolTableRecord
100
AcDbViewportTableRecord
  2
*Active
 70
     0
 10
0.0
 20
0.0
 11
1.0
 21
1.0
 12
585.0131751500198
 22
429.9779249634991
 13
0.0
 23
0.0
 14
0.5
 24
0.5
 15
0.5
 25
0.5
 16
0.0
 26
0.0
 36
1.0
 17
0.0
 27
0.0
 37
0.0
 40
1435.114486429037
 41
1.454088050314465
 42
50.0
 43
0.0
 44
0.0
 50
0.0
 51
0.0
 71
     0
 72
  1000
 73
     1
 74
     3
 75
     0
 76
     0
 77
     0
 78
     0
281
     0
 65
     1
110
0.0
120
0.0
130
0.0
111
1.0
121
0.0
131
0.0
112
0.0
122
1.0
132
0.0
 79
     0
146
0.0
  0
ENDTAB
  0
TABLE
  2
LTYPE
  5
5
330
0
100
AcDbSymbolTable
 70
     7
  0
LTYPE
  5
14
330
5
100
AcDbSymbolTableRecord
100
AcDbLinetypeTableRecord
  2
ByBlock
 70
     0
  3

 72
    65
 73
     0
 40
0.0
  0
LTYPE
  5
15
330
5
100
AcDbSymbolTableRecord
100
AcDbLinetypeTableRecord
  2
ByLayer
 70
     0
  3

 72
    65
 73
     0
 40
0.0
  0
LTYPE
  5
16
330
5
100
AcDbSymbolTableRecord
100
AcDbLinetypeTableRecord
  2
Continuous
 70
     0
  3
Solid line
 72
    65
 73
     0
 40
0.0
  0
ENDTAB
  0
TABLE
  2
LAYER
  5
2
102
{ACAD_XDICTIONARY
360
93
102
}
330
0
100
AcDbSymbolTable
 70
    14
  0
LAYER
  5
10
330
2
100
AcDbSymbolTableRecord
100
AcDbLayerTableRecord
  2
0
 70
     0
 62
     7
  6
Continuous
370
    -3
390
F
  0
LAYER
  5
41F
330
2
100
AcDbSymbolTableRecord
100
AcDbLayerTableRecord
  2
DEFPOINTS
 70
     0
 62
     7
  6
Continuous
290
     0
370
    -3
390
F
  0
ENDTAB
  0
TABLE
  2
STYLE
  5
3
330
0
100
AcDbSymbolTable
 70
    10
  0
STYLE
  5
11
330
3
100
AcDbSymbolTableRecord
100
AcDbTextStyleTableRecord
  2
Standard
 70
     0
 40
0.0
 41
1.0
 50
0.0
 71
     0
 42
0.2
  3
txt
  4

  0
ENDTAB
  0
TABLE
  2
VIEW
  5
6
330
0
100
AcDbSymbolTable
 70
     0
  0
ENDTAB
  0
TABLE
  2
UCS
  5
7
330
0
100
AcDbSymbolTable
 70
     0
  0
ENDTAB
  0
TABLE
  2
APPID
  5
9
330
0
100
AcDbSymbolTable
 70
     2
  0
APPID
  5
12
330
9
100
AcDbSymbolTableRecord
100
AcDbRegAppTableRecord
  2
ACAD
 70
     0
  0
APPID
  5
142
330
9
100
AcDbSymbolTableRecord
100
AcDbRegAppTableRecord
  2
ACAD_PSEXT
 70
     0
  0
ENDTAB
  0
TABLE
  2
DIMSTYLE
  5
A
330
0
100
AcDbSymbolTable
 70
     1
100
AcDbDimStyleTable
 71
     0
  0
DIMSTYLE
105
27
330
A
100
AcDbSymbolTableRecord
100
AcDbDimStyleTableRecord
  2
Standard
 70
     0
340
11
  0
ENDTAB
  0
TABLE
  2
BLOCK_RECORD
  5
1
330
0
100
AcDbSymbolTable
 70
    17
  0
BLOCK_RECORD
  5
1F
102
{ACAD_XDICTIONARY
360
209
102
}
330
1
100
AcDbSymbolTableRecord
100
AcDbBlockTableRecord
  2
*Model_Space
340
22
  0
BLOCK_RECORD
  5
58
330
1
100
AcDbSymbolTableRecord
100
AcDbBlockTableRecord
  2
*Paper_Space
340
59
  0
BLOCK_RECORD
  5
5D
330
1
100
AcDbSymbolTableRecord
100
AcDbBlockTableRecord
  2
*Paper_Space0
340
5E
  0
BLOCK_RECORD
  5
4B5
330
1
100
AcDbSymbolTableRecord
100
AcDbBlockTableRecord
  2
25180-L
340
0
310
2800000020000000200000000100080000000000000400000000000000000000000000000000000000000000000080000080000000808000800000008000800080800000C0C0C000C0DCC000F0CAA6000020400000206000002080000020A0000020C0000020E00000400000004020000040400000406000004080000040A0
310
000040C0000040E00000600000006020000060400000606000006080000060A0000060C0000060E00000800000008020000080400000806000008080000080A0000080C0000080E00000A0000000A0200000A0400000A0600000A0800000A0A00000A0C00000A0E00000C0000000C0200000C0400000C0600000C0800000C0
310
A00000C0C00000C0E00000E0000000E0200000E0400000E0600000E0800000E0A00000E0C00000E0E00040000000400020004000400040006000400080004000A0004000C0004000E00040200000402020004020400040206000402080004020A0004020C0004020E000404000004040200040404000404060004040800040
310
40A0004040C0004040E00040600000406020004060400040606000406080004060A0004060C0004060E00040800000408020004080400040806000408080004080A0004080C0004080E00040A0000040A0200040A0400040A0600040A0800040A0A00040A0C00040A0E00040C0000040C0200040C0400040C0600040C08000
310
40C0A00040C0C00040C0E00040E0000040E0200040E0400040E0600040E0800040E0A00040E0C00040E0E00080000000800020008000400080006000800080008000A0008000C0008000E00080200000802020008020400080206000802080008020A0008020C0008020E00080400000804020008040400080406000804080
310
008040A0008040C0008040E00080600000806020008060400080606000806080008060A0008060C0008060E00080800000808020008080400080806000808080008080A0008080C0008080E00080A0000080A0200080A0400080A0600080A0800080A0A00080A0C00080A0E00080C0000080C0200080C0400080C0600080C0
310
800080C0A00080C0C00080C0E00080E0000080E0200080E0400080E0600080E0800080E0A00080E0C00080E0E000C0000000C0002000C0004000C0006000C0008000C000A000C000C000C000E000C0200000C0202000C0204000C0206000C0208000C020A000C020C000C020E000C0400000C0402000C0404000C0406000C0
310
408000C040A000C040C000C040E000C0600000C0602000C0604000C0606000C0608000C060A000C060C000C060E000C0800000C0802000C0804000C0806000C0808000C080A000C080C000C080E000C0A00000C0A02000C0A04000C0A06000C0A08000C0A0A000C0A0C000C0A0E000C0C00000C0C02000C0C04000C0C06000
310
C0C08000C0C0A000F0FBFF00A4A0A000808080000000FF0000FF000000FFFF00FF000000FF00FF00FFFF0000FFFFFF000000000000000000000000000000000000000000000000000000000000000000000000000000000000FFFFFFFFFFFFFFFFFFFFFFFFFFFF000000000000000000000000000000000000FF0000000000
310
FF000000000000FF000000000000000000000000000000000000FF0000000000FFFF0000000000FF000000000000000000000000000000000000FF000000000000000000000000FF000000000000000000000000000000000000FF000000000000000000000000FF0000000000000000000000000000000000FFFF00000000
310
0000000000000000FF0000000000000000000000000000000000FFFF000000000000000000000000FF0000000000000000000000000000000000FFFF00000000000000FFFFFFFFFFFF0000000000000000000000000000000000FFFFFFFFFFFFFFFFFF000000000000FF00000000000000000000000000000000FFFF000000
310
0000000000000000000000FFFF0000000000000000000000000000FF0000000000000000000000000000000000FF00000000000000000000000000FF0000000000000000000000000000000000FF000000000000000000000000FF00000000000000000000000000000000000000FF000000000000000000FFFFFF00000000
310
000000000000000000000000000000FF000000000000000000FFFFFFFFFFFFFFFFFFFFFFFFFFFFFFFFFFFFFFFFFFFFFF0000000000000000FF00000000FF0000000000000000000000000000000000000000000000000000FF00000000FF0000000000000000000000000000000000000000000000000000FF00000000FF00
310
00000000000000000000000000000000000000000000000000FF00000000FF0000000000000000000000000000000000000000000000000000FF00000000FF0000000000000000000000000000000000000000000000000000FF00000000FF0000000000000000000000000000000000000000000000000000FF00000000FF
310
0000000000000000000000000000000000000000000000000000FF0000000000FF00000000000000000000000000000000000000000000000000FF0000000000FF00000000000000000000000000000000000000000000000000FF0000000000FF00000000000000000000000000000000000000000000000000FF00000000
310
00FF00000000000000000000000000000000000000000000000000FF0000000000FF00000000000000000000000000000000000000000000000000FFFFFFFFFFFFFF00000000000000000000000000000000000000000000000000FF00000000FFFF0000000000000000000000000000000000000000000000000000FFFFFF
310
FF00000000000000000000000000000000000000000000000000000000000000000000000000000000000000000000000000000000000000
102
{BLKREFS
331
4E9
102
}
1001
ACAD
1000
DesignCenter Data
1002
{
1070
     1
1070
     1
1002
}
  0
ENDTAB
  0
ENDSEC
  0
SECTION
  2
BLOCKS
  0
BLOCK
  5
20
330
1F
100
AcDbEntity
  8
0
100
AcDbBlockBegin
  2
*Model_Space
 70
     0
 10
0.0
 20
0.0
 30
0.0
  3
*Model_Space
  1

  0
ENDBLK
  5
21
330
1F
100
AcDbEntity
  8
0
100
AcDbBlockEnd
  0
BLOCK
  5
5A
330
58
100
AcDbEntity
 67
     1
  8
0
100
AcDbBlockBegin
  2
*Paper_Space
 70
     0
 10
0.0
 20
0.0
 30
0.0
  3
*Paper_Space
  1

  0
ENDBLK
  5
5B
330
58
100
AcDbEntity
 67
     1
  8
0
100
AcDbBlockEnd
  0
BLOCK
  5
5F
330
5D
100
AcDbEntity
  8
0
100
AcDbBlockBegin
  2
*Paper_Space0
 70
     0
 10
0.0
 20
0.0
 30
0.0
  3
*Paper_Space0
  1

  0
ENDBLK
  5
60
330
5D
100
AcDbEntity
  8
0
100
AcDbBlockEnd
  0
BLOCK
  5
4B6
330
4B5
100
AcDbEntity
  8
0
100
AcDbBlockBegin
  2
25180-L
 70
     0
 10
0.0
 20
0.0
 30
0.0
  3
25180-L
  1

  0
LINE
  5
4B8
330
4B5
100
AcDbEntity
  8
0
100
AcDbLine
 10
105.1688467832027
 20
229.5217597196061
 30
0.0
 11
105.1688467832027
 21
130.4956933513898
 31
0.0
  0
ARC
  5
4B9
330
4B5
100
AcDbEntity
  8
0
100
AcDbCircle
 10
106.6688467832027
 20
229.5217597196061
 30
0.0
 40
1.5
100
AcDbArc
 50
90.49999999996549
 51
180.0
  0
LINE
  5
4BA
330
4B5
100
AcDbEntity
  8
0
100
AcDbLine
 10
106.6557569799552
 20
231.0217026042029
 30
0.0
 11
153.9807065345776
 21
231.4347011821702
 31
0.0
  0
LINE
  5
4BB
330
4B5
100
AcDbEntity
  8
0
100
AcDbLine
 10
106.6557569799552
 20
128.9957504667931
 30
0.0
 11
153.2776681523246
 21
128.5888872118379
 31
0.0
  0
ARC
  5
4BC
330
4B5
100
AcDbEntity
  8
0
100
AcDbCircle
 10
106.6688467832027
 20
130.4956933513898
 30
0.0
 40
1.5
100
AcDbArc
 50
180.0
 51
269.5000000000346
  0
LINE
  5
4BD
330
4B5
100
AcDbEntity
  8
0
100
AcDbLine
 10
157.1644830170153
 20
1.00868845856246
 30
0.0
 11
158.9824514052561
 21
209.3272320451616
 31
0.0
  0
ARC
  5
4BE
330
4B5
100
AcDbEntity
  8
0
  6
Continuous
100
AcDbCircle
 10
158.1644449400792
 20
0.999961923063779
 30
0.0
 40
1.0
100
AcDbArc
 50
179.5000000000084
 51
269.5000000000346
  0
ARC
  5
4BF
330
4B5
100
AcDbEntity
  8
0
100
AcDbCircle
 10
153.2340354748321
 20
123.5890775965171
 30
0.0
 40
5.0
100
AcDbArc
 50
359.5000000000345
 51
89.5000000000345
  0
ARC
  5
4C0
330
4B5
100
AcDbEntity
  8
0
  6
Continuous
370
    15
100
AcDbCircle
 10
27.39037922557327
 20
381.9999999999997
 30
0.0
 40
3.0
100
AcDbArc
 50
90.0
 51
180.0
  0
LINE
  5
4C1
330
4B5
100
AcDbEntity
  8
0
  6
Continuous
370
    15
100
AcDbLine
 10
24.39037922557327
 20
381.9999999999997
 30
0.0
 11
24.39037922557327
 21
367.9999999999997
 31
0.0
  0
ARC
  5
4C2
330
4B5
100
AcDbEntity
  8
0
  6
Continuous
370
    15
100
AcDbCircle
 10
27.39037922557327
 20
367.9999999999997
 30
0.0
 40
3.0
100
AcDbArc
 50
180.0
 51
270.0
  0
LINE
  5
4C3
330
4B5
100
AcDbEntity
  8
0
  6
Continuous
370
    15
100
AcDbLine
 10
27.39037922557327
 20
364.9999999999997
 30
0.0
 11
29.79786934252843
 21
364.9999999999997
 31
0.0
  0
ARC
  5
4C4
330
4B5
100
AcDbEntity
  8
0
  6
Continuous
370
    15
100
AcDbCircle
 10
29.79786934252843
 20
359.9999999999996
 30
0.0
 40
5.0
100
AcDbArc
 50
0.0
 51
90.0
  0
LINE
  5
4C5
330
4B5
100
AcDbEntity
  8
0
  6
Continuous
370
    15
100
AcDbLine
 10
34.79786934252843
 20
359.9999999999996
 30
0.0
 11
34.79786934252843
 21
359.3002228945739
 31
0.0
  0
LINE
  5
4C6
330
4B5
100
AcDbEntity
  8
0
  6
Continuous
370
    15
100
AcDbLine
 10
97.19445860109226
 20
333.4188323796289
 30
0.0
 11
59.35815930766693
 21
334.3040900919733
 31
0.0
  0
ARC
  5
4C7
330
4B5
100
AcDbEntity
  8
0
  6
Continuous
370
    15
100
AcDbCircle
 10
403.7031749855195
 20
417.4839855393803
 30
0.0
 40
250.0000000000002
100
AcDbArc
 50
298.0308111477759
 51
349.1668067260054
  0
ARC
  5
4C8
330
4B5
100
AcDbEntity
  8
0
  6
Continuous
370
    15
100
AcDbCircle
 10
532.9384089223131
 20
174.7428594208292
 30
0.0
 40
25.0
100
AcDbArc
 50
118.0308111477758
 51
182.0000000000037
  0
ARC
  5
4C9
330
4B5
100
AcDbEntity
  8
0
  6
Continuous
370
    15
100
AcDbCircle
 10
641.3903792255732
 20
371.9999999999992
 30
0.0
 40
8.0
100
AcDbArc
 50
349.1668067260054
 51
90.0
  0
ARC
  5
4CA
330
4B5
100
AcDbEntity
  8
0
  6
Continuous
370
    15
100
AcDbCircle
 10
59.79786934252842
 20
359.3002228945739
 30
0.0
 40
25.0
100
AcDbArc
 50
180.0
 51
268.9922068667756
  0
ARC
  5
4CB
330
4B5
100
AcDbEntity
  8
0
  6
Continuous
370
    15
100
AcDbCircle
 10
67.39037922557327
 20
366.8934223230214
 30
0.0
 40
5.0
100
AcDbArc
 50
180.0
 51
223.8081212875963
  0
LINE
  5
4CC
330
4B5
100
AcDbEntity
  8
0
  6
Continuous
370
    15
100
AcDbLine
 10
513.9530464554627
 20
2.069798993404788
 30
0.0
 11
507.9231888750837
 21
174.742327925068
 31
0.0
  0
ARC
  5
4CD
330
4B5
100
AcDbEntity
  8
0
  6
Continuous
370
    15
100
AcDbCircle
 10
511.9542648014248
 20
1.999999999999658
 30
0.0
 40
2.0
100
AcDbArc
 50
270.0
 51
2.000000000003725
  0
LINE
  5
4CE
330
4B5
100
AcDbEntity
  8
0
  6
Continuous
370
    15
100
AcDbLine
 10
157.5891599720507
 20
379.9999999999992
 30
0.0
 11
641.3903792255732
 21
379.9999999999992
 31
0.0
  0
LINE
  5
4CF
330
4B5
100
AcDbEntity
  8
0
  6
Continuous
370
    15
100
AcDbLine
 10
158.1557184045559
 20
-0.0000000000001137
 30
0.0
 11
511.9542648014248
 21
-0.0000000000003411
 31
0.0
  0
LINE
  5
4D0
330
4B5
100
AcDbEntity
  8
0
100
AcDbLine
 10
36.70214108160872
 20
364.9999999999997
 30
0.0
 11
59.27477675643967
 21
364.9999999999997
 31
0.0
  0
LINE
  5
4D1
330
4B5
100
AcDbEntity
  8
0
100
AcDbLine
 10
71.22780796786537
 20
364.9999999999997
 30
0.0
 11
642.5484218291312
 21
364.9999999999997
 31
0.0
  0
ARC
  5
4D2
330
4B5
100
AcDbEntity
  8
0
  6
Continuous
370
    15
100
AcDbCircle
 10
157.5891599720507
 20
383.9999999999997
 30
0.0
 40
4.0
100
AcDbArc
 50
206.3877999612259
 51
270.0
  0
ARC
  5
4D3
330
4B5
100
AcDbEntity
  8
0
  6
Continuous
370
    15
100
AcDbCircle
 10
149.5269022237517
 20
379.9999999999997
 30
0.0
 40
5.0
100
AcDbArc
 50
26.38779996122593
 51
90.0
  0
ARC
  5
4D4
330
4B5
100
AcDbEntity
  8
0
  6
Continuous
370
    15
100
AcDbCircle
 10
66.39037922557327
 20
380.9999999999996
 30
0.0
 40
4.0
100
AcDbArc
 50
90.0
 51
180.0
  0
LINE
  5
4D5
330
4B5
100
AcDbEntity
  8
0
  6
Continuous
370
    15
100
AcDbLine
 10
62.39037922557327
 20
366.8934223230214
 30
0.0
 11
62.39037922557327
 21
380.9999999999996
 31
0.0
  0
LINE
  5
4D6
330
4B5
100
AcDbEntity
  8
0
100
AcDbLine
 10
172.1022999662491
 20
197.262121049877
 30
0.0
 11
492.5543781722299
 21
187.7906344959589
 31
0.0
  0
LINE
  5
4D7
330
4B5
100
AcDbEntity
  8
0
  6
Continuous
370
    15
100
AcDbLine
 10
26.9617554414981
 20
384.9999999999996
 30
0.0
 11
149.5269022237517
 21
384.9999999999996
 31
0.0
  0
ARC
  5
4D8
330
4B5
100
AcDbEntity
  8
0
  6
Continuous
370
    15
100
AcDbCircle
 10
147.8199930471492
 20
390.9999999999996
 30
0.0
 40
6.0
100
AcDbArc
 50
270.0
 51
358.9999999999982
  0
LINE
  5
4D9
330
4B5
100
AcDbEntity
  8
0
  6
Continuous
370
    15
100
AcDbLine
 10
0.0
 20
745.0000000000001
 30
0.0
 11
160.0
 21
744.9999999999996
 31
0.0
  0
LINE
  5
4DA
330
4B5
100
AcDbEntity
  8
0
  6
Continuous
370
    15
100
AcDbLine
 10
0.0
 20
745.0000000000001
 30
0.0
 11
8.967923591939324
 21
402.5288149304575
 31
0.0
  0
ARC
  5
4DB
330
4B5
100
AcDbEntity
  8
0
  6
Continuous
370
    15
100
AcDbCircle
 10
26.9617554414981
 20
402.9999999999996
 30
0.0
 40
18.0
100
AcDbArc
 50
181.4999999999896
 51
270.0
  0
LINE
  5
4DC
330
4B5
100
AcDbEntity
  8
0
  6
Continuous
370
    15
100
AcDbLine
 10
160.0
 20
744.9999999999996
 30
0.0
 11
153.8190792180867
 21
390.8952855613758
 31
0.0
  0
ARC
  5
4DD
330
4B5
100
AcDbEntity
  8
0
  6
Continuous
370
    15
100
AcDbCircle
 10
150.0
 20
762.4869847497627
 30
0.0
 40
10.0
100
AcDbArc
 50
0.0
 51
83.02950541407751
  0
ARC
  5
4DE
330
4B5
100
AcDbEntity
  8
0
  6
Continuous
370
    15
100
AcDbCircle
 10
1.5
 20
746.5000000000001
 30
0.0
 40
1.5
100
AcDbArc
 50
180.0
 51
270.0
  0
LINE
  5
4DF
330
4B5
100
AcDbEntity
  8
0
  6
Continuous
370
    15
100
AcDbLine
 10
0.0
 20
746.5000000000001
 30
0.0
 11
0.0
 21
763.8506606147081
 31
0.0
  0
ARC
  5
4E0
330
4B5
100
AcDbEntity
  8
0
  6
Continuous
370
    15
100
AcDbCircle
 10
8.000000105696017
 20
763.8506606430311
 30
0.0
 40
8.000000105695391
100
AcDbArc
 50
95.91260980189169
 51
180.0
  0
LINE
  5
4E1
330
4B5
100
AcDbEntity
  8
0
  6
Continuous
370
    15
100
AcDbLine
 10
70.0
 20
775.0
 30
0.0
 11
68.98277911028708
 21
775.0
 31
0.0
  0
LINE
  5
4E2
330
4B5
100
AcDbEntity
  8
0
  6
Continuous
370
    15
100
AcDbLine
 10
160.0
 20
762.4869847497631
 30
0.0
 11
160.0
 21
746.5000000000001
 31
0.0
  0
ARC
  5
4E3
330
4B5
100
AcDbEntity
  8
0
  6
Continuous
370
    15
100
AcDbCircle
 10
158.5
 20
746.5000000000001
 30
0.0
 40
1.50000000000017
100
AcDbArc
 50
270.0
 51
0.0
  0
LINE
  5
4E4
330
4B5
100
AcDbEntity
  8
0
  6
Continuous
370
    15
100
AcDbLine
 10
110.0
 20
775.0
 30
0.0
 11
68.98277911028708
 21
775.0
 31
0.0
  0
ARC
  5
4E5
330
4B5
100
AcDbEntity
  8
0
  6
Continuous
370
    15
100
AcDbCircle
 10
68.98277911028708
 20
175.0000000000001
 30
0.0
 40
600.0
100
AcDbArc
 50
90.0
 51
95.91260980189169
  0
ARC
  5
4E6
330
4B5
100
AcDbEntity
  8
0
  6
Continuous
370
    15
100
AcDbCircle
 10
108.7382122962008
 20
425.0
 30
0.0
 40
350.0
100
AcDbArc
 50
83.02950541407751
 51
90.0
  0
ARC
  5
4E7
330
4B5
100
AcDbEntity
  8
0
  6
Continuous
100
AcDbCircle
 10
-83.25153197680265
 20
166.1421095749673
 30
0.0
 40
246.0533631306534
100
AcDbArc
 50
10.10840849437394
 51
53.30408817014316
  0
CIRCLE
  5
4E8
330
4B5
100
AcDbEntity
  8
0
  6
Continuous
370
    15
100
AcDbCircle
 10
323.9530464554627
 20
30.13959798680628
 30
0.0
 40
5.0
  0
ENDBLK
  5
4B7
330
4B5
100
AcDbEntity
  8
0
100
AcDbBlockEnd
  0
ENDSEC
  0
SECTION
  2
ENTITIES
  0
MTEXT
  5
F5
330
1F
100
AcDbEntity
  8
0
100
AcDbMText
 10
67.50719134778241
 20
79.91280465386186
 30
0.0
 40
20.0
 41
1133.185185185185
 71
     1
 72
     5
  1
{\fTimes New Roman|b0|i0|c0|p18;\C0;INODORO DE TANQUE BAJO CON SALIDA HORIZONTAL\PSERIE SMART}
 73
     1
 44
1.0
1001
ACAD
1000
MTEXTBEGIN
1070
    73
1070
     1
1070
    44
1040
1.0
1070
    74
1070
     0
1000
MTEXTEND
  0
INSERT
  5
4E9
330
1F
100
AcDbEntity
  8
0
100
AcDbBlockReference
  2
25180-L
 10
62.56150188791434
 20
139.5299089409269
 30
0.0
  0
ENDSEC
  0
SECTION
  2
OBJECTS
  0
DICTIONARY
  5
C
330
0
100
AcDbDictionary
281
     1
  3
ACAD_COLOR
350
73
  3
ACAD_GROUP
350
D
  3
ACAD_LAYOUT
350
1A
  3
ACAD_MATERIAL
350
72
  3
ACAD_MLINESTYLE
350
17
  3
ACAD_PLOTSETTINGS
350
19
  3
ACAD_PLOTSTYLENAME
350
E
  3
ACAD_TABLESTYLE
350
130
  3
ACDBHEADERROUNDTRIPXREC
350
4EC
  3
AcDbVariableDictionary
350
66
  3
DWGPROPS
350
4EB
  0
DICTIONARY
  5
93
330
2
100
AcDbDictionary
280
     1
281
     1
  3
ACAD_LAYERSTATES
360
94
  0
DICTIONARY
  5
209
330
1F
100
AcDbDictionary
280
     1
281
     1
  3
ACAD_SORTENTS
360
20A
  0
DICTIONARY
  5
73
102
{ACAD_REACTORS
330
C
102
}
330
C
100
AcDbDictionary
281
     1
  0
DICTIONARY
  5
D
102
{ACAD_REACTORS
330
C
102
}
330
C
100
AcDbDictionary
281
     1
  0
DICTIONARY
  5
1A
102
{ACAD_REACTORS
330
C
102
}
330
C
100
AcDbDictionary
281
     1
  3
Model
350
22
  3
Presentación1
350
59
  3
Presentación2
350
5E
  0
DICTIONARY
  5
72
102
{ACAD_REACTORS
330
C
102
}
330
C
100
AcDbDictionary
281
     1
  0
DICTIONARY
  5
17
102
{ACAD_REACTORS
330
C
102
}
330
C
100
AcDbDictionary
281
     1
  3
Standard
350
18
  0
DICTIONARY
  5
19
102
{ACAD_REACTORS
330
C
102
}
330
C
100
AcDbDictionary
281
     1
  0
ACDBDICTIONARYWDFLT
  5
E
102
{ACAD_REACTORS
330
C
102
}
330
C
100
AcDbDictionary
281
     1
  3
Normal
350
F
100
AcDbDictionaryWithDefault
340
F
  0
DICTIONARY
  5
130
102
{ACAD_REACTORS
330
C
102
}
330
C
100
AcDbDictionary
281
     1
  3
Standard
350
131
  0
DICTIONARY
  5
4EC
102
{ACAD_REACTORS
330
C
102
}
330
C
100
AcDbDictionary
281
     1
  0
DICTIONARY
  5
66
102
{ACAD_REACTORS
330
C
102
}
330
C
100
AcDbDictionary
281
     1
  3
CTABLESTYLE
350
216
  3
DIMASSOC
350
67
  3
HIDETEXT
350
6B
  3
PROJECTNAME
350
217
  0
XRECORD
  5
4EB
102
{ACAD_REACTORS
330
C
102
}
330
C
100
AcDbXrecord
280
     1
  1
DWGPROPS COOKIE
  2

  3

  4

  6

  7

  8

  9

300
=
301
=
302
=
303
=
304
=
305
=
306
=
307
=
308
=
309
=
 40
0.0140917939814815
 41
2454473.09937206
 42
2454572.557172303
  1

 90
        0
  0
DICTIONARY
  5
94
102
{ACAD_REACTORS
330
93
102
}
330
93
100
AcDbDictionary
281
     1
  0
SORTENTSTABLE
  5
20A
102
{ACAD_REACTORS
330
209
102
}
330
209
100
AcDbSortentsTable
330
1F
331
4E9
  5
4E9
331
F5
  5
29C
  0
LAYOUT
  5
22
102
{ACAD_XDICTIONARY
360
4ED
102
}
102
{ACAD_REACTORS
330
1A
102
}
330
1A
100
AcDbPlotSettings
  1

  2
none_device
  4
ANSI_A_(8.50_x_11.00_Inches)
  6

 40
6.349999904632567
 41
19.04999923706055
 42
6.350006103515625
 43
19.04998779296875
 44
215.8999938964844
 45
279.3999938964844
 46
0.0
 47
0.0
 48
0.0
 49
0.0
140
0.0
141
0.0
142
1.0
143
2.584895464708373
 70
 11952
 72
     0
 73
     1
 74
     0
  7

 75
     0
147
0.3868628397755418
148
0.0
149
0.0
100
AcDbLayout
  1
Model
 70
     1
 71
     0
 10
0.0
 20
0.0
 11
12.0
 21
9.0
 12
0.0
 22
0.0
 32
0.0
 14
0.0
 24
0.0
 34
0.0
 15
0.0
 25
0.0
 35
0.0
146
0.0
 13
0.0
 23
0.0
 33
0.0
 16
1.0
 26
0.0
 36
0.0
 17
0.0
 27
1.0
 37
0.0
 76
     0
330
1F
  0
LAYOUT
  5
59
102
{ACAD_XDICTIONARY
360
4EF
102
}
102
{ACAD_REACTORS
330
1A
102
}
330
1A
100
AcDbPlotSettings
  1

  2
None
  4

  6

 40
0.0
 41
0.0
 42
0.0
 43
0.0
 44
0.0
 45
0.0
 46
0.0
 47
0.0
 48
0.0
 49
0.0
140
0.0
141
0.0
142
1.0
143
1.0
 70
   688
 72
     0
 73
     0
 74
     5
  7

 75
    16
147
1.0
148
0.0
149
0.0
100
AcDbLayout
  1
Presentación1
 70
     1
 71
     1
 10
0.0
 20
0.0
 11
12.0
 21
9.0
 12
0.0
 22
0.0
 32
0.0
 14
0.0
 24
0.0
 34
0.0
 15
0.0
 25
0.0
 35
0.0
146
0.0
 13
0.0
 23
0.0
 33
0.0
 16
1.0
 26
0.0
 36
0.0
 17
0.0
 27
1.0
 37
0.0
 76
     0
330
58
  0
LAYOUT
  5
5E
102
{ACAD_XDICTIONARY
360
4F1
102
}
102
{ACAD_REACTORS
330
1A
102
}
330
1A
100
AcDbPlotSettings
  1

  2
None
  4

  6

 40
0.0
 41
0.0
 42
0.0
 43
0.0
 44
0.0
 45
0.0
 46
0.0
 47
0.0
 48
0.0
 49
0.0
140
0.0
141
0.0
142
1.0
143
1.0
 70
   688
 72
     0
 73
     0
 74
     5
  7

 75
    16
147
1.0
148
0.0
149
0.0
100
AcDbLayout
  1
Presentación2
 70
     1
 71
     2
 10
0.0
 20
0.0
 11
12.0
 21
9.0
 12
0.0
 22
0.0
 32
0.0
 14
0.0
 24
0.0
 34
0.0
 15
0.0
 25
0.0
 35
0.0
146
0.0
 13
0.0
 23
0.0
 33
0.0
 16
1.0
 26
0.0
 36
0.0
 17
0.0
 27
1.0
 37
0.0
 76
     0
330
5D
  0
MLINESTYLE
  5
18
102
{ACAD_REACTORS
330
17
102
}
330
17
100
AcDbMlineStyle
  2
STANDARD
 70
     0
  3

 62
   256
 51
90.0
 52
90.0
 71
     2
 49
0.5
 62
   256
  6
BYLAYER
 49
-0.5
 62
   256
  6
BYLAYER
  0
ACDBPLACEHOLDER
  5
F
102
{ACAD_REACTORS
330
E
102
}
330
E
  0
TABLESTYLE
  5
131
102
{ACAD_REACTORS
330
130
102
}
330
130
100
AcDbTableStyle
  3
Standard
 70
     0
 71
     0
 40
0.06
 41
0.06
280
     0
281
     0
  7
Standard
140
0.18
170
     2
 62
     0
 63
     7
283
     0
274
    -2
284
     1
 64
     0
275
    -2
285
     1
 65
     0
276
    -2
286
     1
 66
     0
277
    -2
287
     1
 67
     0
278
    -2
288
     1
 68
     0
279
    -2
289
     1
 69
     0
  7
Standard
140
0.25
170
     5
 62
     0
 63
     7
283
     0
274
    -2
284
     1
 64
     0
275
    -2
285
     1
 65
     0
276
    -2
286
     1
 66
     0
277
    -2
287
     1
 67
     0
278
    -2
288
     1
 68
     0
279
    -2
289
     1
 69
     0
  7
Standard
140
0.18
170
     5
 62
     0
 63
     7
283
     0
274
    -2
284
     1
 64
     0
275
    -2
285
     1
 65
     0
276
    -2
286
     1
 66
     0
277
    -2
287
     1
 67
     0
278
    -2
288
     1
 68
     0
279
    -2
289
     1
 69
     0
  0
DICTIONARYVAR
  5
216
102
{ACAD_REACTORS
330
66
102
}
330
66
100
DictionaryVariables
280
     0
  1
STANDARD
  0
DICTIONARYVAR
  5
67
102
{ACAD_REACTORS
330
66
102
}
330
66
100
DictionaryVariables
280
     0
  1
2
  0
DICTIONARYVAR
  5
6B
102
{ACAD_REACTORS
330
66
102
}
330
66
100
DictionaryVariables
280
     0
  1
1
  0
DICTIONARYVAR
  5
217
102
{ACAD_REACTORS
330
66
102
}
330
66
100
DictionaryVariables
280
     0
  1

  0
DICTIONARY
  5
4ED
330
22
100
AcDbDictionary
280
     1
281
     1
  3
ACAD_XREC_ROUNDTRIP
360
4EE
  0
DICTIONARY
  5
4EF
330
59
100
AcDbDictionary
280
     1
281
     1
  3
ACAD_XREC_ROUNDTRIP
360
4F0
  0
DICTIONARY
  5
4F1
330
5E
100
AcDbDictionary
280
     1
281
     1
  3
ACAD_XREC_ROUNDTRIP
360
4F2
  0
XRECORD
  5
4EE
102
{ACAD_REACTORS
330
4ED
102
}
330
4ED
100
AcDbXrecord
280
     1
102
SHADEPLOT
 70
     0
102
SHADEPLOTRESLEVEL
 70
     2
102
SHADEPLOTCUSTOMDPI
 70
   300
  0
XRECORD
  5
4F0
102
{ACAD_REACTORS
330
4EF
102
}
330
4EF
100
AcDbXrecord
280
     1
102
SHADEPLOT
 70
     0
102
SHADEPLOTRESLEVEL
 70
     2
102
SHADEPLOTCUSTOMDPI
 70
   300
  0
XRECORD
  5
4F2
102
{ACAD_REACTORS
330
4F1
102
}
330
4F1
100
AcDbXrecord
280
     1
102
SHADEPLOT
 70
     0
102
SHADEPLOTRESLEVEL
 70
     2
102
SHADEPLOTCUSTOMDPI
 70
   300
  0
ENDSEC
  0
EOF
