  0
SECTION
  2
HEADER
  9
$ACADVER
  1
AC1015
  9
$ACADMAINTVER
 70
    20
  9
$DWGCODEPAGE
  3
ANSI_1252
  9
$INSBASE
 10
0.0
 20
0.0
 30
0.0
  9
$EXTMIN
 10
19.06495640232585
 20
12.69649567084912
 30
0.0
  9
$EXTMAX
 10
709.8075663518572
 20
573.874117302127
 30
0.0
  9
$LIMMIN
 10
0.0
 20
0.0
  9
$LIMMAX
 10
12.0
 20
9.0
  9
$ORTHOMODE
 70
     1
  9
$REGENMODE
 70
     1
  9
$FILLMODE
 70
     1
  9
$QTEXTMODE
 70
     0
  9
$MIRRTEXT
 70
     0
  9
$LTSCALE
 40
1.0
  9
$ATTMODE
 70
     1
  9
$TEXTSIZE
 40
0.2
  9
$TRACEWID
 40
0.05
  9
$TEXTSTYLE
  7
Standard
  9
$CLAYER
  8
0
  9
$CELTYPE
  6
ByLayer
  9
$CECOLOR
 62
   256
  9
$CELTSCALE
 40
1.0
  9
$DISPSILH
 70
     0
  9
$DIMSCALE
 40
1.0
  9
$DIMASZ
 40
0.18
  9
$DIMEXO
 40
0.0625
  9
$DIMDLI
 40
0.38
  9
$DIMRND
 40
0.0
  9
$DIMDLE
 40
0.0
  9
$DIMEXE
 40
0.18
  9
$DIMTP
 40
0.0
  9
$DIMTM
 40
0.0
  9
$DIMTXT
 40
0.18
  9
$DIMCEN
 40
0.09
  9
$DIMTSZ
 40
0.0
  9
$DIMTOL
 70
     0
  9
$DIMLIM
 70
     0
  9
$DIMTIH
 70
     1
  9
$DIMTOH
 70
     1
  9
$DIMSE1
 70
     0
  9
$DIMSE2
 70
     0
  9
$DIMTAD
 70
     0
  9
$DIMZIN
 70
     0
  9
$DIMBLK
  1

  9
$DIMASO
 70
     1
  9
$DIMSHO
 70
     1
  9
$DIMPOST
  1

  9
$DIMAPOST
  1

  9
$DIMALT
 70
     0
  9
$DIMALTD
 70
     2
  9
$DIMALTF
 40
25.4
  9
$DIMLFAC
 40
1.0
  9
$DIMTOFL
 70
     0
  9
$DIMTVP
 40
0.0
  9
$DIMTIX
 70
     0
  9
$DIMSOXD
 70
     0
  9
$DIMSAH
 70
     0
  9
$DIMBLK1
  1

  9
$DIMBLK2
  1

  9
$DIMSTYLE
  2
Standard
  9
$DIMCLRD
 70
     0
  9
$DIMCLRE
 70
     0
  9
$DIMCLRT
 70
     0
  9
$DIMTFAC
 40
1.0
  9
$DIMGAP
 40
0.09
  9
$DIMJUST
 70
     0
  9
$DIMSD1
 70
     0
  9
$DIMSD2
 70
     0
  9
$DIMTOLJ
 70
     1
  9
$DIMTZIN
 70
     0
  9
$DIMALTZ
 70
     0
  9
$DIMALTTZ
 70
     0
  9
$DIMUPT
 70
     0
  9
$DIMDEC
 70
     4
  9
$DIMTDEC
 70
     4
  9
$DIMALTU
 70
     2
  9
$DIMALTTD
 70
     2
  9
$DIMTXSTY
  7
Standard
  9
$DIMAUNIT
 70
     0
  9
$DIMADEC
 70
     0
  9
$DIMALTRND
 40
0.0
  9
$DIMAZIN
 70
     0
  9
$DIMDSEP
 70
    46
  9
$DIMATFIT
 70
     3
  9
$DIMFRAC
 70
     0
  9
$DIMLDRBLK
  1

  9
$DIMLUNIT
 70
     2
  9
$DIMLWD
 70
    -2
  9
$DIMLWE
 70
    -2
  9
$DIMTMOVE
 70
     0
  9
$LUNITS
 70
     2
  9
$LUPREC
 70
     4
  9
$SKETCHINC
 40
0.1
  9
$FILLETRAD
 40
0.0
  9
$AUNITS
 70
     0
  9
$AUPREC
 70
     0
  9
$MENU
  1
.
  9
$ELEVATION
 40
0.0
  9
$PELEVATION
 40
0.0
  9
$THICKNESS
 40
0.0
  9
$LIMCHECK
 70
     0
  9
$CHAMFERA
 40
0.0
  9
$CHAMFERB
 40
0.0
  9
$CHAMFERC
 40
0.0
  9
$CHAMFERD
 40
0.0
  9
$SKPOLY
 70
     0
  9
$TDCREATE
 40
2454473.167406447
  9
$TDUCREATE
 40
2454473.084073113
  9
$TDUPDATE
 40
2454572.689694190
  9
$TDUUPDATE
 40
2454572.606360857
  9
$TDINDWG
 40
0.0261919560
  9
$TDUSRTIMER
 40
0.0261919560
  9
$USRTIMER
 70
     1
  9
$ANGBASE
 50
0.0
  9
$ANGDIR
 70
     0
  9
$PDMODE
 70
     0
  9
$PDSIZE
 40
0.0
  9
$PLINEWID
 40
0.0
  9
$SPLFRAME
 70
     0
  9
$SPLINETYPE
 70
     6
  9
$SPLINESEGS
 70
     8
  9
$HANDSEED
  5
3A4
  9
$SURFTAB1
 70
     6
  9
$SURFTAB2
 70
     6
  9
$SURFTYPE
 70
     6
  9
$SURFU
 70
     6
  9
$SURFV
 70
     6
  9
$UCSBASE
  2

  9
$UCSNAME
  2

  9
$UCSORG
 10
0.0
 20
0.0
 30
0.0
  9
$UCSXDIR
 10
1.0
 20
0.0
 30
0.0
  9
$UCSYDIR
 10
0.0
 20
1.0
 30
0.0
  9
$UCSORTHOREF
  2

  9
$UCSORTHOVIEW
 70
     0
  9
$UCSORGTOP
 10
0.0
 20
0.0
 30
0.0
  9
$UCSORGBOTTOM
 10
0.0
 20
0.0
 30
0.0
  9
$UCSORGLEFT
 10
0.0
 20
0.0
 30
0.0
  9
$UCSORGRIGHT
 10
0.0
 20
0.0
 30
0.0
  9
$UCSORGFRONT
 10
0.0
 20
0.0
 30
0.0
  9
$UCSORGBACK
 10
0.0
 20
0.0
 30
0.0
  9
$PUCSBASE
  2

  9
$PUCSNAME
  2

  9
$PUCSORG
 10
0.0
 20
0.0
 30
0.0
  9
$PUCSXDIR
 10
1.0
 20
0.0
 30
0.0
  9
$PUCSYDIR
 10
0.0
 20
1.0
 30
0.0
  9
$PUCSORTHOREF
  2

  9
$PUCSORTHOVIEW
 70
     0
  9
$PUCSORGTOP
 10
0.0
 20
0.0
 30
0.0
  9
$PUCSORGBOTTOM
 10
0.0
 20
0.0
 30
0.0
  9
$PUCSORGLEFT
 10
0.0
 20
0.0
 30
0.0
  9
$PUCSORGRIGHT
 10
0.0
 20
0.0
 30
0.0
  9
$PUCSORGFRONT
 10
0.0
 20
0.0
 30
0.0
  9
$PUCSORGBACK
 10
0.0
 20
0.0
 30
0.0
  9
$USERI1
 70
     0
  9
$USERI2
 70
     0
  9
$USERI3
 70
     0
  9
$USERI4
 70
     0
  9
$USERI5
 70
     0
  9
$USERR1
 40
0.0
  9
$USERR2
 40
0.0
  9
$USERR3
 40
0.0
  9
$USERR4
 40
0.0
  9
$USERR5
 40
0.0
  9
$WORLDVIEW
 70
     1
  9
$SHADEDGE
 70
     3
  9
$SHADEDIF
 70
    70
  9
$TILEMODE
 70
     1
  9
$MAXACTVP
 70
    64
  9
$PINSBASE
 10
0.0
 20
0.0
 30
0.0
  9
$PLIMCHECK
 70
     0
  9
$PEXTMIN
 10
0.0
 20
0.0
 30
0.0
  9
$PEXTMAX
 10
0.0
 20
0.0
 30
0.0
  9
$PLIMMIN
 10
0.0
 20
0.0
  9
$PLIMMAX
 10
12.0
 20
9.0
  9
$UNITMODE
 70
     0
  9
$VISRETAIN
 70
     1
  9
$PLINEGEN
 70
     0
  9
$PSLTSCALE
 70
     1
  9
$TREEDEPTH
 70
  3020
  9
$CMLSTYLE
  2
Standard
  9
$CMLJUST
 70
     0
  9
$CMLSCALE
 40
1.0
  9
$PROXYGRAPHICS
 70
     1
  9
$MEASUREMENT
 70
     0
  9
$CELWEIGHT
370
    -1
  9
$ENDCAPS
280
     0
  9
$JOINSTYLE
280
     0
  9
$LWDISPLAY
290
     0
  9
$INSUNITS
 70
     1
  9
$HYPERLINKBASE
  1

  9
$STYLESHEET
  1

  9
$XEDIT
290
     1
  9
$CEPSNTYPE
380
     0
  9
$PSTYLEMODE
290
     1
  9
$FINGERPRINTGUID
  2
{FDEAD576-A652-11D2-9A35-0060089B3A3F}
  9
$VERSIONGUID
  2
{0834FFF7-3378-48EE-9783-A65184B3DE03}
  9
$EXTNAMES
290
     1
  9
$PSVPSCALE
 40
0.0
  9
$OLESTARTUP
290
     0
  0
ENDSEC
  0
SECTION
  2
CLASSES
  0
CLASS
  1
ACDBDICTIONARYWDFLT
  2
AcDbDictionaryWithDefault
  3
ObjectDBX Classes
 90
        0
280
     0
281
     0
  0
CLASS
  1
DICTIONARYVAR
  2
AcDbDictionaryVar
  3
ObjectDBX Classes
 90
        0
280
     0
281
     0
  0
CLASS
  1
SORTENTSTABLE
  2
AcDbSortentsTable
  3
ObjectDBX Classes
 90
        0
280
     0
281
     0
  0
CLASS
  1
TABLESTYLE
  2
AcDbTableStyle
  3
ObjectDBX Classes
 90
     2047
280
     0
281
     0
  0
CLASS
  1
ACDBPLACEHOLDER
  2
AcDbPlaceHolder
  3
ObjectDBX Classes
 90
        0
280
     0
281
     0
  0
CLASS
  1
LAYOUT
  2
AcDbLayout
  3
ObjectDBX Classes
 90
        0
280
     0
281
     0
  0
ENDSEC
  0
SECTION
  2
TABLES
  0
TABLE
  2
VPORT
  5
8
330
0
100
AcDbSymbolTable
 70
     3
  0
VPORT
  5
39B
330
8
100
AcDbSymbolTableRecord
100
AcDbViewportTableRecord
  2
*Active
 70
     0
 10
0.0
 20
0.0
 11
1.0
 21
1.0
 12
390.1441889075791
 22
323.1691274904913
 13
0.0
 23
0.0
 14
0.5
 24
0.5
 15
0.5
 25
0.5
 16
0.0
 26
0.0
 36
1.0
 17
0.0
 27
0.0
 37
0.0
 40
904.0670041519975
 41
1.454088050314465
 42
50.0
 43
0.0
 44
0.0
 50
0.0
 51
0.0
 71
     0
 72
  1000
 73
     1
 74
     3
 75
     0
 76
     0
 77
     0
 78
     0
281
     0
 65
     1
110
0.0
120
0.0
130
0.0
111
1.0
121
0.0
131
0.0
112
0.0
122
1.0
132
0.0
 79
     0
146
0.0
  0
ENDTAB
  0
TABLE
  2
LTYPE
  5
5
330
0
100
AcDbSymbolTable
 70
     1
  0
LTYPE
  5
14
330
5
100
AcDbSymbolTableRecord
100
AcDbLinetypeTableRecord
  2
ByBlock
 70
     0
  3

 72
    65
 73
     0
 40
0.0
  0
LTYPE
  5
15
330
5
100
AcDbSymbolTableRecord
100
AcDbLinetypeTableRecord
  2
ByLayer
 70
     0
  3

 72
    65
 73
     0
 40
0.0
  0
LTYPE
  5
16
330
5
100
AcDbSymbolTableRecord
100
AcDbLinetypeTableRecord
  2
Continuous
 70
     0
  3
Solid line
 72
    65
 73
     0
 40
0.0
  0
ENDTAB
  0
TABLE
  2
LAYER
  5
2
102
{ACAD_XDICTIONARY
360
96
102
}
330
0
100
AcDbSymbolTable
 70
     1
  0
LAYER
  5
10
330
2
100
AcDbSymbolTableRecord
100
AcDbLayerTableRecord
  2
0
 70
     0
 62
     7
  6
Continuous
370
    -3
390
F
  0
ENDTAB
  0
TABLE
  2
STYLE
  5
3
330
0
100
AcDbSymbolTable
 70
     1
  0
STYLE
  5
11
330
3
100
AcDbSymbolTableRecord
100
AcDbTextStyleTableRecord
  2
Standard
 70
     0
 40
0.0
 41
1.0
 50
0.0
 71
     0
 42
0.2
  3
txt
  4

  0
ENDTAB
  0
TABLE
  2
VIEW
  5
6
330
0
100
AcDbSymbolTable
 70
     0
  0
ENDTAB
  0
TABLE
  2
UCS
  5
7
330
0
100
AcDbSymbolTable
 70
     0
  0
ENDTAB
  0
TABLE
  2
APPID
  5
9
330
0
100
AcDbSymbolTable
 70
     9
  0
APPID
  5
12
330
9
100
AcDbSymbolTableRecord
100
AcDbRegAppTableRecord
  2
ACAD
 70
     0
  0
APPID
  5
95
330
9
100
AcDbSymbolTableRecord
100
AcDbRegAppTableRecord
  2
ACAD_PSEXT
 70
     0
  0
APPID
  5
2BD
330
9
100
AcDbSymbolTableRecord
100
AcDbRegAppTableRecord
  2
ACAD_DSTYLE_DIMEXT_ENABLED
 70
     0
  0
APPID
  5
2BE
330
9
100
AcDbSymbolTableRecord
100
AcDbRegAppTableRecord
  2
ACAD_DSTYLE_DIMEXT_LENGTH
 70
     0
  0
APPID
  5
2BF
330
9
100
AcDbSymbolTableRecord
100
AcDbRegAppTableRecord
  2
ACAD_DSTYLE_DIMJOGGED_JOGANGLE_SYMBOL
 70
     0
  0
APPID
  5
2C0
330
9
100
AcDbSymbolTableRecord
100
AcDbRegAppTableRecord
  2
ACAD_DSTYLE_DIMARC_LENGTH_SYMBOL
 70
     0
  0
APPID
  5
2C1
330
9
100
AcDbSymbolTableRecord
100
AcDbRegAppTableRecord
  2
ACAD_DSTYLE_DIM_LINETYPE
 70
     0
  0
APPID
  5
2C2
330
9
100
AcDbSymbolTableRecord
100
AcDbRegAppTableRecord
  2
ACAD_DSTYLE_DIM_EXT1_LINETYPE
 70
     0
  0
APPID
  5
2C3
330
9
100
AcDbSymbolTableRecord
100
AcDbRegAppTableRecord
  2
ACAD_DSTYLE_DIM_EXT2_LINETYPE
 70
     0
  0
ENDTAB
  0
TABLE
  2
DIMSTYLE
  5
A
330
0
100
AcDbSymbolTable
 70
     1
100
AcDbDimStyleTable
 71
     0
  0
DIMSTYLE
105
27
330
A
100
AcDbSymbolTableRecord
100
AcDbDimStyleTableRecord
  2
Standard
 70
     0
340
11
  0
ENDTAB
  0
TABLE
  2
BLOCK_RECORD
  5
1
330
0
100
AcDbSymbolTable
 70
     3
  0
BLOCK_RECORD
  5
1F
102
{ACAD_XDICTIONARY
360
1C8
102
}
330
1
100
AcDbSymbolTableRecord
100
AcDbBlockTableRecord
  2
*Model_Space
340
22
  0
BLOCK_RECORD
  5
58
330
1
100
AcDbSymbolTableRecord
100
AcDbBlockTableRecord
  2
*Paper_Space
340
59
  0
BLOCK_RECORD
  5
5D
330
1
100
AcDbSymbolTableRecord
100
AcDbBlockTableRecord
  2
*Paper_Space0
340
5E
  0
BLOCK_RECORD
  5
376
330
1
100
AcDbSymbolTableRecord
100
AcDbBlockTableRecord
  2
25050-P
340
0
310
2800000020000000200000000100080000000000000400000000000000000000000000000000000000000000000080000080000000808000800000008000800080800000C0C0C000C0DCC000F0CAA6000020400000206000002080000020A0000020C0000020E00000400000004020000040400000406000004080000040A0
310
000040C0000040E00000600000006020000060400000606000006080000060A0000060C0000060E00000800000008020000080400000806000008080000080A0000080C0000080E00000A0000000A0200000A0400000A0600000A0800000A0A00000A0C00000A0E00000C0000000C0200000C0400000C0600000C0800000C0
310
A00000C0C00000C0E00000E0000000E0200000E0400000E0600000E0800000E0A00000E0C00000E0E00040000000400020004000400040006000400080004000A0004000C0004000E00040200000402020004020400040206000402080004020A0004020C0004020E000404000004040200040404000404060004040800040
310
40A0004040C0004040E00040600000406020004060400040606000406080004060A0004060C0004060E00040800000408020004080400040806000408080004080A0004080C0004080E00040A0000040A0200040A0400040A0600040A0800040A0A00040A0C00040A0E00040C0000040C0200040C0400040C0600040C08000
310
40C0A00040C0C00040C0E00040E0000040E0200040E0400040E0600040E0800040E0A00040E0C00040E0E00080000000800020008000400080006000800080008000A0008000C0008000E00080200000802020008020400080206000802080008020A0008020C0008020E00080400000804020008040400080406000804080
310
008040A0008040C0008040E00080600000806020008060400080606000806080008060A0008060C0008060E00080800000808020008080400080806000808080008080A0008080C0008080E00080A0000080A0200080A0400080A0600080A0800080A0A00080A0C00080A0E00080C0000080C0200080C0400080C0600080C0
310
800080C0A00080C0C00080C0E00080E0000080E0200080E0400080E0600080E0800080E0A00080E0C00080E0E000C0000000C0002000C0004000C0006000C0008000C000A000C000C000C000E000C0200000C0202000C0204000C0206000C0208000C020A000C020C000C020E000C0400000C0402000C0404000C0406000C0
310
408000C040A000C040C000C040E000C0600000C0602000C0604000C0606000C0608000C060A000C060C000C060E000C0800000C0802000C0804000C0806000C0808000C080A000C080C000C080E000C0A00000C0A02000C0A04000C0A06000C0A08000C0A0A000C0A0C000C0A0E000C0C00000C0C02000C0C04000C0C06000
310
C0C08000C0C0A000F0FBFF00A4A0A000808080000000FF0000FF000000FFFF00FF000000FF00FF00FFFF0000FFFFFF0000000000000000000000000000000000000000000000000000000000000000000000000000000000000000000000000000000000000000000000000000000000000000000000000000000000000000
310
000000000000000000000000000000000000000000000000000000000000000000000000000000000000000000000000000000000000000000000000FFFFFFFFFFFFFFFFFFFF00000000000000000000000000000000000000FFFFFF000000000000000000FFFFFFFF00000000000000000000000000FFFFFF0000000000FF
310
FFFFFFFFFF0000000000FFFF00000000000000000000FFFF000000FFFFFFFF000000000000FFFFFFFF000000FFFF00000000000000FF0000FFFFFF0000000000000000000000000000FFFFFF0000FF0000000000FF000000FF00000000000000000000000000000000000000FF0000FF00000000FF0000FF00000000000000
310
00000000000000000000000000FF0000FF00000000FF0000FF0000000000000000000000000000000000000000FF0000FF00000000FF0000FF0000000000000000000000000000000000000000FF0000FF00000000FF0000FF0000000000000000000000000000000000000000FF0000FF00000000FF0000FF000000000000
310
0000000000000000000000000000FF0000FF00000000FF0000FF000000000000000000FFFF000000000000000000FF000000FF0000FF000000FF0000000000000000FFFFFFFF0000000000000000FF000000FF0000FF000000FF0000000000000000FFFFFFFF0000000000000000FF000000FF0000FF0000FF000000000000
310
00000000FFFF00000000000000000000FF0000FF0000FF0000FF000000FFFFFFFFFFFFFFFFFFFFFFFFFFFFFFFF000000FF0000FF0000FF0000FFFFFFFFFFFFFFFFFFFFFFFFFFFFFFFFFFFFFFFFFFFFFFFF0000FF0000FF0000FF00000000000000000000000000000000000000000000FF0000FF0000FF0000FF0000000000
310
0000000000000000000000000000000000FF0000FF0000FF0000FF00000000000000000000FFFF00000000000000000000FF0000FF0000FF0000FF00000000000000000000FFFF00000000000000000000FF0000FF0000FF0000FF00000000000000000000FF0000000000000000000000FF0000FF000000FF0000FFFFFFFF
310
FFFFFFFFFFFFFFFFFFFFFFFFFFFFFFFFFFFF0000FF00000000FFFFFFFFFFFFFFFFFFFFFFFFFFFFFFFFFFFFFFFFFFFFFFFFFFFFFFFF0000000000000000000000000000000000000000000000000000000000000000000000000000000000000000000000000000000000000000000000000000000000000000000000000000
310
0000000000000000000000000000000000000000000000000000000000000000000000000000000000000000000000000000000000000000
102
{BLKREFS
331
391
102
}
1001
ACAD
1000
DesignCenter Data
1002
{
1070
     1
1070
     1
1002
}
  0
ENDTAB
  0
ENDSEC
  0
SECTION
  2
BLOCKS
  0
BLOCK
  5
20
330
1F
100
AcDbEntity
  8
0
100
AcDbBlockBegin
  2
*Model_Space
 70
     0
 10
0.0
 20
0.0
 30
0.0
  3
*Model_Space
  1

  0
ENDBLK
  5
21
330
1F
100
AcDbEntity
  8
0
100
AcDbBlockEnd
  0
BLOCK
  5
5A
330
58
100
AcDbEntity
 67
     1
  8
0
100
AcDbBlockBegin
  2
*Paper_Space
 70
     0
 10
0.0
 20
0.0
 30
0.0
  3
*Paper_Space
  1

  0
ENDBLK
  5
5B
330
58
100
AcDbEntity
 67
     1
  8
0
100
AcDbBlockEnd
  0
BLOCK
  5
5F
330
5D
100
AcDbEntity
  8
0
100
AcDbBlockBegin
  2
*Paper_Space0
 70
     0
 10
0.0
 20
0.0
 30
0.0
  3
*Paper_Space0
  1

  0
ENDBLK
  5
60
330
5D
100
AcDbEntity
  8
0
100
AcDbBlockEnd
  0
BLOCK
  5
377
330
376
100
AcDbEntity
  8
0
100
AcDbBlockBegin
  2
25050-P
 70
     0
 10
0.0
 20
0.0
 30
0.0
  3
25050-P
  1

  0
LWPOLYLINE
  5
379
330
376
100
AcDbEntity
  8
0
370
    15
100
AcDbPolyline
 90
       50
 70
   128
 43
0.0
 10
-239.5254820585249
 20
-375.4981458187051
 10
-239.2133474349975
 20
-375.7543861865945
 10
-235.2339178323744
 20
-378.692567348475
 10
-230.6952625513075
 20
-381.7513883113809
 10
-225.3513187170027
 20
-385.1227760314889
 10
-217.8374528884886
 20
-389.6754086017556
 10
-207.4500322341917
 20
-395.6479132175393
 10
-196.9654709100723
 20
-401.3094902038521
 10
-186.3948851823806
 20
-406.6559970378823
 10
-175.7434606552122
 20
-411.6868078708596
 10
-165.0160551071165
 20
-416.401535272593
 10
-154.2171984910963
 20
-420.7999408245034
 10
-143.35261285305
 20
-424.8813092708535
 10
-132.4486583471296
 20
-428.6390542983956
 10
-121.4460730552671
 20
-432.0976138114876
 10
-110.3330850601194
 20
-435.26086211204
 10
-99.12138432264312
 20
-438.1246566772408
 10
-87.82295882701845
 20
-440.6852126121468
 10
-76.45006477832788
 20
-442.9391920566506
 10
-65.01515954732889
 20
-444.8836147785134
 10
-53.53165045380587
 20
-446.5158879756875
 10
-42.01292246580095
 20
-447.8339552879281
 10
-30.4717253893611
 20
-448.8363564014382
 10
-18.92076618969435
 20
-449.5220780372567
 10
-7.372640073299123
 20
-449.8906135559029
 10
4.160220734775123
 20
-449.9419331550545
 10
15.66560752689867
 20
-449.6763646602578
 10
27.13158726692228
 20
-449.0947425365395
 10
38.54866698384313
 20
-448.1974840164132
 10
49.88994821906095
 20
-446.9904899597115
 10
61.24575436115293
 20
-445.466727018351
 10
72.60299474000937
 20
-443.6262845992989
 10
83.94793421030049
 20
-441.4698183536477
 10
95.26643902063398
 20
-438.9985799789376
 10
106.5440326929095
 20
-436.2144470214791
 10
117.7659407258034
 20
-433.1199228763527
 10
128.9172172546389
 20
-429.7181367874093
 10
139.9828195571902
 20
-426.0129034519143
 10
150.9476751089099
 20
-422.0086336135811
 10
161.7945879697802
 20
-417.7113175392098
 10
172.5087761878968
 20
-413.1267964839882
 10
183.0757558345797
 20
-408.2614779472298
 10
193.4815049171448
 20
-403.1223058700509
 10
203.7111669778826
 20
-397.7195322513528
 10
213.846355676651
 20
-392.0201361179299
 10
223.9750325679782
 20
-386.0357701778359
 10
230.4612994194031
 20
-382.0152282714791
 10
235.0937277078632
 20
-378.9155185222573
 10
238.8849556446076
 20
-376.1385381221719
 10
239.5771145820618
 20
-375.5619227886147
  0
LWPOLYLINE
  5
37A
330
376
100
AcDbEntity
  8
0
370
    15
100
AcDbPolyline
 90
       28
 70
   128
 43
0.0
 10
239.5706921815875
 20
-375.5540847778268
 10
242.0205026865006
 20
-373.5540509223886
 10
245.4988062381745
 20
-370.3514933586068
 10
248.9491105079651
 20
-366.7583167552896
 10
252.1611452102662
 20
-362.958490848536
 10
254.8266649246216
 20
-359.3828976154275
 10
257.4134767055512
 20
-355.3893268108315
 10
259.6924006938937
 20
-351.2908220291085
 10
261.7083787918091
 20
-347.0205366611428
 10
263.4444832801819
 20
-342.6055312156625
 10
264.8860812187195
 20
-338.0746543407388
 10
266.0203874111176
 20
-333.4615528583474
 10
266.8389678001407
 20
-328.7972211837716
 10
267.3455178737641
 20
-324.3198692798562
 10
267.7777111530304
 20
-319.4712698459573
 10
268.4338092803958
 20
-310.0296258926339
 10
269.0500617027283
 20
-298.8747656345315
 10
270.1323926448822
 20
-279.9760103225656
 10
271.6133296489716
 20
-250.6889104843087
 10
272.8083133697513
 20
-220.8333760499902
 10
273.6779749393466
 20
-191.1567896604486
 10
274.2260694503785
 20
-161.623805761332
 10
274.4546234607697
 20
-132.1847289800591
 10
274.3638157844547
 20
-102.9152125120111
 10
273.9554941654208
 20
-73.819540441031
 10
273.2301354408267
 20
-44.89932209252788
 10
272.2190022468567
 20
-16.75869151949359
 10
271.5639770030976
 20
-1.902494113887087
  0
ARC
  5
37B
330
376
100
AcDbEntity
  8
0
370
    15
100
AcDbCircle
 10
269.5552542278604
 20
-2.000008835693961
 30
0.0
 40
2.000008835761391
100
AcDbArc
 50
2.961216616445045
 51
89.99952891663358
  0
CIRCLE
  5
37C
330
376
100
AcDbEntity
  8
0
370
    15
100
AcDbCircle
 10
0.0000000000000568
 20
-204.9999999999957
 30
0.0
 40
23.25000000000017
  0
LINE
  5
37D
330
376
100
AcDbEntity
  8
0
370
    15
100
AcDbLine
 10
-269.5552706718445
 20
-0.0000000000002274
 30
0.0
 11
269.5552706718445
 21
0.0000000000002274
 31
0.0
  0
CIRCLE
  5
37E
330
376
100
AcDbEntity
  8
0
370
    15
100
AcDbCircle
 10
0.0000000000000568
 20
-64.99999999999477
 30
0.0
 40
17.50000000000011
  0
ARC
  5
37F
330
376
100
AcDbEntity
  8
0
370
    15
100
AcDbCircle
 10
-2724.998952017902
 20
-144.8716855302866
 30
0.0
 40
2944.0
100
AcDbArc
 50
356.496969507528
 51
2.07311877103981
  0
ARC
  5
380
330
376
100
AcDbEntity
  8
0
100
AcDbCircle
 10
168.5844637357327
 20
-322.0044495112213
 30
0.0
 40
44.99999999999969
100
AcDbArc
 50
298.6155522612699
 51
356.496969507528
  0
ARC
  5
381
330
376
100
AcDbEntity
  8
0
100
AcDbCircle
 10
0.0010479820974183
 20
-13.00019074957004
 30
0.0
 40
397.0
100
AcDbArc
 50
270.0
 51
298.6155522612699
  0
ARC
  5
382
330
376
100
AcDbEntity
  8
0
370
    15
100
AcDbCircle
 10
0.0010479820969636
 20
-4630.000190749569
 30
0.0
 40
4616.974681796405
100
AcDbArc
 50
87.56667863244603
 51
90.0
  0
ARC
  5
383
330
376
100
AcDbEntity
  8
0
370
    15
100
AcDbCircle
 10
195.0885281939902
 20
-39.16876262954452
 30
0.0
 40
22.0
100
AcDbArc
 50
2.07311877103981
 51
87.56667863244603
  0
ARC
  5
384
330
376
100
AcDbEntity
  8
0
370
    15
100
AcDbCircle
 10
202.8666749759969
 20
-149.6124601132717
 30
0.0
 40
15.02591099249469
100
AcDbArc
 50
356.0926466905035
 51
88.74372649109842
  0
ARC
  5
385
330
376
100
AcDbEntity
  8
0
370
    15
100
AcDbCircle
 10
-0.0000000000003979
 20
-4630.000190749569
 30
0.0
 40
4499.999999999999
100
AcDbArc
 50
87.41194686324943
 51
90.0
  0
CIRCLE
  5
386
330
376
100
AcDbEntity
  8
0
100
AcDbCircle
 10
0.0000014982129528
 20
-205.0001889466569
 30
0.0
 40
35.99999876020534
  0
LWPOLYLINE
  5
387
330
376
100
AcDbEntity
  8
0
370
    15
100
AcDbPolyline
 90
       28
 70
   128
 43
0.0
 10
-239.5706921815874
 20
-375.5540847778268
 10
-242.0205026865005
 20
-373.5540509223886
 10
-245.4988062381744
 20
-370.3514933586068
 10
-248.949110507965
 20
-366.7583167552896
 10
-252.1611452102661
 20
-362.958490848536
 10
-254.8266649246215
 20
-359.3828976154275
 10
-257.4134767055511
 20
-355.3893268108315
 10
-259.6924006938936
 20
-351.2908220291085
 10
-261.708378791809
 20
-347.0205366611428
 10
-263.4444832801818
 20
-342.6055312156625
 10
-264.8860812187194
 20
-338.0746543407388
 10
-266.0203874111175
 20
-333.4615528583474
 10
-266.8389678001406
 20
-328.7972211837716
 10
-267.345517873764
 20
-324.3198692798562
 10
-267.7777111530303
 20
-319.4712698459573
 10
-268.4338092803957
 20
-310.0296258926339
 10
-269.0500617027282
 20
-298.8747656345315
 10
-270.1323926448822
 20
-279.9760103225656
 10
-271.6133296489715
 20
-250.6889104843087
 10
-272.8083133697511
 20
-220.8333760499902
 10
-273.6779749393465
 20
-191.1567896604486
 10
-274.2260694503784
 20
-161.623805761332
 10
-274.4546234607696
 20
-132.1847289800591
 10
-274.3638157844545
 20
-102.9152125120111
 10
-273.9554941654207
 20
-73.819540441031
 10
-273.2301354408266
 20
-44.89932209252788
 10
-272.2190022468566
 20
-16.75869151949359
 10
-271.5639770030975
 20
-1.902494113887087
  0
ARC
  5
388
330
376
100
AcDbEntity
  8
0
370
    15
100
AcDbCircle
 10
-269.5552542278603
 20
-2.000008835693961
 30
0.0
 40
2.000008835761391
100
AcDbArc
 50
90.00047108336643
 51
177.0387833835549
  0
ARC
  5
389
330
376
100
AcDbEntity
  8
0
370
    15
100
AcDbCircle
 10
2724.998952017902
 20
-144.8716855302866
 30
0.0
 40
2944.0
100
AcDbArc
 50
177.9268812289602
 51
183.503030492472
  0
ARC
  5
38A
330
376
100
AcDbEntity
  8
0
100
AcDbCircle
 10
-168.5844637357326
 20
-322.0044495112213
 30
0.0
 40
44.99999999999969
100
AcDbArc
 50
183.503030492472
 51
241.38444773873
  0
ARC
  5
38B
330
376
100
AcDbEntity
  8
0
100
AcDbCircle
 10
-0.0010479820973046
 20
-13.00019074957004
 30
0.0
 40
397.0
100
AcDbArc
 50
241.38444773873
 51
270.0
  0
ARC
  5
38C
330
376
100
AcDbEntity
  8
0
370
    15
100
AcDbCircle
 10
-0.0010479820968499
 20
-4630.000190749569
 30
0.0
 40
4616.974681796405
100
AcDbArc
 50
90.0
 51
92.43332136755398
  0
ARC
  5
38D
330
376
100
AcDbEntity
  8
0
370
    15
100
AcDbCircle
 10
-195.0885281939901
 20
-39.16876262954452
 30
0.0
 40
22.0
100
AcDbArc
 50
92.43332136755398
 51
177.9268812289602
  0
ARC
  5
38E
330
376
100
AcDbEntity
  8
0
370
    15
100
AcDbCircle
 10
-202.8666749759968
 20
-149.6124601132717
 30
0.0
 40
15.02591099249469
100
AcDbArc
 50
91.25627350890157
 51
183.9073533094965
  0
ARC
  5
38F
330
376
100
AcDbEntity
  8
0
370
    15
100
AcDbCircle
 10
0.0000000000005116
 20
-4630.000190749569
 30
0.0
 40
4499.999999999999
100
AcDbArc
 50
90.0
 51
92.58805313675058
  0
SPLINE
  5
390
330
376
100
AcDbEntity
  8
0
100
AcDbSpline
210
0.0
220
0.0
230
1.0
 70
     8
 71
     3
 72
     9
 73
     5
 74
     0
 42
0.0000000001
 43
0.0000000001
 40
13.4635172327934
 40
13.4635172327934
 40
13.4635172327934
 40
13.4635172327934
 40
231.5809529433067
 40
449.7022617207048
 40
449.7022617207048
 40
449.7022617207048
 40
449.7022617207048
 10
-203.1961036243478
 20
-142.125634116569
 30
0.0
 10
-145.0568602475827
 20
-148.2609011938014
 30
0.0
 10
0.0019206937491276
 20
-155.4236924736744
 30
0.0
 10
145.0577746067452
 20
-148.2280006935255
 30
0.0
 10
203.1961036243495
 20
-142.0794928348785
 30
0.0
  0
ENDBLK
  5
378
330
376
100
AcDbEntity
  8
0
100
AcDbBlockEnd
  0
ENDSEC
  0
SECTION
  2
ENTITIES
  0
MTEXT
  5
BB
330
1F
100
AcDbEntity
  8
0
100
AcDbMText
 10
19.65616043981684
 20
39.08438319788589
 30
0.0
 40
20.0
 41
0.0000000000009095
 71
     1
 72
     5
  1
{\fTimes New Roman|b0|i0|c0|p18;\C0;LAVABO DE 55CM. SERIE SMART}
 73
     1
 44
1.0
1001
ACAD
1000
MTEXTBEGIN
1070
    73
1070
     1
1070
    44
1040
1.0
1070
    74
1070
     0
1000
MTEXTEND
  0
INSERT
  5
391
330
1F
100
AcDbEntity
  8
0
100
AcDbBlockReference
  2
25050-P
 10
346.0156350826409
 20
573.4754984636452
 30
0.0
  0
ENDSEC
  0
SECTION
  2
OBJECTS
  0
DICTIONARY
  5
C
330
0
100
AcDbDictionary
281
     1
  3
ACAD_COLOR
350
73
  3
ACAD_GROUP
350
D
  3
ACAD_LAYOUT
350
1A
  3
ACAD_MATERIAL
350
72
  3
ACAD_MLINESTYLE
350
17
  3
ACAD_PLOTSETTINGS
350
19
  3
ACAD_PLOTSTYLENAME
350
E
  3
ACAD_TABLESTYLE
350
104
  3
ACDBHEADERROUNDTRIPXREC
350
39D
  3
AcDbVariableDictionary
350
66
  3
DWGPROPS
350
39C
  0
DICTIONARY
  5
96
330
2
100
AcDbDictionary
280
     1
281
     1
  3
ACAD_LAYERSTATES
360
97
  0
DICTIONARY
  5
1C8
330
1F
100
AcDbDictionary
280
     1
281
     1
  3
ACAD_SORTENTS
360
1C9
  0
DICTIONARY
  5
73
102
{ACAD_REACTORS
330
C
102
}
330
C
100
AcDbDictionary
281
     1
  0
DICTIONARY
  5
D
102
{ACAD_REACTORS
330
C
102
}
330
C
100
AcDbDictionary
281
     1
  0
DICTIONARY
  5
1A
102
{ACAD_REACTORS
330
C
102
}
330
C
100
AcDbDictionary
281
     1
  3
Model
350
22
  3
Presentación1
350
59
  3
Presentación2
350
5E
  0
DICTIONARY
  5
72
102
{ACAD_REACTORS
330
C
102
}
330
C
100
AcDbDictionary
281
     1
  0
DICTIONARY
  5
17
102
{ACAD_REACTORS
330
C
102
}
330
C
100
AcDbDictionary
281
     1
  3
Standard
350
18
  0
DICTIONARY
  5
19
102
{ACAD_REACTORS
330
C
102
}
330
C
100
AcDbDictionary
281
     1
  0
ACDBDICTIONARYWDFLT
  5
E
102
{ACAD_REACTORS
330
C
102
}
330
C
100
AcDbDictionary
281
     1
  3
Normal
350
F
100
AcDbDictionaryWithDefault
340
F
  0
DICTIONARY
  5
104
102
{ACAD_REACTORS
330
C
102
}
330
C
100
AcDbDictionary
281
     1
  3
Standard
350
105
  0
DICTIONARY
  5
39D
102
{ACAD_REACTORS
330
C
102
}
330
C
100
AcDbDictionary
281
     1
  0
DICTIONARY
  5
66
102
{ACAD_REACTORS
330
C
102
}
330
C
100
AcDbDictionary
281
     1
  3
CTABLESTYLE
350
2AE
  3
DIMASSOC
350
67
  3
HIDETEXT
350
6B
  3
PROJECTNAME
350
2AF
  0
XRECORD
  5
39C
102
{ACAD_REACTORS
330
C
102
}
330
C
100
AcDbXrecord
280
     1
  1
DWGPROPS COOKIE
  2

  3

  4

  6

  7

  8

  9

300
=
301
=
302
=
303
=
304
=
305
=
306
=
307
=
308
=
309
=
 40
0.0261917708333333
 41
2454473.167406447
 42
2454572.68969419
  1

 90
        0
  0
DICTIONARY
  5
97
102
{ACAD_REACTORS
330
96
102
}
330
96
100
AcDbDictionary
281
     1
  0
SORTENTSTABLE
  5
1C9
102
{ACAD_REACTORS
330
1C8
102
}
330
1C8
100
AcDbSortentsTable
330
1F
331
391
  5
391
331
BB
  5
2A2
  0
LAYOUT
  5
22
102
{ACAD_XDICTIONARY
360
39E
102
}
102
{ACAD_REACTORS
330
1A
102
}
330
1A
100
AcDbPlotSettings
  1

  2
none_device
  4
ANSI_A_(8.50_x_11.00_Inches)
  6

 40
6.349999904632567
 41
19.04999923706055
 42
6.350006103515625
 43
19.04998779296875
 44
215.8999938964844
 45
279.3999938964844
 46
0.0
 47
0.0
 48
0.0
 49
0.0
140
0.0
141
0.0
142
1.0
143
2.584895464708373
 70
 11952
 72
     0
 73
     1
 74
     0
  7

 75
     0
147
0.3868628397755418
148
0.0
149
0.0
100
AcDbLayout
  1
Model
 70
     1
 71
     0
 10
0.0
 20
0.0
 11
12.0
 21
9.0
 12
0.0
 22
0.0
 32
0.0
 14
0.0
 24
0.0
 34
0.0
 15
0.0
 25
0.0
 35
0.0
146
0.0
 13
0.0
 23
0.0
 33
0.0
 16
1.0
 26
0.0
 36
0.0
 17
0.0
 27
1.0
 37
0.0
 76
     0
330
1F
  0
LAYOUT
  5
59
102
{ACAD_XDICTIONARY
360
3A0
102
}
102
{ACAD_REACTORS
330
1A
102
}
330
1A
100
AcDbPlotSettings
  1

  2
None
  4

  6

 40
0.0
 41
0.0
 42
0.0
 43
0.0
 44
0.0
 45
0.0
 46
0.0
 47
0.0
 48
0.0
 49
0.0
140
0.0
141
0.0
142
1.0
143
1.0
 70
   688
 72
     0
 73
     0
 74
     5
  7

 75
    16
147
1.0
148
0.0
149
0.0
100
AcDbLayout
  1
Presentación1
 70
     1
 71
     1
 10
0.0
 20
0.0
 11
12.0
 21
9.0
 12
0.0
 22
0.0
 32
0.0
 14
0.0
 24
0.0
 34
0.0
 15
0.0
 25
0.0
 35
0.0
146
0.0
 13
0.0
 23
0.0
 33
0.0
 16
1.0
 26
0.0
 36
0.0
 17
0.0
 27
1.0
 37
0.0
 76
     0
330
58
  0
LAYOUT
  5
5E
102
{ACAD_XDICTIONARY
360
3A2
102
}
102
{ACAD_REACTORS
330
1A
102
}
330
1A
100
AcDbPlotSettings
  1

  2
None
  4

  6

 40
0.0
 41
0.0
 42
0.0
 43
0.0
 44
0.0
 45
0.0
 46
0.0
 47
0.0
 48
0.0
 49
0.0
140
0.0
141
0.0
142
1.0
143
1.0
 70
   688
 72
     0
 73
     0
 74
     5
  7

 75
    16
147
1.0
148
0.0
149
0.0
100
AcDbLayout
  1
Presentación2
 70
     1
 71
     2
 10
0.0
 20
0.0
 11
12.0
 21
9.0
 12
0.0
 22
0.0
 32
0.0
 14
0.0
 24
0.0
 34
0.0
 15
0.0
 25
0.0
 35
0.0
146
0.0
 13
0.0
 23
0.0
 33
0.0
 16
1.0
 26
0.0
 36
0.0
 17
0.0
 27
1.0
 37
0.0
 76
     0
330
5D
  0
MLINESTYLE
  5
18
102
{ACAD_REACTORS
330
17
102
}
330
17
100
AcDbMlineStyle
  2
STANDARD
 70
     0
  3

 62
   256
 51
90.0
 52
90.0
 71
     2
 49
0.5
 62
   256
  6
BYLAYER
 49
-0.5
 62
   256
  6
BYLAYER
  0
ACDBPLACEHOLDER
  5
F
102
{ACAD_REACTORS
330
E
102
}
330
E
  0
TABLESTYLE
  5
105
102
{ACAD_REACTORS
330
104
102
}
330
104
100
AcDbTableStyle
  3
Standard
 70
     0
 71
     0
 40
0.06
 41
0.06
280
     0
281
     0
  7
Standard
140
0.18
170
     2
 62
     0
 63
     7
283
     0
274
    -2
284
     1
 64
     0
275
    -2
285
     1
 65
     0
276
    -2
286
     1
 66
     0
277
    -2
287
     1
 67
     0
278
    -2
288
     1
 68
     0
279
    -2
289
     1
 69
     0
  7
Standard
140
0.25
170
     5
 62
     0
 63
     7
283
     0
274
    -2
284
     1
 64
     0
275
    -2
285
     1
 65
     0
276
    -2
286
     1
 66
     0
277
    -2
287
     1
 67
     0
278
    -2
288
     1
 68
     0
279
    -2
289
     1
 69
     0
  7
Standard
140
0.18
170
     5
 62
     0
 63
     7
283
     0
274
    -2
284
     1
 64
     0
275
    -2
285
     1
 65
     0
276
    -2
286
     1
 66
     0
277
    -2
287
     1
 67
     0
278
    -2
288
     1
 68
     0
279
    -2
289
     1
 69
     0
  0
DICTIONARYVAR
  5
2AE
102
{ACAD_REACTORS
330
66
102
}
330
66
100
DictionaryVariables
280
     0
  1
STANDARD
  0
DICTIONARYVAR
  5
67
102
{ACAD_REACTORS
330
66
102
}
330
66
100
DictionaryVariables
280
     0
  1
2
  0
DICTIONARYVAR
  5
6B
102
{ACAD_REACTORS
330
66
102
}
330
66
100
DictionaryVariables
280
     0
  1
1
  0
DICTIONARYVAR
  5
2AF
102
{ACAD_REACTORS
330
66
102
}
330
66
100
DictionaryVariables
280
     0
  1

  0
DICTIONARY
  5
39E
330
22
100
AcDbDictionary
280
     1
281
     1
  3
ACAD_XREC_ROUNDTRIP
360
39F
  0
DICTIONARY
  5
3A0
330
59
100
AcDbDictionary
280
     1
281
     1
  3
ACAD_XREC_ROUNDTRIP
360
3A1
  0
DICTIONARY
  5
3A2
330
5E
100
AcDbDictionary
280
     1
281
     1
  3
ACAD_XREC_ROUNDTRIP
360
3A3
  0
XRECORD
  5
39F
102
{ACAD_REACTORS
330
39E
102
}
330
39E
100
AcDbXrecord
280
     1
102
SHADEPLOT
 70
     0
102
SHADEPLOTRESLEVEL
 70
     2
102
SHADEPLOTCUSTOMDPI
 70
   300
  0
XRECORD
  5
3A1
102
{ACAD_REACTORS
330
3A0
102
}
330
3A0
100
AcDbXrecord
280
     1
102
SHADEPLOT
 70
     0
102
SHADEPLOTRESLEVEL
 70
     2
102
SHADEPLOTCUSTOMDPI
 70
   300
  0
XRECORD
  5
3A3
102
{ACAD_REACTORS
330
3A2
102
}
330
3A2
100
AcDbXrecord
280
     1
102
SHADEPLOT
 70
     0
102
SHADEPLOTRESLEVEL
 70
     2
102
SHADEPLOTCUSTOMDPI
 70
   300
  0
ENDSEC
  0
EOF
