  0
SECTION
  2
HEADER
  9
$ACADVER
  1
AC1018
  9
$ACADMAINTVER
 70
    39
  9
$DWGCODEPAGE
  3
ANSI_1252
  9
$LASTSAVEDBY
  1
G0757
  9
$INSBASE
 10
0.0
 20
0.0
 30
0.0
  9
$EXTMIN
 10
19.06495640232585
 20
12.69649567084912
 30
0.0
  9
$EXTMAX
 10
782.0065569791101
 20
573.875935870147
 30
0.0
  9
$LIMMIN
 10
0.0
 20
0.0
  9
$LIMMAX
 10
12.0
 20
9.0
  9
$ORTHOMODE
 70
     0
  9
$REGENMODE
 70
     1
  9
$FILLMODE
 70
     1
  9
$QTEXTMODE
 70
     0
  9
$MIRRTEXT
 70
     0
  9
$LTSCALE
 40
1.0
  9
$ATTMODE
 70
     1
  9
$TEXTSIZE
 40
0.2
  9
$TRACEWID
 40
0.05
  9
$TEXTSTYLE
  7
Standard
  9
$CLAYER
  8
0
  9
$CELTYPE
  6
ByLayer
  9
$CECOLOR
 62
   256
  9
$CELTSCALE
 40
1.0
  9
$DISPSILH
 70
     0
  9
$DIMSCALE
 40
1.0
  9
$DIMASZ
 40
0.18
  9
$DIMEXO
 40
0.0625
  9
$DIMDLI
 40
0.38
  9
$DIMRND
 40
0.0
  9
$DIMDLE
 40
0.0
  9
$DIMEXE
 40
0.18
  9
$DIMTP
 40
0.0
  9
$DIMTM
 40
0.0
  9
$DIMTXT
 40
0.18
  9
$DIMCEN
 40
0.09
  9
$DIMTSZ
 40
0.0
  9
$DIMTOL
 70
     0
  9
$DIMLIM
 70
     0
  9
$DIMTIH
 70
     1
  9
$DIMTOH
 70
     1
  9
$DIMSE1
 70
     0
  9
$DIMSE2
 70
     0
  9
$DIMTAD
 70
     0
  9
$DIMZIN
 70
     0
  9
$DIMBLK
  1

  9
$DIMASO
 70
     1
  9
$DIMSHO
 70
     1
  9
$DIMPOST
  1

  9
$DIMAPOST
  1

  9
$DIMALT
 70
     0
  9
$DIMALTD
 70
     2
  9
$DIMALTF
 40
25.4
  9
$DIMLFAC
 40
1.0
  9
$DIMTOFL
 70
     0
  9
$DIMTVP
 40
0.0
  9
$DIMTIX
 70
     0
  9
$DIMSOXD
 70
     0
  9
$DIMSAH
 70
     0
  9
$DIMBLK1
  1

  9
$DIMBLK2
  1

  9
$DIMSTYLE
  2
Standard
  9
$DIMCLRD
 70
     0
  9
$DIMCLRE
 70
     0
  9
$DIMCLRT
 70
     0
  9
$DIMTFAC
 40
1.0
  9
$DIMGAP
 40
0.09
  9
$DIMJUST
 70
     0
  9
$DIMSD1
 70
     0
  9
$DIMSD2
 70
     0
  9
$DIMTOLJ
 70
     1
  9
$DIMTZIN
 70
     0
  9
$DIMALTZ
 70
     0
  9
$DIMALTTZ
 70
     0
  9
$DIMUPT
 70
     0
  9
$DIMDEC
 70
     4
  9
$DIMTDEC
 70
     4
  9
$DIMALTU
 70
     2
  9
$DIMALTTD
 70
     2
  9
$DIMTXSTY
  7
Standard
  9
$DIMAUNIT
 70
     0
  9
$DIMADEC
 70
     0
  9
$DIMALTRND
 40
0.0
  9
$DIMAZIN
 70
     0
  9
$DIMDSEP
 70
    46
  9
$DIMATFIT
 70
     3
  9
$DIMFRAC
 70
     0
  9
$DIMLDRBLK
  1

  9
$DIMLUNIT
 70
     2
  9
$DIMLWD
 70
    -2
  9
$DIMLWE
 70
    -2
  9
$DIMTMOVE
 70
     0
  9
$LUNITS
 70
     2
  9
$LUPREC
 70
     4
  9
$SKETCHINC
 40
0.1
  9
$FILLETRAD
 40
0.0
  9
$AUNITS
 70
     0
  9
$AUPREC
 70
     0
  9
$MENU
  1
.
  9
$ELEVATION
 40
0.0
  9
$PELEVATION
 40
0.0
  9
$THICKNESS
 40
0.0
  9
$LIMCHECK
 70
     0
  9
$CHAMFERA
 40
0.0
  9
$CHAMFERB
 40
0.0
  9
$CHAMFERC
 40
0.0
  9
$CHAMFERD
 40
0.0
  9
$SKPOLY
 70
     0
  9
$TDCREATE
 40
2454473.125739780
  9
$TDUCREATE
 40
2454473.084073113
  9
$TDUPDATE
 40
2454854.679641563
  9
$TDUUPDATE
 40
2454854.637974896
  9
$TDINDWG
 40
0.0276994792
  9
$TDUSRTIMER
 40
0.0276994792
  9
$USRTIMER
 70
     1
  9
$ANGBASE
 50
0.0
  9
$ANGDIR
 70
     0
  9
$PDMODE
 70
     0
  9
$PDSIZE
 40
0.0
  9
$PLINEWID
 40
0.0
  9
$SPLFRAME
 70
     0
  9
$SPLINETYPE
 70
     6
  9
$SPLINESEGS
 70
     8
  9
$HANDSEED
  5
37D
  9
$SURFTAB1
 70
     6
  9
$SURFTAB2
 70
     6
  9
$SURFTYPE
 70
     6
  9
$SURFU
 70
     6
  9
$SURFV
 70
     6
  9
$UCSBASE
  2

  9
$UCSNAME
  2

  9
$UCSORG
 10
0.0
 20
0.0
 30
0.0
  9
$UCSXDIR
 10
1.0
 20
0.0
 30
0.0
  9
$UCSYDIR
 10
0.0
 20
1.0
 30
0.0
  9
$UCSORTHOREF
  2

  9
$UCSORTHOVIEW
 70
     0
  9
$UCSORGTOP
 10
0.0
 20
0.0
 30
0.0
  9
$UCSORGBOTTOM
 10
0.0
 20
0.0
 30
0.0
  9
$UCSORGLEFT
 10
0.0
 20
0.0
 30
0.0
  9
$UCSORGRIGHT
 10
0.0
 20
0.0
 30
0.0
  9
$UCSORGFRONT
 10
0.0
 20
0.0
 30
0.0
  9
$UCSORGBACK
 10
0.0
 20
0.0
 30
0.0
  9
$PUCSBASE
  2

  9
$PUCSNAME
  2

  9
$PUCSORG
 10
0.0
 20
0.0
 30
0.0
  9
$PUCSXDIR
 10
1.0
 20
0.0
 30
0.0
  9
$PUCSYDIR
 10
0.0
 20
1.0
 30
0.0
  9
$PUCSORTHOREF
  2

  9
$PUCSORTHOVIEW
 70
     0
  9
$PUCSORGTOP
 10
0.0
 20
0.0
 30
0.0
  9
$PUCSORGBOTTOM
 10
0.0
 20
0.0
 30
0.0
  9
$PUCSORGLEFT
 10
0.0
 20
0.0
 30
0.0
  9
$PUCSORGRIGHT
 10
0.0
 20
0.0
 30
0.0
  9
$PUCSORGFRONT
 10
0.0
 20
0.0
 30
0.0
  9
$PUCSORGBACK
 10
0.0
 20
0.0
 30
0.0
  9
$USERI1
 70
     0
  9
$USERI2
 70
     0
  9
$USERI3
 70
     0
  9
$USERI4
 70
     0
  9
$USERI5
 70
     0
  9
$USERR1
 40
0.0
  9
$USERR2
 40
0.0
  9
$USERR3
 40
0.0
  9
$USERR4
 40
0.0
  9
$USERR5
 40
0.0
  9
$WORLDVIEW
 70
     1
  9
$SHADEDGE
 70
     3
  9
$SHADEDIF
 70
    70
  9
$TILEMODE
 70
     1
  9
$MAXACTVP
 70
    64
  9
$PINSBASE
 10
0.0
 20
0.0
 30
0.0
  9
$PLIMCHECK
 70
     0
  9
$PEXTMIN
 10
0.0
 20
0.0
 30
0.0
  9
$PEXTMAX
 10
0.0
 20
0.0
 30
0.0
  9
$PLIMMIN
 10
0.0
 20
0.0
  9
$PLIMMAX
 10
12.0
 20
9.0
  9
$UNITMODE
 70
     0
  9
$VISRETAIN
 70
     1
  9
$PLINEGEN
 70
     0
  9
$PSLTSCALE
 70
     1
  9
$TREEDEPTH
 70
  3020
  9
$CMLSTYLE
  2
Standard
  9
$CMLJUST
 70
     0
  9
$CMLSCALE
 40
1.0
  9
$PROXYGRAPHICS
 70
     1
  9
$MEASUREMENT
 70
     0
  9
$CELWEIGHT
370
    -1
  9
$ENDCAPS
280
     0
  9
$JOINSTYLE
280
     0
  9
$LWDISPLAY
290
     0
  9
$INSUNITS
 70
     1
  9
$HYPERLINKBASE
  1

  9
$STYLESHEET
  1

  9
$XEDIT
290
     1
  9
$CEPSNTYPE
380
     0
  9
$PSTYLEMODE
290
     1
  9
$FINGERPRINTGUID
  2
{FDEAD576-A652-11D2-9A35-0060089B3A3F}
  9
$VERSIONGUID
  2
{D6B92B85-5B4C-4FB7-9285-A9DB9B350E14}
  9
$EXTNAMES
290
     1
  9
$PSVPSCALE
 40
0.0
  9
$OLESTARTUP
290
     0
  9
$SORTENTS
280
   127
  9
$INDEXCTL
280
     0
  9
$HIDETEXT
280
     1
  9
$XCLIPFRAME
290
     0
  9
$HALOGAP
280
     0
  9
$OBSCOLOR
 70
   257
  9
$OBSLTYPE
280
     0
  9
$INTERSECTIONDISPLAY
280
     0
  9
$INTERSECTIONCOLOR
 70
   257
  9
$DIMASSOC
280
     2
  9
$PROJECTNAME
  1

  0
ENDSEC
  0
SECTION
  2
CLASSES
  0
CLASS
  1
ACDBDICTIONARYWDFLT
  2
AcDbDictionaryWithDefault
  3
ObjectDBX Classes
 90
        0
 91
        1
280
     0
281
     0
  0
CLASS
  1
DICTIONARYVAR
  2
AcDbDictionaryVar
  3
ObjectDBX Classes
 90
        0
 91
        4
280
     0
281
     0
  0
CLASS
  1
SORTENTSTABLE
  2
AcDbSortentsTable
  3
ObjectDBX Classes
 90
        0
 91
        1
280
     0
281
     0
  0
CLASS
  1
TABLESTYLE
  2
AcDbTableStyle
  3
ObjectDBX Classes
 90
     2047
 91
        1
280
     0
281
     0
  0
CLASS
  1
ACAD_EVALUATION_GRAPH
  2
AcDbEvalGraph
  3
ObjectDBX Classes
 90
     1153
 91
        0
280
     0
281
     0
  0
CLASS
  1
ACAECUSTOBJ
  2
AcAeEditorObj
  3
AcAeEditorObj
 90
     1024
 91
        0
280
     0
281
     0
  0
CLASS
  1
ACDB_DYNAMICBLOCKPURGEPREVENTER_VERSION
  2
AcDbDynamicBlockPurgePreventer
  3
ObjectDBX Classes
 90
     1153
 91
        0
280
     0
281
     0
  0
ENDSEC
  0
SECTION
  2
TABLES
  0
TABLE
  2
VPORT
  5
8
330
0
100
AcDbSymbolTable
 70
     4
  0
VPORT
  5
37C
330
8
100
AcDbSymbolTableRecord
100
AcDbViewportTableRecord
  2
*Active
 70
     0
 10
0.0
 20
0.0
 11
1.0
 21
1.0
 12
438.8493301804403
 22
216.1603935285244
 13
0.0
 23
0.0
 14
0.5
 24
0.5
 15
0.5
 25
0.5
 16
0.0
 26
0.0
 36
1.0
 17
0.0
 27
0.0
 37
0.0
 40
1542.235217481376
 41
1.628811777076761
 42
50.0
 43
0.0
 44
0.0
 50
0.0
 51
0.0
 71
     0
 72
  1000
 73
     1
 74
     3
 75
     0
 76
     0
 77
     0
 78
     0
281
     0
 65
     1
110
0.0
120
0.0
130
0.0
111
1.0
121
0.0
131
0.0
112
0.0
122
1.0
132
0.0
 79
     0
146
0.0
  0
ENDTAB
  0
TABLE
  2
LTYPE
  5
5
330
0
100
AcDbSymbolTable
 70
     1
  0
LTYPE
  5
14
330
5
100
AcDbSymbolTableRecord
100
AcDbLinetypeTableRecord
  2
ByBlock
 70
     0
  3

 72
    65
 73
     0
 40
0.0
  0
LTYPE
  5
15
330
5
100
AcDbSymbolTableRecord
100
AcDbLinetypeTableRecord
  2
ByLayer
 70
     0
  3

 72
    65
 73
     0
 40
0.0
  0
LTYPE
  5
16
330
5
100
AcDbSymbolTableRecord
100
AcDbLinetypeTableRecord
  2
Continuous
 70
     0
  3
Solid line
 72
    65
 73
     0
 40
0.0
  0
ENDTAB
  0
TABLE
  2
LAYER
  5
2
102
{ACAD_XDICTIONARY
360
96
102
}
330
0
100
AcDbSymbolTable
 70
     1
  0
LAYER
  5
10
330
2
100
AcDbSymbolTableRecord
100
AcDbLayerTableRecord
  2
0
 70
     0
 62
     7
  6
Continuous
370
    -3
390
F
  0
ENDTAB
  0
TABLE
  2
STYLE
  5
3
330
0
100
AcDbSymbolTable
 70
     1
  0
STYLE
  5
11
330
3
100
AcDbSymbolTableRecord
100
AcDbTextStyleTableRecord
  2
Standard
 70
     0
 40
0.0
 41
1.0
 50
0.0
 71
     0
 42
0.2
  3
txt
  4

  0
ENDTAB
  0
TABLE
  2
VIEW
  5
6
330
0
100
AcDbSymbolTable
 70
     0
  0
ENDTAB
  0
TABLE
  2
UCS
  5
7
330
0
100
AcDbSymbolTable
 70
     0
  0
ENDTAB
  0
TABLE
  2
APPID
  5
9
330
0
100
AcDbSymbolTable
 70
     6
  0
APPID
  5
12
330
9
100
AcDbSymbolTableRecord
100
AcDbRegAppTableRecord
  2
ACAD
 70
     0
  0
APPID
  5
95
330
9
100
AcDbSymbolTableRecord
100
AcDbRegAppTableRecord
  2
ACAD_PSEXT
 70
     0
  0
APPID
  5
2E9
330
9
100
AcDbSymbolTableRecord
100
AcDbRegAppTableRecord
  2
ACAUTHENVIRON
 70
     0
  0
APPID
  5
2ED
330
9
100
AcDbSymbolTableRecord
100
AcDbRegAppTableRecord
  2
AcDbDynamicBlockTrueName
 70
     0
  0
APPID
  5
2EE
330
9
100
AcDbSymbolTableRecord
100
AcDbRegAppTableRecord
  2
AcDbDynamicBlockGUID
 70
     0
  0
APPID
  5
2F0
330
9
100
AcDbSymbolTableRecord
100
AcDbRegAppTableRecord
  2
AcDbBlockRepETag
 70
     0
  0
ENDTAB
  0
TABLE
  2
DIMSTYLE
  5
A
330
0
100
AcDbSymbolTable
 70
     1
100
AcDbDimStyleTable
 71
     0
  0
DIMSTYLE
105
27
330
A
100
AcDbSymbolTableRecord
100
AcDbDimStyleTableRecord
  2
Standard
 70
     0
340
11
  0
ENDTAB
  0
TABLE
  2
BLOCK_RECORD
  5
1
330
0
100
AcDbSymbolTable
 70
     3
  0
BLOCK_RECORD
  5
1F
102
{ACAD_XDICTIONARY
360
1C8
102
}
330
1
100
AcDbSymbolTableRecord
100
AcDbBlockTableRecord
  2
*Model_Space
340
22
  0
BLOCK_RECORD
  5
58
330
1
100
AcDbSymbolTableRecord
100
AcDbBlockTableRecord
  2
*Paper_Space
340
59
  0
BLOCK_RECORD
  5
5D
330
1
100
AcDbSymbolTableRecord
100
AcDbBlockTableRecord
  2
*Paper_Space0
340
5E
  0
BLOCK_RECORD
  5
33B
330
1
100
AcDbSymbolTableRecord
100
AcDbBlockTableRecord
  2
25040-432_P
340
0
310
2800000020000000200000000100080000000000000400000000000000000000000000000000000000000000000080000080000000808000800000008000800080800000C0C0C000C0DCC000F0CAA6000020400000206000002080000020A0000020C0000020E00000400000004020000040400000406000004080000040A0
310
000040C0000040E00000600000006020000060400000606000006080000060A0000060C0000060E00000800000008020000080400000806000008080000080A0000080C0000080E00000A0000000A0200000A0400000A0600000A0800000A0A00000A0C00000A0E00000C0000000C0200000C0400000C0600000C0800000C0
310
A00000C0C00000C0E00000E0000000E0200000E0400000E0600000E0800000E0A00000E0C00000E0E00040000000400020004000400040006000400080004000A0004000C0004000E00040200000402020004020400040206000402080004020A0004020C0004020E000404000004040200040404000404060004040800040
310
40A0004040C0004040E00040600000406020004060400040606000406080004060A0004060C0004060E00040800000408020004080400040806000408080004080A0004080C0004080E00040A0000040A0200040A0400040A0600040A0800040A0A00040A0C00040A0E00040C0000040C0200040C0400040C0600040C08000
310
40C0A00040C0C00040C0E00040E0000040E0200040E0400040E0600040E0800040E0A00040E0C00040E0E00080000000800020008000400080006000800080008000A0008000C0008000E00080200000802020008020400080206000802080008020A0008020C0008020E00080400000804020008040400080406000804080
310
008040A0008040C0008040E00080600000806020008060400080606000806080008060A0008060C0008060E00080800000808020008080400080806000808080008080A0008080C0008080E00080A0000080A0200080A0400080A0600080A0800080A0A00080A0C00080A0E00080C0000080C0200080C0400080C0600080C0
310
800080C0A00080C0C00080C0E00080E0000080E0200080E0400080E0600080E0800080E0A00080E0C00080E0E000C0000000C0002000C0004000C0006000C0008000C000A000C000C000C000E000C0200000C0202000C0204000C0206000C0208000C020A000C020C000C020E000C0400000C0402000C0404000C0406000C0
310
408000C040A000C040C000C040E000C0600000C0602000C0604000C0606000C0608000C060A000C060C000C060E000C0800000C0802000C0804000C0806000C0808000C080A000C080C000C080E000C0A00000C0A02000C0A04000C0A06000C0A08000C0A0A000C0A0C000C0A0E000C0C00000C0C02000C0C04000C0C06000
310
C0C08000C0C0A000F0FBFF00A4A0A000808080000000FF0000FF000000FFFF00FF000000FF00FF00FFFF0000FFFFFF0000000000000000000000000000000000000000000000000000000000000000000000000000000000000000000000000000000000000000000000000000000000000000000000000000000000000000
310
0000000000000000000000000000000000000000000000000000000000000000000000000000000000000000000000000000000000000000000000000000FFFFFFFFFFFF00000000000000000000000000000000000000000000FFFFFFFF000000000000FFFFFFFF000000000000000000000000000000FFFFFF000000FFFF
310
FFFFFFFFFFFF000000FFFFFF0000000000000000000000FFFF00FFFFFFFF0000000000000000FFFFFFFF00FFFF0000000000000000FFFF0000FF00000000000000000000000000000000FF0000FFFF0000000000FFFF00FFFF000000000000000000000000000000000000FFFF00FFFF00000000FF00FFFF00000000000000
310
00000000000000000000000000FFFF00FF00000000FF00FF00000000000000000000000000000000000000000000FF00FF00000000FF00FF00000000000000000000000000000000000000000000FF00FF00000000FF00FF00000000000000000000000000000000000000000000FF00FF00000000FF00FF00000000000000
310
000000000000000000000000000000FF00FF00000000FF00FF0000000000000000000000FF00000000000000000000FF00FF00000000FF00FF00000000000000000000FFFF00000000000000000000FF00FF000000FF0000FF000000000000000000FF0000FF000000000000000000FF0000FF0000FF0000FF000000000000
310
000000FFFFFFFF000000000000000000FF0000FF0000FF0000FF00000000000000000000FFFF00000000000000000000FF0000FF0000FF0000FFFFFFFFFFFFFFFFFFFFFFFFFFFFFFFFFFFFFFFFFFFFFFFF0000FF0000FF0000FF00000000000000000000000000000000000000000000FF0000FF0000FF0000FF0000000000
310
0000000000000000000000000000000000FF0000FF0000FF0000FF00000000000000000000FFFF00000000000000000000FF0000FF0000FF0000FF00000000000000000000FFFF00000000000000000000FF0000FF0000FF0000FF0000000000000000000000FF00000000000000000000FF0000FF0000FF0000FFFFFFFFFF
310
FFFFFFFFFFFFFFFFFFFFFFFFFFFFFFFFFFFFFF0000FF000000FFFFFFFFFFFFFFFFFFFFFFFFFFFFFFFFFFFFFFFFFFFFFFFFFFFFFFFF0000000000000000000000000000000000000000000000000000000000000000000000000000000000000000000000000000000000000000000000000000000000000000000000000000
310
0000000000000000000000000000000000000000000000000000000000000000000000000000000000000000000000000000000000000000
102
{BLKREFS
331
372
102
}
1001
ACAD
1000
DesignCenter Data
1002
{
1070
     1
1070
     1
1002
}
  0
ENDTAB
  0
ENDSEC
  0
SECTION
  2
BLOCKS
  0
BLOCK
  5
20
330
1F
100
AcDbEntity
  8
0
100
AcDbBlockBegin
  2
*Model_Space
 70
     0
 10
0.0
 20
0.0
 30
0.0
  3
*Model_Space
  1

  0
ENDBLK
  5
21
330
1F
100
AcDbEntity
  8
0
100
AcDbBlockEnd
  0
BLOCK
  5
5A
330
58
100
AcDbEntity
 67
     1
  8
0
100
AcDbBlockBegin
  2
*Paper_Space
 70
     0
 10
0.0
 20
0.0
 30
0.0
  3
*Paper_Space
  1

  0
ENDBLK
  5
5B
330
58
100
AcDbEntity
 67
     1
  8
0
100
AcDbBlockEnd
  0
BLOCK
  5
5F
330
5D
100
AcDbEntity
  8
0
100
AcDbBlockBegin
  2
*Paper_Space0
 70
     0
 10
0.0
 20
0.0
 30
0.0
  3
*Paper_Space0
  1

  0
ENDBLK
  5
60
330
5D
100
AcDbEntity
  8
0
100
AcDbBlockEnd
  0
BLOCK
  5
33C
330
33B
100
AcDbEntity
  8
0
100
AcDbBlockBegin
  2
25040-432_P
 70
     0
 10
0.0
 20
0.0
 30
0.0
  3
25040-432_P
  1

  0
LWPOLYLINE
  5
33E
330
33B
100
AcDbEntity
  8
0
370
    15
100
AcDbPolyline
 90
       26
 70
   128
 43
0.0
 10
612.6816511781044
 20
187.5018621623612
 10
615.3071463734931
 20
189.963235968361
 10
618.7218368680305
 20
193.5842777431107
 10
621.8985260159797
 20
197.411521786461
 10
624.8335183293647
 20
201.4409745872117
 10
627.2182405621833
 20
205.1971102893449
 10
629.473978343708
 20
209.3188608825303
 10
631.4613760144538
 20
213.6054183185197
 10
633.1497669846839
 20
218.0012310683824
 10
634.5209420354194
 20
222.4992657840348
 10
635.5175316960639
 20
226.8190528094865
 10
636.2851203114814
 20
231.3577080905534
 10
636.8558943898506
 20
236.2910355270005
 10
637.2657955319709
 20
241.5407444179154
 10
637.8191650540657
 20
249.1134847343064
 10
639.9200201661415
 20
280.567928665886
 10
641.6907251508064
 20
311.8575061500169
 10
643.1291938454933
 20
342.9177547633744
 10
644.2379892499275
 20
373.7480486571885
 10
645.0206280381507
 20
404.350071662674
 10
645.4838455350227
 20
434.8830277860261
 10
645.626002612812
 20
465.2339662253953
 10
645.4490364224739
 20
495.3951830804444
 10
644.9548841149635
 20
525.3670397043324
 10
644.157850805027
 20
555.022906029234
 10
643.5803712041206
 20
571.5562279630549
1001
AcDbBlockRepETag
1070
     1
1071
        0
1005
33E
  0
ARC
  5
33F
330
33B
100
AcDbEntity
  8
0
370
    15
100
AcDbCircle
 10
641.559246080883
 20
571.4755496221278
 30
0.0
 40
1.99994884170346
100
AcDbArc
 50
2.625468261190476
 51
90.0011052286406
1001
AcDbBlockRepETag
1070
     1
1071
        1
1005
33F
  0
LWPOLYLINE
  5
340
330
33B
100
AcDbEntity
  8
0
370
    15
100
AcDbPolyline
 90
       54
 70
   128
 43
0.0
 10
79.38297993252945
 20
187.5332142055131
 10
83.03123122761917
 20
184.4159210860825
 10
87.32047087262344
 20
181.0505236327744
 10
92.4986243874855
 20
177.214964741478
 10
100.1362890631981
 20
171.7561627566911
 10
110.028514328701
 20
165.0339509189225
 10
120.0441510112114
 20
158.6124445140458
 10
130.1837951571769
 20
152.4893785655595
 10
140.4483408362693
 20
146.664097422371
 10
150.7420331866569
 20
141.1875928580857
 10
161.178970399601
 20
135.9919453799821
 10
171.7649192244835
 20
131.0742045581437
 10
182.4889571101494
 20
126.4400328338242
 10
193.3399230868644
 20
122.0948244273759
 10
204.306149545414
 20
118.0436159312821
 10
215.3749257952995
 20
114.2913247287369
 10
226.5344501168556
 20
110.8420337379075
 10
237.7728090317078
 20
107.699378842125
 10
249.0780890614815
 20
104.8664594829179
 10
260.4384139807053
 20
102.3460770785905
 10
271.8419895202942
 20
100.1404071986771
 10
283.2771555216141
 20
98.25123798252116
 10
294.7324604422874
 20
96.6799701392747
 10
306.196679982645
 20
95.42743813396464
 10
317.6589381576605
 20
94.49417840839396
 10
329.1020427526064
 20
93.88087641597758
 10
340.524052425576
 20
93.58395587802897
 10
351.9872978025205
 20
93.6001087367631
 10
363.4801801920958
 20
93.93046748043071
 10
374.9908950806684
 20
94.57583677173625
 10
386.5073152513332
 20
95.53660404087077
 10
398.0170243115253
 20
96.81267988086711
 10
409.5073879391975
 20
98.40352784992228
 10
420.9655911357231
 20
100.3081644713975
 10
432.3787034184761
 20
102.525069826851
 10
443.7337607772178
 20
105.0522471606827
 10
455.0173968703575
 20
107.8871632754899
 10
466.215656760437
 20
111.0264803111649
 10
477.3158521086998
 20
114.4666815936661
 10
488.3055180938072
 20
118.2037736117936
 10
499.1724879176445
 20
122.233435028801
 10
509.903574052555
 20
126.5500630080796
 10
520.4951853186912
 20
131.1468924224473
 10
531.0465932519264
 20
136.0673154533005
 10
541.4893270165748
 20
141.2833775222398
 10
551.8162191541023
 20
146.7924560248948
 10
562.0197445781059
 20
152.591660135994
 10
572.092244091732
 20
158.6777116000748
 10
582.0258945853538
 20
165.0470043361283
 10
591.8087155253715
 20
171.6927136123277
 10
600.3466189534492
 20
177.6912654578782
 10
605.3768933446235
 20
181.4228440463639
 10
609.9219263226814
 20
185.0664163768388
 10
612.6832008988685
 20
187.5003124415971
1001
AcDbBlockRepETag
1070
     1
1071
        2
1005
340
  0
LINE
  5
341
330
33B
100
AcDbEntity
  8
0
370
    15
100
AcDbLine
 10
50.47206266317243
 20
573.4754984638311
 30
0.0
 11
641.5592075021095
 21
573.4754984634592
 31
0.0
1001
AcDbBlockRepETag
1070
     1
1071
        3
1005
341
  0
ARC
  5
342
330
33B
100
AcDbEntity
  8
0
370
     0
100
AcDbCircle
 10
345.9740643728919
 20
532.2411825222352
 30
0.0
 40
399.3866008118023
100
AcDbArc
 50
270.0
 51
281.8187137182759
1001
AcDbBlockRepETag
1070
     1
1071
        4
1005
342
  0
LINE
  5
343
330
33B
100
AcDbEntity
  8
0
370
     0
100
AcDbLine
 10
432.3660856468186
 20
142.311244804303
 30
0.0
 11
427.7747324269357
 21
141.3213600344033
 31
0.0
1001
AcDbBlockRepETag
1070
     1
1071
        5
1005
343
  0
ARC
  5
344
330
33B
100
AcDbEntity
  8
0
370
     0
100
AcDbCircle
 10
344.0910278173496
 20
539.6395970840758
 30
0.0
 40
407.016345323078
100
AcDbArc
 50
282.5260412683024
 51
290.5545910152693
1001
AcDbBlockRepETag
1070
     1
1071
        6
1005
344
  0
LINE
  5
345
330
33B
100
AcDbEntity
  8
0
370
     0
100
AcDbLine
 10
491.3119311316068
 20
160.1807975773381
 30
0.0
 11
486.9684959633405
 21
158.5249209408339
 31
0.0
1001
AcDbBlockRepETag
1070
     1
1071
        7
1005
345
  0
LWPOLYLINE
  5
346
330
33B
100
AcDbEntity
  8
0
370
     0
100
AcDbPolyline
 90
        3
 70
   128
 43
0.0
 10
495.036212639221
 20
161.6462582458171
 10
495.0180927297797
 20
161.639032686875
 10
491.2626921101282
 20
160.161727468575
1001
AcDbBlockRepETag
1070
     1
1071
        8
1005
346
  0
ARC
  5
347
330
33B
100
AcDbEntity
  8
0
370
     0
100
AcDbCircle
 10
385.9412210932378
 20
444.9939418910026
 30
0.0
 40
303.6238051838785
100
AcDbArc
 50
291.0688429938424
 51
304.1117041749418
1001
AcDbBlockRepETag
1070
     1
1071
        9
1005
347
  0
LINE
  5
348
330
33B
100
AcDbEntity
  8
0
370
     0
100
AcDbLine
 10
559.7061931239887
 20
196.0383978881009
 30
0.0
 11
556.2159213356363
 21
193.6098900267307
 31
0.0
1001
AcDbBlockRepETag
1070
     1
1071
       10
1005
348
  0
LINE
  5
349
330
33B
100
AcDbEntity
  8
0
370
     0
100
AcDbLine
 10
563.1024048031295
 20
198.4744306777202
 30
0.0
 11
559.6050124314452
 21
195.9677524527615
 31
0.0
1001
AcDbBlockRepETag
1070
     1
1071
       11
1005
349
  0
LWPOLYLINE
  5
34A
330
33B
100
AcDbEntity
  8
0
370
     0
100
AcDbPolyline
 90
        3
 70
   128
 43
0.0
 10
568.8729223559648
 20
203.5266399734683
 10
566.1161331418798
 20
200.9164200413589
 10
563.1024048031295
 20
198.4744306777202
1001
AcDbBlockRepETag
1070
     1
1071
       12
1005
34A
  0
LWPOLYLINE
  5
34B
330
33B
100
AcDbEntity
  8
0
370
     0
100
AcDbPolyline
 90
       11
 70
   128
 43
0.0
 10
583.8569970108428
 20
250.6613453483142
 10
583.2458174040011
 20
241.7323223833473
 10
582.5594406571517
 20
232.9505233617729
 10
581.9722518850458
 20
228.8650988706422
 10
581.077412542133
 20
224.8897980018973
 10
579.814435635123
 20
220.9038215285291
 10
578.2131457664282
 20
217.0384824008543
 10
576.3481042486646
 20
213.4317451710113
 10
574.1891077925766
 20
209.9933219032182
 10
571.6713044108246
 20
206.6489747626138
 10
568.8729223559648
 20
203.5266399734692
1001
AcDbBlockRepETag
1070
     1
1071
       13
1005
34B
  0
LWPOLYLINE
  5
34C
330
33B
100
AcDbEntity
  8
0
370
     0
100
AcDbPolyline
 90
        9
 70
   128
 43
0.0
 10
587.5740908999569
 20
536.7902328615719
 10
588.5783363195505
 20
501.3974630429329
 10
589.2320711649472
 20
466.1136831696667
 10
589.5573959888415
 20
430.8145262272001
 10
589.4849007462862
 20
395.5277123328551
 10
588.8805880972113
 20
359.3055648786167
 10
587.7285476819679
 20
323.096615355681
 10
586.0444225666078
 20
286.8739606495901
 10
583.8569970108428
 20
250.6613453483142
1001
AcDbBlockRepETag
1070
     1
1071
       14
1005
34C
  0
ARC
  5
34D
330
33B
100
AcDbEntity
  8
0
370
     0
100
AcDbCircle
 10
567.8591933270463
 20
536.6009018608283
 30
0.0
 40
19.71580666719548
100
AcDbArc
 50
0.5502201452473901
 51
55.93371995581001
1001
AcDbBlockRepETag
1070
     1
1071
       15
1005
34D
  0
LWPOLYLINE
  5
34E
330
33B
100
AcDbEntity
  8
0
100
AcDbPolyline
 90
       11
 70
   128
 43
0.0
 10
584.4685078294105
 20
535.4145909488297
 10
584.3025386960334
 20
538.7438791632749
 10
583.5646480948753
 20
541.9944966971971
 10
582.4595034749336
 20
544.5695384234286
 10
580.9279472262687
 20
546.91566478611
 10
580.3204119832344
 20
547.640485206256
 10
578.0261547000236
 20
549.7663146644927
 10
575.3929705054588
 20
551.4528262257672
 10
572.2719073922462
 20
552.7838966637946
 10
568.9909250171012
 20
553.6429839968778
 10
565.6151116521132
 20
554.0853715330459
1001
AcDbBlockRepETag
1070
     1
1071
       16
1005
34E
  0
ARC
  5
34F
330
33B
100
AcDbEntity
  8
0
370
     0
100
AcDbCircle
 10
564.3319419448044
 20
414.8681519387637
 30
0.0
 40
22.66247640408152
100
AcDbArc
 50
55.90975659203346
 51
88.84975003050586
1001
AcDbBlockRepETag
1070
     1
1071
       17
1005
34F
  0
LWPOLYLINE
  5
350
330
33B
100
AcDbEntity
  8
0
370
     0
100
AcDbPolyline
 90
        9
 70
   128
 43
0.0
 10
586.1582995087928
 20
423.7464810550309
 10
586.1418039233512
 20
423.749252671013
 10
586.1179173619575
 20
423.7648094832993
 10
586.0461831719703
 20
423.8547677934266
 10
585.7929677398033
 20
424.2564732968904
 10
584.7028732926673
 20
425.8879567325212
 10
582.6282442242927
 20
428.4707302987672
 10
580.1234186322517
 20
431.0166383922196
 10
577.0342142016716
 20
433.5906649768449
1001
AcDbBlockRepETag
1070
     1
1071
       18
1005
350
  0
LWPOLYLINE
  5
351
330
33B
100
AcDbEntity
  8
0
370
     0
100
AcDbPolyline
 90
       13
 70
   128
 43
0.0
 10
115.0010765225715
 20
433.5906351745225
 10
113.2045478255577
 20
432.158573979149
 10
111.5537971885032
 20
430.6816006839372
 10
109.2432231337852
 20
428.2854939639665
 10
107.3117495209999
 20
425.8593316018678
 10
106.5689415366478
 20
424.7706974685288
 10
106.2866688401527
 20
424.3277455508805
 10
106.1281949908561
 20
424.0731443107224
 10
106.0342580706901
 20
423.9236409604646
 10
105.9766948849983
 20
423.8370652139283
 10
105.9118152291603
 20
423.7603391349412
 10
105.8928758532829
 20
423.749178165207
 10
105.8769763142891
 20
423.746644967804
1001
AcDbBlockRepETag
1070
     1
1071
       19
1005
351
  0
ARC
  5
352
330
33B
100
AcDbEntity
  8
0
370
     0
100
AcDbCircle
 10
127.4597282293061
 20
415.6771659373316
 30
0.0
 40
21.84993158474954
100
AcDbArc
 50
90.55388724258412
 51
124.7636012712352
1001
AcDbBlockRepETag
1070
     1
1071
       20
1005
352
  0
ARC
  5
353
330
33B
100
AcDbEntity
  8
0
370
     0
100
AcDbCircle
 10
346.017563405735
 20
-4056.524505501978
 30
0.0
 40
4621.893217182441
100
AcDbArc
 50
87.04499831542163
 51
92.95498937306524
1001
AcDbBlockRepETag
1070
     1
1071
       21
1005
353
  0
LINE
  5
354
330
33B
100
AcDbEntity
  8
0
370
     0
100
AcDbLine
 10
584.2837781340904
 20
559.223117755364
 30
0.0
 11
591.7583794028587
 21
558.8570223018623
 31
0.0
1001
AcDbBlockRepETag
1070
     1
1071
       22
1005
354
  0
LINE
  5
355
330
33B
100
AcDbEntity
  8
0
370
     0
100
AcDbLine
 10
100.2780438096351
 20
558.8570977389909
 30
0.0
 11
107.7523470551796
 21
559.2231689781047
 31
0.0
1001
AcDbBlockRepETag
1070
     1
1071
       23
1005
355
  0
LWPOLYLINE
  5
356
330
33B
100
AcDbEntity
  8
0
100
AcDbPolyline
 90
        4
 70
   128
 43
0.0
 10
584.4685078294105
 20
535.4145909488297
 10
585.4916215569801
 20
488.2560442030526
 10
586.0603839785881
 20
441.0843397319413
 10
586.1597002179451
 20
423.6288512885667
1001
AcDbBlockRepETag
1070
     1
1071
       24
1005
356
  0
ARC
  5
357
330
33B
100
AcDbEntity
  8
0
100
AcDbCircle
 10
346.0156543720359
 20
-4058.136280400751
 30
0.0
 40
4617.446533334699
100
AcDbArc
 50
87.27406264064214
 51
92.72593735935785
1001
AcDbBlockRepETag
1070
     1
1071
       25
1005
357
  0
ARC
  5
358
330
33B
100
AcDbEntity
  8
0
370
     0
100
AcDbCircle
 10
346.017563405735
 20
-4056.524505501978
 30
0.0
 40
4499.372196933971
100
AcDbArc
 50
87.21305447789447
 51
92.78694233716667
1001
AcDbBlockRepETag
1070
     1
1071
       26
1005
358
  0
SPLINE
  5
359
330
33B
100
AcDbEntity
  8
0
100
AcDbSpline
210
0.0
220
0.0
230
1.0
 70
     8
 71
     3
 72
     9
 73
     5
 74
     0
 42
0.0000000001
 43
0.0000000001
 40
13.4635172327934
 40
13.4635172327934
 40
13.4635172327934
 40
13.4635172327934
 40
231.5809529433067
 40
449.7022617207048
 40
449.7022617207048
 40
449.7022617207048
 40
449.7022617207048
 10
128.4318291150384
 20
432.1753089150742
 30
0.0
 10
200.9607031581518
 20
424.5869809877622
 30
0.0
 10
346.0194840994836
 20
417.4241897078891
 30
0.0
 10
491.0753380124797
 20
424.6198814880381
 30
0.0
 10
563.6037813812272
 20
432.2247949628117
 30
0.0
1001
AcDbBlockRepETag
1070
     1
1071
       27
1005
359
  0
ARC
  5
35A
330
33B
100
AcDbEntity
  8
0
370
     0
100
AcDbCircle
 10
346.0572443711635
 20
532.2411825222352
 30
0.0
 40
399.3866008118023
100
AcDbArc
 50
258.1812862817242
 51
270.0
1001
AcDbBlockRepETag
1070
     1
1071
       28
1005
35A
  0
LINE
  5
35B
330
33B
100
AcDbEntity
  8
0
370
     0
100
AcDbLine
 10
259.6652230972368
 20
142.311244804303
 30
0.0
 11
264.2565763171197
 21
141.3213600344033
 31
0.0
1001
AcDbBlockRepETag
1070
     1
1071
       29
1005
35B
  0
ARC
  5
35C
330
33B
100
AcDbEntity
  8
0
370
     0
100
AcDbCircle
 10
347.9402809267049
 20
539.6395970840758
 30
0.0
 40
407.016345323078
100
AcDbArc
 50
249.4454089847307
 51
257.4739587316976
1001
AcDbBlockRepETag
1070
     1
1071
       30
1005
35C
  0
LINE
  5
35D
330
33B
100
AcDbEntity
  8
0
370
     0
100
AcDbLine
 10
200.7193776124468
 20
160.1807975773381
 30
0.0
 11
205.0628127807131
 21
158.5249209408339
 31
0.0
1001
AcDbBlockRepETag
1070
     1
1071
       31
1005
35D
  0
LWPOLYLINE
  5
35E
330
33B
100
AcDbEntity
  8
0
370
     0
100
AcDbPolyline
 90
        3
 70
   128
 43
0.0
 10
196.9950961048335
 20
161.6462582458171
 10
197.0132160142739
 20
161.639032686875
 10
200.7686166339272
 20
160.161727468575
1001
AcDbBlockRepETag
1070
     1
1071
       32
1005
35E
  0
ARC
  5
35F
330
33B
100
AcDbEntity
  8
0
370
     0
100
AcDbCircle
 10
306.0900876508176
 20
444.9939418910026
 30
0.0
 40
303.6238051838785
100
AcDbArc
 50
235.8882958250582
 51
248.9311570061575
1001
AcDbBlockRepETag
1070
     1
1071
       33
1005
35F
  0
LINE
  5
360
330
33B
100
AcDbEntity
  8
0
370
     0
100
AcDbLine
 10
132.3251156200649
 20
196.0383978881009
 30
0.0
 11
135.8153874084173
 21
193.6098900267307
 31
0.0
1001
AcDbBlockRepETag
1070
     1
1071
       34
1005
360
  0
LINE
  5
361
330
33B
100
AcDbEntity
  8
0
370
     0
100
AcDbLine
 10
128.9289039409241
 20
198.4744306777202
 30
0.0
 11
132.4262963126102
 21
195.9677524527615
 31
0.0
1001
AcDbBlockRepETag
1070
     1
1071
       35
1005
361
  0
LWPOLYLINE
  5
362
330
33B
100
AcDbEntity
  8
0
370
     0
100
AcDbPolyline
 90
        3
 70
   128
 43
0.0
 10
123.1583863880905
 20
203.5266399734683
 10
125.9151756021756
 20
200.9164200413589
 10
128.9289039409241
 20
198.4744306777202
1001
AcDbBlockRepETag
1070
     1
1071
       36
1005
362
  0
LWPOLYLINE
  5
363
330
33B
100
AcDbEntity
  8
0
370
     0
100
AcDbPolyline
 90
       11
 70
   128
 43
0.0
 10
108.1743117332107
 20
250.6613453483142
 10
108.7854913400524
 20
241.7323223833473
 10
109.4718680869027
 20
232.9505233617729
 10
110.0590568590096
 20
228.8650988706422
 10
110.9538962019205
 20
224.8897980018973
 10
112.2168731089314
 20
220.9038215285291
 10
113.8181629776254
 20
217.0384824008543
 10
115.6832044953908
 20
213.4317451710113
 10
117.8422009514788
 20
209.9933219032182
 10
120.3600043332289
 20
206.6489747626138
 10
123.1583863880887
 20
203.5266399734692
1001
AcDbBlockRepETag
1070
     1
1071
       37
1005
363
  0
LWPOLYLINE
  5
364
330
33B
100
AcDbEntity
  8
0
370
     0
100
AcDbPolyline
 90
        9
 70
   128
 43
0.0
 10
104.4572178440967
 20
536.7902328615719
 10
103.4529724245049
 20
501.3974630429329
 10
102.7992375791064
 20
466.1136831696667
 10
102.4739127552138
 20
430.8145262272001
 10
102.5464079977673
 20
395.5277123328551
 10
103.1507206468432
 20
359.3055648786167
 10
104.3027610620856
 20
323.096615355681
 10
105.9868861774475
 20
286.8739606495901
 10
108.1743117332107
 20
250.6613453483142
1001
AcDbBlockRepETag
1070
     1
1071
       38
1005
364
  0
ARC
  5
365
330
33B
100
AcDbEntity
  8
0
370
     0
100
AcDbCircle
 10
124.172115417009
 20
536.6009018608283
 30
0.0
 40
19.71580666719548
100
AcDbArc
 50
124.06628004419
 51
179.4497798547526
1001
AcDbBlockRepETag
1070
     1
1071
       39
1005
365
  0
LWPOLYLINE
  5
366
330
33B
100
AcDbEntity
  8
0
100
AcDbPolyline
 90
       11
 70
   128
 43
0.0
 10
107.5628009146439
 20
535.4145909488297
 10
107.7287700480219
 20
538.7438791632749
 10
108.4666606491792
 20
541.9944966971971
 10
109.5718052691218
 20
544.5695384234286
 10
111.1033615177857
 20
546.91566478611
 10
111.710896760821
 20
547.640485206256
 10
114.0051540440308
 20
549.7663146644927
 10
116.6383382385966
 20
551.4528262257672
 10
119.7594013518092
 20
552.7838966637946
 10
123.0403837269541
 20
553.6429839968778
 10
126.4161970919413
 20
554.0853715330459
1001
AcDbBlockRepETag
1070
     1
1071
       40
1005
366
  0
ARC
  5
367
330
33B
100
AcDbEntity
  8
0
370
     0
100
AcDbCircle
 10
127.6993667992501
 20
414.8681519387637
 30
0.0
 40
22.66247640408152
100
AcDbArc
 50
91.15024996949413
 51
124.0902434079665
1001
AcDbBlockRepETag
1070
     1
1071
       41
1005
367
  0
LWPOLYLINE
  5
368
330
33B
100
AcDbEntity
  8
0
370
     0
100
AcDbPolyline
 90
        9
 70
   128
 43
0.0
 10
105.8730092352616
 20
423.7464810550309
 10
105.8895048207032
 20
423.749252671013
 10
105.9133913820969
 20
423.7648094832993
 10
105.9851255720841
 20
423.8547677934266
 10
106.2383410042512
 20
424.2564732968904
 10
107.3284354513871
 20
425.8879567325212
 10
109.4030645197617
 20
428.4707302987672
 10
111.9078901118027
 20
431.0166383922196
 10
114.9970945423829
 20
433.5906649768449
1001
AcDbBlockRepETag
1070
     1
1071
       42
1005
368
  0
LINE
  5
369
330
33B
100
AcDbEntity
  8
0
370
     0
100
AcDbLine
 10
107.7475306099632
 20
559.223117755364
 30
0.0
 11
100.2729293411948
 21
558.8570223018623
 31
0.0
1001
AcDbBlockRepETag
1070
     1
1071
       43
1005
369
  0
LWPOLYLINE
  5
36A
330
33B
100
AcDbEntity
  8
0
100
AcDbPolyline
 90
        4
 70
   128
 43
0.0
 10
107.5628009146439
 20
535.4145909488297
 10
106.5396871870744
 20
488.2560442030526
 10
105.9709247654664
 20
441.0843397319413
 10
105.8716085261085
 20
423.6288512885667
1001
AcDbBlockRepETag
1070
     1
1071
       44
1005
36A
  0
LWPOLYLINE
  5
36B
330
33B
100
AcDbEntity
  8
0
370
    15
100
AcDbPolyline
 90
       26
 70
   128
 43
0.0
 10
79.35347563336745
 20
187.5018621623612
 10
76.72798043797866
 20
189.963235968361
 10
73.3132899434413
 20
193.5842777431107
 10
70.13660079549208
 20
197.411521786461
 10
67.20160848210707
 20
201.4409745872117
 10
64.81688624928847
 20
205.1971102893449
 10
62.56114846776381
 20
209.3188608825303
 10
60.57375079701796
 20
213.6054183185197
 10
58.88535982678786
 20
218.0012310683824
 10
57.51418477605239
 20
222.4992657840348
 10
56.51759511540785
 20
226.8190528094865
 10
55.75000649999037
 20
231.3577080905534
 10
55.17923242162123
 20
236.2910355270005
 10
54.76933127950087
 20
241.5407444179154
 10
54.21596175740615
 20
249.1134847343064
 10
52.11510664533034
 20
280.567928665886
 10
50.34440166066542
 20
311.8575061500169
 10
48.90593296597853
 20
342.9177547633744
 10
47.79713756154433
 20
373.7480486571885
 10
47.01449877332106
 20
404.350071662674
 10
46.55128127644911
 20
434.8830277860261
 10
46.40912419865981
 20
465.2339662253953
 10
46.58609038899794
 20
495.3951830804444
 10
47.08024269650832
 20
525.3670397043324
 10
47.87727600644484
 20
555.022906029234
 10
48.45475560735121
 20
571.5562279630549
1001
AcDbBlockRepETag
1070
     1
1071
       45
1005
36B
  0
ARC
  5
36C
330
33B
100
AcDbEntity
  8
0
370
    15
100
AcDbCircle
 10
50.47206266317243
 20
571.4755496221278
 30
0.0
 40
1.99994884170346
100
AcDbArc
 50
89.99889477135941
 51
177.3745317388095
1001
AcDbBlockRepETag
1070
     1
1071
       46
1005
36C
  0
ARC
  5
36D
330
33B
100
AcDbEntity
  8
0
100
AcDbCircle
 10
346.0175634057368
 20
368.4754984636434
 30
0.0
 40
23.0
100
AcDbArc
 50
270.0
 51
90.0
1001
AcDbBlockRepETag
1070
     1
1071
       47
1005
36D
  0
ARC
  5
36E
330
33B
100
AcDbEntity
  8
0
100
AcDbCircle
 10
346.0175634057368
 20
368.4754984636434
 30
0.0
 40
36.0
100
AcDbArc
 50
270.0
 51
90.0
1001
AcDbBlockRepETag
1070
     1
1071
       48
1005
36E
  0
ARC
  5
36F
330
33B
100
AcDbEntity
  8
0
100
AcDbCircle
 10
346.0175634057368
 20
368.4754984636434
 30
0.0
 40
36.0
100
AcDbArc
 50
90.0
 51
270.0
1001
AcDbBlockRepETag
1070
     1
1071
       49
1005
36F
  0
ARC
  5
370
330
33B
100
AcDbEntity
  8
0
100
AcDbCircle
 10
346.0175634057368
 20
368.4754984636434
 30
0.0
 40
23.0
100
AcDbArc
 50
90.0
 51
270.0
1001
AcDbBlockRepETag
1070
     1
1071
       50
1005
370
  0
CIRCLE
  5
371
330
33B
100
AcDbEntity
  8
0
370
     0
100
AcDbCircle
 10
346.0156543720268
 20
508.6298131894673
 30
0.0
 40
17.5
1001
AcDbBlockRepETag
1070
     1
1071
       51
1005
371
  0
ENDBLK
  5
33D
330
33B
100
AcDbEntity
  8
0
100
AcDbBlockEnd
  0
ENDSEC
  0
SECTION
  2
ENTITIES
  0
MTEXT
  5
BB
330
1F
100
AcDbEntity
  8
0
100
AcDbMText
 10
19.65616043981684
 20
39.08438319788589
 30
0.0
 40
20.0
 41
0.0000000000009095
 71
     1
 72
     5
  1
{\fTimes New Roman|b0|i0|c0|p18;\C0;LAVABO DE 60CM. CON SEMICOLUMNA. SERIE SMART}
 73
     1
 44
1.0
  0
INSERT
  5
372
330
1F
100
AcDbEntity
  8
0
100
AcDbBlockReference
  2
25040-432_P
 10
0.0
 20
0.0
 30
0.0
  0
ENDSEC
  0
SECTION
  2
OBJECTS
  0
DICTIONARY
  5
C
330
0
100
AcDbDictionary
281
     1
  3
ACAD_COLOR
350
73
  3
ACAD_GROUP
350
D
  3
ACAD_LAYOUT
350
1A
  3
ACAD_MATERIAL
350
72
  3
ACAD_MLINESTYLE
350
17
  3
ACAD_PLOTSETTINGS
350
19
  3
ACAD_PLOTSTYLENAME
350
E
  3
ACAD_TABLESTYLE
350
104
  3
AcDbVariableDictionary
350
66
  0
DICTIONARY
  5
96
330
2
100
AcDbDictionary
280
     1
281
     1
  3
ACAD_LAYERSTATES
360
97
  0
DICTIONARY
  5
1C8
330
1F
100
AcDbDictionary
280
     1
281
     1
  3
ACAD_SORTENTS
360
1C9
  0
DICTIONARY
  5
73
102
{ACAD_REACTORS
330
C
102
}
330
C
100
AcDbDictionary
281
     1
  0
DICTIONARY
  5
D
102
{ACAD_REACTORS
330
C
102
}
330
C
100
AcDbDictionary
281
     1
  0
DICTIONARY
  5
1A
102
{ACAD_REACTORS
330
C
102
}
330
C
100
AcDbDictionary
281
     1
  3
Model
350
22
  3
Presentación1
350
59
  3
Presentación2
350
5E
  0
DICTIONARY
  5
72
102
{ACAD_REACTORS
330
C
102
}
330
C
100
AcDbDictionary
281
     1
  0
DICTIONARY
  5
17
102
{ACAD_REACTORS
330
C
102
}
330
C
100
AcDbDictionary
281
     1
  3
Standard
350
18
  0
DICTIONARY
  5
19
102
{ACAD_REACTORS
330
C
102
}
330
C
100
AcDbDictionary
281
     1
  0
ACDBDICTIONARYWDFLT
  5
E
102
{ACAD_REACTORS
330
C
102
}
330
C
100
AcDbDictionary
281
     1
  3
Normal
350
F
100
AcDbDictionaryWithDefault
340
F
  0
DICTIONARY
  5
104
102
{ACAD_REACTORS
330
C
102
}
330
C
100
AcDbDictionary
281
     1
  3
Standard
350
105
  0
DICTIONARY
  5
66
102
{ACAD_REACTORS
330
C
102
}
330
C
100
AcDbDictionary
281
     1
  3
CTABLESTYLE
350
2AC
  3
DIMASSOC
350
67
  3
HIDETEXT
350
6B
  3
PROJECTNAME
350
2AD
  0
DICTIONARY
  5
97
102
{ACAD_REACTORS
330
96
102
}
330
96
100
AcDbDictionary
281
     1
  0
SORTENTSTABLE
  5
1C9
102
{ACAD_REACTORS
330
1C8
102
}
330
1C8
100
AcDbSortentsTable
330
1F
331
372
  5
33A
331
BB
  5
372
  0
LAYOUT
  5
22
102
{ACAD_REACTORS
330
1A
102
}
330
1A
100
AcDbPlotSettings
  1

  2
none_device
  4
ANSI_A_(8.50_x_11.00_Inches)
  6

 40
6.349999904632567
 41
19.04999923706055
 42
6.350006103515625
 43
19.04998779296875
 44
215.8999938964844
 45
279.3999938964844
 46
0.0
 47
0.0
 48
0.0
 49
0.0
140
0.0
141
0.0
142
1.0
143
2.584895464708373
 70
 11952
 72
     0
 73
     1
 74
     0
  7

 75
     0
147
0.3868628397755418
 76
     0
 77
     2
 78
   300
148
0.0
149
0.0
100
AcDbLayout
  1
Model
 70
     1
 71
     0
 10
0.0
 20
0.0
 11
12.0
 21
9.0
 12
0.0
 22
0.0
 32
0.0
 14
0.0
 24
0.0
 34
0.0
 15
0.0
 25
0.0
 35
0.0
146
0.0
 13
0.0
 23
0.0
 33
0.0
 16
1.0
 26
0.0
 36
0.0
 17
0.0
 27
1.0
 37
0.0
 76
     0
330
1F
  0
LAYOUT
  5
59
102
{ACAD_REACTORS
330
1A
102
}
330
1A
100
AcDbPlotSettings
  1

  2
None
  4

  6

 40
0.0
 41
0.0
 42
0.0
 43
0.0
 44
0.0
 45
0.0
 46
0.0
 47
0.0
 48
0.0
 49
0.0
140
0.0
141
0.0
142
1.0
143
1.0
 70
   688
 72
     0
 73
     0
 74
     5
  7

 75
    16
147
1.0
 76
     0
 77
     2
 78
   300
148
0.0
149
0.0
100
AcDbLayout
  1
Presentación1
 70
     1
 71
     1
 10
0.0
 20
0.0
 11
12.0
 21
9.0
 12
0.0
 22
0.0
 32
0.0
 14
0.0
 24
0.0
 34
0.0
 15
0.0
 25
0.0
 35
0.0
146
0.0
 13
0.0
 23
0.0
 33
0.0
 16
1.0
 26
0.0
 36
0.0
 17
0.0
 27
1.0
 37
0.0
 76
     0
330
58
  0
LAYOUT
  5
5E
102
{ACAD_REACTORS
330
1A
102
}
330
1A
100
AcDbPlotSettings
  1

  2
None
  4

  6

 40
0.0
 41
0.0
 42
0.0
 43
0.0
 44
0.0
 45
0.0
 46
0.0
 47
0.0
 48
0.0
 49
0.0
140
0.0
141
0.0
142
1.0
143
1.0
 70
   688
 72
     0
 73
     0
 74
     5
  7

 75
    16
147
1.0
 76
     0
 77
     2
 78
   300
148
0.0
149
0.0
100
AcDbLayout
  1
Presentación2
 70
     1
 71
     2
 10
0.0
 20
0.0
 11
12.0
 21
9.0
 12
0.0
 22
0.0
 32
0.0
 14
0.0
 24
0.0
 34
0.0
 15
0.0
 25
0.0
 35
0.0
146
0.0
 13
0.0
 23
0.0
 33
0.0
 16
1.0
 26
0.0
 36
0.0
 17
0.0
 27
1.0
 37
0.0
 76
     0
330
5D
  0
MLINESTYLE
  5
18
102
{ACAD_REACTORS
330
17
102
}
330
17
100
AcDbMlineStyle
  2
STANDARD
 70
     0
  3

 62
   256
 51
90.0
 52
90.0
 71
     2
 49
0.5
 62
   256
  6
BYLAYER
 49
-0.5
 62
   256
  6
BYLAYER
  0
ACDBPLACEHOLDER
  5
F
102
{ACAD_REACTORS
330
E
102
}
330
E
  0
TABLESTYLE
  5
105
102
{ACAD_REACTORS
330
104
102
}
330
104
100
AcDbTableStyle
  3
Standard
 70
     0
 71
     0
 40
0.06
 41
0.06
280
     0
281
     0
  7
Standard
140
0.18
170
     2
 62
     0
 63
     7
283
     0
274
    -2
284
     1
 64
     0
275
    -2
285
     1
 65
     0
276
    -2
286
     1
 66
     0
277
    -2
287
     1
 67
     0
278
    -2
288
     1
 68
     0
279
    -2
289
     1
 69
     0
  7
Standard
140
0.25
170
     5
 62
     0
 63
     7
283
     0
274
    -2
284
     1
 64
     0
275
    -2
285
     1
 65
     0
276
    -2
286
     1
 66
     0
277
    -2
287
     1
 67
     0
278
    -2
288
     1
 68
     0
279
    -2
289
     1
 69
     0
  7
Standard
140
0.18
170
     5
 62
     0
 63
     7
283
     0
274
    -2
284
     1
 64
     0
275
    -2
285
     1
 65
     0
276
    -2
286
     1
 66
     0
277
    -2
287
     1
 67
     0
278
    -2
288
     1
 68
     0
279
    -2
289
     1
 69
     0
  0
DICTIONARYVAR
  5
2AC
102
{ACAD_REACTORS
330
66
102
}
330
66
100
DictionaryVariables
280
     0
  1
STANDARD
  0
DICTIONARYVAR
  5
67
102
{ACAD_REACTORS
330
66
102
}
330
66
100
DictionaryVariables
280
     0
  1
2
  0
DICTIONARYVAR
  5
6B
102
{ACAD_REACTORS
330
66
102
}
330
66
100
DictionaryVariables
280
     0
  1
1
  0
DICTIONARYVAR
  5
2AD
102
{ACAD_REACTORS
330
66
102
}
330
66
100
DictionaryVariables
280
     0
  1

  0
ENDSEC
  0
EOF
