  0
SECTION
  2
HEADER
  9
$ACADVER
  1
AC1015
  9
$ACADMAINTVER
 70
    20
  9
$DWGCODEPAGE
  3
ANSI_1252
  9
$INSBASE
 10
0.0
 20
0.0
 30
0.0
  9
$EXTMIN
 10
-455.6428725101572
 20
-26.30883317081362
 30
0.0
  9
$EXTMAX
 10
-17.40833470759963
 20
808.2043519984102
 30
0.0
  9
$LIMMIN
 10
0.0
 20
0.0
  9
$LIMMAX
 10
420.0
 20
297.0
  9
$ORTHOMODE
 70
     1
  9
$REGENMODE
 70
     1
  9
$FILLMODE
 70
     1
  9
$QTEXTMODE
 70
     0
  9
$MIRRTEXT
 70
     0
  9
$LTSCALE
 40
1.0
  9
$ATTMODE
 70
     1
  9
$TEXTSIZE
 40
2.5
  9
$TRACEWID
 40
1.0
  9
$TEXTSTYLE
  7
Standard
  9
$CLAYER
  8
0
  9
$CELTYPE
  6
ByLayer
  9
$CECOLOR
 62
   256
  9
$CELTSCALE
 40
1.0
  9
$DISPSILH
 70
     0
  9
$DIMSCALE
 40
1.0
  9
$DIMASZ
 40
2.5
  9
$DIMEXO
 40
0.625
  9
$DIMDLI
 40
3.75
  9
$DIMRND
 40
0.0
  9
$DIMDLE
 40
0.0
  9
$DIMEXE
 40
1.25
  9
$DIMTP
 40
0.0
  9
$DIMTM
 40
0.0
  9
$DIMTXT
 40
2.5
  9
$DIMCEN
 40
2.5
  9
$DIMTSZ
 40
0.0
  9
$DIMTOL
 70
     0
  9
$DIMLIM
 70
     0
  9
$DIMTIH
 70
     0
  9
$DIMTOH
 70
     0
  9
$DIMSE1
 70
     0
  9
$DIMSE2
 70
     0
  9
$DIMTAD
 70
     1
  9
$DIMZIN
 70
     8
  9
$DIMBLK
  1

  9
$DIMASO
 70
     1
  9
$DIMSHO
 70
     1
  9
$DIMPOST
  1

  9
$DIMAPOST
  1

  9
$DIMALT
 70
     0
  9
$DIMALTD
 70
     3
  9
$DIMALTF
 40
0.03937007874016
  9
$DIMLFAC
 40
1.0
  9
$DIMTOFL
 70
     1
  9
$DIMTVP
 40
0.0
  9
$DIMTIX
 70
     0
  9
$DIMSOXD
 70
     0
  9
$DIMSAH
 70
     0
  9
$DIMBLK1
  1

  9
$DIMBLK2
  1

  9
$DIMSTYLE
  2
ISO-25
  9
$DIMCLRD
 70
     0
  9
$DIMCLRE
 70
     0
  9
$DIMCLRT
 70
     0
  9
$DIMTFAC
 40
1.0
  9
$DIMGAP
 40
0.625
  9
$DIMJUST
 70
     0
  9
$DIMSD1
 70
     0
  9
$DIMSD2
 70
     0
  9
$DIMTOLJ
 70
     0
  9
$DIMTZIN
 70
     8
  9
$DIMALTZ
 70
     0
  9
$DIMALTTZ
 70
     0
  9
$DIMUPT
 70
     0
  9
$DIMDEC
 70
     2
  9
$DIMTDEC
 70
     2
  9
$DIMALTU
 70
     2
  9
$DIMALTTD
 70
     3
  9
$DIMTXSTY
  7
Standard
  9
$DIMAUNIT
 70
     0
  9
$DIMADEC
 70
     0
  9
$DIMALTRND
 40
0.0
  9
$DIMAZIN
 70
     0
  9
$DIMDSEP
 70
    44
  9
$DIMATFIT
 70
     3
  9
$DIMFRAC
 70
     0
  9
$DIMLDRBLK
  1

  9
$DIMLUNIT
 70
     2
  9
$DIMLWD
 70
    -2
  9
$DIMLWE
 70
    -2
  9
$DIMTMOVE
 70
     0
  9
$LUNITS
 70
     2
  9
$LUPREC
 70
     4
  9
$SKETCHINC
 40
1.0
  9
$FILLETRAD
 40
25.0
  9
$AUNITS
 70
     0
  9
$AUPREC
 70
     0
  9
$MENU
  1
.
  9
$ELEVATION
 40
0.0
  9
$PELEVATION
 40
0.0
  9
$THICKNESS
 40
0.0
  9
$LIMCHECK
 70
     0
  9
$CHAMFERA
 40
0.0
  9
$CHAMFERB
 40
0.0
  9
$CHAMFERC
 40
0.0
  9
$CHAMFERD
 40
0.0
  9
$SKPOLY
 70
     0
  9
$TDCREATE
 40
2454550.307324757
  9
$TDUCREATE
 40
2454550.265658090
  9
$TDUPDATE
 40
2454550.406726517
  9
$TDUUPDATE
 40
2454550.365059849
  9
$TDINDWG
 40
0.0568576505
  9
$TDUSRTIMER
 40
0.0568569213
  9
$USRTIMER
 70
     1
  9
$ANGBASE
 50
0.0
  9
$ANGDIR
 70
     0
  9
$PDMODE
 70
     0
  9
$PDSIZE
 40
0.0
  9
$PLINEWID
 40
0.0
  9
$SPLFRAME
 70
     0
  9
$SPLINETYPE
 70
     6
  9
$SPLINESEGS
 70
     8
  9
$HANDSEED
  5
DF8
  9
$SURFTAB1
 70
     6
  9
$SURFTAB2
 70
     6
  9
$SURFTYPE
 70
     6
  9
$SURFU
 70
     6
  9
$SURFV
 70
     6
  9
$UCSBASE
  2

  9
$UCSNAME
  2

  9
$UCSORG
 10
0.0
 20
0.0
 30
0.0
  9
$UCSXDIR
 10
1.0
 20
0.0
 30
0.0
  9
$UCSYDIR
 10
0.0
 20
1.0
 30
0.0
  9
$UCSORTHOREF
  2

  9
$UCSORTHOVIEW
 70
     0
  9
$UCSORGTOP
 10
0.0
 20
0.0
 30
0.0
  9
$UCSORGBOTTOM
 10
0.0
 20
0.0
 30
0.0
  9
$UCSORGLEFT
 10
0.0
 20
0.0
 30
0.0
  9
$UCSORGRIGHT
 10
0.0
 20
0.0
 30
0.0
  9
$UCSORGFRONT
 10
0.0
 20
0.0
 30
0.0
  9
$UCSORGBACK
 10
0.0
 20
0.0
 30
0.0
  9
$PUCSBASE
  2

  9
$PUCSNAME
  2

  9
$PUCSORG
 10
0.0
 20
0.0
 30
0.0
  9
$PUCSXDIR
 10
1.0
 20
0.0
 30
0.0
  9
$PUCSYDIR
 10
0.0
 20
1.0
 30
0.0
  9
$PUCSORTHOREF
  2

  9
$PUCSORTHOVIEW
 70
     0
  9
$PUCSORGTOP
 10
0.0
 20
0.0
 30
0.0
  9
$PUCSORGBOTTOM
 10
0.0
 20
0.0
 30
0.0
  9
$PUCSORGLEFT
 10
0.0
 20
0.0
 30
0.0
  9
$PUCSORGRIGHT
 10
0.0
 20
0.0
 30
0.0
  9
$PUCSORGFRONT
 10
0.0
 20
0.0
 30
0.0
  9
$PUCSORGBACK
 10
0.0
 20
0.0
 30
0.0
  9
$USERI1
 70
     0
  9
$USERI2
 70
     0
  9
$USERI3
 70
     0
  9
$USERI4
 70
     0
  9
$USERI5
 70
     0
  9
$USERR1
 40
0.0
  9
$USERR2
 40
0.0
  9
$USERR3
 40
0.0
  9
$USERR4
 40
0.0
  9
$USERR5
 40
0.0
  9
$WORLDVIEW
 70
     1
  9
$SHADEDGE
 70
     3
  9
$SHADEDIF
 70
    70
  9
$TILEMODE
 70
     1
  9
$MAXACTVP
 70
    64
  9
$PINSBASE
 10
0.0
 20
0.0
 30
0.0
  9
$PLIMCHECK
 70
     0
  9
$PEXTMIN
 10
0.0
 20
0.0
 30
0.0
  9
$PEXTMAX
 10
0.0
 20
0.0
 30
0.0
  9
$PLIMMIN
 10
0.0
 20
0.0
  9
$PLIMMAX
 10
12.0
 20
9.0
  9
$UNITMODE
 70
     0
  9
$VISRETAIN
 70
     1
  9
$PLINEGEN
 70
     0
  9
$PSLTSCALE
 70
     1
  9
$TREEDEPTH
 70
  3020
  9
$CMLSTYLE
  2
Standard
  9
$CMLJUST
 70
     0
  9
$CMLSCALE
 40
20.0
  9
$PROXYGRAPHICS
 70
     1
  9
$MEASUREMENT
 70
     1
  9
$CELWEIGHT
370
    -1
  9
$ENDCAPS
280
     0
  9
$JOINSTYLE
280
     0
  9
$LWDISPLAY
290
     0
  9
$INSUNITS
 70
     4
  9
$HYPERLINKBASE
  1

  9
$STYLESHEET
  1

  9
$XEDIT
290
     1
  9
$CEPSNTYPE
380
     0
  9
$PSTYLEMODE
290
     1
  9
$FINGERPRINTGUID
  2
{4A4C6E15-96AD-4E98-A744-8BD4BACD0A4F}
  9
$VERSIONGUID
  2
{555ED247-88F5-4A07-9AA0-BB2A4BE7F743}
  9
$EXTNAMES
290
     1
  9
$PSVPSCALE
 40
0.0
  9
$OLESTARTUP
290
     0
  0
ENDSEC
  0
SECTION
  2
CLASSES
  0
CLASS
  1
ACDBDICTIONARYWDFLT
  2
AcDbDictionaryWithDefault
  3
ObjectDBX Classes
 90
        0
280
     0
281
     0
  0
CLASS
  1
DICTIONARYVAR
  2
AcDbDictionaryVar
  3
ObjectDBX Classes
 90
        0
280
     0
281
     0
  0
CLASS
  1
TABLESTYLE
  2
AcDbTableStyle
  3
ObjectDBX Classes
 90
     2047
280
     0
281
     0
  0
CLASS
  1
SORTENTSTABLE
  2
AcDbSortentsTable
  3
ObjectDBX Classes
 90
        0
280
     0
281
     0
  0
CLASS
  1
ACDBPLACEHOLDER
  2
AcDbPlaceHolder
  3
ObjectDBX Classes
 90
        0
280
     0
281
     0
  0
CLASS
  1
LAYOUT
  2
AcDbLayout
  3
ObjectDBX Classes
 90
        0
280
     0
281
     0
  0
ENDSEC
  0
SECTION
  2
TABLES
  0
TABLE
  2
VPORT
  5
8
330
0
100
AcDbSymbolTable
 70
     2
  0
VPORT
  5
DEF
330
8
100
AcDbSymbolTableRecord
100
AcDbViewportTableRecord
  2
*Active
 70
     0
 10
0.0
 20
0.0
 11
1.0
 21
1.0
 12
-193.0696078169918
 22
436.7184851515471
 13
0.0
 23
0.0
 14
10.0
 24
10.0
 15
10.0
 25
10.0
 16
0.0
 26
0.0
 36
1.0
 17
0.0
 27
0.0
 37
0.0
 40
1344.474514054964
 41
1.454088050314465
 42
50.0
 43
0.0
 44
0.0
 50
0.0
 51
0.0
 71
     0
 72
  1000
 73
     1
 74
     0
 75
     0
 76
     0
 77
     0
 78
     0
281
     0
 65
     1
110
0.0
120
0.0
130
0.0
111
1.0
121
0.0
131
0.0
112
0.0
122
1.0
132
0.0
 79
     0
146
0.0
  0
ENDTAB
  0
TABLE
  2
LTYPE
  5
5
330
0
100
AcDbSymbolTable
 70
     1
  0
LTYPE
  5
14
330
5
100
AcDbSymbolTableRecord
100
AcDbLinetypeTableRecord
  2
ByBlock
 70
     0
  3

 72
    65
 73
     0
 40
0.0
  0
LTYPE
  5
15
330
5
100
AcDbSymbolTableRecord
100
AcDbLinetypeTableRecord
  2
ByLayer
 70
     0
  3

 72
    65
 73
     0
 40
0.0
  0
LTYPE
  5
16
330
5
100
AcDbSymbolTableRecord
100
AcDbLinetypeTableRecord
  2
Continuous
 70
     0
  3
Solid line
 72
    65
 73
     0
 40
0.0
  0
ENDTAB
  0
TABLE
  2
LAYER
  5
2
102
{ACAD_XDICTIONARY
360
118
102
}
330
0
100
AcDbSymbolTable
 70
     1
  0
LAYER
  5
10
330
2
100
AcDbSymbolTableRecord
100
AcDbLayerTableRecord
  2
0
 70
     0
 62
     7
  6
Continuous
370
    -3
390
F
  0
ENDTAB
  0
TABLE
  2
STYLE
  5
3
330
0
100
AcDbSymbolTable
 70
     2
  0
STYLE
  5
11
330
3
100
AcDbSymbolTableRecord
100
AcDbTextStyleTableRecord
  2
Standard
 70
     0
 40
0.0
 41
1.0
 50
0.0
 71
     0
 42
2.5
  3
txt
  4

  0
STYLE
  5
112
330
3
100
AcDbSymbolTableRecord
100
AcDbTextStyleTableRecord
  2
ISO
 70
     0
 40
0.0
 41
1.0
 50
0.0
 71
     0
 42
2.0
  3
ISOCP.SHX
  4

  0
ENDTAB
  0
TABLE
  2
VIEW
  5
6
330
0
100
AcDbSymbolTable
 70
     0
  0
ENDTAB
  0
TABLE
  2
UCS
  5
7
330
0
100
AcDbSymbolTable
 70
     0
  0
ENDTAB
  0
TABLE
  2
APPID
  5
9
330
0
100
AcDbSymbolTable
 70
     6
  0
APPID
  5
12
330
9
100
AcDbSymbolTableRecord
100
AcDbRegAppTableRecord
  2
ACAD
 70
     0
  0
APPID
  5
9E
330
9
100
AcDbSymbolTableRecord
100
AcDbRegAppTableRecord
  2
ACAD_PSEXT
 70
     0
  0
APPID
  5
114
330
9
100
AcDbSymbolTableRecord
100
AcDbRegAppTableRecord
  2
ACAD_DSTYLE_DIMEXT_ENABLED
 70
     0
  0
APPID
  5
115
330
9
100
AcDbSymbolTableRecord
100
AcDbRegAppTableRecord
  2
ACAD_DSTYLE_DIMEXT_LENGTH
 70
     0
  0
APPID
  5
116
330
9
100
AcDbSymbolTableRecord
100
AcDbRegAppTableRecord
  2
ACAD_DSTYLE_DIMJOGGED_JOGANGLE_SYMBOL
 70
     0
  0
APPID
  5
117
330
9
100
AcDbSymbolTableRecord
100
AcDbRegAppTableRecord
  2
ACAD_DSTYLE_DIMARC_LENGTH_SYMBOL
 70
     0
  0
ENDTAB
  0
TABLE
  2
DIMSTYLE
  5
A
330
0
100
AcDbSymbolTable
 70
     2
100
AcDbDimStyleTable
 71
     1
340
27
  0
DIMSTYLE
105
27
330
A
100
AcDbSymbolTableRecord
100
AcDbDimStyleTableRecord
  2
ISO-25
 70
     0
 41
2.5
 42
0.625
 43
3.75
 44
1.25
 73
     0
 74
     0
 77
     1
 78
     8
140
2.5
141
2.5
143
0.03937007874016
147
0.625
171
     3
172
     1
271
     2
272
     2
274
     3
278
    44
283
     0
284
     8
340
11
  0
DIMSTYLE
105
113
330
A
100
AcDbSymbolTableRecord
100
AcDbDimStyleTableRecord
  2
STANDARD
 70
     0
 40
0.0
 41
3.5
 42
0.1
 43
7.0
 44
1.8
 73
     0
 74
     0
 77
     1
140
5.0
141
1.5
146
0.8
147
1.1
172
     1
176
   256
177
   256
178
     6
271
     0
272
     1
284
     8
288
     1
289
     0
340
112
  0
ENDTAB
  0
TABLE
  2
BLOCK_RECORD
  5
1
330
0
100
AcDbSymbolTable
 70
     2
  0
BLOCK_RECORD
  5
1F
102
{ACAD_XDICTIONARY
360
1DD
102
}
330
1
100
AcDbSymbolTableRecord
100
AcDbBlockTableRecord
  2
*Model_Space
340
22
  0
BLOCK_RECORD
  5
D2
330
1
100
AcDbSymbolTableRecord
100
AcDbBlockTableRecord
  2
*Paper_Space
340
D3
  0
BLOCK_RECORD
  5
D6
330
1
100
AcDbSymbolTableRecord
100
AcDbBlockTableRecord
  2
*Paper_Space0
340
D7
  0
BLOCK_RECORD
  5
DA0
330
1
100
AcDbSymbolTableRecord
100
AcDbBlockTableRecord
  2
12120-P
340
0
310
2800000020000000200000000100080000000000000400000000000000000000000000000000000000000000000080000080000000808000800000008000800080800000C0C0C000C0DCC000F0CAA6000020400000206000002080000020A0000020C0000020E00000400000004020000040400000406000004080000040A0
310
000040C0000040E00000600000006020000060400000606000006080000060A0000060C0000060E00000800000008020000080400000806000008080000080A0000080C0000080E00000A0000000A0200000A0400000A0600000A0800000A0A00000A0C00000A0E00000C0000000C0200000C0400000C0600000C0800000C0
310
A00000C0C00000C0E00000E0000000E0200000E0400000E0600000E0800000E0A00000E0C00000E0E00040000000400020004000400040006000400080004000A0004000C0004000E00040200000402020004020400040206000402080004020A0004020C0004020E000404000004040200040404000404060004040800040
310
40A0004040C0004040E00040600000406020004060400040606000406080004060A0004060C0004060E00040800000408020004080400040806000408080004080A0004080C0004080E00040A0000040A0200040A0400040A0600040A0800040A0A00040A0C00040A0E00040C0000040C0200040C0400040C0600040C08000
310
40C0A00040C0C00040C0E00040E0000040E0200040E0400040E0600040E0800040E0A00040E0C00040E0E00080000000800020008000400080006000800080008000A0008000C0008000E00080200000802020008020400080206000802080008020A0008020C0008020E00080400000804020008040400080406000804080
310
008040A0008040C0008040E00080600000806020008060400080606000806080008060A0008060C0008060E00080800000808020008080400080806000808080008080A0008080C0008080E00080A0000080A0200080A0400080A0600080A0800080A0A00080A0C00080A0E00080C0000080C0200080C0400080C0600080C0
310
800080C0A00080C0C00080C0E00080E0000080E0200080E0400080E0600080E0800080E0A00080E0C00080E0E000C0000000C0002000C0004000C0006000C0008000C000A000C000C000C000E000C0200000C0202000C0204000C0206000C0208000C020A000C020C000C020E000C0400000C0402000C0404000C0406000C0
310
408000C040A000C040C000C040E000C0600000C0602000C0604000C0606000C0608000C060A000C060C000C060E000C0800000C0802000C0804000C0806000C0808000C080A000C080C000C080E000C0A00000C0A02000C0A04000C0A06000C0A08000C0A0A000C0A0C000C0A0E000C0C00000C0C02000C0C04000C0C06000
310
C0C08000C0C0A000F0FBFF00A4A0A000808080000000FF0000FF000000FFFF00FF000000FF00FF00FFFF0000FFFFFF0000000000000000000000000000000000000000000000000000000000000000000000000000000000000000000000FFFFFFFF0000000000000000000000000000000000000000000000000000FFFF00
310
000000FFFF0000000000000000000000000000000000000000000000FF000000FFFF000000FF000000000000000000000000000000000000000000FF0000FFFF0000FFFF0000FF00000000000000000000000000000000000000FF0000FF000000000000FF0000FF000000000000000000000000000000000000FF00FF0000
310
000000000000FF0000FF00000000000000000000000000000000FF00FF00000000000000000000FF00FF00000000000000000000000000000000FF00FF00000000000000000000FF00FF00000000000000000000000000000000FF00FF00000000000000000000FF00FF00000000000000000000000000000000FF00FF0000
310
00FFFFFFFF000000FF00FF00000000000000000000000000000000FF00FF000000FF0000FF000000FF00FF00000000000000000000000000000000FF00FF0000FF00000000FF0000FF00FF00000000000000000000000000000000FF00FF0000FFFFFFFFFFFF0000FF00FF00000000000000000000000000000000FF00FF00
310
00FFFF0000FFFF0000FF00FF00000000000000000000000000000000FF00FF00000000000000000000FF00FF00000000000000000000000000000000FF00FF00000000000000000000FF00FF00000000000000000000000000000000FF0000FFFFFFFFFFFFFFFFFFFF0000FF00000000000000000000000000000000FF0000
310
000000000000000000000000FF00000000000000000000000000000000FF000000FF000000000000FF000000FF00000000000000000000000000000000FF000000FF000000000000FF000000FF00000000000000000000000000000000FF0000000000000000000000000000FF00000000000000000000000000000000FFFF
310
FFFFFFFFFFFFFFFFFFFFFFFFFFFF000000000000000000000000000000FFFFFFFFFFFFFFFFFFFFFFFFFFFFFFFFFFFF0000000000000000000000000000FFFF0000000000000000000000000000FFFF0000000000000000000000000000FFFF000000000000FFFF000000000000FFFF0000000000000000000000000000FFFF
310
000000000000FFFF000000000000FFFF0000000000000000000000000000FFFF000000000000FFFF000000000000FFFF0000000000000000000000000000FFFF0000000000000000000000000000FFFF0000000000000000000000000000FFFFFFFFFFFFFFFFFFFFFFFFFFFFFFFFFFFF0000000000000000000000000000FF
310
FFFFFFFFFFFFFFFFFFFFFFFFFFFFFFFFFF000000000000000000000000000000000000000000000000000000000000000000000000000000
102
{BLKREFS
331
DD7
102
}
1001
ACAD
1000
DesignCenter Data
1002
{
1070
     1
1070
     4
1002
}
  0
ENDTAB
  0
ENDSEC
  0
SECTION
  2
BLOCKS
  0
BLOCK
  5
20
330
1F
100
AcDbEntity
  8
0
100
AcDbBlockBegin
  2
*Model_Space
 70
     0
 10
0.0
 20
0.0
 30
0.0
  3
*Model_Space
  1

  0
ENDBLK
  5
21
330
1F
100
AcDbEntity
  8
0
100
AcDbBlockEnd
  0
BLOCK
  5
D4
330
D2
100
AcDbEntity
 67
     1
  8
0
100
AcDbBlockBegin
  2
*Paper_Space
 70
     0
 10
0.0
 20
0.0
 30
0.0
  3
*Paper_Space
  1

  0
ENDBLK
  5
D5
330
D2
100
AcDbEntity
 67
     1
  8
0
100
AcDbBlockEnd
  0
BLOCK
  5
D8
330
D6
100
AcDbEntity
  8
0
100
AcDbBlockBegin
  2
*Paper_Space0
 70
     0
 10
0.0
 20
0.0
 30
0.0
  3
*Paper_Space0
  1

  0
ENDBLK
  5
D9
330
D6
100
AcDbEntity
  8
0
100
AcDbBlockEnd
  0
BLOCK
  5
DA1
330
DA0
100
AcDbEntity
  8
0
100
AcDbBlockBegin
  2
12120-P
 70
     0
 10
0.0
 20
0.0
 30
0.0
  3
12120-P
  1

  0
LINE
  5
DA3
330
DA0
100
AcDbEntity
  8
0
100
AcDbLine
 10
195.5434530973452
 20
-156.0000032186508
 30
0.0
 11
195.5434530973452
 21
-1.500000013038516
 31
0.0
  0
ARC
  5
DA4
330
DA0
100
AcDbEntity
  8
0
100
AcDbCircle
 10
171.0000000000018
 20
-156.0
 30
0.0
 40
24.5434574946537
100
AcDbArc
 50
270.0
 51
0.0
  0
LINE
  5
DA5
330
DA0
100
AcDbEntity
  8
0
100
AcDbLine
 10
-171.015655940042
 20
-180.543452501297
 30
0.0
 11
171.0000038146991
 21
-180.543452501297
 31
0.0
  0
ARC
  5
DA6
330
DA0
100
AcDbEntity
  8
0
100
AcDbCircle
 10
194.0434574946575
 20
-1.5
 30
0.0
 40
1.5
100
AcDbArc
 50
0.0
 51
90.0
  0
LINE
  5
DA7
330
DA0
100
AcDbEntity
  8
0
100
AcDbLine
 10
-193.9902901649493
 20
0.0
 30
0.0
 11
193.9902901649493
 21
0.0
 31
0.0
  0
LINE
  5
DA8
330
DA0
100
AcDbEntity
  8
0
100
AcDbLine
 10
193.9902901649493
 20
0.0
 30
0.0
 11
194.043457508089
 21
0.0
 31
0.0
  0
CIRCLE
  5
DA9
330
DA0
100
AcDbEntity
  8
0
100
AcDbCircle
 10
0.000000000001819
 20
-85.54345749465211
 30
0.0
 40
20.0
  0
LINE
  5
DAA
330
DA0
100
AcDbEntity
  8
0
100
AcDbLine
 10
185.733914375307
 20
-13.15972674638033
 30
0.0
 11
-185.7339078519144
 21
-13.15972704814885
 31
0.0
  0
ARC
  5
DAB
330
DA0
100
AcDbEntity
  8
0
100
AcDbCircle
 10
192.1221144425962
 20
-1.487106136572037
 30
0.0
 40
1.490308250938028
100
AcDbArc
 50
359.5042811314399
 51
89.49863395652583
  0
LINE
  5
DAC
330
DA0
100
AcDbEntity
  8
0
100
AcDbLine
 10
193.6123669147509
 20
-11.60111650824547
 30
0.0
 11
193.6123669147509
 21
-1.500000013038516
 31
0.0
  0
ELLIPSE
  5
DAD
330
DA0
100
AcDbEntity
  8
0
100
AcDbEllipse
 10
185.7339078519144
 20
-13.68465902930438
 30
0.0
 11
6.000000000000055
 21
-0.0000000000000583
 31
0.0
210
0.0
220
0.0
230
1.0
 40
0.0874886635259023
 41
0.1745329251995018
 42
1.570796326794897
  0
ARC
  5
DAE
330
DA0
100
AcDbEntity
  8
0
100
AcDbCircle
 10
191.5919921792538
 20
-11.57661901137726
 30
0.0
 40
2.020523248862645
100
AcDbArc
 50
271.4398045345311
 51
359.3053098644986
  0
LINE
  5
DAF
330
DA0
100
AcDbEntity
  8
0
100
AcDbLine
 10
185.5298727750796
 20
-13.77796661108732
 30
0.0
 11
185.5298727750796
 21
-18.26084218919277
 31
0.0
  0
LINE
  5
DB0
330
DA0
100
AcDbEntity
  8
0
100
AcDbLine
 10
169.4999933242816
 20
-170.5298721790313
 30
0.0
 11
-169.5140103588201
 21
-170.5298721790313
 31
0.0
  0
ARC
  5
DB1
330
DA0
100
AcDbEntity
  8
0
100
AcDbCircle
 10
169.5000000000018
 20
-154.5
 30
0.0
 40
16.02987830166648
100
AcDbArc
 50
270.0
 51
0.0
  0
LINE
  5
DB2
330
DA0
100
AcDbEntity
  8
0
100
AcDbLine
 10
185.5298727750796
 20
-18.26084218919277
 30
0.0
 11
185.5298727750796
 21
-154.4999927282333
 31
0.0
  0
LINE
  5
DB3
330
DA0
100
AcDbEntity
  8
0
100
AcDbLine
 10
-195.5434530973452
 20
-156.0000032186508
 30
0.0
 11
-195.5434530973452
 21
-1.500000013038516
 31
0.0
  0
ARC
  5
DB4
330
DA0
100
AcDbEntity
  8
0
100
AcDbCircle
 10
-171.0000000000018
 20
-156.0
 30
0.0
 40
24.5434574946537
100
AcDbArc
 50
180.0
 51
270.0
  0
ARC
  5
DB5
330
DA0
100
AcDbEntity
  8
0
100
AcDbCircle
 10
-194.0434574946575
 20
-1.5
 30
0.0
 40
1.5
100
AcDbArc
 50
90.0
 51
180.0
  0
LINE
  5
DB6
330
DA0
100
AcDbEntity
  8
0
100
AcDbLine
 10
-193.9902901649493
 20
0.0
 30
0.0
 11
-194.043457508089
 21
0.0
 31
0.0
  0
ARC
  5
DB7
330
DA0
100
AcDbEntity
  8
0
100
AcDbCircle
 10
-192.1221144425962
 20
-1.487106136572037
 30
0.0
 40
1.490308250938028
100
AcDbArc
 50
90.50136604347414
 51
180.49571886856
  0
LINE
  5
DB8
330
DA0
100
AcDbEntity
  8
0
100
AcDbLine
 10
-193.6123669147509
 20
-11.60111650824547
 30
0.0
 11
-193.6123669147509
 21
-1.500000013038516
 31
0.0
  0
ELLIPSE
  5
DB9
330
DA0
100
AcDbEntity
  8
0
100
AcDbEllipse
 10
-185.7339078519144
 20
-13.68465902930438
 30
0.0
 11
-6.000000000000055
 21
-0.0000000000000554
 31
0.0
210
0.0
220
0.0
230
-1.0
 40
0.0874886635259023
 41
0.1745329251995018
 42
1.570796326794897
  0
ARC
  5
DBA
330
DA0
100
AcDbEntity
  8
0
100
AcDbCircle
 10
-191.5919921792538
 20
-11.57661901137726
 30
0.0
 40
2.020523248862645
100
AcDbArc
 50
180.6946901355014
 51
268.5601954654689
  0
LINE
  5
DBB
330
DA0
100
AcDbEntity
  8
0
100
AcDbLine
 10
-185.5298727750796
 20
-13.77796661108732
 30
0.0
 11
-185.5298727750796
 21
-18.26084218919277
 31
0.0
  0
ARC
  5
DBC
330
DA0
100
AcDbEntity
  8
0
100
AcDbCircle
 10
-169.5000000000018
 20
-154.5
 30
0.0
 40
16.02987830166648
100
AcDbArc
 50
180.0
 51
270.0
  0
LINE
  5
DBD
330
DA0
100
AcDbEntity
  8
0
100
AcDbLine
 10
-185.5298727750796
 20
-18.26084218919277
 30
0.0
 11
-185.5298727750796
 21
-154.4999927282333
 31
0.0
  0
ARC
  5
DBE
330
DA0
100
AcDbEntity
  8
0
  6
Continuous
 62
     7
370
    15
100
AcDbCircle
 10
0.000000000001819
 20
-500.775158175933
 30
0.0
 40
179.6773192483142
100
AcDbArc
 50
180.0
 51
0.0
  0
LINE
  5
DBF
330
DA0
100
AcDbEntity
  8
0
  6
Continuous
 62
     7
370
    15
100
AcDbLine
 10
-179.6773225069028
 20
-178.958340094683
 30
0.0
 11
-179.6773225069028
 21
-500.775158175933
 31
0.0
  0
LINE
  5
DC0
330
DA0
100
AcDbEntity
  8
0
  6
Continuous
 62
     7
370
    15
100
AcDbLine
 10
-131.9999957084674
 20
-342.7751725334838
 30
0.0
 11
-131.9999957084674
 21
-500.775158175933
 31
0.0
  0
ARC
  5
DC1
330
DA0
100
AcDbEntity
  8
0
370
    15
100
AcDbCircle
 10
-96.9999957084674
 20
-342.7751725334838
 30
0.0
 40
35.0
100
AcDbArc
 50
90.0
 51
180.0
  0
ARC
  5
DC2
330
DA0
100
AcDbEntity
  8
0
  6
Continuous
 62
     7
370
    15
100
AcDbCircle
 10
0.000000000001819
 20
-500.775158175933
 30
0.0
 40
132.0000000000026
100
AcDbArc
 50
180.0
 51
270.0
  0
ARC
  5
DC3
330
DA0
100
AcDbEntity
  8
0
100
AcDbCircle
 10
1.463029730397465
 20
-263.9512790950302
 30
0.0
 40
142.4944742991806
100
AcDbArc
 50
260.1040218803303
 51
265.5944329897811
  0
LWPOLYLINE
  5
DC4
330
DA0
100
AcDbEntity
  8
0
100
AcDbPolyline
 90
       15
 70
   128
 43
0.0
 10
0.000000000001819
 20
-475.3020403475638
 10
-5.388993304221003
 20
-475.0032720656272
 10
-10.71330066770133
 20
-474.1140303702231
 10
-15.90028405189332
 20
-472.6511535735007
 10
-20.88251337408838
 20
-470.6440565676566
 10
-25.59924125671205
 20
-468.1310651392814
 10
-29.99778464436349
 20
-465.1577768416282
 10
-34.03451666235742
 20
-461.775541076171
 10
-37.67507895827112
 20
-458.039253720748
 10
-41.86863824724968
 20
-452.6029524893638
 10
-45.27392238378342
 20
-446.769267091262
 10
-47.87457361817177
 20
-440.6659004778739
 10
-49.67387393116769
 20
-434.412956008422
 10
-50.69074407219705
 20
-428.1207618803855
 10
-50.95320940017519
 20
-421.8884704203483
  0
LINE
  5
DC5
330
DA0
100
AcDbEntity
  8
0
100
AcDbLine
 10
-50.14080554246721
 20
-369.3671522230979
 30
0.0
 11
-50.9575419127923
 21
-421.8884704203483
 31
0.0
  0
LWPOLYLINE
  5
DC6
330
DA0
100
AcDbEntity
  8
0
100
AcDbPolyline
 90
       19
 70
   128
 43
0.0
 10
-37.62890771031198
 20
-397.6292309851524
 10
-38.33271563052767
 20
-396.0442540736094
 10
-39.13895040750322
 20
-394.2316470236656
 10
-40.04760459065255
 20
-392.1914098353263
 10
-41.0586856305581
 20
-389.9235425085917
 10
-41.74664616584595
 20
-388.3815107436058
 10
-42.4750708043557
 20
-386.7495355696556
 10
-43.24396699666794
 20
-385.0276467890617
 10
-44.05045509338196
 20
-383.2222220988169
 10
-44.81318965554055
 20
-381.5146980376121
 10
-45.65284028649148
 20
-379.6344993204966
 10
-46.36608436703499
 20
-378.0367670149681
 10
-46.9529181718808
 20
-376.7214415163889
 10
-47.72684350609597
 20
-374.9853072256919
 10
-48.20359498262224
 20
-373.9148972124931
 10
-48.71858656406221
 20
-372.7574942202464
 10
-49.22918230295
 20
-371.6022369952079
 10
-49.65505376457986
 20
-370.5985245795127
 10
-50.14080554246721
 20
-369.3671522230979
  0
LWPOLYLINE
  5
DC7
330
DA0
100
AcDbEntity
  8
0
100
AcDbPolyline
 90
        9
 70
   128
 43
0.0
 10
-22.97622151672658
 20
-404.3256936163779
 10
-25.87575279176054
 20
-403.6890862078562
 10
-28.52660976349944
 20
-402.9763040633079
 10
-30.87462484836397
 20
-402.2026655764457
 10
-32.91098773479098
 20
-401.3720450491782
 10
-34.62794423103151
 20
-400.4865882487174
 10
-35.99238395690736
 20
-399.5625970454112
 10
-36.99493780731973
 20
-398.6079094500437
 10
-37.62890771031198
 20
-397.6292309851524
  0
LWPOLYLINE
  5
DC8
330
DA0
100
AcDbEntity
  8
0
100
AcDbPolyline
 90
        3
 70
   128
 43
0.0
 10
0.000000000001819
 20
-406.3362178892966
 10
-4.803324583914218
 20
-406.2577483744517
 10
-9.483196772631345
 20
-406.0250220389262
  0
LINE
  5
DC9
330
DA0
100
AcDbEntity
  8
0
100
AcDbLine
 10
0.000000000001819
 20
-307.7751725334838
 30
0.0
 11
-96.9999957084674
 21
-307.7751725334838
 31
0.0
  0
ARC
  5
DCA
330
DA0
100
AcDbEntity
  8
0
100
AcDbCircle
 10
-1.463029730393827
 20
-263.9512790950302
 30
0.0
 40
142.4944742991806
100
AcDbArc
 50
274.4055670102189
 51
279.8959781196697
  0
LWPOLYLINE
  5
DCB
330
DA0
100
AcDbEntity
  8
0
100
AcDbPolyline
 90
       15
 70
   128
 43
0.0
 10
0.000000000001819
 20
-475.3020403475638
 10
5.388993304224641
 20
-475.0032720656272
 10
10.71330066770497
 20
-474.1140303702231
 10
15.90028405189696
 20
-472.6511535735007
 10
20.88251337409201
 20
-470.6440565676566
 10
25.59924125671569
 20
-468.1310651392814
 10
29.99778464436713
 20
-465.1577768416282
 10
34.03451666236106
 20
-461.775541076171
 10
37.67507895827475
 20
-458.039253720748
 10
41.86863824725333
 20
-452.6029524893638
 10
45.27392238378706
 20
-446.769267091262
 10
47.87457361817542
 20
-440.6659004778739
 10
49.67387393117133
 20
-434.412956008422
 10
50.69074407220068
 20
-428.1207618803855
 10
50.95320940017882
 20
-421.8884704203483
  0
LINE
  5
DCC
330
DA0
100
AcDbEntity
  8
0
100
AcDbLine
 10
50.14080554247084
 20
-369.3671522230979
 30
0.0
 11
50.95754191279593
 21
-421.8884704203483
 31
0.0
  0
LWPOLYLINE
  5
DCD
330
DA0
100
AcDbEntity
  8
0
100
AcDbPolyline
 90
       19
 70
   128
 43
0.0
 10
37.62890771031562
 20
-397.6292309851524
 10
38.33271563053131
 20
-396.0442540736094
 10
39.13895040750686
 20
-394.2316470236656
 10
40.04760459065619
 20
-392.1914098353263
 10
41.05868563056174
 20
-389.9235425085917
 10
41.74664616584959
 20
-388.3815107436058
 10
42.47507080435934
 20
-386.7495355696556
 10
43.24396699667159
 20
-385.0276467890617
 10
44.0504550933856
 20
-383.2222220988169
 10
44.81318965554419
 20
-381.5146980376121
 10
45.65284028649512
 20
-379.6344993204966
 10
46.36608436703864
 20
-378.0367670149681
 10
46.95291817188445
 20
-376.7214415163889
 10
47.72684350609961
 20
-374.9853072256919
 10
48.20359498262587
 20
-373.9148972124931
 10
48.71858656406584
 20
-372.7574942202464
 10
49.22918230295363
 20
-371.6022369952079
 10
49.6550537645835
 20
-370.5985245795127
 10
50.14080554247084
 20
-369.3671522230979
  0
LWPOLYLINE
  5
DCE
330
DA0
100
AcDbEntity
  8
0
100
AcDbPolyline
 90
        9
 70
   128
 43
0.0
 10
22.97622151673022
 20
-404.3256936163779
 10
25.87575279176417
 20
-403.6890862078562
 10
28.52660976350307
 20
-402.9763040633079
 10
30.8746248483676
 20
-402.2026655764457
 10
32.91098773479462
 20
-401.3720450491782
 10
34.62794423103515
 20
-400.4865882487174
 10
35.992383956911
 20
-399.5625970454112
 10
36.99493780732337
 20
-398.6079094500437
 10
37.62890771031562
 20
-397.6292309851524
  0
LWPOLYLINE
  5
DCF
330
DA0
100
AcDbEntity
  8
0
100
AcDbPolyline
 90
        3
 70
   128
 43
0.0
 10
0.000000000001819
 20
-406.3362178892966
 10
4.803324583917856
 20
-406.2577483744517
 10
9.483196772634983
 20
-406.0250220389262
  0
LINE
  5
DD0
330
DA0
100
AcDbEntity
  8
0
  6
Continuous
 62
     7
370
    15
100
AcDbLine
 10
131.9999957084692
 20
-342.7751725334838
 30
0.0
 11
131.9999957084692
 21
-500.775158175933
 31
0.0
  0
ARC
  5
DD1
330
DA0
100
AcDbEntity
  8
0
370
    15
100
AcDbCircle
 10
96.99999570846921
 20
-342.7751725334838
 30
0.0
 40
35.0
100
AcDbArc
 50
0.0
 51
90.0
  0
ARC
  5
DD2
330
DA0
100
AcDbEntity
  8
0
  6
Continuous
 62
     7
370
    15
100
AcDbCircle
 10
0.000000000001819
 20
-500.775158175933
 30
0.0
 40
132.0000000000026
100
AcDbArc
 50
270.0
 51
0.0
  0
LINE
  5
DD3
330
DA0
100
AcDbEntity
  8
0
100
AcDbLine
 10
0.000000000001819
 20
-307.7751725334838
 30
0.0
 11
96.99999570846921
 21
-307.7751725334838
 31
0.0
  0
LINE
  5
DD4
330
DA0
100
AcDbEntity
  8
0
  6
Continuous
 62
     7
370
    15
100
AcDbLine
 10
179.6773225069064
 20
-178.958340094683
 30
0.0
 11
179.6773225069064
 21
-500.775158175933
 31
0.0
  0
CIRCLE
  5
DD5
330
DA0
100
AcDbEntity
  8
0
  6
Continuous
 62
     7
370
    15
100
AcDbCircle
 10
80.00000000000182
 20
-250.4524774242473
 30
0.0
 40
7.5
  0
CIRCLE
  5
DD6
330
DA0
100
AcDbEntity
  8
0
  6
Continuous
 62
     7
370
    15
100
AcDbCircle
 10
-79.99999999999818
 20
-250.4524774242473
 30
0.0
 40
7.5
  0
ENDBLK
  5
DA2
330
DA0
100
AcDbEntity
  8
0
100
AcDbBlockEnd
  0
ENDSEC
  0
SECTION
  2
ENTITIES
  0
MTEXT
  5
2BF
330
1F
100
AcDbEntity
  8
0
100
AcDbMText
 10
-416.9613267768137
 20
33.41238768955648
 30
0.0
 40
20.0
 41
505.2631578947369
 71
     1
 72
     5
  1
{\fTimes New Roman|b0|i0|c0|p18;\C0;INODORO DE TANQUE BAJO.\PSERIE NOBLE}
 73
     1
 44
1.0
1001
ACAD
1000
MTEXTBEGIN
1070
    73
1070
     1
1070
    44
1040
1.0
1070
    74
1070
     0
1000
MTEXTEND
  0
INSERT
  5
DD7
330
1F
100
AcDbEntity
  8
0
100
AcDbBlockReference
  2
12120-P
 10
-255.0162985345951
 20
807.8936918266304
 30
0.0
  0
ENDSEC
  0
SECTION
  2
OBJECTS
  0
DICTIONARY
  5
C
330
0
100
AcDbDictionary
281
     1
  3
ACAD_COLOR
350
6B
  3
ACAD_GROUP
350
D
  3
ACAD_LAYOUT
350
1A
  3
ACAD_MATERIAL
350
6A
  3
ACAD_MLINESTYLE
350
17
  3
ACAD_PLOTSETTINGS
350
19
  3
ACAD_PLOTSTYLENAME
350
E
  3
ACAD_TABLESTYLE
350
7E
  3
ACDBHEADERROUNDTRIPXREC
350
DF1
  3
AcDbVariableDictionary
350
5E
  3
DWGPROPS
350
DF0
  0
DICTIONARY
  5
118
330
2
100
AcDbDictionary
280
     1
281
     1
  3
ACAD_LAYERSTATES
360
119
  0
DICTIONARY
  5
1DD
330
1F
100
AcDbDictionary
280
     1
281
     1
  3
ACAD_SORTENTS
360
1DE
  0
DICTIONARY
  5
6B
102
{ACAD_REACTORS
330
C
102
}
330
C
100
AcDbDictionary
281
     1
  0
DICTIONARY
  5
D
102
{ACAD_REACTORS
330
C
102
}
330
C
100
AcDbDictionary
281
     1
  0
DICTIONARY
  5
1A
102
{ACAD_REACTORS
330
C
102
}
330
C
100
AcDbDictionary
281
     1
  3
Model
350
22
  3
Presentación1
350
D3
  3
Presentación2
350
D7
  0
DICTIONARY
  5
6A
102
{ACAD_REACTORS
330
C
102
}
330
C
100
AcDbDictionary
281
     1
  0
DICTIONARY
  5
17
102
{ACAD_REACTORS
330
C
102
}
330
C
100
AcDbDictionary
281
     1
  3
Standard
350
18
  0
DICTIONARY
  5
19
102
{ACAD_REACTORS
330
C
102
}
330
C
100
AcDbDictionary
281
     1
  0
ACDBDICTIONARYWDFLT
  5
E
102
{ACAD_REACTORS
330
C
102
}
330
C
100
AcDbDictionary
281
     1
  3
Normal
350
F
100
AcDbDictionaryWithDefault
340
F
  0
DICTIONARY
  5
7E
102
{ACAD_REACTORS
330
C
102
}
330
C
100
AcDbDictionary
281
     1
  3
Standard
350
7F
  0
DICTIONARY
  5
DF1
102
{ACAD_REACTORS
330
C
102
}
330
C
100
AcDbDictionary
281
     1
  0
DICTIONARY
  5
5E
102
{ACAD_REACTORS
330
C
102
}
330
C
100
AcDbDictionary
281
     1
  3
CTABLESTYLE
350
84
  3
DIMASSOC
350
5F
  3
HIDETEXT
350
63
  3
PROJECTNAME
350
3B7
  0
XRECORD
  5
DF0
102
{ACAD_REACTORS
330
C
102
}
330
C
100
AcDbXrecord
280
     1
  1
DWGPROPS COOKIE
  2

  3

  4

  6

  7

  8
Autodesk
  9

300
=
301
=
302
=
303
=
304
=
305
=
306
=
307
=
308
=
309
=
 40
0.056857650462963
 41
2454550.307324757
 42
2454550.406726517
  1

 90
        0
  0
DICTIONARY
  5
119
102
{ACAD_REACTORS
330
118
102
}
330
118
100
AcDbDictionary
281
     1
  0
SORTENTSTABLE
  5
1DE
102
{ACAD_REACTORS
330
1DD
102
}
330
1DD
100
AcDbSortentsTable
330
1F
331
2BF
  5
2BF
331
DD7
  5
DD7
  0
LAYOUT
  5
22
102
{ACAD_XDICTIONARY
360
DF2
102
}
102
{ACAD_REACTORS
330
1A
102
}
330
1A
100
AcDbPlotSettings
  1

  2
none_device
  4
ISO_A4_(210.00_x_297.00_MM)
  6

 40
7.5
 41
20.0
 42
7.5
 43
20.0
 44
210.0
 45
297.0
 46
11.54999923706054
 47
-13.65000009536743
 48
0.0
 49
0.0
140
0.0
141
0.0
142
1.0
143
8.704084754739808
 70
 11952
 72
     1
 73
     0
 74
     0
  7

 75
     0
147
0.1148885871608098
148
0.0
149
0.0
100
AcDbLayout
  1
Model
 70
     1
 71
     0
 10
0.0
 20
0.0
 11
12.0
 21
9.0
 12
0.0
 22
0.0
 32
0.0
 14
0.0
 24
0.0
 34
0.0
 15
0.0
 25
0.0
 35
0.0
146
0.0
 13
0.0
 23
0.0
 33
0.0
 16
1.0
 26
0.0
 36
0.0
 17
0.0
 27
1.0
 37
0.0
 76
     0
330
1F
1001
ACAD_PSEXT
1000
None
1000
None
1000
Not applicable
1000
The layout will not be plotted unless a new plotter configuration name is selected.
1070
     0
  0
LAYOUT
  5
D3
102
{ACAD_XDICTIONARY
360
DF4
102
}
102
{ACAD_REACTORS
330
1A
102
}
330
1A
100
AcDbPlotSettings
  1

  2
C:\Documents and Settings\basas\Application Data\Autodesk\AutoCAD 2005\R16.1\enu\plotters\Default Windows System Printer.pc3
  4

  6

 40
0.0
 41
0.0
 42
0.0
 43
0.0
 44
0.0
 45
0.0
 46
0.0
 47
0.0
 48
0.0
 49
0.0
140
0.0
141
0.0
142
1.0
143
1.0
 70
   688
 72
     0
 73
     0
 74
     5
  7

 75
    16
147
1.0
148
0.0
149
0.0
100
AcDbLayout
  1
Presentación1
 70
     1
 71
     1
 10
0.0
 20
0.0
 11
12.0
 21
9.0
 12
0.0
 22
0.0
 32
0.0
 14
0.0
 24
0.0
 34
0.0
 15
0.0
 25
0.0
 35
0.0
146
0.0
 13
0.0
 23
0.0
 33
0.0
 16
1.0
 26
0.0
 36
0.0
 17
0.0
 27
1.0
 37
0.0
 76
     0
330
D2
  0
LAYOUT
  5
D7
102
{ACAD_XDICTIONARY
360
DF6
102
}
102
{ACAD_REACTORS
330
1A
102
}
330
1A
100
AcDbPlotSettings
  1

  2
C:\Documents and Settings\basas\Application Data\Autodesk\AutoCAD 2005\R16.1\enu\plotters\Default Windows System Printer.pc3
  4

  6

 40
0.0
 41
0.0
 42
0.0
 43
0.0
 44
0.0
 45
0.0
 46
0.0
 47
0.0
 48
0.0
 49
0.0
140
0.0
141
0.0
142
1.0
143
1.0
 70
   688
 72
     0
 73
     0
 74
     5
  7

 75
    16
147
1.0
148
0.0
149
0.0
100
AcDbLayout
  1
Presentación2
 70
     1
 71
     2
 10
0.0
 20
0.0
 11
12.0
 21
9.0
 12
0.0
 22
0.0
 32
0.0
 14
0.0
 24
0.0
 34
0.0
 15
0.0
 25
0.0
 35
0.0
146
0.0
 13
0.0
 23
0.0
 33
0.0
 16
1.0
 26
0.0
 36
0.0
 17
0.0
 27
1.0
 37
0.0
 76
     0
330
D6
  0
MLINESTYLE
  5
18
102
{ACAD_REACTORS
330
17
102
}
330
17
100
AcDbMlineStyle
  2
STANDARD
 70
     0
  3

 62
   256
 51
90.0
 52
90.0
 71
     2
 49
0.5
 62
   256
  6
BYLAYER
 49
-0.5
 62
   256
  6
BYLAYER
  0
ACDBPLACEHOLDER
  5
F
102
{ACAD_REACTORS
330
E
102
}
330
E
  0
TABLESTYLE
  5
7F
102
{ACAD_REACTORS
330
7E
102
}
330
7E
100
AcDbTableStyle
  3
Standard
 70
     0
 71
     0
 40
1.5
 41
1.5
280
     0
281
     0
  7
Standard
140
4.5
170
     2
 62
     0
 63
     7
283
     0
274
    -2
284
     1
 64
     0
275
    -2
285
     1
 65
     0
276
    -2
286
     1
 66
     0
277
    -2
287
     1
 67
     0
278
    -2
288
     1
 68
     0
279
    -2
289
     1
 69
     0
  7
Standard
140
6.0
170
     5
 62
     0
 63
     7
283
     0
274
    -2
284
     1
 64
     0
275
    -2
285
     1
 65
     0
276
    -2
286
     1
 66
     0
277
    -2
287
     1
 67
     0
278
    -2
288
     1
 68
     0
279
    -2
289
     1
 69
     0
  7
Standard
140
4.5
170
     5
 62
     0
 63
     7
283
     0
274
    -2
284
     1
 64
     0
275
    -2
285
     1
 65
     0
276
    -2
286
     1
 66
     0
277
    -2
287
     1
 67
     0
278
    -2
288
     1
 68
     0
279
    -2
289
     1
 69
     0
  0
DICTIONARYVAR
  5
84
102
{ACAD_REACTORS
330
5E
102
}
330
5E
100
DictionaryVariables
280
     0
  1
STANDARD
  0
DICTIONARYVAR
  5
5F
102
{ACAD_REACTORS
330
5E
102
}
330
5E
100
DictionaryVariables
280
     0
  1
2
  0
DICTIONARYVAR
  5
63
102
{ACAD_REACTORS
330
5E
102
}
330
5E
100
DictionaryVariables
280
     0
  1
1
  0
DICTIONARYVAR
  5
3B7
102
{ACAD_REACTORS
330
5E
102
}
330
5E
100
DictionaryVariables
280
     0
  1

  0
DICTIONARY
  5
DF2
330
22
100
AcDbDictionary
280
     1
281
     1
  3
ACAD_XREC_ROUNDTRIP
360
DF3
  0
DICTIONARY
  5
DF4
330
D3
100
AcDbDictionary
280
     1
281
     1
  3
ACAD_XREC_ROUNDTRIP
360
DF5
  0
DICTIONARY
  5
DF6
330
D7
100
AcDbDictionary
280
     1
281
     1
  3
ACAD_XREC_ROUNDTRIP
360
DF7
  0
XRECORD
  5
DF3
102
{ACAD_REACTORS
330
DF2
102
}
330
DF2
100
AcDbXrecord
280
     1
102
SHADEPLOT
 70
     0
102
SHADEPLOTRESLEVEL
 70
     2
102
SHADEPLOTCUSTOMDPI
 70
   300
  0
XRECORD
  5
DF5
102
{ACAD_REACTORS
330
DF4
102
}
330
DF4
100
AcDbXrecord
280
     1
102
SHADEPLOT
 70
     0
102
SHADEPLOTRESLEVEL
 70
     2
102
SHADEPLOTCUSTOMDPI
 70
   300
  0
XRECORD
  5
DF7
102
{ACAD_REACTORS
330
DF6
102
}
330
DF6
100
AcDbXrecord
280
     1
102
SHADEPLOT
 70
     0
102
SHADEPLOTRESLEVEL
 70
     2
102
SHADEPLOTCUSTOMDPI
 70
   300
  0
ENDSEC
  0
EOF
