  0
SECTION
  2
HEADER
  9
$ACADVER
  1
AC1015
  9
$ACADMAINTVER
 70
    20
  9
$DWGCODEPAGE
  3
ANSI_1252
  9
$INSBASE
 10
0.0
 20
0.0
 30
0.0
  9
$EXTMIN
 10
-477.5341096124802
 20
-26.30883317081362
 30
0.0
  9
$EXTMAX
 10
204.3093752470247
 20
933.9320810561861
 30
0.0
  9
$LIMMIN
 10
0.0
 20
0.0
  9
$LIMMAX
 10
420.0
 20
297.0
  9
$ORTHOMODE
 70
     1
  9
$REGENMODE
 70
     1
  9
$FILLMODE
 70
     1
  9
$QTEXTMODE
 70
     0
  9
$MIRRTEXT
 70
     0
  9
$LTSCALE
 40
1.0
  9
$ATTMODE
 70
     1
  9
$TEXTSIZE
 40
2.5
  9
$TRACEWID
 40
1.0
  9
$TEXTSTYLE
  7
Standard
  9
$CLAYER
  8
0
  9
$CELTYPE
  6
ByLayer
  9
$CECOLOR
 62
   256
  9
$CELTSCALE
 40
1.0
  9
$DISPSILH
 70
     0
  9
$DIMSCALE
 40
1.0
  9
$DIMASZ
 40
2.5
  9
$DIMEXO
 40
0.625
  9
$DIMDLI
 40
3.75
  9
$DIMRND
 40
0.0
  9
$DIMDLE
 40
0.0
  9
$DIMEXE
 40
1.25
  9
$DIMTP
 40
0.0
  9
$DIMTM
 40
0.0
  9
$DIMTXT
 40
2.5
  9
$DIMCEN
 40
2.5
  9
$DIMTSZ
 40
0.0
  9
$DIMTOL
 70
     0
  9
$DIMLIM
 70
     0
  9
$DIMTIH
 70
     0
  9
$DIMTOH
 70
     0
  9
$DIMSE1
 70
     0
  9
$DIMSE2
 70
     0
  9
$DIMTAD
 70
     1
  9
$DIMZIN
 70
     8
  9
$DIMBLK
  1

  9
$DIMASO
 70
     1
  9
$DIMSHO
 70
     1
  9
$DIMPOST
  1

  9
$DIMAPOST
  1

  9
$DIMALT
 70
     0
  9
$DIMALTD
 70
     3
  9
$DIMALTF
 40
0.03937007874016
  9
$DIMLFAC
 40
1.0
  9
$DIMTOFL
 70
     1
  9
$DIMTVP
 40
0.0
  9
$DIMTIX
 70
     0
  9
$DIMSOXD
 70
     0
  9
$DIMSAH
 70
     0
  9
$DIMBLK1
  1

  9
$DIMBLK2
  1

  9
$DIMSTYLE
  2
ISO-25
  9
$DIMCLRD
 70
     0
  9
$DIMCLRE
 70
     0
  9
$DIMCLRT
 70
     0
  9
$DIMTFAC
 40
1.0
  9
$DIMGAP
 40
0.625
  9
$DIMJUST
 70
     0
  9
$DIMSD1
 70
     0
  9
$DIMSD2
 70
     0
  9
$DIMTOLJ
 70
     0
  9
$DIMTZIN
 70
     8
  9
$DIMALTZ
 70
     0
  9
$DIMALTTZ
 70
     0
  9
$DIMUPT
 70
     0
  9
$DIMDEC
 70
     2
  9
$DIMTDEC
 70
     2
  9
$DIMALTU
 70
     2
  9
$DIMALTTD
 70
     3
  9
$DIMTXSTY
  7
Standard
  9
$DIMAUNIT
 70
     0
  9
$DIMADEC
 70
     0
  9
$DIMALTRND
 40
0.0
  9
$DIMAZIN
 70
     0
  9
$DIMDSEP
 70
    44
  9
$DIMATFIT
 70
     3
  9
$DIMFRAC
 70
     0
  9
$DIMLDRBLK
  1

  9
$DIMLUNIT
 70
     2
  9
$DIMLWD
 70
    -2
  9
$DIMLWE
 70
    -2
  9
$DIMTMOVE
 70
     0
  9
$LUNITS
 70
     2
  9
$LUPREC
 70
     4
  9
$SKETCHINC
 40
1.0
  9
$FILLETRAD
 40
25.0
  9
$AUNITS
 70
     0
  9
$AUPREC
 70
     0
  9
$MENU
  1
.
  9
$ELEVATION
 40
0.0
  9
$PELEVATION
 40
0.0
  9
$THICKNESS
 40
0.0
  9
$LIMCHECK
 70
     0
  9
$CHAMFERA
 40
0.0
  9
$CHAMFERB
 40
0.0
  9
$CHAMFERC
 40
0.0
  9
$CHAMFERD
 40
0.0
  9
$SKPOLY
 70
     0
  9
$TDCREATE
 40
2454550.307324757
  9
$TDUCREATE
 40
2454550.265658090
  9
$TDUPDATE
 40
2454550.406823820
  9
$TDUUPDATE
 40
2454550.365157153
  9
$TDINDWG
 40
0.0557631713
  9
$TDUSRTIMER
 40
0.0557624421
  9
$USRTIMER
 70
     1
  9
$ANGBASE
 50
0.0
  9
$ANGDIR
 70
     0
  9
$PDMODE
 70
     0
  9
$PDSIZE
 40
0.0
  9
$PLINEWID
 40
0.0
  9
$SPLFRAME
 70
     0
  9
$SPLINETYPE
 70
     6
  9
$SPLINESEGS
 70
     8
  9
$HANDSEED
  5
D38
  9
$SURFTAB1
 70
     6
  9
$SURFTAB2
 70
     6
  9
$SURFTYPE
 70
     6
  9
$SURFU
 70
     6
  9
$SURFV
 70
     6
  9
$UCSBASE
  2

  9
$UCSNAME
  2

  9
$UCSORG
 10
0.0
 20
0.0
 30
0.0
  9
$UCSXDIR
 10
1.0
 20
0.0
 30
0.0
  9
$UCSYDIR
 10
0.0
 20
1.0
 30
0.0
  9
$UCSORTHOREF
  2

  9
$UCSORTHOVIEW
 70
     0
  9
$UCSORGTOP
 10
0.0
 20
0.0
 30
0.0
  9
$UCSORGBOTTOM
 10
0.0
 20
0.0
 30
0.0
  9
$UCSORGLEFT
 10
0.0
 20
0.0
 30
0.0
  9
$UCSORGRIGHT
 10
0.0
 20
0.0
 30
0.0
  9
$UCSORGFRONT
 10
0.0
 20
0.0
 30
0.0
  9
$UCSORGBACK
 10
0.0
 20
0.0
 30
0.0
  9
$PUCSBASE
  2

  9
$PUCSNAME
  2

  9
$PUCSORG
 10
0.0
 20
0.0
 30
0.0
  9
$PUCSXDIR
 10
1.0
 20
0.0
 30
0.0
  9
$PUCSYDIR
 10
0.0
 20
1.0
 30
0.0
  9
$PUCSORTHOREF
  2

  9
$PUCSORTHOVIEW
 70
     0
  9
$PUCSORGTOP
 10
0.0
 20
0.0
 30
0.0
  9
$PUCSORGBOTTOM
 10
0.0
 20
0.0
 30
0.0
  9
$PUCSORGLEFT
 10
0.0
 20
0.0
 30
0.0
  9
$PUCSORGRIGHT
 10
0.0
 20
0.0
 30
0.0
  9
$PUCSORGFRONT
 10
0.0
 20
0.0
 30
0.0
  9
$PUCSORGBACK
 10
0.0
 20
0.0
 30
0.0
  9
$USERI1
 70
     0
  9
$USERI2
 70
     0
  9
$USERI3
 70
     0
  9
$USERI4
 70
     0
  9
$USERI5
 70
     0
  9
$USERR1
 40
0.0
  9
$USERR2
 40
0.0
  9
$USERR3
 40
0.0
  9
$USERR4
 40
0.0
  9
$USERR5
 40
0.0
  9
$WORLDVIEW
 70
     1
  9
$SHADEDGE
 70
     3
  9
$SHADEDIF
 70
    70
  9
$TILEMODE
 70
     1
  9
$MAXACTVP
 70
    64
  9
$PINSBASE
 10
0.0
 20
0.0
 30
0.0
  9
$PLIMCHECK
 70
     0
  9
$PEXTMIN
 10
0.0
 20
0.0
 30
0.0
  9
$PEXTMAX
 10
0.0
 20
0.0
 30
0.0
  9
$PLIMMIN
 10
0.0
 20
0.0
  9
$PLIMMAX
 10
12.0
 20
9.0
  9
$UNITMODE
 70
     0
  9
$VISRETAIN
 70
     1
  9
$PLINEGEN
 70
     0
  9
$PSLTSCALE
 70
     1
  9
$TREEDEPTH
 70
  3020
  9
$CMLSTYLE
  2
Standard
  9
$CMLJUST
 70
     0
  9
$CMLSCALE
 40
20.0
  9
$PROXYGRAPHICS
 70
     1
  9
$MEASUREMENT
 70
     1
  9
$CELWEIGHT
370
    -1
  9
$ENDCAPS
280
     0
  9
$JOINSTYLE
280
     0
  9
$LWDISPLAY
290
     0
  9
$INSUNITS
 70
     4
  9
$HYPERLINKBASE
  1

  9
$STYLESHEET
  1

  9
$XEDIT
290
     1
  9
$CEPSNTYPE
380
     0
  9
$PSTYLEMODE
290
     1
  9
$FINGERPRINTGUID
  2
{4A4C6E15-96AD-4E98-A744-8BD4BACD0A4F}
  9
$VERSIONGUID
  2
{09D47DBD-7870-4028-B8F3-77AABAA9CBE3}
  9
$EXTNAMES
290
     1
  9
$PSVPSCALE
 40
0.0
  9
$OLESTARTUP
290
     0
  0
ENDSEC
  0
SECTION
  2
CLASSES
  0
CLASS
  1
ACDBDICTIONARYWDFLT
  2
AcDbDictionaryWithDefault
  3
ObjectDBX Classes
 90
        0
280
     0
281
     0
  0
CLASS
  1
DICTIONARYVAR
  2
AcDbDictionaryVar
  3
ObjectDBX Classes
 90
        0
280
     0
281
     0
  0
CLASS
  1
TABLESTYLE
  2
AcDbTableStyle
  3
ObjectDBX Classes
 90
     2047
280
     0
281
     0
  0
CLASS
  1
SORTENTSTABLE
  2
AcDbSortentsTable
  3
ObjectDBX Classes
 90
        0
280
     0
281
     0
  0
CLASS
  1
ACDBPLACEHOLDER
  2
AcDbPlaceHolder
  3
ObjectDBX Classes
 90
        0
280
     0
281
     0
  0
CLASS
  1
LAYOUT
  2
AcDbLayout
  3
ObjectDBX Classes
 90
        0
280
     0
281
     0
  0
ENDSEC
  0
SECTION
  2
TABLES
  0
TABLE
  2
VPORT
  5
8
330
0
100
AcDbSymbolTable
 70
     2
  0
VPORT
  5
D2F
330
8
100
AcDbSymbolTableRecord
100
AcDbViewportTableRecord
  2
*Active
 70
     0
 10
0.0
 20
0.0
 11
1.0
 21
1.0
 12
-218.7627465832473
 22
389.1242243205561
 13
0.0
 23
0.0
 14
10.0
 24
10.0
 15
10.0
 25
10.0
 16
0.0
 26
0.0
 36
1.0
 17
0.0
 27
0.0
 37
0.0
 40
1546.337825556567
 41
1.454088050314465
 42
50.0
 43
0.0
 44
0.0
 50
0.0
 51
0.0
 71
     0
 72
  1000
 73
     1
 74
     0
 75
     0
 76
     0
 77
     0
 78
     0
281
     0
 65
     1
110
0.0
120
0.0
130
0.0
111
1.0
121
0.0
131
0.0
112
0.0
122
1.0
132
0.0
 79
     0
146
0.0
  0
ENDTAB
  0
TABLE
  2
LTYPE
  5
5
330
0
100
AcDbSymbolTable
 70
     1
  0
LTYPE
  5
14
330
5
100
AcDbSymbolTableRecord
100
AcDbLinetypeTableRecord
  2
ByBlock
 70
     0
  3

 72
    65
 73
     0
 40
0.0
  0
LTYPE
  5
15
330
5
100
AcDbSymbolTableRecord
100
AcDbLinetypeTableRecord
  2
ByLayer
 70
     0
  3

 72
    65
 73
     0
 40
0.0
  0
LTYPE
  5
16
330
5
100
AcDbSymbolTableRecord
100
AcDbLinetypeTableRecord
  2
Continuous
 70
     0
  3
Solid line
 72
    65
 73
     0
 40
0.0
  0
ENDTAB
  0
TABLE
  2
LAYER
  5
2
102
{ACAD_XDICTIONARY
360
118
102
}
330
0
100
AcDbSymbolTable
 70
     1
  0
LAYER
  5
10
330
2
100
AcDbSymbolTableRecord
100
AcDbLayerTableRecord
  2
0
 70
     0
 62
     7
  6
Continuous
370
    -3
390
F
  0
ENDTAB
  0
TABLE
  2
STYLE
  5
3
330
0
100
AcDbSymbolTable
 70
     2
  0
STYLE
  5
11
330
3
100
AcDbSymbolTableRecord
100
AcDbTextStyleTableRecord
  2
Standard
 70
     0
 40
0.0
 41
1.0
 50
0.0
 71
     0
 42
2.5
  3
txt
  4

  0
STYLE
  5
112
330
3
100
AcDbSymbolTableRecord
100
AcDbTextStyleTableRecord
  2
ISO
 70
     0
 40
0.0
 41
1.0
 50
0.0
 71
     0
 42
2.0
  3
ISOCP.SHX
  4

  0
ENDTAB
  0
TABLE
  2
VIEW
  5
6
330
0
100
AcDbSymbolTable
 70
     0
  0
ENDTAB
  0
TABLE
  2
UCS
  5
7
330
0
100
AcDbSymbolTable
 70
     0
  0
ENDTAB
  0
TABLE
  2
APPID
  5
9
330
0
100
AcDbSymbolTable
 70
     6
  0
APPID
  5
12
330
9
100
AcDbSymbolTableRecord
100
AcDbRegAppTableRecord
  2
ACAD
 70
     0
  0
APPID
  5
9E
330
9
100
AcDbSymbolTableRecord
100
AcDbRegAppTableRecord
  2
ACAD_PSEXT
 70
     0
  0
APPID
  5
114
330
9
100
AcDbSymbolTableRecord
100
AcDbRegAppTableRecord
  2
ACAD_DSTYLE_DIMEXT_ENABLED
 70
     0
  0
APPID
  5
115
330
9
100
AcDbSymbolTableRecord
100
AcDbRegAppTableRecord
  2
ACAD_DSTYLE_DIMEXT_LENGTH
 70
     0
  0
APPID
  5
116
330
9
100
AcDbSymbolTableRecord
100
AcDbRegAppTableRecord
  2
ACAD_DSTYLE_DIMJOGGED_JOGANGLE_SYMBOL
 70
     0
  0
APPID
  5
117
330
9
100
AcDbSymbolTableRecord
100
AcDbRegAppTableRecord
  2
ACAD_DSTYLE_DIMARC_LENGTH_SYMBOL
 70
     0
  0
ENDTAB
  0
TABLE
  2
DIMSTYLE
  5
A
330
0
100
AcDbSymbolTable
 70
     2
100
AcDbDimStyleTable
 71
     1
340
27
  0
DIMSTYLE
105
27
330
A
100
AcDbSymbolTableRecord
100
AcDbDimStyleTableRecord
  2
ISO-25
 70
     0
 41
2.5
 42
0.625
 43
3.75
 44
1.25
 73
     0
 74
     0
 77
     1
 78
     8
140
2.5
141
2.5
143
0.03937007874016
147
0.625
171
     3
172
     1
271
     2
272
     2
274
     3
278
    44
283
     0
284
     8
340
11
  0
DIMSTYLE
105
113
330
A
100
AcDbSymbolTableRecord
100
AcDbDimStyleTableRecord
  2
STANDARD
 70
     0
 40
0.0
 41
3.5
 42
0.1
 43
7.0
 44
1.8
 73
     0
 74
     0
 77
     1
140
5.0
141
1.5
146
0.8
147
1.1
172
     1
176
   256
177
   256
178
     6
271
     0
272
     1
284
     8
288
     1
289
     0
340
112
  0
ENDTAB
  0
TABLE
  2
BLOCK_RECORD
  5
1
330
0
100
AcDbSymbolTable
 70
     2
  0
BLOCK_RECORD
  5
1F
102
{ACAD_XDICTIONARY
360
1DD
102
}
330
1
100
AcDbSymbolTableRecord
100
AcDbBlockTableRecord
  2
*Model_Space
340
22
  0
BLOCK_RECORD
  5
D2
330
1
100
AcDbSymbolTableRecord
100
AcDbBlockTableRecord
  2
*Paper_Space
340
D3
  0
BLOCK_RECORD
  5
D6
330
1
100
AcDbSymbolTableRecord
100
AcDbBlockTableRecord
  2
*Paper_Space0
340
D7
  0
BLOCK_RECORD
  5
C84
330
1
100
AcDbSymbolTableRecord
100
AcDbBlockTableRecord
  2
12120-L
340
0
310
2800000020000000200000000100080000000000000400000000000000000000000000000000000000000000000080000080000000808000800000008000800080800000C0C0C000C0DCC000F0CAA6000020400000206000002080000020A0000020C0000020E00000400000004020000040400000406000004080000040A0
310
000040C0000040E00000600000006020000060400000606000006080000060A0000060C0000060E00000800000008020000080400000806000008080000080A0000080C0000080E00000A0000000A0200000A0400000A0600000A0800000A0A00000A0C00000A0E00000C0000000C0200000C0400000C0600000C0800000C0
310
A00000C0C00000C0E00000E0000000E0200000E0400000E0600000E0800000E0A00000E0C00000E0E00040000000400020004000400040006000400080004000A0004000C0004000E00040200000402020004020400040206000402080004020A0004020C0004020E000404000004040200040404000404060004040800040
310
40A0004040C0004040E00040600000406020004060400040606000406080004060A0004060C0004060E00040800000408020004080400040806000408080004080A0004080C0004080E00040A0000040A0200040A0400040A0600040A0800040A0A00040A0C00040A0E00040C0000040C0200040C0400040C0600040C08000
310
40C0A00040C0C00040C0E00040E0000040E0200040E0400040E0600040E0800040E0A00040E0C00040E0E00080000000800020008000400080006000800080008000A0008000C0008000E00080200000802020008020400080206000802080008020A0008020C0008020E00080400000804020008040400080406000804080
310
008040A0008040C0008040E00080600000806020008060400080606000806080008060A0008060C0008060E00080800000808020008080400080806000808080008080A0008080C0008080E00080A0000080A0200080A0400080A0600080A0800080A0A00080A0C00080A0E00080C0000080C0200080C0400080C0600080C0
310
800080C0A00080C0C00080C0E00080E0000080E0200080E0400080E0600080E0800080E0A00080E0C00080E0E000C0000000C0002000C0004000C0006000C0008000C000A000C000C000C000E000C0200000C0202000C0204000C0206000C0208000C020A000C020C000C020E000C0400000C0402000C0404000C0406000C0
310
408000C040A000C040C000C040E000C0600000C0602000C0604000C0606000C0608000C060A000C060C000C060E000C0800000C0802000C0804000C0806000C0808000C080A000C080C000C080E000C0A00000C0A02000C0A04000C0A06000C0A08000C0A0A000C0A0C000C0A0E000C0C00000C0C02000C0C04000C0C06000
310
C0C08000C0C0A000F0FBFF00A4A0A000808080000000FF0000FF000000FFFF00FF000000FF00FF00FFFF0000FFFFFF00000000000000000000000000000000000000000000000000000000000000000000000000000000FFFFFFFFFFFFFFFFFFFFFFFFFFFFFFFFFF000000000000000000000000000000FF0000000000FFFF
310
0000000000000000FF000000000000000000000000000000FFFFFFFFFFFFFFFFFFFFFFFFFFFFFFFFFF000000000000000000000000000000FF000000000000000000000000000000FF000000000000000000000000000000FF000000000000000000000000000000FF000000000000000000000000000000FF000000000000
310
0000000000000000FF00000000000000000000000000000000FF0000000000000000000000000000FF00000000000000000000000000FFFFFFFFFFFFFFFFFFFFFFFFFFFFFFFFFFFFFF00000000000000000000000000FF000000000000000000000000000000000000FF000000000000000000000000FF0000000000000000
310
0000000000000000000000FFFF00000000000000000000FF000000000000000000000000000000000000000000FF000000000000000000FF000000000000000000000000000000000000000000FF000000000000000000FFFFFFFFFFFFFFFFFFFFFFFFFFFFFFFFFFFFFFFFFFFFFFFF0000000000000000FFFFFFFFFFFFFFFF
310
FFFFFFFFFFFFFFFFFFFFFFFFFFFFFFFF0000000000000000FFFFFFFFFFFFFFFFFFFFFFFFFFFFFFFFFFFFFFFFFFFFFFFF0000000000000000FFFFFFFFFFFF00FFFFFFFFFFFFFFFFFFFFFFFFFFFFFFFFFF0000000000000000FF00000000FF0000FFFFFFFFFFFFFFFFFFFFFFFFFFFFFFFF0000000000000000FF00000000FF00
310
00000000000000000000000000000000000000000000000000FF00000000FF0000000000000000000000000000000000000000000000000000FF00000000FF0000000000000000000000000000000000000000000000000000FF00000000FF0000000000000000000000000000000000000000000000000000FF00000000FF
310
0000000000000000000000000000000000000000000000000000FF00000000FF0000000000000000000000000000000000000000000000000000FF00000000FF0000000000000000000000000000000000000000000000000000FF00000000FF0000000000000000000000000000000000000000000000000000FF00000000
310
FF0000000000000000000000000000000000000000000000000000FF00000000FF0000000000000000000000000000000000000000000000000000FFFFFFFFFFFFFF00000000000000000000000000000000000000000000000000FFFFFFFFFFFFFF00000000000000000000000000000000000000000000000000FF000000
310
0000000000000000000000000000000000000000000000000000000000000000000000000000000000000000000000000000000000000000
102
{BLKREFS
331
D17
102
}
1001
ACAD
1000
DesignCenter Data
1002
{
1070
     1
1070
     4
1002
}
  0
ENDTAB
  0
ENDSEC
  0
SECTION
  2
BLOCKS
  0
BLOCK
  5
20
330
1F
100
AcDbEntity
  8
0
100
AcDbBlockBegin
  2
*Model_Space
 70
     0
 10
0.0
 20
0.0
 30
0.0
  3
*Model_Space
  1

  0
ENDBLK
  5
21
330
1F
100
AcDbEntity
  8
0
100
AcDbBlockEnd
  0
BLOCK
  5
D4
330
D2
100
AcDbEntity
 67
     1
  8
0
100
AcDbBlockBegin
  2
*Paper_Space
 70
     0
 10
0.0
 20
0.0
 30
0.0
  3
*Paper_Space
  1

  0
ENDBLK
  5
D5
330
D2
100
AcDbEntity
 67
     1
  8
0
100
AcDbBlockEnd
  0
BLOCK
  5
D8
330
D6
100
AcDbEntity
  8
0
100
AcDbBlockBegin
  2
*Paper_Space0
 70
     0
 10
0.0
 20
0.0
 30
0.0
  3
*Paper_Space0
  1

  0
ENDBLK
  5
D9
330
D6
100
AcDbEntity
  8
0
100
AcDbBlockEnd
  0
BLOCK
  5
C85
330
C84
100
AcDbEntity
  8
0
100
AcDbBlockBegin
  2
12120-L
 70
     0
 10
0.0
 20
0.0
 30
0.0
  3
12120-L
  1

  0
LINE
  5
C87
330
C84
100
AcDbEntity
  8
0
370
    15
100
AcDbLine
 10
11.63349110986928
 20
412.8600724154032
 30
0.0
 11
0.0
 21
745.9996704022135
 31
0.0
  0
LINE
  5
C88
330
C84
100
AcDbEntity
  8
0
370
    15
100
AcDbLine
 10
0.0
 20
745.9996704022135
 30
0.0
 11
165.0
 21
745.9996704022135
 31
0.0
  0
LINE
  5
C89
330
C84
100
AcDbEntity
  8
0
370
    15
100
AcDbLine
 10
165.0
 20
745.9996704022135
 30
0.0
 11
165.0
 21
412.9996704022135
 31
0.0
  0
ARC
  5
C8A
330
C84
100
AcDbEntity
  8
0
370
    15
100
AcDbCircle
 10
15.63105441794505
 20
412.9996704022135
 30
0.0
 40
4.0
100
AcDbArc
 50
182.0000000000036
 51
270.0
  0
LINE
  5
C8B
330
C84
100
AcDbEntity
  8
0
370
    15
100
AcDbLine
 10
161.0
 20
408.9996704022134
 30
0.0
 11
15.63105441794505
 21
408.9996704022134
 31
0.0
  0
ARC
  5
C8C
330
C84
100
AcDbEntity
  8
0
370
    15
100
AcDbCircle
 10
161.0
 20
412.9996704022135
 30
0.0
 40
4.0
100
AcDbArc
 50
270.0
 51
0.0
  0
LINE
  5
C8D
330
C84
100
AcDbEntity
  8
0
  6
Continuous
370
    15
100
AcDbLine
 10
0.0
 20
799.4996704022135
 30
0.0
 11
0.0
 21
747.4996704022134
 31
0.0
  0
ARC
  5
C8E
330
C84
100
AcDbEntity
  8
0
  6
Continuous
370
    15
100
AcDbCircle
 10
1.5
 20
799.4996704022135
 30
0.0
 40
1.500000000000113
100
AcDbArc
 50
90.0
 51
180.0
  0
LINE
  5
C8F
330
C84
100
AcDbEntity
  8
0
  6
Continuous
370
    15
100
AcDbLine
 10
11.16733765196477
 20
800.9996704022135
 30
0.0
 11
1.5
 21
800.9996704022135
 31
0.0
  0
ARC
  5
C90
330
C84
100
AcDbEntity
  8
0
  6
Continuous
370
    15
100
AcDbCircle
 10
11.16733765196477
 20
798.9996704022135
 30
0.0
 40
2.000000000000029
100
AcDbArc
 50
4.99999999999812
 51
90.0
  0
LINE
  5
C91
330
C84
100
AcDbEntity
  8
0
  6
Continuous
370
    15
100
AcDbLine
 10
13.77796676750222
 20
792.1074695598492
 30
0.0
 11
13.15972704814885
 21
799.1739818877087
 31
0.0
  0
ARC
  5
C92
330
C84
100
AcDbEntity
  8
0
  6
Continuous
370
    15
100
AcDbCircle
 10
1.5
 20
747.4996704022134
 30
0.0
 40
1.5
100
AcDbArc
 50
180.0
 51
270.0
  0
ARC
  5
C93
330
C84
100
AcDbEntity
  8
0
  6
Continuous
370
    15
100
AcDbCircle
 10
175.5434574946539
 20
782.9996704022135
 30
0.0
 40
5.0
100
AcDbArc
 50
355.0000000000019
 51
90.0
  0
LINE
  5
C94
330
C84
100
AcDbEntity
  8
0
  6
Continuous
370
    15
100
AcDbLine
 10
179.1420779523123
 20
766.7635242226781
 30
0.0
 11
180.5244309851132
 21
782.5638916884757
 31
0.0
  0
ARC
  5
C95
330
C84
100
AcDbEntity
  8
0
  6
Continuous
370
    15
100
AcDbCircle
 10
174.6592018108986
 20
767.1557250650423
 30
0.0
 40
4.49999999999996
100
AcDbArc
 50
285.891100373525
 51
355.0000000000019
  0
ARC
  5
C96
330
C84
100
AcDbEntity
  8
0
  6
Continuous
370
    15
100
AcDbCircle
 10
177.1234902830783
 20
758.4996704022135
 30
0.0
 40
4.500000000000073
100
AcDbArc
 50
105.891100373525
 51
175.0000000000019
  0
LINE
  5
C97
330
C84
100
AcDbEntity
  8
0
  6
Continuous
370
    15
100
AcDbLine
 10
172.6406141416646
 20
758.8918712445777
 30
0.0
 11
172.0470559054465
 21
752.1074695598493
 31
0.0
  0
ARC
  5
C98
330
C84
100
AcDbEntity
  8
0
  6
Continuous
370
    15
100
AcDbCircle
 10
167.5641797640328
 20
752.4996704022135
 30
0.0
 40
4.500000000000079
100
AcDbArc
 50
270.0
 51
355.0000000000019
  0
ARC
  5
C99
330
C84
100
AcDbEntity
  8
0
  6
Continuous
370
    15
100
AcDbCircle
 10
165.6876700471111
 20
745.9996704022135
 30
0.0
 40
2.000000000000056
100
AcDbArc
 50
90.0
 51
180.0
  0
LINE
  5
C9A
330
C84
100
AcDbEntity
  8
0
  6
Continuous
370
    15
100
AcDbLine
 10
165.6876700471111
 20
747.9996704022134
 30
0.0
 11
167.5641797640328
 21
747.9996704022134
 31
0.0
  0
ARC
  5
C9B
330
C84
100
AcDbEntity
  8
0
  6
Continuous
370
    15
100
AcDbCircle
 10
18.26084290891413
 20
792.4996704022134
 30
0.0
 40
4.5
100
AcDbArc
 50
184.9999999999981
 51
270.0
  0
LINE
  5
C9C
330
C84
100
AcDbEntity
  8
0
  6
Continuous
370
    15
100
AcDbLine
 10
18.26084290891413
 20
787.9996704022135
 30
0.0
 11
175.5434574946539
 21
787.9996704022135
 31
0.0
  0
LINE
  5
C9D
330
C84
100
AcDbEntity
  8
0
100
AcDbLine
 10
175.8913460469885
 20
762.8276977336284
 30
0.0
 11
1.5
 21
762.8276977336284
 31
0.0
  0
LINE
  5
C9E
330
C84
100
AcDbEntity
  8
0
  6
Continuous
370
    15
100
AcDbLine
 10
1.5
 20
747.9996704022134
 30
0.0
 11
165.6876700471111
 21
747.9996704022134
 31
0.0
  0
ARC
  5
C9F
330
C84
100
AcDbEntity
  8
0
  6
Continuous
370
    15
100
AcDbCircle
 10
1.5
 20
749.4996704022135
 30
0.0
 40
1.5
100
AcDbArc
 50
180.0
 51
270.0
  0
ARC
  5
CA0
330
C84
100
AcDbEntity
  8
0
100
AcDbCircle
 10
1.5
 20
764.3276977336284
 30
0.0
 40
1.5
100
AcDbArc
 50
180.0
 51
270.0
  0
LINE
  5
CA1
330
C84
100
AcDbEntity
  8
0
  6
Continuous
370
    15
100
AcDbLine
 10
671.0943491682119
 20
334.6536068792923
 30
0.0
 11
671.8052531773974
 21
348.2189571388628
 31
0.0
  0
ARC
  5
CA2
330
C84
100
AcDbEntity
  8
0
  6
Continuous
370
    15
100
AcDbCircle
 10
673.6768314721502
 20
384.0877187107328
 30
0.0
 40
5.999995028419007
100
AcDbArc
 50
356.9999999999944
 51
90.0
  0
LINE
  5
CA3
330
C84
100
AcDbEntity
  8
0
  6
Continuous
370
    15
100
AcDbLine
 10
678.3045978630107
 20
357.7466027000139
 30
0.0
 11
679.6685894238508
 21
383.7736943332641
 31
0.0
  0
ARC
  5
CA4
330
C84
100
AcDbEntity
  8
0
  6
Continuous
370
    15
100
AcDbCircle
 10
673.3114380226888
 20
358.0082895797179
 30
0.0
 40
4.999995857020294
100
AcDbArc
 50
294.4000301187304
 51
356.9999999990029
  0
ARC
  5
CA5
330
C84
100
AcDbEntity
  8
0
  6
Continuous
370
    15
100
AcDbCircle
 10
677.8968987080461
 20
347.8997117311631
 30
0.0
 40
6.099994945559177
100
AcDbArc
 50
114.4000301189556
 51
176.9999999999944
  0
LINE
  5
CA6
330
C84
100
AcDbEntity
  8
0
  6
Continuous
370
    15
100
AcDbLine
 10
564.7142601993946
 20
3.261465780248954
 30
0.0
 11
562.3322346411696
 21
30.4882944324711
 31
0.0
  0
ARC
  5
CA7
330
C84
100
AcDbEntity
  8
0
  6
Continuous
370
    15
100
AcDbCircle
 10
557.3512528501196
 20
30.05251524635992
 30
0.0
 40
4.999995857027723
100
AcDbArc
 50
5.000000001542782
 51
84.42309508157178
  0
ARC
  5
CA8
330
C84
100
AcDbEntity
  8
0
  6
Continuous
370
    15
100
AcDbCircle
 10
558.4299691639134
 20
41.09996594467179
 30
0.0
 40
6.099994945559326
100
AcDbArc
 50
186.000000000036
 51
264.4230950790586
  0
LINE
  5
CA9
330
C84
100
AcDbEntity
  8
0
  6
Continuous
370
    15
100
AcDbLine
 10
552.3633660626638
 20
40.46234116019991
 30
0.0
 11
551.8235272422425
 21
45.59884167343375
 31
0.0
  0
ARC
  5
CAA
330
C84
100
AcDbEntity
  8
0
  6
Continuous
370
    15
100
AcDbCircle
 10
546.8509174273658
 20
45.0762003982129
 30
0.0
 40
4.999995857015943
100
AcDbArc
 50
6.000000000036048
 51
83.28091623192056
  0
ARC
  5
CAB
330
C84
100
AcDbEntity
  8
0
  6
Continuous
370
    15
100
AcDbCircle
 10
548.14963333993
 20
56.0999535157191
 30
0.0
 40
6.099994945567789
100
AcDbArc
 50
183.0000000015172
 51
263.2809162333899
  0
LINE
  5
CAC
330
C84
100
AcDbEntity
  8
0
  6
Continuous
370
    15
100
AcDbLine
 10
542.0579699386035
 20
55.78070354826673
 30
0.0
 11
535.4925833612997
 21
181.0563345572111
 31
0.0
  0
ARC
  5
CAD
330
C84
100
AcDbEntity
  8
0
  6
Continuous
370
    15
100
AcDbCircle
 10
666.1011902251503
 20
334.9152910654195
 30
0.0
 40
4.999995857015996
100
AcDbArc
 50
277.071375022323
 51
356.9999999999944
  0
LINE
  5
CAE
330
C84
100
AcDbEntity
  8
0
  6
Continuous
370
    15
100
AcDbLine
 10
168.7384925764417
 20
390.087728331818
 30
0.0
 11
673.6768374725507
 21
390.087728331818
 31
0.0
  0
LINE
  5
CAF
330
C84
100
AcDbEntity
  8
0
  6
Continuous
370
    15
100
AcDbLine
 10
11.768359834492
 20
358.650148761488
 30
0.0
 11
11.768359834492
 21
384.0877211440613
 31
0.0
  0
ARC
  5
CB0
330
C84
100
AcDbEntity
  8
0
  6
Continuous
370
    15
100
AcDbCircle
 10
667.4676622762144
 20
323.8997316174866
 30
0.0
 40
6.09999494556038
100
AcDbArc
 50
97.07137502232297
 51
163.5498245407767
  0
LINE
  5
CB1
330
C84
100
AcDbEntity
  8
0
  6
Continuous
370
    15
100
AcDbLine
 10
11.768359834492
 20
384.0877211440613
 30
0.0
 11
11.768359834492
 21
392.8204798211284
 31
0.0
  0
LINE
  5
CB2
330
C84
100
AcDbEntity
  8
0
  6
Continuous
370
    15
100
AcDbLine
 10
11.768359834492
 20
348.5329839496601
 30
0.0
 11
11.768359834492
 21
358.650148761488
 31
0.0
  0
LINE
  5
CB3
330
C84
100
AcDbEntity
  8
0
  6
Continuous
370
    15
100
AcDbLine
 10
161.9069535060771
 20
404.4354485104406
 30
0.0
 11
162.6750481245326
 21
395.6560492374831
 31
0.0
  0
LINE
  5
CB4
330
C84
100
AcDbEntity
  8
0
  6
Continuous
370
    15
100
AcDbLine
 10
11.768359834492
 20
392.8204798211284
 30
0.0
 11
11.768359834492
 21
402.9996632144568
 31
0.0
  0
ARC
  5
CB5
330
C84
100
AcDbEntity
  8
0
  6
Continuous
370
    15
100
AcDbCircle
 10
156.9259867686178
 20
403.9996652468801
 30
0.0
 40
4.999995857015841
100
AcDbArc
 50
5.00000000002436
 51
90.0
  0
ARC
  5
CB6
330
C84
100
AcDbEntity
  8
0
  6
Continuous
370
    15
100
AcDbCircle
 10
17.76835502669746
 20
402.999666075477
 30
0.0
 40
5.999995028419007
100
AcDbArc
 50
90.0
 51
180.0
  0
ARC
  5
CB7
330
C84
100
AcDbEntity
  8
0
  6
Continuous
370
    15
100
AcDbCircle
 10
168.7518353719388
 20
396.1877086847092
 30
0.0
 40
6.099994945559403
100
AcDbArc
 50
185.0000000000243
 51
270.0
  0
LINE
  5
CB8
330
C84
100
AcDbEntity
  8
0
  6
Continuous
370
    15
100
AcDbLine
 10
11.768359834492
 20
335.5216286019151
 30
0.0
 11
11.768359834492
 21
348.5329839496601
 31
0.0
  0
LINE
  5
CB9
330
C84
100
AcDbEntity
  8
0
  6
Continuous
370
    15
100
AcDbLine
 10
11.768359834492
 20
325.0071991618317
 30
0.0
 11
11.768359834492
 21
335.5216286019151
 31
0.0
  0
LINE
  5
CBA
330
C84
100
AcDbEntity
  8
0
  6
Continuous
370
    15
100
AcDbLine
 10
11.768359834492
 20
211.8255827006144
 30
0.0
 11
11.768359834492
 21
325.0071991618317
 31
0.0
  0
ARC
  5
CBB
330
C84
100
AcDbEntity
  8
0
  6
Continuous
370
    15
100
AcDbCircle
 10
484.1476264052235
 20
378.0716903447376
 30
0.0
 40
185.0584143549852
100
AcDbArc
 50
291.3037734966657
 51
343.5349758568473
  0
LINE
  5
CBC
330
C84
100
AcDbEntity
  8
0
  6
Continuous
370
    15
100
AcDbLine
 10
104.9999801498106
 20
3.000000000000227
 30
0.0
 11
104.9999801498106
 21
27.54161273709747
 31
0.0
  0
LINE
  5
CBD
330
C84
100
AcDbEntity
  8
0
  6
Continuous
370
    15
100
AcDbLine
 10
104.9999801498106
 20
27.54161273709747
 30
0.0
 11
104.9999801498106
 21
39.62611476392908
 31
0.0
  0
LINE
  5
CBE
330
C84
100
AcDbEntity
  8
0
  6
Continuous
370
    15
100
AcDbLine
 10
104.9999801498106
 20
39.62611476392908
 30
0.0
 11
104.9999801498106
 21
42.59548532106442
 31
0.0
  0
ARC
  5
CBF
330
C84
100
AcDbEntity
  8
0
  6
Continuous
370
    15
100
AcDbCircle
 10
560.4582982640913
 20
182.3647337402528
 30
0.0
 40
24.99997928507924
100
AcDbArc
 50
111.2885183056038
 51
183.0000000000056
  0
LINE
  5
CC0
330
C84
100
AcDbEntity
  8
0
  6
Continuous
370
    15
100
AcDbLine
 10
104.9999801498106
 20
42.59548532106442
 30
0.0
 11
104.9999801498106
 21
55.3620185185448
 31
0.0
  0
LINE
  5
CC1
330
C84
100
AcDbEntity
  8
0
  6
Continuous
370
    15
100
AcDbLine
 10
11.768359834492
 20
206.8716659641998
 30
0.0
 11
11.768359834492
 21
211.8255827006144
 31
0.0
  0
LINE
  5
CC2
330
C84
100
AcDbEntity
  8
0
  6
Continuous
370
    15
100
AcDbLine
 10
104.9999801498106
 20
55.3620185185448
 30
0.0
 11
104.9999801498106
 21
187.6529539424957
 31
0.0
  0
ARC
  5
CC3
330
C84
100
AcDbEntity
  8
0
  6
Continuous
370
    15
100
AcDbCircle
 10
92.99990992566199
 20
187.9996062587281
 30
0.0
 40
12.00023463548669
100
AcDbArc
 50
53.12551513561896
 51
89.99959105492989
  0
LINE
  5
CC4
330
C84
100
AcDbEntity
  8
0
100
AcDbLine
 10
532.4069749221344
 20
199.9998372608645
 30
0.0
 11
104.3608309130577
 21
199.9998372608645
 31
0.0
  0
LINE
  5
CC5
330
C84
100
AcDbEntity
  8
0
  6
Continuous
370
    15
100
AcDbLine
 10
93.00924813182428
 20
199.9998372608645
 30
0.0
 11
17.76835491506972
 21
199.9998372608645
 31
0.0
  0
ARC
  5
CC6
330
C84
100
AcDbEntity
  8
0
  6
Continuous
370
    15
100
AcDbCircle
 10
17.76835502669746
 20
205.9998293090532
 30
0.0
 40
5.999995028419007
100
AcDbArc
 50
180.0
 51
270.0
  0
LINE
  5
CC7
330
C84
100
AcDbEntity
  8
0
  6
Continuous
370
    15
100
AcDbLine
 10
11.768359834492
 20
205.9998295474718
 30
0.0
 11
11.768359834492
 21
206.8716659641998
 31
0.0
  0
ARC
  5
CC8
330
C84
100
AcDbEntity
  8
0
  6
Continuous
370
    15
100
AcDbCircle
 10
92.99996683272366
 20
187.9998372599286
 30
0.0
 40
12.00001569810429
100
AcDbArc
 50
0.0360934084511966
 51
53.12507065185449
  0
LINE
  5
CC9
330
C84
100
AcDbEntity
  8
0
  6
Continuous
370
    15
100
AcDbLine
 10
104.9999801498106
 20
187.6529539424957
 30
0.0
 11
104.9999801498106
 21
187.9998377864997
 31
0.0
  0
LINE
  5
CCA
330
C84
100
AcDbEntity
  8
0
  6
Continuous
370
    15
100
AcDbLine
 10
11.768359834492
 20
401.9996769176461
 30
0.0
 11
11.768359834492
 21
402.9996632144568
 31
0.0
  0
LINE
  5
CCB
330
C84
100
AcDbEntity
  8
0
  6
Continuous
370
    15
100
AcDbLine
 10
104.9999801498106
 20
54.21491690445623
 30
0.0
 11
104.9999801498106
 21
39.99996596205915
 31
0.0
  0
LINE
  5
CCC
330
C84
100
AcDbEntity
  8
0
  6
Continuous
370
    15
100
AcDbLine
 10
104.9999801498106
 20
187.9998377864997
 30
0.0
 11
104.9999801498106
 21
54.21491690445623
 31
0.0
  0
LINE
  5
CCD
330
C84
100
AcDbEntity
  8
0
  6
Continuous
370
    15
100
AcDbLine
 10
11.768359834492
 20
371.2440335231406
 30
0.0
 11
11.768359834492
 21
321.5194660650498
 31
0.0
  0
LINE
  5
CCE
330
C84
100
AcDbEntity
  8
0
  6
Continuous
370
    15
100
AcDbLine
 10
11.768359834492
 20
371.2440335231406
 30
0.0
 11
11.768359834492
 21
373.9997029793778
 31
0.0
  0
LWPOLYLINE
  5
CCF
330
C84
100
AcDbEntity
  8
0
100
AcDbPolyline
 90
        5
 70
   128
 43
0.0
 10
164.9296813519504
 20
390.0877283318171
 10
162.6892340182385
 20
389.966164759526
 10
160.2755757303275
 20
389.6968711975662
 10
155.8599927983014
 20
389.1878777552577
 10
150.9230633715779
 20
388.9409359165677
  0
LINE
  5
CD0
330
C84
100
AcDbEntity
  8
0
100
AcDbLine
 10
150.9230633715797
 20
388.9409359165686
 30
0.0
 11
17.76835491506972
 21
388.9409359165686
 31
0.0
  0
LWPOLYLINE
  5
CD1
330
C84
100
AcDbEntity
  8
0
100
AcDbPolyline
 90
        9
 70
   128
 43
0.0
 10
11.768359834492
 20
384.0877211440604
 10
11.88364816047396
 20
385.0345401417856
 10
12.22508284061405
 20
385.9449705340269
 10
12.77954155069528
 20
386.7840244232923
 10
13.52571751052164
 20
387.5194557234775
 10
14.43493625309929
 20
388.1230118563674
 10
15.47225644702121
 20
388.5715066343585
 10
16.59781379384003
 20
388.8476845270854
 10
17.7683549150679
 20
388.9409359165677
  0
ARC
  5
CD2
330
C84
100
AcDbEntity
  8
0
100
AcDbCircle
 10
17.19005267977809
 20
358.9423122558567
 30
0.0
 40
5.517837478556714
100
AcDbArc
 50
190.7114516873491
 51
276.0159870085398
  0
ARC
  5
CD3
330
C84
100
AcDbEntity
  8
0
100
AcDbCircle
 10
17.56024791976051
 20
335.6671163059384
 30
0.0
 40
5.816327298234043
100
AcDbArc
 50
185.2542291084511
 51
272.0504321525953
  0
ARC
  5
CD4
330
C84
100
AcDbEntity
  8
0
100
AcDbCircle
 10
275.000423857904
 20
29.78773360608852
 30
0.0
 40
19.27774511606136
100
AcDbArc
 50
192.4495584169711
 51
347.5341774277806
  0
ARC
  5
CD5
330
C84
100
AcDbEntity
  8
0
100
AcDbCircle
 10
305.508640729051
 20
23.05346517568001
 30
0.0
 40
11.97562160940642
100
AcDbArc
 50
89.63655392867016
 51
167.3504382584543
  0
ARC
  5
CD6
330
C84
100
AcDbEntity
  8
0
100
AcDbCircle
 10
244.4917962083455
 20
23.05409705365696
 30
0.0
 40
11.97499446053855
100
AcDbArc
 50
12.65300813117214
 51
90.36700523686347
  0
ARC
  5
CD7
330
C84
100
AcDbEntity
  8
0
100
AcDbCircle
 10
112.7350072478384
 20
27.24509459298702
 30
0.0
 40
7.788259846782418
100
AcDbArc
 50
88.05034054038005
 51
173.2972266023195
  0
LINE
  5
CD8
330
C84
100
AcDbEntity
  8
0
100
AcDbLine
 10
305.508640729051
 20
35.02908678508652
 30
0.0
 11
557.8371540800417
 21
35.02884584930075
 31
0.0
  0
LINE
  5
CD9
330
C84
100
AcDbEntity
  8
0
100
AcDbLine
 10
112.9999748323371
 20
35.02884584930075
 30
0.0
 11
244.4150915075352
 21
35.02884584930075
 31
0.0
  0
ARC
  5
CDA
330
C84
100
AcDbEntity
  8
0
100
AcDbCircle
 10
112.7042525362849
 20
42.2846411583871
 30
0.0
 40
7.762847487910791
100
AcDbArc
 50
87.8168139633883
 51
172.9570097079587
  0
LINE
  5
CDB
330
C84
100
AcDbEntity
  8
0
100
AcDbLine
 10
112.9999748323334
 20
50.04185389520012
 30
0.0
 11
547.4359137665997
 21
50.04185389519921
 31
0.0
  0
LINE
  5
CDC
330
C84
100
AcDbEntity
  8
0
100
AcDbLine
 10
666.7167181760833
 20
329.9533273501349
 30
0.0
 11
17.7683511897776
 21
329.8545130793975
 31
0.0
  0
LINE
  5
CDD
330
C84
100
AcDbEntity
  8
0
100
AcDbLine
 10
675.3769393467791
 20
353.4548632160534
 30
0.0
 11
17.76835491507154
 21
353.4548632160552
 31
0.0
  0
CIRCLE
  5
CDE
330
C84
100
AcDbEntity
  8
0
  6
Continuous
370
    15
100
AcDbCircle
 10
275.000423857904
 20
29.78773360608852
 30
0.0
 40
5.0
  0
LINE
  5
CDF
330
C84
100
AcDbEntity
  8
0
  6
Continuous
370
    15
100
AcDbLine
 10
561.7256759784359
 20
0.0000000000011369
 30
0.0
 11
107.9999801498106
 21
0.0000000000002274
 31
0.0
  0
ARC
  5
CE0
330
C84
100
AcDbEntity
  8
0
  6
Continuous
370
    15
100
AcDbCircle
 10
561.7256759784359
 20
3.000000000001136
 30
0.0
 40
3.0
100
AcDbArc
 50
270.0
 51
4.99997223971294
  0
ARC
  5
CE1
330
C84
100
AcDbEntity
  8
0
  6
Continuous
370
    15
100
AcDbCircle
 10
107.9999801498106
 20
3.000000000000227
 30
0.0
 40
3.0
100
AcDbArc
 50
180.0
 51
270.0
  0
LINE
  5
CE2
330
C84
100
AcDbEntity
  8
0
  6
Continuous
100
AcDbLine
 10
265.6768265005692
 20
394.5024870131003
 30
0.0
 11
265.6768265005692
 21
391.1024870131
 31
0.0
  0
ARC
  5
CE3
330
C84
100
AcDbEntity
  8
0
  6
Continuous
100
AcDbCircle
 10
265.0768265005688
 20
394.5024870131003
 30
0.0
 40
0.6
100
AcDbArc
 50
0.0
 51
89.99999999994789
  0
LINE
  5
CE4
330
C84
100
AcDbEntity
  8
0
  6
Continuous
100
AcDbLine
 10
220.6768265005692
 20
394.5024870131215
 30
0.0
 11
220.6768265005692
 21
391.1024870131
 31
0.0
  0
ARC
  5
CE5
330
C84
100
AcDbEntity
  8
0
  6
Continuous
100
AcDbCircle
 10
221.2768265005696
 20
394.5024870131215
 30
0.0
 40
0.6
100
AcDbArc
 50
89.99999999994789
 51
180.0
  0
LINE
  5
CE6
330
C84
100
AcDbEntity
  8
0
100
AcDbLine
 10
233.1768265005692
 20
428.4795045480525
 30
0.0
 11
233.1768265005701
 21
426.5250318955293
 31
0.0
  0
ARC
  5
CE7
330
C84
100
AcDbEntity
  8
0
100
AcDbCircle
 10
237.1768265005701
 20
426.5250318955331
 30
0.0
 40
4.0
100
AcDbArc
 50
180.0000000000521
 51
269.4773559940443
  0
LINE
  5
CE8
330
C84
100
AcDbEntity
  8
0
  6
Continuous
100
AcDbLine
 10
220.6768265005674
 20
390.0877283318289
 30
0.0
 11
265.6768265005692
 21
390.0877283318071
 31
0.0
  0
LINE
  5
CE9
330
C84
100
AcDbEntity
  8
0
  6
Continuous
100
AcDbLine
 10
221.2768265005696
 20
395.1024870131214
 30
0.0
 11
265.0768265005688
 21
395.1024870131003
 31
0.0
  0
LINE
  5
CEA
330
C84
100
AcDbEntity
  8
0
  6
Continuous
100
AcDbLine
 10
302.1434151033761
 20
418.5545126286276
 30
0.0
 11
302.1711387222101
 21
421.354376226347
 31
0.0
  0
ARC
  5
CEB
330
C84
100
AcDbEntity
  8
0
  6
Continuous
100
AcDbCircle
 10
301.5711681335913
 20
421.3603170000064
 30
0.0
 40
0.6
100
AcDbArc
 50
359.4326886341041
 51
89.47735599404429
  0
ARC
  5
CEC
330
C84
100
AcDbEntity
  8
0
  6
Continuous
100
AcDbCircle
 10
301.5434445147573
 20
418.5604534022868
 30
0.0
 40
0.6
100
AcDbArc
 50
269.4773559940443
 51
359.4326886341171
  0
LINE
  5
CED
330
C84
100
AcDbEntity
  8
0
  6
Continuous
100
AcDbLine
 10
290.6436001917762
 20
398.7969843563103
 30
0.0
 11
290.6353064838538
 21
395.9969835353272
 31
0.0
  0
ARC
  5
CEE
330
C84
100
AcDbEntity
  8
0
  6
Continuous
100
AcDbCircle
 10
290.0436028238589
 20
398.7987615711193
 30
0.0
 40
0.6
100
AcDbArc
 50
359.8302882387628
 51
89.65499657716106
  0
LINE
  5
CEF
330
C84
100
AcDbEntity
  8
0
100
AcDbLine
 10
679.6768265005673
 20
403.0921444452799
 30
0.0
 11
679.6768265005692
 21
401.0616384256652
 31
0.0
  0
ARC
  5
CF0
330
C84
100
AcDbEntity
  8
0
100
AcDbCircle
 10
670.6768265005673
 20
403.0921444452799
 30
0.0
 40
9.0
100
AcDbArc
 50
0.0
 51
89.6550935687307
  0
LINE
  5
CF1
330
C84
100
AcDbEntity
  8
0
  6
Continuous
100
AcDbLine
 10
361.4331193623136
 20
391.9765393017967
 30
0.0
 11
382.1621160918155
 21
391.8502519012148
 31
0.0
  0
LINE
  5
CF2
330
C84
100
AcDbEntity
  8
0
  6
Continuous
100
AcDbLine
 10
220.6768265005692
 20
391.1024870131218
 30
0.0
 11
220.6768265005692
 21
390.0877283318071
 31
0.0
  0
LINE
  5
CF3
330
C84
100
AcDbEntity
  8
0
  6
Continuous
100
AcDbLine
 10
265.6768265005692
 20
391.1024870131
 30
0.0
 11
265.6768265005692
 21
390.0877283318071
 31
0.0
  0
LINE
  5
CF4
330
C84
100
AcDbEntity
  8
0
  6
Continuous
100
AcDbLine
 10
383.8899641368432
 20
398.8398552269039
 30
0.0
 11
383.1611651448118
 21
392.7317568692802
 31
0.0
  0
ARC
  5
CF5
330
C84
100
AcDbEntity
  8
0
  6
Continuous
100
AcDbCircle
 10
382.1682082852119
 20
392.8502333436322
 30
0.0
 40
1.0
100
AcDbArc
 50
269.6509408711751
 51
353.1958162610324
  0
LINE
  5
CF6
330
C84
100
AcDbEntity
  8
0
  6
Continuous
100
AcDbLine
 10
359.8899641368432
 20
398.9860705818253
 30
0.0
 11
360.4433007178875
 21
392.8861791529823
 31
0.0
  0
ARC
  5
CF7
330
C84
100
AcDbEntity
  8
0
  6
Continuous
100
AcDbCircle
 10
361.43921155571
 20
392.9765207442142
 30
0.0
 40
1.0
100
AcDbArc
 50
185.1832588820308
 51
269.6509408711751
  0
LINE
  5
CF8
330
C84
100
AcDbEntity
  8
0
100
AcDbLine
 10
244.1768265005746
 20
405.6054156723144
 30
0.0
 11
244.176826500571
 21
403.6358375566853
 31
0.0
  0
LINE
  5
CF9
330
C84
100
AcDbEntity
  8
0
100
AcDbLine
 10
248.1527408634836
 20
399.635910072082
 30
0.0
 11
675.6527408634817
 21
397.0617109410616
 31
0.0
  0
ARC
  5
CFA
330
C84
100
AcDbEntity
  8
0
100
AcDbCircle
 10
248.176826500571
 20
403.6358375566853
 30
0.0
 40
4.0
100
AcDbArc
 50
180.0
 51
269.6549965771611
  0
ARC
  5
CFB
330
C84
100
AcDbEntity
  8
0
100
AcDbCircle
 10
675.6768265005692
 20
401.0616384256652
 30
0.0
 40
4.0
100
AcDbArc
 50
269.6549965771611
 51
0.0
  0
LINE
  5
CFC
330
C84
100
AcDbEntity
  8
0
  6
Continuous
100
AcDbLine
 10
241.6775723692233
 20
395.6899368759316
 30
0.0
 11
290.0316962703735
 21
395.398771627446
 31
0.0
  0
ARC
  5
CFD
330
C84
100
AcDbEntity
  8
0
  6
Continuous
100
AcDbCircle
 10
290.0353091159366
 20
395.9987607501366
 30
0.0
 40
0.6
100
AcDbArc
 50
269.6549965771611
 51
359.8302882387368
  0
LINE
  5
CFE
330
C84
100
AcDbEntity
  8
0
  6
Continuous
100
AcDbLine
 10
244.3962108293479
 20
399.6736390610367
 30
0.0
 11
290.047215669422
 21
399.3987506938099
 31
0.0
  0
LINE
  5
CFF
330
C84
100
AcDbEntity
  8
0
100
AcDbLine
 10
253.2310039488909
 20
414.6052568521149
 30
0.0
 11
670.7365239251491
 21
412.0919464551852
 31
0.0
  0
ARC
  5
D00
330
C84
100
AcDbEntity
  8
0
100
AcDbCircle
 10
253.1768265005701
 20
405.6054199200314
 30
0.0
 40
9.0
100
AcDbArc
 50
89.6550935687307
 51
180.0
  0
LINE
  5
D01
330
C84
100
AcDbEntity
  8
0
  6
Continuous
100
AcDbLine
 10
234.2562382062595
 20
422.5743962754422
 30
0.0
 11
301.5766411729225
 21
421.9602920376874
 31
0.0
  0
LINE
  5
D02
330
C84
100
AcDbEntity
  8
0
100
AcDbLine
 10
237.1403395716995
 20
422.5251983109922
 30
0.0
 11
666.640339960121
 21
418.6072513182368
 31
0.0
  0
ARC
  5
D03
330
C84
100
AcDbEntity
  8
0
100
AcDbCircle
 10
666.6768268889925
 20
422.6070849027778
 30
0.0
 40
4.0
100
AcDbArc
 50
269.4773559940443
 51
0.0024628968724114
  0
LINE
  5
D04
330
C84
100
AcDbEntity
  8
0
100
AcDbLine
 10
242.2589220905281
 20
437.479130113278
 30
0.0
 11
661.7588345387982
 21
433.6524050400498
 31
0.0
  0
ARC
  5
D05
330
C84
100
AcDbEntity
  8
0
100
AcDbCircle
 10
242.1768265005692
 20
428.4795045480609
 30
0.0
 40
9.0
100
AcDbArc
 50
89.47735599404429
 51
180.0000000000521
  0
ARC
  5
D06
330
C84
100
AcDbEntity
  8
0
100
AcDbCircle
 10
661.6767389488402
 20
424.6527794748328
 30
0.0
 40
9.0
100
AcDbArc
 50
0.0024628968593839
 51
89.47735599404429
  0
LINE
  5
D07
330
C84
100
AcDbEntity
  8
0
  6
Continuous
100
AcDbLine
 10
252.003493193967
 20
418.412337410112
 30
0.0
 11
301.537971475426
 21
417.9604783646055
 31
0.0
  0
ARC
  5
D08
330
C84
100
AcDbEntity
  8
0
  6
Continuous
100
AcDbCircle
 10
231.1768265005692
 20
410.1024870130927
 30
0.0
 40
12.25
100
AcDbArc
 50
99.09494619187132
 51
359.475920014621
  0
ARC
  5
D09
330
C84
100
AcDbEntity
  8
0
  6
Continuous
100
AcDbCircle
 10
251.9259584701165
 20
409.9126910429625
 30
0.0
 40
8.5
100
AcDbArc
 50
89.47735599404429
 51
179.4759200146259
  0
ARC
  5
D0A
330
C84
100
AcDbEntity
  8
0
  6
Continuous
100
AcDbCircle
 10
233.9825862397308
 20
392.5756443913852
 30
0.0
 40
30.0
100
AcDbArc
 50
89.47735599404429
 51
99.09494619189111
  0
LINE
  5
D0B
330
C84
100
AcDbEntity
  8
0
  6
Continuous
100
AcDbLine
 10
223.6768265005692
 20
395.1024870130984
 30
0.0
 11
219.6920685237862
 21
405.8406993348159
 31
0.0
  0
LINE
  5
D0C
330
C84
100
AcDbEntity
  8
0
  6
Continuous
100
AcDbLine
 10
243.8997544709061
 20
400.1505507223498
 30
0.0
 11
243.4137695459747
 21
410.6679292325168
 31
0.0
  0
ARC
  5
D0D
330
C84
100
AcDbEntity
  8
0
  6
Continuous
100
AcDbCircle
 10
244.3992215339847
 20
400.1736299966121
 30
0.0
 40
0.5
100
AcDbArc
 50
182.6456300550214
 51
269.6549965771611
  0
LINE
  5
D0E
330
C84
100
AcDbEntity
  8
0
100
AcDbLine
 10
670.6768268852963
 20
422.6072568454162
 30
0.0
 11
670.6767389405256
 21
424.6531663457667
 31
0.0
  0
ARC
  5
D0F
330
C84
100
AcDbEntity
  8
0
  6
Continuous
100
AcDbCircle
 10
241.918428740101
 20
435.689211721966
 30
0.0
 40
40.0
100
AcDbArc
 50
247.2267738279441
 51
269.6549965771611
  0
LINE
  5
D10
330
C84
100
AcDbEntity
  8
0
100
AcDbLine
 10
679.6768265005673
 20
403.0921444452879
 30
0.0
 11
679.6768265005692
 21
401.0616384256686
 31
0.0
  0
LINE
  5
D11
330
C84
100
AcDbEntity
  8
0
  6
Continuous
100
AcDbLine
 10
571.2245933908731
 20
390.7083835281628
 30
0.0
 11
591.9535901203751
 21
390.5820961275808
 31
0.0
  0
LINE
  5
D12
330
C84
100
AcDbEntity
  8
0
  6
Continuous
100
AcDbLine
 10
593.6814381654028
 20
397.5716994532702
 30
0.0
 11
592.9526391733713
 21
391.4636010956465
 31
0.0
  0
ARC
  5
D13
330
C84
100
AcDbEntity
  8
0
  6
Continuous
100
AcDbCircle
 10
591.9596823137715
 20
391.5820775699983
 30
0.0
 40
1.0
100
AcDbArc
 50
269.6509408711751
 51
353.1958162610324
  0
LINE
  5
D14
330
C84
100
AcDbEntity
  8
0
  6
Continuous
100
AcDbLine
 10
569.6814381654028
 20
397.7179148081916
 30
0.0
 11
570.2347747464471
 21
391.6180233793486
 31
0.0
  0
ARC
  5
D15
330
C84
100
AcDbEntity
  8
0
  6
Continuous
100
AcDbCircle
 10
571.2306855842696
 20
391.7083649705803
 30
0.0
 40
1.0
100
AcDbArc
 50
185.1832588820308
 51
269.6509408711751
  0
ARC
  5
D16
330
C84
100
AcDbEntity
  8
0
  6
Continuous
100
AcDbCircle
 10
567.6967106018298
 20
421.6897770807399
 30
0.0
 40
8.775408978387785
100
AcDbArc
 50
193.8605364274558
 51
345.0941755606594
  0
ENDBLK
  5
C86
330
C84
100
AcDbEntity
  8
0
100
AcDbBlockEnd
  0
ENDSEC
  0
SECTION
  2
ENTITIES
  0
MTEXT
  5
2BF
330
1F
100
AcDbEntity
  8
0
100
AcDbMText
 10
-416.9613267768137
 20
33.41238768955648
 30
0.0
 40
20.0
 41
505.2631578947369
 71
     1
 72
     5
  1
{\fTimes New Roman|b0|i0|c0|p18;\C0;INODORO DE TANQUE BAJO.\PSERIE NOBLE}
 73
     1
 44
1.0
1001
ACAD
1000
MTEXTBEGIN
1070
    73
1070
     1
1070
    44
1040
1.0
1070
    74
1070
     0
1000
MTEXTEND
  0
INSERT
  5
D17
330
1F
100
AcDbEntity
  8
0
100
AcDbBlockReference
  2
12120-L
 10
-477.2234494407002
 20
132.5450117231
 30
0.0
  0
ENDSEC
  0
SECTION
  2
OBJECTS
  0
DICTIONARY
  5
C
330
0
100
AcDbDictionary
281
     1
  3
ACAD_COLOR
350
6B
  3
ACAD_GROUP
350
D
  3
ACAD_LAYOUT
350
1A
  3
ACAD_MATERIAL
350
6A
  3
ACAD_MLINESTYLE
350
17
  3
ACAD_PLOTSETTINGS
350
19
  3
ACAD_PLOTSTYLENAME
350
E
  3
ACAD_TABLESTYLE
350
7E
  3
ACDBHEADERROUNDTRIPXREC
350
D31
  3
AcDbVariableDictionary
350
5E
  3
DWGPROPS
350
D30
  0
DICTIONARY
  5
118
330
2
100
AcDbDictionary
280
     1
281
     1
  3
ACAD_LAYERSTATES
360
119
  0
DICTIONARY
  5
1DD
330
1F
100
AcDbDictionary
280
     1
281
     1
  3
ACAD_SORTENTS
360
1DE
  0
DICTIONARY
  5
6B
102
{ACAD_REACTORS
330
C
102
}
330
C
100
AcDbDictionary
281
     1
  0
DICTIONARY
  5
D
102
{ACAD_REACTORS
330
C
102
}
330
C
100
AcDbDictionary
281
     1
  0
DICTIONARY
  5
1A
102
{ACAD_REACTORS
330
C
102
}
330
C
100
AcDbDictionary
281
     1
  3
Model
350
22
  3
Presentación1
350
D3
  3
Presentación2
350
D7
  0
DICTIONARY
  5
6A
102
{ACAD_REACTORS
330
C
102
}
330
C
100
AcDbDictionary
281
     1
  0
DICTIONARY
  5
17
102
{ACAD_REACTORS
330
C
102
}
330
C
100
AcDbDictionary
281
     1
  3
Standard
350
18
  0
DICTIONARY
  5
19
102
{ACAD_REACTORS
330
C
102
}
330
C
100
AcDbDictionary
281
     1
  0
ACDBDICTIONARYWDFLT
  5
E
102
{ACAD_REACTORS
330
C
102
}
330
C
100
AcDbDictionary
281
     1
  3
Normal
350
F
100
AcDbDictionaryWithDefault
340
F
  0
DICTIONARY
  5
7E
102
{ACAD_REACTORS
330
C
102
}
330
C
100
AcDbDictionary
281
     1
  3
Standard
350
7F
  0
DICTIONARY
  5
D31
102
{ACAD_REACTORS
330
C
102
}
330
C
100
AcDbDictionary
281
     1
  0
DICTIONARY
  5
5E
102
{ACAD_REACTORS
330
C
102
}
330
C
100
AcDbDictionary
281
     1
  3
CTABLESTYLE
350
84
  3
DIMASSOC
350
5F
  3
HIDETEXT
350
63
  3
PROJECTNAME
350
3B7
  0
XRECORD
  5
D30
102
{ACAD_REACTORS
330
C
102
}
330
C
100
AcDbXrecord
280
     1
  1
DWGPROPS COOKIE
  2

  3

  4

  6

  7

  8
Autodesk
  9

300
=
301
=
302
=
303
=
304
=
305
=
306
=
307
=
308
=
309
=
 40
0.0557631712962963
 41
2454550.307324757
 42
2454550.40682382
  1

 90
        0
  0
DICTIONARY
  5
119
102
{ACAD_REACTORS
330
118
102
}
330
118
100
AcDbDictionary
281
     1
  0
SORTENTSTABLE
  5
1DE
102
{ACAD_REACTORS
330
1DD
102
}
330
1DD
100
AcDbSortentsTable
330
1F
331
2BF
  5
2BF
331
D17
  5
D17
  0
LAYOUT
  5
22
102
{ACAD_XDICTIONARY
360
D32
102
}
102
{ACAD_REACTORS
330
1A
102
}
330
1A
100
AcDbPlotSettings
  1

  2
none_device
  4
ISO_A4_(210.00_x_297.00_MM)
  6

 40
7.5
 41
20.0
 42
7.5
 43
20.0
 44
210.0
 45
297.0
 46
11.54999923706054
 47
-13.65000009536743
 48
0.0
 49
0.0
140
0.0
141
0.0
142
1.0
143
8.704084754739808
 70
 11952
 72
     1
 73
     0
 74
     0
  7

 75
     0
147
0.1148885871608098
148
0.0
149
0.0
100
AcDbLayout
  1
Model
 70
     1
 71
     0
 10
0.0
 20
0.0
 11
12.0
 21
9.0
 12
0.0
 22
0.0
 32
0.0
 14
0.0
 24
0.0
 34
0.0
 15
0.0
 25
0.0
 35
0.0
146
0.0
 13
0.0
 23
0.0
 33
0.0
 16
1.0
 26
0.0
 36
0.0
 17
0.0
 27
1.0
 37
0.0
 76
     0
330
1F
1001
ACAD_PSEXT
1000
None
1000
None
1000
Not applicable
1000
The layout will not be plotted unless a new plotter configuration name is selected.
1070
     0
  0
LAYOUT
  5
D3
102
{ACAD_XDICTIONARY
360
D34
102
}
102
{ACAD_REACTORS
330
1A
102
}
330
1A
100
AcDbPlotSettings
  1

  2
C:\Documents and Settings\basas\Application Data\Autodesk\AutoCAD 2005\R16.1\enu\plotters\Default Windows System Printer.pc3
  4

  6

 40
0.0
 41
0.0
 42
0.0
 43
0.0
 44
0.0
 45
0.0
 46
0.0
 47
0.0
 48
0.0
 49
0.0
140
0.0
141
0.0
142
1.0
143
1.0
 70
   688
 72
     0
 73
     0
 74
     5
  7

 75
    16
147
1.0
148
0.0
149
0.0
100
AcDbLayout
  1
Presentación1
 70
     1
 71
     1
 10
0.0
 20
0.0
 11
12.0
 21
9.0
 12
0.0
 22
0.0
 32
0.0
 14
0.0
 24
0.0
 34
0.0
 15
0.0
 25
0.0
 35
0.0
146
0.0
 13
0.0
 23
0.0
 33
0.0
 16
1.0
 26
0.0
 36
0.0
 17
0.0
 27
1.0
 37
0.0
 76
     0
330
D2
  0
LAYOUT
  5
D7
102
{ACAD_XDICTIONARY
360
D36
102
}
102
{ACAD_REACTORS
330
1A
102
}
330
1A
100
AcDbPlotSettings
  1

  2
C:\Documents and Settings\basas\Application Data\Autodesk\AutoCAD 2005\R16.1\enu\plotters\Default Windows System Printer.pc3
  4

  6

 40
0.0
 41
0.0
 42
0.0
 43
0.0
 44
0.0
 45
0.0
 46
0.0
 47
0.0
 48
0.0
 49
0.0
140
0.0
141
0.0
142
1.0
143
1.0
 70
   688
 72
     0
 73
     0
 74
     5
  7

 75
    16
147
1.0
148
0.0
149
0.0
100
AcDbLayout
  1
Presentación2
 70
     1
 71
     2
 10
0.0
 20
0.0
 11
12.0
 21
9.0
 12
0.0
 22
0.0
 32
0.0
 14
0.0
 24
0.0
 34
0.0
 15
0.0
 25
0.0
 35
0.0
146
0.0
 13
0.0
 23
0.0
 33
0.0
 16
1.0
 26
0.0
 36
0.0
 17
0.0
 27
1.0
 37
0.0
 76
     0
330
D6
  0
MLINESTYLE
  5
18
102
{ACAD_REACTORS
330
17
102
}
330
17
100
AcDbMlineStyle
  2
STANDARD
 70
     0
  3

 62
   256
 51
90.0
 52
90.0
 71
     2
 49
0.5
 62
   256
  6
BYLAYER
 49
-0.5
 62
   256
  6
BYLAYER
  0
ACDBPLACEHOLDER
  5
F
102
{ACAD_REACTORS
330
E
102
}
330
E
  0
TABLESTYLE
  5
7F
102
{ACAD_REACTORS
330
7E
102
}
330
7E
100
AcDbTableStyle
  3
Standard
 70
     0
 71
     0
 40
1.5
 41
1.5
280
     0
281
     0
  7
Standard
140
4.5
170
     2
 62
     0
 63
     7
283
     0
274
    -2
284
     1
 64
     0
275
    -2
285
     1
 65
     0
276
    -2
286
     1
 66
     0
277
    -2
287
     1
 67
     0
278
    -2
288
     1
 68
     0
279
    -2
289
     1
 69
     0
  7
Standard
140
6.0
170
     5
 62
     0
 63
     7
283
     0
274
    -2
284
     1
 64
     0
275
    -2
285
     1
 65
     0
276
    -2
286
     1
 66
     0
277
    -2
287
     1
 67
     0
278
    -2
288
     1
 68
     0
279
    -2
289
     1
 69
     0
  7
Standard
140
4.5
170
     5
 62
     0
 63
     7
283
     0
274
    -2
284
     1
 64
     0
275
    -2
285
     1
 65
     0
276
    -2
286
     1
 66
     0
277
    -2
287
     1
 67
     0
278
    -2
288
     1
 68
     0
279
    -2
289
     1
 69
     0
  0
DICTIONARYVAR
  5
84
102
{ACAD_REACTORS
330
5E
102
}
330
5E
100
DictionaryVariables
280
     0
  1
STANDARD
  0
DICTIONARYVAR
  5
5F
102
{ACAD_REACTORS
330
5E
102
}
330
5E
100
DictionaryVariables
280
     0
  1
2
  0
DICTIONARYVAR
  5
63
102
{ACAD_REACTORS
330
5E
102
}
330
5E
100
DictionaryVariables
280
     0
  1
1
  0
DICTIONARYVAR
  5
3B7
102
{ACAD_REACTORS
330
5E
102
}
330
5E
100
DictionaryVariables
280
     0
  1

  0
DICTIONARY
  5
D32
330
22
100
AcDbDictionary
280
     1
281
     1
  3
ACAD_XREC_ROUNDTRIP
360
D33
  0
DICTIONARY
  5
D34
330
D3
100
AcDbDictionary
280
     1
281
     1
  3
ACAD_XREC_ROUNDTRIP
360
D35
  0
DICTIONARY
  5
D36
330
D7
100
AcDbDictionary
280
     1
281
     1
  3
ACAD_XREC_ROUNDTRIP
360
D37
  0
XRECORD
  5
D33
102
{ACAD_REACTORS
330
D32
102
}
330
D32
100
AcDbXrecord
280
     1
102
SHADEPLOT
 70
     0
102
SHADEPLOTRESLEVEL
 70
     2
102
SHADEPLOTCUSTOMDPI
 70
   300
  0
XRECORD
  5
D35
102
{ACAD_REACTORS
330
D34
102
}
330
D34
100
AcDbXrecord
280
     1
102
SHADEPLOT
 70
     0
102
SHADEPLOTRESLEVEL
 70
     2
102
SHADEPLOTCUSTOMDPI
 70
   300
  0
XRECORD
  5
D37
102
{ACAD_REACTORS
330
D36
102
}
330
D36
100
AcDbXrecord
280
     1
102
SHADEPLOT
 70
     0
102
SHADEPLOTRESLEVEL
 70
     2
102
SHADEPLOTCUSTOMDPI
 70
   300
  0
ENDSEC
  0
EOF
