  0
SECTION
  2
HEADER
  9
$ACADVER
  1
AC1015
  9
$ACADMAINTVER
 70
     6
  9
$DWGCODEPAGE
  3
ANSI_932
  9
$INSBASE
 10
0.0
 20
0.0
 30
0.0
  9
$EXTMIN
 10
1.000000000000000E+20
 20
1.000000000000000E+20
 30
1.000000000000000E+20
  9
$EXTMAX
 10
-1.000000000000000E+20
 20
-1.000000000000000E+20
 30
-1.000000000000000E+20
  9
$LIMMIN
 10
0.0
 20
0.0
  9
$LIMMAX
 10
12.0
 20
9.0
  9
$ORTHOMODE
 70
     0
  9
$REGENMODE
 70
     1
  9
$FILLMODE
 70
     1
  9
$QTEXTMODE
 70
     0
  9
$MIRRTEXT
 70
     1
  9
$LTSCALE
 40
1.0
  9
$ATTMODE
 70
     1
  9
$TEXTSIZE
 40
0.2
  9
$TRACEWID
 40
0.05
  9
$TEXTSTYLE
  7
Standard
  9
$CLAYER
  8
0
  9
$CELTYPE
  6
ByLayer
  9
$CECOLOR
 62
   256
  9
$CELTSCALE
 40
1.0
  9
$DISPSILH
 70
     0
  9
$DIMSCALE
 40
1.0
  9
$DIMASZ
 40
0.18
  9
$DIMEXO
 40
0.0625
  9
$DIMDLI
 40
0.38
  9
$DIMRND
 40
0.0
  9
$DIMDLE
 40
0.0
  9
$DIMEXE
 40
0.18
  9
$DIMTP
 40
0.0
  9
$DIMTM
 40
0.0
  9
$DIMTXT
 40
0.18
  9
$DIMCEN
 40
0.09
  9
$DIMTSZ
 40
0.0
  9
$DIMTOL
 70
     0
  9
$DIMLIM
 70
     0
  9
$DIMTIH
 70
     1
  9
$DIMTOH
 70
     1
  9
$DIMSE1
 70
     0
  9
$DIMSE2
 70
     0
  9
$DIMTAD
 70
     0
  9
$DIMZIN
 70
     0
  9
$DIMBLK
  1

  9
$DIMASO
 70
     1
  9
$DIMSHO
 70
     1
  9
$DIMPOST
  1

  9
$DIMAPOST
  1

  9
$DIMALT
 70
     0
  9
$DIMALTD
 70
     2
  9
$DIMALTF
 40
25.4
  9
$DIMLFAC
 40
1.0
  9
$DIMTOFL
 70
     0
  9
$DIMTVP
 40
0.0
  9
$DIMTIX
 70
     0
  9
$DIMSOXD
 70
     0
  9
$DIMSAH
 70
     0
  9
$DIMBLK1
  1

  9
$DIMBLK2
  1

  9
$DIMSTYLE
  2
Standard
  9
$DIMCLRD
 70
     0
  9
$DIMCLRE
 70
     0
  9
$DIMCLRT
 70
     0
  9
$DIMTFAC
 40
1.0
  9
$DIMGAP
 40
0.09
  9
$DIMJUST
 70
     0
  9
$DIMSD1
 70
     0
  9
$DIMSD2
 70
     0
  9
$DIMTOLJ
 70
     1
  9
$DIMTZIN
 70
     0
  9
$DIMALTZ
 70
     0
  9
$DIMALTTZ
 70
     0
  9
$DIMUPT
 70
     0
  9
$DIMDEC
 70
     4
  9
$DIMTDEC
 70
     4
  9
$DIMALTU
 70
     2
  9
$DIMALTTD
 70
     2
  9
$DIMTXSTY
  7
Standard
  9
$DIMAUNIT
 70
     0
  9
$DIMADEC
 70
     0
  9
$DIMALTRND
 40
0.0
  9
$DIMAZIN
 70
     0
  9
$DIMDSEP
 70
    46
  9
$DIMATFIT
 70
     3
  9
$DIMFRAC
 70
     0
  9
$DIMLDRBLK
  1

  9
$DIMLUNIT
 70
     2
  9
$DIMLWD
 70
    -2
  9
$DIMLWE
 70
    -2
  9
$DIMTMOVE
 70
     0
  9
$LUNITS
 70
     2
  9
$LUPREC
 70
     4
  9
$SKETCHINC
 40
0.1
  9
$FILLETRAD
 40
0.5
  9
$AUNITS
 70
     0
  9
$AUPREC
 70
     0
  9
$MENU
  1
.
  9
$ELEVATION
 40
0.0
  9
$PELEVATION
 40
0.0
  9
$THICKNESS
 40
0.0
  9
$LIMCHECK
 70
     0
  9
$CHAMFERA
 40
0.5
  9
$CHAMFERB
 40
0.5
  9
$CHAMFERC
 40
1.0
  9
$CHAMFERD
 40
0.0
  9
$SKPOLY
 70
     0
  9
$TDCREATE
 40
2456287.715787037
  9
$TDUCREATE
 40
2456287.67412037
  9
$TDUPDATE
 40
2456287.715787048
  9
$TDUUPDATE
 40
2456287.674120382
  9
$TDINDWG
 40
0.0000000116
  9
$TDUSRTIMER
 40
0.0000000116
  9
$USRTIMER
 70
     1
  9
$ANGBASE
 50
0.0
  9
$ANGDIR
 70
     0
  9
$PDMODE
 70
     0
  9
$PDSIZE
 40
0.0
  9
$PLINEWID
 40
0.0
  9
$SPLFRAME
 70
     0
  9
$SPLINETYPE
 70
     6
  9
$SPLINESEGS
 70
     8
  9
$HANDSEED
  5
686
  9
$SURFTAB1
 70
     6
  9
$SURFTAB2
 70
     6
  9
$SURFTYPE
 70
     6
  9
$SURFU
 70
     6
  9
$SURFV
 70
     6
  9
$UCSBASE
  2

  9
$UCSNAME
  2

  9
$UCSORG
 10
0.0
 20
0.0
 30
0.0
  9
$UCSXDIR
 10
1.0
 20
0.0
 30
0.0
  9
$UCSYDIR
 10
0.0
 20
1.0
 30
0.0
  9
$UCSORTHOREF
  2

  9
$UCSORTHOVIEW
 70
     0
  9
$UCSORGTOP
 10
0.0
 20
0.0
 30
0.0
  9
$UCSORGBOTTOM
 10
0.0
 20
0.0
 30
0.0
  9
$UCSORGLEFT
 10
0.0
 20
0.0
 30
0.0
  9
$UCSORGRIGHT
 10
0.0
 20
0.0
 30
0.0
  9
$UCSORGFRONT
 10
0.0
 20
0.0
 30
0.0
  9
$UCSORGBACK
 10
0.0
 20
0.0
 30
0.0
  9
$PUCSBASE
  2

  9
$PUCSNAME
  2

  9
$PUCSORG
 10
0.0
 20
0.0
 30
0.0
  9
$PUCSXDIR
 10
1.0
 20
0.0
 30
0.0
  9
$PUCSYDIR
 10
0.0
 20
1.0
 30
0.0
  9
$PUCSORTHOREF
  2

  9
$PUCSORTHOVIEW
 70
     0
  9
$PUCSORGTOP
 10
0.0
 20
0.0
 30
0.0
  9
$PUCSORGBOTTOM
 10
0.0
 20
0.0
 30
0.0
  9
$PUCSORGLEFT
 10
0.0
 20
0.0
 30
0.0
  9
$PUCSORGRIGHT
 10
0.0
 20
0.0
 30
0.0
  9
$PUCSORGFRONT
 10
0.0
 20
0.0
 30
0.0
  9
$PUCSORGBACK
 10
0.0
 20
0.0
 30
0.0
  9
$USERI1
 70
     0
  9
$USERI2
 70
     0
  9
$USERI3
 70
     0
  9
$USERI4
 70
     0
  9
$USERI5
 70
     0
  9
$USERR1
 40
0.0
  9
$USERR2
 40
0.0
  9
$USERR3
 40
0.0
  9
$USERR4
 40
0.0
  9
$USERR5
 40
0.0
  9
$WORLDVIEW
 70
     1
  9
$SHADEDGE
 70
     3
  9
$SHADEDIF
 70
    70
  9
$TILEMODE
 70
     1
  9
$MAXACTVP
 70
    64
  9
$PINSBASE
 10
0.0
 20
0.0
 30
0.0
  9
$PLIMCHECK
 70
     0
  9
$PEXTMIN
 10
1.000000000000000E+20
 20
1.000000000000000E+20
 30
1.000000000000000E+20
  9
$PEXTMAX
 10
-1.000000000000000E+20
 20
-1.000000000000000E+20
 30
-1.000000000000000E+20
  9
$PLIMMIN
 10
0.0
 20
0.0
  9
$PLIMMAX
 10
12.0
 20
9.0
  9
$UNITMODE
 70
     0
  9
$VISRETAIN
 70
     1
  9
$PLINEGEN
 70
     0
  9
$PSLTSCALE
 70
     1
  9
$TREEDEPTH
 70
  3020
  9
$CMLSTYLE
  2
Standard
  9
$CMLJUST
 70
     0
  9
$CMLSCALE
 40
1.0
  9
$PROXYGRAPHICS
 70
     1
  9
$MEASUREMENT
 70
     0
  9
$CELWEIGHT
370
    -1
  9
$ENDCAPS
280
     0
  9
$JOINSTYLE
280
     0
  9
$LWDISPLAY
290
     1
  9
$INSUNITS
 70
     1
  9
$HYPERLINKBASE
  1

  9
$STYLESHEET
  1

  9
$XEDIT
290
     1
  9
$CEPSNTYPE
380
     0
  9
$PSTYLEMODE
290
     1
  9
$FINGERPRINTGUID
  2
{84250770-9B2D-ED06-D604-A0D32DD7BA31}
  9
$VERSIONGUID
  2
{FAEB1C32-E019-11D5-929B-00C0DF256EC4}
  9
$EXTNAMES
290
     1
  9
$PSVPSCALE
 40
0.0
  9
$OLESTARTUP
290
     0
  0
ENDSEC
  0
SECTION
  2
CLASSES
  0
CLASS
  1
ACDBDICTIONARYWDFLT
  2
AcDbDictionaryWithDefault
  3
ObjectDBX Classes
 90
        0
280
     0
281
     0
  0
CLASS
  1
VISUALSTYLE
  2
AcDbVisualStyle
  3
ObjectDBX Classes
 90
     4095
280
     0
281
     0
  0
CLASS
  1
ACDBPLACEHOLDER
  2
AcDbPlaceHolder
  3
ObjectDBX Classes
 90
        0
280
     0
281
     0
  0
CLASS
  1
LAYOUT
  2
AcDbLayout
  3
ObjectDBX Classes
 90
        0
280
     0
281
     0
  0
ENDSEC
  0
SECTION
  2
TABLES
  0
TABLE
  2
VPORT
  5
8
330
0
100
AcDbSymbolTable
 70
     1
  0
VPORT
  5
29
330
8
100
AcDbSymbolTableRecord
100
AcDbViewportTableRecord
  2
*Active
 70
     0
 10
0.0
 20
0.0
 11
1.0
 21
1.0
 12
0.0
 22
0.0
 13
0.0
 23
0.0
 14
0.5
 24
0.5
 15
0.5
 25
0.5
 16
0.0
 26
0.0
 36
1.0
 17
105.0008952513716
 27
148.5001637099431
 37
0.0
 40
297.0003274198861
 41
0.7070759562020681
 42
50.0
 43
0.0
 44
0.0
 50
0.0
 51
0.0
 71
     0
 72
   100
 73
     1
 74
     3
 75
     0
 76
     0
 77
     0
 78
     0
281
     0
 65
     1
110
0.0
120
0.0
130
0.0
111
1.0
121
0.0
131
0.0
112
0.0
122
1.0
132
0.0
 79
     0
146
0.0
  0
ENDTAB
  0
TABLE
  2
LTYPE
  5
5
330
0
100
AcDbSymbolTable
 70
     5
  0
LTYPE
  5
14
330
5
100
AcDbSymbolTableRecord
100
AcDbLinetypeTableRecord
  2
ByBlock
 70
     0
  3

 72
    65
 73
     0
 40
0.0
  0
LTYPE
  5
15
330
5
100
AcDbSymbolTableRecord
100
AcDbLinetypeTableRecord
  2
ByLayer
 70
     0
  3

 72
    65
 73
     0
 40
0.0
  0
LTYPE
  5
16
330
5
100
AcDbSymbolTableRecord
100
AcDbLinetypeTableRecord
  2
Continuous
 70
     0
  3
Solid line
 72
    65
 73
     0
 40
0.0
  0
LTYPE
  5
341
330
5
100
AcDbSymbolTableRecord
100
AcDbLinetypeTableRecord
  2
AI-Linetype-1
 70
     0
  3
Adobe Illustrator Linetype No. 1
 72
    65
 73
     4
 40
159.864541327664
 49
99.91533883444302
 74
     0
 49
-19.98306749774034
 74
     0
 49
19.98306749774034
 74
     0
 49
-19.98306749774034
 74
     0
  0
LTYPE
  5
34A
330
5
100
AcDbSymbolTableRecord
100
AcDbLinetypeTableRecord
  2
AI-Linetype-2
 70
     0
  3
Adobe Illustrator Linetype No. 2
 72
    65
 73
     4
 40
159.864541327664
 49
99.91533883444302
 74
     0
 49
-19.98306749774034
 74
     0
 49
19.98306749774034
 74
     0
 49
-19.98306749774034
 74
     0
  0
LTYPE
  5
353
330
5
100
AcDbSymbolTableRecord
100
AcDbLinetypeTableRecord
  2
AI-Linetype-3
 70
     0
  3
Adobe Illustrator Linetype No. 3
 72
    65
 73
     4
 40
159.864541327664
 49
99.91533883444302
 74
     0
 49
-19.98306749774034
 74
     0
 49
19.98306749774034
 74
     0
 49
-19.98306749774034
 74
     0
  0
LTYPE
  5
35C
330
5
100
AcDbSymbolTableRecord
100
AcDbLinetypeTableRecord
  2
AI-Linetype-4
 70
     0
  3
Adobe Illustrator Linetype No. 4
 72
    65
 73
     4
 40
159.864541327664
 49
99.91533883444302
 74
     0
 49
-19.98306749774034
 74
     0
 49
19.98306749774034
 74
     0
 49
-19.98306749774034
 74
     0
  0
ENDTAB
  0
TABLE
  2
LAYER
  5
2
330
0
100
AcDbSymbolTable
 70
     6
  0
LAYER
  5
10
330
2
100
AcDbSymbolTableRecord
100
AcDbLayerTableRecord
  2
0
 70
     0
 62
     7
  6
Continuous
370
    -3
390
F
  0
LAYER
  5
3B
330
2
100
AcDbSymbolTableRecord
100
AcDbLayerTableRecord
  2
CAJETIN
 70
     0
 62
     7
  6
Continuous
370
    -3
390
F
  0
LAYER
  5
BE
330
2
100
AcDbSymbolTableRecord
100
AcDbLayerTableRecord
  2
TEXTO-NOMBRE
 70
     0
 62
     7
  6
Continuous
370
    -3
390
F
  0
LAYER
  5
330
330
2
100
AcDbSymbolTableRecord
100
AcDbLayerTableRecord
  2
SOMBREA
 70
     0
 62
     7
  6
Continuous
370
    -3
390
F
  0
LAYER
  5
338
330
2
100
AcDbSymbolTableRecord
100
AcDbLayerTableRecord
  2
EJES
 70
     0
 62
     7
  6
Continuous
370
    -3
390
F
  0
LAYER
  5
35D
330
2
100
AcDbSymbolTableRecord
100
AcDbLayerTableRecord
  2
COTAS
 70
     0
 62
     7
  6
Continuous
370
    -3
390
F
  0
ENDTAB
  0
TABLE
  2
STYLE
  5
3
330
0
100
AcDbSymbolTable
 70
     1
  0
STYLE
  5
11
330
3
100
AcDbSymbolTableRecord
100
AcDbTextStyleTableRecord
  2
Standard
 70
     0
 40
0.0
 41
1.0
 50
0.0
 71
     0
 42
0.2
  3
txt
  4

  0
ENDTAB
  0
TABLE
  2
VIEW
  5
6
330
0
100
AcDbSymbolTable
 70
     0
  0
ENDTAB
  0
TABLE
  2
UCS
  5
7
330
0
100
AcDbSymbolTable
 70
     0
  0
ENDTAB
  0
TABLE
  2
APPID
  5
9
330
0
100
AcDbSymbolTable
 70
     1
  0
APPID
  5
12
330
9
100
AcDbSymbolTableRecord
100
AcDbRegAppTableRecord
  2
ACAD
 70
     0
  0
ENDTAB
  0
TABLE
  2
DIMSTYLE
  5
A
330
0
100
AcDbSymbolTable
 70
     1
100
AcDbDimStyleTable
  0
DIMSTYLE
105
27
330
A
100
AcDbSymbolTableRecord
100
AcDbDimStyleTableRecord
  2
Standard
 70
     0
340
11
  0
ENDTAB
  0
TABLE
  2
BLOCK_RECORD
  5
1
330
0
100
AcDbSymbolTable
 70
   210
  0
BLOCK_RECORD
  5
1F
330
1
100
AcDbSymbolTableRecord
100
AcDbBlockTableRecord
  2
*Model_Space
340
22
  0
BLOCK_RECORD
  5
1B
330
1
100
AcDbSymbolTableRecord
100
AcDbBlockTableRecord
  2
*Paper_Space
340
1E
  0
BLOCK_RECORD
  5
23
330
1
100
AcDbSymbolTableRecord
100
AcDbBlockTableRecord
  2
*Paper_Space0
340
26
  0
BLOCK_RECORD
  5
3C
330
1
100
AcDbSymbolTableRecord
100
AcDbBlockTableRecord
  2
block 2
340
0
102
{BLKREFS
331
3D
102
}
  0
BLOCK_RECORD
  5
40
330
1
100
AcDbSymbolTableRecord
100
AcDbBlockTableRecord
  2
block 3
340
0
102
{BLKREFS
331
41
102
}
  0
BLOCK_RECORD
  5
44
330
1
100
AcDbSymbolTableRecord
100
AcDbBlockTableRecord
  2
block 4
340
0
102
{BLKREFS
331
45
102
}
  0
BLOCK_RECORD
  5
48
330
1
100
AcDbSymbolTableRecord
100
AcDbBlockTableRecord
  2
block 5
340
0
102
{BLKREFS
331
49
102
}
  0
BLOCK_RECORD
  5
4C
330
1
100
AcDbSymbolTableRecord
100
AcDbBlockTableRecord
  2
block 6
340
0
102
{BLKREFS
331
4D
102
}
  0
BLOCK_RECORD
  5
51
330
1
100
AcDbSymbolTableRecord
100
AcDbBlockTableRecord
  2
block 7
340
0
102
{BLKREFS
331
52
102
}
  0
BLOCK_RECORD
  5
56
330
1
100
AcDbSymbolTableRecord
100
AcDbBlockTableRecord
  2
block 8
340
0
102
{BLKREFS
331
57
102
}
  0
BLOCK_RECORD
  5
5B
330
1
100
AcDbSymbolTableRecord
100
AcDbBlockTableRecord
  2
block 9
340
0
102
{BLKREFS
331
5C
102
}
  0
BLOCK_RECORD
  5
60
330
1
100
AcDbSymbolTableRecord
100
AcDbBlockTableRecord
  2
block 10
340
0
102
{BLKREFS
331
61
102
}
  0
BLOCK_RECORD
  5
65
330
1
100
AcDbSymbolTableRecord
100
AcDbBlockTableRecord
  2
block 11
340
0
102
{BLKREFS
331
66
102
}
  0
BLOCK_RECORD
  5
6A
330
1
100
AcDbSymbolTableRecord
100
AcDbBlockTableRecord
  2
block 12
340
0
102
{BLKREFS
331
6B
102
}
  0
BLOCK_RECORD
  5
6F
330
1
100
AcDbSymbolTableRecord
100
AcDbBlockTableRecord
  2
block 13
340
0
102
{BLKREFS
331
70
102
}
  0
BLOCK_RECORD
  5
74
330
1
100
AcDbSymbolTableRecord
100
AcDbBlockTableRecord
  2
block 14
340
0
102
{BLKREFS
331
75
102
}
  0
BLOCK_RECORD
  5
79
330
1
100
AcDbSymbolTableRecord
100
AcDbBlockTableRecord
  2
block 15
340
0
102
{BLKREFS
331
7A
102
}
  0
BLOCK_RECORD
  5
7D
330
1
100
AcDbSymbolTableRecord
100
AcDbBlockTableRecord
  2
block 16
340
0
102
{BLKREFS
331
7E
102
}
  0
BLOCK_RECORD
  5
81
330
1
100
AcDbSymbolTableRecord
100
AcDbBlockTableRecord
  2
block 17
340
0
102
{BLKREFS
331
82
102
}
  0
BLOCK_RECORD
  5
86
330
1
100
AcDbSymbolTableRecord
100
AcDbBlockTableRecord
  2
block 18
340
0
102
{BLKREFS
331
87
102
}
  0
BLOCK_RECORD
  5
8B
330
1
100
AcDbSymbolTableRecord
100
AcDbBlockTableRecord
  2
block 19
340
0
102
{BLKREFS
331
8C
102
}
  0
BLOCK_RECORD
  5
90
330
1
100
AcDbSymbolTableRecord
100
AcDbBlockTableRecord
  2
block 20
340
0
102
{BLKREFS
331
91
102
}
  0
BLOCK_RECORD
  5
95
330
1
100
AcDbSymbolTableRecord
100
AcDbBlockTableRecord
  2
block 21
340
0
102
{BLKREFS
331
96
102
}
  0
BLOCK_RECORD
  5
9A
330
1
100
AcDbSymbolTableRecord
100
AcDbBlockTableRecord
  2
block 22
340
0
102
{BLKREFS
331
9B
102
}
  0
BLOCK_RECORD
  5
9F
330
1
100
AcDbSymbolTableRecord
100
AcDbBlockTableRecord
  2
block 23
340
0
102
{BLKREFS
331
A0
102
}
  0
BLOCK_RECORD
  5
A4
330
1
100
AcDbSymbolTableRecord
100
AcDbBlockTableRecord
  2
block 24
340
0
102
{BLKREFS
331
A5
102
}
  0
BLOCK_RECORD
  5
A9
330
1
100
AcDbSymbolTableRecord
100
AcDbBlockTableRecord
  2
block 25
340
0
102
{BLKREFS
331
AA
102
}
  0
BLOCK_RECORD
  5
AE
330
1
100
AcDbSymbolTableRecord
100
AcDbBlockTableRecord
  2
block 26
340
0
102
{BLKREFS
331
AF
102
}
  0
BLOCK_RECORD
  5
B2
330
1
100
AcDbSymbolTableRecord
100
AcDbBlockTableRecord
  2
block 27
340
0
102
{BLKREFS
331
B3
102
}
  0
BLOCK_RECORD
  5
B6
330
1
100
AcDbSymbolTableRecord
100
AcDbBlockTableRecord
  2
block 28
340
0
102
{BLKREFS
331
B7
102
}
  0
BLOCK_RECORD
  5
BA
330
1
100
AcDbSymbolTableRecord
100
AcDbBlockTableRecord
  2
block 29
340
0
102
{BLKREFS
331
BB
102
}
  0
BLOCK_RECORD
  5
BF
330
1
100
AcDbSymbolTableRecord
100
AcDbBlockTableRecord
  2
block 30
340
0
102
{BLKREFS
331
C0
102
}
  0
BLOCK_RECORD
  5
C7
330
1
100
AcDbSymbolTableRecord
100
AcDbBlockTableRecord
  2
block 31
340
0
102
{BLKREFS
331
C8
102
}
  0
BLOCK_RECORD
  5
CF
330
1
100
AcDbSymbolTableRecord
100
AcDbBlockTableRecord
  2
block 32
340
0
102
{BLKREFS
331
D0
102
}
  0
BLOCK_RECORD
  5
D7
330
1
100
AcDbSymbolTableRecord
100
AcDbBlockTableRecord
  2
block 33
340
0
102
{BLKREFS
331
D8
102
}
  0
BLOCK_RECORD
  5
DF
330
1
100
AcDbSymbolTableRecord
100
AcDbBlockTableRecord
  2
block 34
340
0
102
{BLKREFS
331
E0
102
}
  0
BLOCK_RECORD
  5
E7
330
1
100
AcDbSymbolTableRecord
100
AcDbBlockTableRecord
  2
block 35
340
0
102
{BLKREFS
331
E8
102
}
  0
BLOCK_RECORD
  5
EF
330
1
100
AcDbSymbolTableRecord
100
AcDbBlockTableRecord
  2
block 36
340
0
102
{BLKREFS
331
F0
102
}
  0
BLOCK_RECORD
  5
F7
330
1
100
AcDbSymbolTableRecord
100
AcDbBlockTableRecord
  2
block 37
340
0
102
{BLKREFS
331
F8
102
}
  0
BLOCK_RECORD
  5
FF
330
1
100
AcDbSymbolTableRecord
100
AcDbBlockTableRecord
  2
block 38
340
0
102
{BLKREFS
331
100
102
}
  0
BLOCK_RECORD
  5
107
330
1
100
AcDbSymbolTableRecord
100
AcDbBlockTableRecord
  2
block 39
340
0
102
{BLKREFS
331
108
102
}
  0
BLOCK_RECORD
  5
10F
330
1
100
AcDbSymbolTableRecord
100
AcDbBlockTableRecord
  2
block 40
340
0
102
{BLKREFS
331
110
102
}
  0
BLOCK_RECORD
  5
117
330
1
100
AcDbSymbolTableRecord
100
AcDbBlockTableRecord
  2
block 41
340
0
102
{BLKREFS
331
118
102
}
  0
BLOCK_RECORD
  5
11F
330
1
100
AcDbSymbolTableRecord
100
AcDbBlockTableRecord
  2
block 42
340
0
102
{BLKREFS
331
120
102
}
  0
BLOCK_RECORD
  5
127
330
1
100
AcDbSymbolTableRecord
100
AcDbBlockTableRecord
  2
block 43
340
0
102
{BLKREFS
331
128
102
}
  0
BLOCK_RECORD
  5
12F
330
1
100
AcDbSymbolTableRecord
100
AcDbBlockTableRecord
  2
block 44
340
0
102
{BLKREFS
331
130
102
}
  0
BLOCK_RECORD
  5
137
330
1
100
AcDbSymbolTableRecord
100
AcDbBlockTableRecord
  2
block 45
340
0
102
{BLKREFS
331
138
102
}
  0
BLOCK_RECORD
  5
13F
330
1
100
AcDbSymbolTableRecord
100
AcDbBlockTableRecord
  2
block 46
340
0
102
{BLKREFS
331
140
102
}
  0
BLOCK_RECORD
  5
147
330
1
100
AcDbSymbolTableRecord
100
AcDbBlockTableRecord
  2
block 47
340
0
102
{BLKREFS
331
148
102
}
  0
BLOCK_RECORD
  5
14F
330
1
100
AcDbSymbolTableRecord
100
AcDbBlockTableRecord
  2
block 48
340
0
102
{BLKREFS
331
150
102
}
  0
BLOCK_RECORD
  5
157
330
1
100
AcDbSymbolTableRecord
100
AcDbBlockTableRecord
  2
block 49
340
0
102
{BLKREFS
331
158
102
}
  0
BLOCK_RECORD
  5
15F
330
1
100
AcDbSymbolTableRecord
100
AcDbBlockTableRecord
  2
block 50
340
0
102
{BLKREFS
331
160
102
}
  0
BLOCK_RECORD
  5
167
330
1
100
AcDbSymbolTableRecord
100
AcDbBlockTableRecord
  2
block 51
340
0
102
{BLKREFS
331
168
102
}
  0
BLOCK_RECORD
  5
16F
330
1
100
AcDbSymbolTableRecord
100
AcDbBlockTableRecord
  2
block 52
340
0
102
{BLKREFS
331
170
102
}
  0
BLOCK_RECORD
  5
177
330
1
100
AcDbSymbolTableRecord
100
AcDbBlockTableRecord
  2
block 53
340
0
102
{BLKREFS
331
178
102
}
  0
BLOCK_RECORD
  5
17F
330
1
100
AcDbSymbolTableRecord
100
AcDbBlockTableRecord
  2
block 54
340
0
102
{BLKREFS
331
180
102
}
  0
BLOCK_RECORD
  5
1B8
330
1
100
AcDbSymbolTableRecord
100
AcDbBlockTableRecord
  2
block 55
340
0
102
{BLKREFS
331
1B9
102
}
  0
BLOCK_RECORD
  5
1D7
330
1
100
AcDbSymbolTableRecord
100
AcDbBlockTableRecord
  2
block 56
340
0
102
{BLKREFS
331
1D8
102
}
  0
BLOCK_RECORD
  5
1F6
330
1
100
AcDbSymbolTableRecord
100
AcDbBlockTableRecord
  2
block 57
340
0
102
{BLKREFS
331
1F7
102
}
  0
BLOCK_RECORD
  5
1FE
330
1
100
AcDbSymbolTableRecord
100
AcDbBlockTableRecord
  2
block 58
340
0
102
{BLKREFS
331
1FF
102
}
  0
BLOCK_RECORD
  5
206
330
1
100
AcDbSymbolTableRecord
100
AcDbBlockTableRecord
  2
block 59
340
0
102
{BLKREFS
331
207
102
}
  0
BLOCK_RECORD
  5
23C
330
1
100
AcDbSymbolTableRecord
100
AcDbBlockTableRecord
  2
block 60
340
0
102
{BLKREFS
331
23D
102
}
  0
BLOCK_RECORD
  5
244
330
1
100
AcDbSymbolTableRecord
100
AcDbBlockTableRecord
  2
block 61
340
0
102
{BLKREFS
331
245
102
}
  0
BLOCK_RECORD
  5
24C
330
1
100
AcDbSymbolTableRecord
100
AcDbBlockTableRecord
  2
block 62
340
0
102
{BLKREFS
331
24D
102
}
  0
BLOCK_RECORD
  5
254
330
1
100
AcDbSymbolTableRecord
100
AcDbBlockTableRecord
  2
block 63
340
0
102
{BLKREFS
331
255
102
}
  0
BLOCK_RECORD
  5
25C
330
1
100
AcDbSymbolTableRecord
100
AcDbBlockTableRecord
  2
block 64
340
0
102
{BLKREFS
331
25D
102
}
  0
BLOCK_RECORD
  5
264
330
1
100
AcDbSymbolTableRecord
100
AcDbBlockTableRecord
  2
block 65
340
0
102
{BLKREFS
331
265
102
}
  0
BLOCK_RECORD
  5
26C
330
1
100
AcDbSymbolTableRecord
100
AcDbBlockTableRecord
  2
block 66
340
0
102
{BLKREFS
331
26D
102
}
  0
BLOCK_RECORD
  5
271
330
1
100
AcDbSymbolTableRecord
100
AcDbBlockTableRecord
  2
block 67
340
0
102
{BLKREFS
331
272
102
}
  0
BLOCK_RECORD
  5
276
330
1
100
AcDbSymbolTableRecord
100
AcDbBlockTableRecord
  2
block 68
340
0
102
{BLKREFS
331
277
102
}
  0
BLOCK_RECORD
  5
27B
330
1
100
AcDbSymbolTableRecord
100
AcDbBlockTableRecord
  2
block 69
340
0
102
{BLKREFS
331
27C
102
}
  0
BLOCK_RECORD
  5
280
330
1
100
AcDbSymbolTableRecord
100
AcDbBlockTableRecord
  2
block 70
340
0
102
{BLKREFS
331
281
102
}
  0
BLOCK_RECORD
  5
285
330
1
100
AcDbSymbolTableRecord
100
AcDbBlockTableRecord
  2
block 71
340
0
102
{BLKREFS
331
286
102
}
  0
BLOCK_RECORD
  5
28A
330
1
100
AcDbSymbolTableRecord
100
AcDbBlockTableRecord
  2
block 72
340
0
102
{BLKREFS
331
28B
102
}
  0
BLOCK_RECORD
  5
28F
330
1
100
AcDbSymbolTableRecord
100
AcDbBlockTableRecord
  2
block 73
340
0
102
{BLKREFS
331
290
102
}
  0
BLOCK_RECORD
  5
294
330
1
100
AcDbSymbolTableRecord
100
AcDbBlockTableRecord
  2
block 74
340
0
102
{BLKREFS
331
295
102
}
  0
BLOCK_RECORD
  5
299
330
1
100
AcDbSymbolTableRecord
100
AcDbBlockTableRecord
  2
block 75
340
0
102
{BLKREFS
331
29A
102
}
  0
BLOCK_RECORD
  5
29E
330
1
100
AcDbSymbolTableRecord
100
AcDbBlockTableRecord
  2
block 76
340
0
102
{BLKREFS
331
29F
102
}
  0
BLOCK_RECORD
  5
2A3
330
1
100
AcDbSymbolTableRecord
100
AcDbBlockTableRecord
  2
block 77
340
0
102
{BLKREFS
331
2A4
102
}
  0
BLOCK_RECORD
  5
2A8
330
1
100
AcDbSymbolTableRecord
100
AcDbBlockTableRecord
  2
block 78
340
0
102
{BLKREFS
331
2A9
102
}
  0
BLOCK_RECORD
  5
2AD
330
1
100
AcDbSymbolTableRecord
100
AcDbBlockTableRecord
  2
block 79
340
0
102
{BLKREFS
331
2AE
102
}
  0
BLOCK_RECORD
  5
2B2
330
1
100
AcDbSymbolTableRecord
100
AcDbBlockTableRecord
  2
block 80
340
0
102
{BLKREFS
331
2B3
102
}
  0
BLOCK_RECORD
  5
2B7
330
1
100
AcDbSymbolTableRecord
100
AcDbBlockTableRecord
  2
block 81
340
0
102
{BLKREFS
331
2B8
102
}
  0
BLOCK_RECORD
  5
2BC
330
1
100
AcDbSymbolTableRecord
100
AcDbBlockTableRecord
  2
block 82
340
0
102
{BLKREFS
331
2BD
102
}
  0
BLOCK_RECORD
  5
2C1
330
1
100
AcDbSymbolTableRecord
100
AcDbBlockTableRecord
  2
block 83
340
0
102
{BLKREFS
331
2C2
102
}
  0
BLOCK_RECORD
  5
2C6
330
1
100
AcDbSymbolTableRecord
100
AcDbBlockTableRecord
  2
block 84
340
0
102
{BLKREFS
331
2C7
102
}
  0
BLOCK_RECORD
  5
2CB
330
1
100
AcDbSymbolTableRecord
100
AcDbBlockTableRecord
  2
block 85
340
0
102
{BLKREFS
331
2CC
102
}
  0
BLOCK_RECORD
  5
2D0
330
1
100
AcDbSymbolTableRecord
100
AcDbBlockTableRecord
  2
block 86
340
0
102
{BLKREFS
331
2D1
102
}
  0
BLOCK_RECORD
  5
2D5
330
1
100
AcDbSymbolTableRecord
100
AcDbBlockTableRecord
  2
block 87
340
0
102
{BLKREFS
331
2D6
102
}
  0
BLOCK_RECORD
  5
2DA
330
1
100
AcDbSymbolTableRecord
100
AcDbBlockTableRecord
  2
block 88
340
0
102
{BLKREFS
331
2DB
102
}
  0
BLOCK_RECORD
  5
2DF
330
1
100
AcDbSymbolTableRecord
100
AcDbBlockTableRecord
  2
block 89
340
0
102
{BLKREFS
331
2E0
102
}
  0
BLOCK_RECORD
  5
2E4
330
1
100
AcDbSymbolTableRecord
100
AcDbBlockTableRecord
  2
block 90
340
0
102
{BLKREFS
331
2E5
102
}
  0
BLOCK_RECORD
  5
2EC
330
1
100
AcDbSymbolTableRecord
100
AcDbBlockTableRecord
  2
block 91
340
0
102
{BLKREFS
331
2ED
102
}
  0
BLOCK_RECORD
  5
2F1
330
1
100
AcDbSymbolTableRecord
100
AcDbBlockTableRecord
  2
block 92
340
0
102
{BLKREFS
331
2F2
102
}
  0
BLOCK_RECORD
  5
2F6
330
1
100
AcDbSymbolTableRecord
100
AcDbBlockTableRecord
  2
block 93
340
0
102
{BLKREFS
331
2F7
102
}
  0
BLOCK_RECORD
  5
2FE
330
1
100
AcDbSymbolTableRecord
100
AcDbBlockTableRecord
  2
block 94
340
0
102
{BLKREFS
331
2FF
102
}
  0
BLOCK_RECORD
  5
303
330
1
100
AcDbSymbolTableRecord
100
AcDbBlockTableRecord
  2
block 95
340
0
102
{BLKREFS
331
304
102
}
  0
BLOCK_RECORD
  5
308
330
1
100
AcDbSymbolTableRecord
100
AcDbBlockTableRecord
  2
block 96
340
0
102
{BLKREFS
331
309
102
}
  0
BLOCK_RECORD
  5
30D
330
1
100
AcDbSymbolTableRecord
100
AcDbBlockTableRecord
  2
block 97
340
0
102
{BLKREFS
331
30E
102
}
  0
BLOCK_RECORD
  5
312
330
1
100
AcDbSymbolTableRecord
100
AcDbBlockTableRecord
  2
block 98
340
0
102
{BLKREFS
331
313
102
}
  0
BLOCK_RECORD
  5
317
330
1
100
AcDbSymbolTableRecord
100
AcDbBlockTableRecord
  2
block 99
340
0
102
{BLKREFS
331
318
102
}
  0
BLOCK_RECORD
  5
31C
330
1
100
AcDbSymbolTableRecord
100
AcDbBlockTableRecord
  2
block 100
340
0
102
{BLKREFS
331
31D
102
}
  0
BLOCK_RECORD
  5
321
330
1
100
AcDbSymbolTableRecord
100
AcDbBlockTableRecord
  2
block 101
340
0
102
{BLKREFS
331
322
102
}
  0
BLOCK_RECORD
  5
326
330
1
100
AcDbSymbolTableRecord
100
AcDbBlockTableRecord
  2
block 102
340
0
102
{BLKREFS
331
327
102
}
  0
BLOCK_RECORD
  5
32B
330
1
100
AcDbSymbolTableRecord
100
AcDbBlockTableRecord
  2
block 103
340
0
102
{BLKREFS
331
32C
102
}
  0
BLOCK_RECORD
  5
331
330
1
100
AcDbSymbolTableRecord
100
AcDbBlockTableRecord
  2
block 104
340
0
102
{BLKREFS
331
332
102
}
  0
BLOCK_RECORD
  5
339
330
1
100
AcDbSymbolTableRecord
100
AcDbBlockTableRecord
  2
block 105
340
0
102
{BLKREFS
331
33A
102
}
  0
BLOCK_RECORD
  5
342
330
1
100
AcDbSymbolTableRecord
100
AcDbBlockTableRecord
  2
block 106
340
0
102
{BLKREFS
331
343
102
}
  0
BLOCK_RECORD
  5
34B
330
1
100
AcDbSymbolTableRecord
100
AcDbBlockTableRecord
  2
block 107
340
0
102
{BLKREFS
331
34C
102
}
  0
BLOCK_RECORD
  5
354
330
1
100
AcDbSymbolTableRecord
100
AcDbBlockTableRecord
  2
block 108
340
0
102
{BLKREFS
331
355
102
}
  0
BLOCK_RECORD
  5
35E
330
1
100
AcDbSymbolTableRecord
100
AcDbBlockTableRecord
  2
block 109
340
0
102
{BLKREFS
331
35F
102
}
  0
BLOCK_RECORD
  5
362
330
1
100
AcDbSymbolTableRecord
100
AcDbBlockTableRecord
  2
block 110
340
0
102
{BLKREFS
331
363
102
}
  0
BLOCK_RECORD
  5
36A
330
1
100
AcDbSymbolTableRecord
100
AcDbBlockTableRecord
  2
block 111
340
0
102
{BLKREFS
331
36B
102
}
  0
BLOCK_RECORD
  5
372
330
1
100
AcDbSymbolTableRecord
100
AcDbBlockTableRecord
  2
block 112
340
0
102
{BLKREFS
331
373
102
}
  0
BLOCK_RECORD
  5
37A
330
1
100
AcDbSymbolTableRecord
100
AcDbBlockTableRecord
  2
block 113
340
0
102
{BLKREFS
331
37B
102
}
  0
BLOCK_RECORD
  5
382
330
1
100
AcDbSymbolTableRecord
100
AcDbBlockTableRecord
  2
block 114
340
0
102
{BLKREFS
331
383
102
}
  0
BLOCK_RECORD
  5
38D
330
1
100
AcDbSymbolTableRecord
100
AcDbBlockTableRecord
  2
block 115
340
0
102
{BLKREFS
331
38E
102
}
  0
BLOCK_RECORD
  5
398
330
1
100
AcDbSymbolTableRecord
100
AcDbBlockTableRecord
  2
block 116
340
0
102
{BLKREFS
331
399
102
}
  0
BLOCK_RECORD
  5
39D
330
1
100
AcDbSymbolTableRecord
100
AcDbBlockTableRecord
  2
block 117
340
0
102
{BLKREFS
331
39E
102
}
  0
BLOCK_RECORD
  5
3A5
330
1
100
AcDbSymbolTableRecord
100
AcDbBlockTableRecord
  2
block 118
340
0
102
{BLKREFS
331
3A6
102
}
  0
BLOCK_RECORD
  5
3AD
330
1
100
AcDbSymbolTableRecord
100
AcDbBlockTableRecord
  2
block 119
340
0
102
{BLKREFS
331
3AE
102
}
  0
BLOCK_RECORD
  5
3B5
330
1
100
AcDbSymbolTableRecord
100
AcDbBlockTableRecord
  2
block 120
340
0
102
{BLKREFS
331
3B6
102
}
  0
BLOCK_RECORD
  5
3B9
330
1
100
AcDbSymbolTableRecord
100
AcDbBlockTableRecord
  2
block 121
340
0
102
{BLKREFS
331
3BA
102
}
  0
BLOCK_RECORD
  5
3C1
330
1
100
AcDbSymbolTableRecord
100
AcDbBlockTableRecord
  2
block 122
340
0
102
{BLKREFS
331
3C2
102
}
  0
BLOCK_RECORD
  5
3C9
330
1
100
AcDbSymbolTableRecord
100
AcDbBlockTableRecord
  2
block 123
340
0
102
{BLKREFS
331
3CA
102
}
  0
BLOCK_RECORD
  5
3D1
330
1
100
AcDbSymbolTableRecord
100
AcDbBlockTableRecord
  2
block 124
340
0
102
{BLKREFS
331
3D2
102
}
  0
BLOCK_RECORD
  5
3D9
330
1
100
AcDbSymbolTableRecord
100
AcDbBlockTableRecord
  2
block 125
340
0
102
{BLKREFS
331
3DA
102
}
  0
BLOCK_RECORD
  5
3E4
330
1
100
AcDbSymbolTableRecord
100
AcDbBlockTableRecord
  2
block 126
340
0
102
{BLKREFS
331
3E5
102
}
  0
BLOCK_RECORD
  5
3EF
330
1
100
AcDbSymbolTableRecord
100
AcDbBlockTableRecord
  2
block 127
340
0
102
{BLKREFS
331
3F0
102
}
  0
BLOCK_RECORD
  5
3F4
330
1
100
AcDbSymbolTableRecord
100
AcDbBlockTableRecord
  2
block 128
340
0
102
{BLKREFS
331
3F5
102
}
  0
BLOCK_RECORD
  5
3FC
330
1
100
AcDbSymbolTableRecord
100
AcDbBlockTableRecord
  2
block 129
340
0
102
{BLKREFS
331
3FD
102
}
  0
BLOCK_RECORD
  5
404
330
1
100
AcDbSymbolTableRecord
100
AcDbBlockTableRecord
  2
block 130
340
0
102
{BLKREFS
331
405
102
}
  0
BLOCK_RECORD
  5
40C
330
1
100
AcDbSymbolTableRecord
100
AcDbBlockTableRecord
  2
block 131
340
0
102
{BLKREFS
331
40D
102
}
  0
BLOCK_RECORD
  5
410
330
1
100
AcDbSymbolTableRecord
100
AcDbBlockTableRecord
  2
block 132
340
0
102
{BLKREFS
331
411
102
}
  0
BLOCK_RECORD
  5
418
330
1
100
AcDbSymbolTableRecord
100
AcDbBlockTableRecord
  2
block 133
340
0
102
{BLKREFS
331
419
102
}
  0
BLOCK_RECORD
  5
420
330
1
100
AcDbSymbolTableRecord
100
AcDbBlockTableRecord
  2
block 134
340
0
102
{BLKREFS
331
421
102
}
  0
BLOCK_RECORD
  5
428
330
1
100
AcDbSymbolTableRecord
100
AcDbBlockTableRecord
  2
block 135
340
0
102
{BLKREFS
331
429
102
}
  0
BLOCK_RECORD
  5
430
330
1
100
AcDbSymbolTableRecord
100
AcDbBlockTableRecord
  2
block 136
340
0
102
{BLKREFS
331
431
102
}
  0
BLOCK_RECORD
  5
43B
330
1
100
AcDbSymbolTableRecord
100
AcDbBlockTableRecord
  2
block 137
340
0
102
{BLKREFS
331
43C
102
}
  0
BLOCK_RECORD
  5
446
330
1
100
AcDbSymbolTableRecord
100
AcDbBlockTableRecord
  2
block 138
340
0
102
{BLKREFS
331
447
102
}
  0
BLOCK_RECORD
  5
44B
330
1
100
AcDbSymbolTableRecord
100
AcDbBlockTableRecord
  2
block 139
340
0
102
{BLKREFS
331
44C
102
}
  0
BLOCK_RECORD
  5
453
330
1
100
AcDbSymbolTableRecord
100
AcDbBlockTableRecord
  2
block 140
340
0
102
{BLKREFS
331
454
102
}
  0
BLOCK_RECORD
  5
45B
330
1
100
AcDbSymbolTableRecord
100
AcDbBlockTableRecord
  2
block 141
340
0
102
{BLKREFS
331
45C
102
}
  0
BLOCK_RECORD
  5
463
330
1
100
AcDbSymbolTableRecord
100
AcDbBlockTableRecord
  2
block 142
340
0
102
{BLKREFS
331
464
102
}
  0
BLOCK_RECORD
  5
467
330
1
100
AcDbSymbolTableRecord
100
AcDbBlockTableRecord
  2
block 143
340
0
102
{BLKREFS
331
468
102
}
  0
BLOCK_RECORD
  5
46F
330
1
100
AcDbSymbolTableRecord
100
AcDbBlockTableRecord
  2
block 144
340
0
102
{BLKREFS
331
470
102
}
  0
BLOCK_RECORD
  5
477
330
1
100
AcDbSymbolTableRecord
100
AcDbBlockTableRecord
  2
block 145
340
0
102
{BLKREFS
331
478
102
}
  0
BLOCK_RECORD
  5
47F
330
1
100
AcDbSymbolTableRecord
100
AcDbBlockTableRecord
  2
block 146
340
0
102
{BLKREFS
331
480
102
}
  0
BLOCK_RECORD
  5
487
330
1
100
AcDbSymbolTableRecord
100
AcDbBlockTableRecord
  2
block 147
340
0
102
{BLKREFS
331
488
102
}
  0
BLOCK_RECORD
  5
48F
330
1
100
AcDbSymbolTableRecord
100
AcDbBlockTableRecord
  2
block 148
340
0
102
{BLKREFS
331
490
102
}
  0
BLOCK_RECORD
  5
497
330
1
100
AcDbSymbolTableRecord
100
AcDbBlockTableRecord
  2
block 149
340
0
102
{BLKREFS
331
498
102
}
  0
BLOCK_RECORD
  5
4A2
330
1
100
AcDbSymbolTableRecord
100
AcDbBlockTableRecord
  2
block 150
340
0
102
{BLKREFS
331
4A3
102
}
  0
BLOCK_RECORD
  5
4AD
330
1
100
AcDbSymbolTableRecord
100
AcDbBlockTableRecord
  2
block 151
340
0
102
{BLKREFS
331
4AE
102
}
  0
BLOCK_RECORD
  5
4B2
330
1
100
AcDbSymbolTableRecord
100
AcDbBlockTableRecord
  2
block 152
340
0
102
{BLKREFS
331
4B3
102
}
  0
BLOCK_RECORD
  5
4BA
330
1
100
AcDbSymbolTableRecord
100
AcDbBlockTableRecord
  2
block 153
340
0
102
{BLKREFS
331
4BB
102
}
  0
BLOCK_RECORD
  5
4C2
330
1
100
AcDbSymbolTableRecord
100
AcDbBlockTableRecord
  2
block 154
340
0
102
{BLKREFS
331
4C3
102
}
  0
BLOCK_RECORD
  5
4CA
330
1
100
AcDbSymbolTableRecord
100
AcDbBlockTableRecord
  2
block 155
340
0
102
{BLKREFS
331
4CB
102
}
  0
BLOCK_RECORD
  5
4CE
330
1
100
AcDbSymbolTableRecord
100
AcDbBlockTableRecord
  2
block 156
340
0
102
{BLKREFS
331
4CF
102
}
  0
BLOCK_RECORD
  5
4D6
330
1
100
AcDbSymbolTableRecord
100
AcDbBlockTableRecord
  2
block 157
340
0
102
{BLKREFS
331
4D7
102
}
  0
BLOCK_RECORD
  5
4DE
330
1
100
AcDbSymbolTableRecord
100
AcDbBlockTableRecord
  2
block 158
340
0
102
{BLKREFS
331
4DF
102
}
  0
BLOCK_RECORD
  5
4E6
330
1
100
AcDbSymbolTableRecord
100
AcDbBlockTableRecord
  2
block 159
340
0
102
{BLKREFS
331
4E7
102
}
  0
BLOCK_RECORD
  5
4EE
330
1
100
AcDbSymbolTableRecord
100
AcDbBlockTableRecord
  2
block 160
340
0
102
{BLKREFS
331
4EF
102
}
  0
BLOCK_RECORD
  5
4F9
330
1
100
AcDbSymbolTableRecord
100
AcDbBlockTableRecord
  2
block 161
340
0
102
{BLKREFS
331
4FA
102
}
  0
BLOCK_RECORD
  5
504
330
1
100
AcDbSymbolTableRecord
100
AcDbBlockTableRecord
  2
block 162
340
0
102
{BLKREFS
331
505
102
}
  0
BLOCK_RECORD
  5
509
330
1
100
AcDbSymbolTableRecord
100
AcDbBlockTableRecord
  2
block 163
340
0
102
{BLKREFS
331
50A
102
}
  0
BLOCK_RECORD
  5
511
330
1
100
AcDbSymbolTableRecord
100
AcDbBlockTableRecord
  2
block 164
340
0
102
{BLKREFS
331
512
102
}
  0
BLOCK_RECORD
  5
519
330
1
100
AcDbSymbolTableRecord
100
AcDbBlockTableRecord
  2
block 165
340
0
102
{BLKREFS
331
51A
102
}
  0
BLOCK_RECORD
  5
521
330
1
100
AcDbSymbolTableRecord
100
AcDbBlockTableRecord
  2
block 166
340
0
102
{BLKREFS
331
522
102
}
  0
BLOCK_RECORD
  5
525
330
1
100
AcDbSymbolTableRecord
100
AcDbBlockTableRecord
  2
block 167
340
0
102
{BLKREFS
331
526
102
}
  0
BLOCK_RECORD
  5
52D
330
1
100
AcDbSymbolTableRecord
100
AcDbBlockTableRecord
  2
block 168
340
0
102
{BLKREFS
331
52E
102
}
  0
BLOCK_RECORD
  5
535
330
1
100
AcDbSymbolTableRecord
100
AcDbBlockTableRecord
  2
block 169
340
0
102
{BLKREFS
331
536
102
}
  0
BLOCK_RECORD
  5
53D
330
1
100
AcDbSymbolTableRecord
100
AcDbBlockTableRecord
  2
block 170
340
0
102
{BLKREFS
331
53E
102
}
  0
BLOCK_RECORD
  5
545
330
1
100
AcDbSymbolTableRecord
100
AcDbBlockTableRecord
  2
block 171
340
0
102
{BLKREFS
331
546
102
}
  0
BLOCK_RECORD
  5
550
330
1
100
AcDbSymbolTableRecord
100
AcDbBlockTableRecord
  2
block 172
340
0
102
{BLKREFS
331
551
102
}
  0
BLOCK_RECORD
  5
55B
330
1
100
AcDbSymbolTableRecord
100
AcDbBlockTableRecord
  2
block 173
340
0
102
{BLKREFS
331
55C
102
}
  0
BLOCK_RECORD
  5
560
330
1
100
AcDbSymbolTableRecord
100
AcDbBlockTableRecord
  2
block 174
340
0
102
{BLKREFS
331
561
102
}
  0
BLOCK_RECORD
  5
568
330
1
100
AcDbSymbolTableRecord
100
AcDbBlockTableRecord
  2
block 175
340
0
102
{BLKREFS
331
569
102
}
  0
BLOCK_RECORD
  5
570
330
1
100
AcDbSymbolTableRecord
100
AcDbBlockTableRecord
  2
block 176
340
0
102
{BLKREFS
331
571
102
}
  0
BLOCK_RECORD
  5
578
330
1
100
AcDbSymbolTableRecord
100
AcDbBlockTableRecord
  2
block 177
340
0
102
{BLKREFS
331
579
102
}
  0
BLOCK_RECORD
  5
57C
330
1
100
AcDbSymbolTableRecord
100
AcDbBlockTableRecord
  2
block 178
340
0
102
{BLKREFS
331
57D
102
}
  0
BLOCK_RECORD
  5
584
330
1
100
AcDbSymbolTableRecord
100
AcDbBlockTableRecord
  2
block 179
340
0
102
{BLKREFS
331
585
102
}
  0
BLOCK_RECORD
  5
58C
330
1
100
AcDbSymbolTableRecord
100
AcDbBlockTableRecord
  2
block 180
340
0
102
{BLKREFS
331
58D
102
}
  0
BLOCK_RECORD
  5
594
330
1
100
AcDbSymbolTableRecord
100
AcDbBlockTableRecord
  2
block 181
340
0
102
{BLKREFS
331
595
102
}
  0
BLOCK_RECORD
  5
59C
330
1
100
AcDbSymbolTableRecord
100
AcDbBlockTableRecord
  2
block 182
340
0
102
{BLKREFS
331
59D
102
}
  0
BLOCK_RECORD
  5
5A4
330
1
100
AcDbSymbolTableRecord
100
AcDbBlockTableRecord
  2
block 183
340
0
102
{BLKREFS
331
5A5
102
}
  0
BLOCK_RECORD
  5
5AF
330
1
100
AcDbSymbolTableRecord
100
AcDbBlockTableRecord
  2
block 184
340
0
102
{BLKREFS
331
5B0
102
}
  0
BLOCK_RECORD
  5
5BA
330
1
100
AcDbSymbolTableRecord
100
AcDbBlockTableRecord
  2
block 185
340
0
102
{BLKREFS
331
5BB
102
}
  0
BLOCK_RECORD
  5
5BF
330
1
100
AcDbSymbolTableRecord
100
AcDbBlockTableRecord
  2
block 186
340
0
102
{BLKREFS
331
5C0
102
}
  0
BLOCK_RECORD
  5
5C7
330
1
100
AcDbSymbolTableRecord
100
AcDbBlockTableRecord
  2
block 187
340
0
102
{BLKREFS
331
5C8
102
}
  0
BLOCK_RECORD
  5
5CF
330
1
100
AcDbSymbolTableRecord
100
AcDbBlockTableRecord
  2
block 188
340
0
102
{BLKREFS
331
5D0
102
}
  0
BLOCK_RECORD
  5
5D7
330
1
100
AcDbSymbolTableRecord
100
AcDbBlockTableRecord
  2
block 189
340
0
102
{BLKREFS
331
5D8
102
}
  0
BLOCK_RECORD
  5
5DB
330
1
100
AcDbSymbolTableRecord
100
AcDbBlockTableRecord
  2
block 190
340
0
102
{BLKREFS
331
5DC
102
}
  0
BLOCK_RECORD
  5
5E3
330
1
100
AcDbSymbolTableRecord
100
AcDbBlockTableRecord
  2
block 191
340
0
102
{BLKREFS
331
5E4
102
}
  0
BLOCK_RECORD
  5
5EB
330
1
100
AcDbSymbolTableRecord
100
AcDbBlockTableRecord
  2
block 192
340
0
102
{BLKREFS
331
5EC
102
}
  0
BLOCK_RECORD
  5
5F3
330
1
100
AcDbSymbolTableRecord
100
AcDbBlockTableRecord
  2
block 193
340
0
102
{BLKREFS
331
5F4
102
}
  0
BLOCK_RECORD
  5
5FB
330
1
100
AcDbSymbolTableRecord
100
AcDbBlockTableRecord
  2
block 194
340
0
102
{BLKREFS
331
5FC
102
}
  0
BLOCK_RECORD
  5
606
330
1
100
AcDbSymbolTableRecord
100
AcDbBlockTableRecord
  2
block 195
340
0
102
{BLKREFS
331
607
102
}
  0
BLOCK_RECORD
  5
611
330
1
100
AcDbSymbolTableRecord
100
AcDbBlockTableRecord
  2
block 196
340
0
102
{BLKREFS
331
612
102
}
  0
BLOCK_RECORD
  5
616
330
1
100
AcDbSymbolTableRecord
100
AcDbBlockTableRecord
  2
block 197
340
0
102
{BLKREFS
331
617
102
}
  0
BLOCK_RECORD
  5
61E
330
1
100
AcDbSymbolTableRecord
100
AcDbBlockTableRecord
  2
block 198
340
0
102
{BLKREFS
331
61F
102
}
  0
BLOCK_RECORD
  5
626
330
1
100
AcDbSymbolTableRecord
100
AcDbBlockTableRecord
  2
block 199
340
0
102
{BLKREFS
331
627
102
}
  0
BLOCK_RECORD
  5
62E
330
1
100
AcDbSymbolTableRecord
100
AcDbBlockTableRecord
  2
block 200
340
0
102
{BLKREFS
331
62F
102
}
  0
BLOCK_RECORD
  5
632
330
1
100
AcDbSymbolTableRecord
100
AcDbBlockTableRecord
  2
block 201
340
0
102
{BLKREFS
331
633
102
}
  0
BLOCK_RECORD
  5
63A
330
1
100
AcDbSymbolTableRecord
100
AcDbBlockTableRecord
  2
block 202
340
0
102
{BLKREFS
331
63B
102
}
  0
BLOCK_RECORD
  5
642
330
1
100
AcDbSymbolTableRecord
100
AcDbBlockTableRecord
  2
block 203
340
0
102
{BLKREFS
331
643
102
}
  0
BLOCK_RECORD
  5
64A
330
1
100
AcDbSymbolTableRecord
100
AcDbBlockTableRecord
  2
block 204
340
0
102
{BLKREFS
331
64B
102
}
  0
BLOCK_RECORD
  5
652
330
1
100
AcDbSymbolTableRecord
100
AcDbBlockTableRecord
  2
block 205
340
0
102
{BLKREFS
331
653
102
}
  0
BLOCK_RECORD
  5
65D
330
1
100
AcDbSymbolTableRecord
100
AcDbBlockTableRecord
  2
block 206
340
0
102
{BLKREFS
331
65E
102
}
  0
BLOCK_RECORD
  5
668
330
1
100
AcDbSymbolTableRecord
100
AcDbBlockTableRecord
  2
block 207
340
0
102
{BLKREFS
331
669
102
}
  0
BLOCK_RECORD
  5
66D
330
1
100
AcDbSymbolTableRecord
100
AcDbBlockTableRecord
  2
block 208
340
0
102
{BLKREFS
331
66E
102
}
  0
BLOCK_RECORD
  5
675
330
1
100
AcDbSymbolTableRecord
100
AcDbBlockTableRecord
  2
block 209
340
0
102
{BLKREFS
331
676
102
}
  0
BLOCK_RECORD
  5
67D
330
1
100
AcDbSymbolTableRecord
100
AcDbBlockTableRecord
  2
block 210
340
0
102
{BLKREFS
331
67E
102
}
  0
ENDTAB
  0
ENDSEC
  0
SECTION
  2
BLOCKS
  0
BLOCK
  5
20
330
1F
100
AcDbEntity
  8
0
100
AcDbBlockBegin
  2
*Model_Space
 70
     0
 71
     0
 10
0.0
 20
0.0
 30
0.0
  3
*Model_Space
  1

  0
ENDBLK
  5
21
330
1F
100
AcDbEntity
  8
0
100
AcDbBlockEnd
  0
BLOCK
  5
1C
330
1B
100
AcDbEntity
 67
     1
  8
0
100
AcDbBlockBegin
  2
*Paper_Space
 70
     0
 71
     0
 10
0.0
 20
0.0
 30
0.0
  3
*Paper_Space
  1

  0
ENDBLK
  5
1D
330
1B
100
AcDbEntity
 67
     1
  8
0
100
AcDbBlockEnd
  0
BLOCK
  5
24
330
23
100
AcDbEntity
  8
0
100
AcDbBlockBegin
  2
*Paper_Space0
 70
     0
 71
     0
 10
0.0
 20
0.0
 30
0.0
  3
*Paper_Space0
  1

  0
ENDBLK
  5
25
330
23
100
AcDbEntity
  8
0
100
AcDbBlockEnd
  0
BLOCK
  5
3E
330
3C
100
AcDbEntity
  8
0
100
AcDbBlockBegin
  2
block 2
 70
     0
 71
     0
 10
0.0
 20
0.0
 30
0.0
  3
block 2
  1

  0
ENDBLK
  5
3F
330
3C
100
AcDbEntity
  8
0
100
AcDbBlockEnd
  0
BLOCK
  5
42
330
40
100
AcDbEntity
  8
0
100
AcDbBlockBegin
  2
block 3
 70
     0
 71
     0
 10
0.0
 20
0.0
 30
0.0
  3
block 3
  1

  0
ENDBLK
  5
43
330
40
100
AcDbEntity
  8
0
100
AcDbBlockEnd
  0
BLOCK
  5
46
330
44
100
AcDbEntity
  8
0
100
AcDbBlockBegin
  2
block 4
 70
     0
 71
     0
 10
0.0
 20
0.0
 30
0.0
  3
block 4
  1

  0
ENDBLK
  5
47
330
44
100
AcDbEntity
  8
0
100
AcDbBlockEnd
  0
BLOCK
  5
4A
330
48
100
AcDbEntity
  8
0
100
AcDbBlockBegin
  2
block 5
 70
     0
 71
     0
 10
0.0
 20
0.0
 30
0.0
  3
block 5
  1

  0
ENDBLK
  5
4B
330
48
100
AcDbEntity
  8
0
100
AcDbBlockEnd
  0
BLOCK
  5
4E
330
4C
100
AcDbEntity
  8
0
100
AcDbBlockBegin
  2
block 6
 70
     0
 71
     0
 10
0.0
 20
0.0
 30
0.0
  3
block 6
  1

  0
MTEXT
  5
50
330
4C
100
AcDbEntity
  8
CAJETIN
 62
     4
100
AcDbMText
 10
-1704.638504756753
 20
4541.762635882153
 30
0.0
 40
0.1998306800239333
 41
0.0
 71
     7
 72
     1
  1
\fMyriad Pro|b0|i0|c0|p34;\W4.66642; 
 73
     1
 44
1.0
  0
ENDBLK
  5
4F
330
4C
100
AcDbEntity
  8
0
100
AcDbBlockEnd
  0
BLOCK
  5
53
330
51
100
AcDbEntity
  8
0
100
AcDbBlockBegin
  2
block 7
 70
     0
 71
     0
 10
0.0
 20
0.0
 30
0.0
  3
block 7
  1

  0
MTEXT
  5
55
330
51
100
AcDbEntity
  8
CAJETIN
 62
     4
100
AcDbMText
 10
-1703.625646015912
 20
4541.762635882153
 30
0.0
 40
0.1998306800239333
 41
0.0
 71
     7
 72
     1
  1
\fMyriad Pro|b0|i0|c0|p34;\W4.57242; 
 73
     1
 44
1.0
  0
ENDBLK
  5
54
330
51
100
AcDbEntity
  8
0
100
AcDbBlockEnd
  0
BLOCK
  5
58
330
56
100
AcDbEntity
  8
0
100
AcDbBlockBegin
  2
block 8
 70
     0
 71
     0
 10
0.0
 20
0.0
 30
0.0
  3
block 8
  1

  0
MTEXT
  5
5A
330
56
100
AcDbEntity
  8
CAJETIN
 62
     4
100
AcDbMText
 10
-1678.538444142435
 20
4570.503708437724
 30
0.0
 40
0.1998306800239333
 41
0.0
 71
     7
 72
     1
  1
\fMyriad Pro|b0|i0|c0|p34;\W4.66642; 
 73
     1
 44
1.0
  0
ENDBLK
  5
59
330
56
100
AcDbEntity
  8
0
100
AcDbBlockEnd
  0
BLOCK
  5
5D
330
5B
100
AcDbEntity
  8
0
100
AcDbBlockBegin
  2
block 9
 70
     0
 71
     0
 10
0.0
 20
0.0
 30
0.0
  3
block 9
  1

  0
MTEXT
  5
5F
330
5B
100
AcDbEntity
  8
CAJETIN
 62
     4
100
AcDbMText
 10
-1677.525240891819
 20
4570.503708437724
 30
0.0
 40
0.1998306800239333
 41
0.0
 71
     7
 72
     1
  1
\fMyriad Pro|b0|i0|c0|p34;\W4.57242; 
 73
     1
 44
1.0
  0
ENDBLK
  5
5E
330
5B
100
AcDbEntity
  8
0
100
AcDbBlockEnd
  0
BLOCK
  5
62
330
60
100
AcDbEntity
  8
0
100
AcDbBlockBegin
  2
block 10
 70
     0
 71
     0
 10
0.0
 20
0.0
 30
0.0
  3
block 10
  1

  0
MTEXT
  5
64
330
60
100
AcDbEntity
  8
CAJETIN
 62
     4
100
AcDbMText
 10
-1667.966817162354
 20
4578.733357961943
 30
0.0
 40
0.2997460343344015
 41
0.0
 71
     7
 72
     1
  1
\fMyriad Pro|b0|i0|c0|p34;\W1.15; 
 73
     1
 44
1.0
  0
ENDBLK
  5
63
330
60
100
AcDbEntity
  8
0
100
AcDbBlockEnd
  0
BLOCK
  5
67
330
65
100
AcDbEntity
  8
0
100
AcDbBlockBegin
  2
block 11
 70
     0
 71
     0
 10
0.0
 20
0.0
 30
0.0
  3
block 11
  1

  0
MTEXT
  5
69
330
65
100
AcDbEntity
  8
CAJETIN
 62
     4
100
AcDbMText
 10
-1630.865870387313
 20
4592.607455652806
 30
0.0
 40
0.1998306800239333
 41
0.0
 71
     7
 72
     1
  1
\fMyriad Pro|b0|i0|c0|p34;\W4.66642; 
 73
     1
 44
1.0
  0
ENDBLK
  5
68
330
65
100
AcDbEntity
  8
0
100
AcDbBlockEnd
  0
BLOCK
  5
6C
330
6A
100
AcDbEntity
  8
0
100
AcDbBlockBegin
  2
block 12
 70
     0
 71
     0
 10
0.0
 20
0.0
 30
0.0
  3
block 12
  1

  0
MTEXT
  5
6E
330
6A
100
AcDbEntity
  8
CAJETIN
 62
     4
100
AcDbMText
 10
-1629.852667136696
 20
4592.607455652806
 30
0.0
 40
0.1998306800239333
 41
0.0
 71
     7
 72
     1
  1
\fMyriad Pro|b0|i0|c0|p34;\W4.57242; 
 73
     1
 44
1.0
  0
ENDBLK
  5
6D
330
6A
100
AcDbEntity
  8
0
100
AcDbBlockEnd
  0
BLOCK
  5
71
330
6F
100
AcDbEntity
  8
0
100
AcDbBlockBegin
  2
block 13
 70
     0
 71
     0
 10
0.0
 20
0.0
 30
0.0
  3
block 13
  1

  0
MTEXT
  5
73
330
6F
100
AcDbEntity
  8
CAJETIN
 62
     4
100
AcDbMText
 10
-1620.730048273614
 20
4649.144265939163
 30
0.0
 40
0.1998306800239333
 41
0.0
 71
     7
 72
     1
  1
\fMyriad Pro|b0|i0|c0|p34;\W4.66642; 
 73
     1
 44
1.0
  0
ENDBLK
  5
72
330
6F
100
AcDbEntity
  8
0
100
AcDbBlockEnd
  0
BLOCK
  5
76
330
74
100
AcDbEntity
  8
0
100
AcDbBlockBegin
  2
block 14
 70
     0
 71
     0
 10
0.0
 20
0.0
 30
0.0
  3
block 14
  1

  0
MTEXT
  5
78
330
74
100
AcDbEntity
  8
CAJETIN
 62
     4
100
AcDbMText
 10
-1619.716845022997
 20
4649.144265939163
 30
0.0
 40
0.1998306800239333
 41
0.0
 71
     7
 72
     1
  1
\fMyriad Pro|b0|i0|c0|p34;\W4.57242; 
 73
     1
 44
1.0
  0
ENDBLK
  5
77
330
74
100
AcDbEntity
  8
0
100
AcDbBlockEnd
  0
BLOCK
  5
7B
330
79
100
AcDbEntity
  8
0
100
AcDbBlockBegin
  2
block 15
 70
     0
 71
     0
 10
0.0
 20
0.0
 30
0.0
  3
block 15
  1

  0
ENDBLK
  5
7C
330
79
100
AcDbEntity
  8
0
100
AcDbBlockEnd
  0
BLOCK
  5
7F
330
7D
100
AcDbEntity
  8
0
100
AcDbBlockBegin
  2
block 16
 70
     0
 71
     0
 10
0.0
 20
0.0
 30
0.0
  3
block 16
  1

  0
ENDBLK
  5
80
330
7D
100
AcDbEntity
  8
0
100
AcDbBlockEnd
  0
BLOCK
  5
83
330
81
100
AcDbEntity
  8
0
100
AcDbBlockBegin
  2
block 17
 70
     0
 71
     0
 10
0.0
 20
0.0
 30
0.0
  3
block 17
  1

  0
MTEXT
  5
85
330
81
100
AcDbEntity
  8
CAJETIN
 62
     4
100
AcDbMText
 10
-1614.118905676085
 20
4798.624301578915
 30
0.0
 40
0.1998306800239333
 41
0.0
 71
     7
 72
     1
  1
\fMyriad Pro|b0|i0|c0|p34;\W4.66642; 
 73
     1
 44
1.0
  0
ENDBLK
  5
84
330
81
100
AcDbEntity
  8
0
100
AcDbBlockEnd
  0
BLOCK
  5
88
330
86
100
AcDbEntity
  8
0
100
AcDbBlockBegin
  2
block 18
 70
     0
 71
     0
 10
0.0
 20
0.0
 30
0.0
  3
block 18
  1

  0
MTEXT
  5
8A
330
86
100
AcDbEntity
  8
CAJETIN
 62
     4
100
AcDbMText
 10
-1613.105702425469
 20
4798.624301578915
 30
0.0
 40
0.1998306800239333
 41
0.0
 71
     7
 72
     1
  1
\fMyriad Pro|b0|i0|c0|p34;\W4.57242; 
 73
     1
 44
1.0
  0
ENDBLK
  5
89
330
86
100
AcDbEntity
  8
0
100
AcDbBlockEnd
  0
BLOCK
  5
8D
330
8B
100
AcDbEntity
  8
0
100
AcDbBlockBegin
  2
block 19
 70
     0
 71
     0
 10
0.0
 20
0.0
 30
0.0
  3
block 19
  1

  0
MTEXT
  5
8F
330
8B
100
AcDbEntity
  8
CAJETIN
 62
     4
100
AcDbMText
 10
-1588.018500551992
 20
4827.364685114934
 30
0.0
 40
0.1998306800239333
 41
0.0
 71
     7
 72
     1
  1
\fMyriad Pro|b0|i0|c0|p34;\W4.66642; 
 73
     1
 44
1.0
  0
ENDBLK
  5
8E
330
8B
100
AcDbEntity
  8
0
100
AcDbBlockEnd
  0
BLOCK
  5
92
330
90
100
AcDbEntity
  8
0
100
AcDbBlockBegin
  2
block 20
 70
     0
 71
     0
 10
0.0
 20
0.0
 30
0.0
  3
block 20
  1

  0
MTEXT
  5
94
330
90
100
AcDbEntity
  8
CAJETIN
 62
     4
100
AcDbMText
 10
-1587.005641811151
 20
4827.364685114934
 30
0.0
 40
0.1998306800239333
 41
0.0
 71
     7
 72
     1
  1
\fMyriad Pro|b0|i0|c0|p34;\W4.57242; 
 73
     1
 44
1.0
  0
ENDBLK
  5
93
330
90
100
AcDbEntity
  8
0
100
AcDbBlockEnd
  0
BLOCK
  5
97
330
95
100
AcDbEntity
  8
0
100
AcDbBlockBegin
  2
block 21
 70
     0
 71
     0
 10
0.0
 20
0.0
 30
0.0
  3
block 21
  1

  0
MTEXT
  5
99
330
95
100
AcDbEntity
  8
CAJETIN
 62
     4
100
AcDbMText
 10
-1577.446873571911
 20
4835.595712678257
 30
0.0
 40
0.2997460343344015
 41
0.0
 71
     7
 72
     1
  1
\fMyriad Pro|b0|i0|c0|p34;\W1.15; 
 73
     1
 44
1.0
  0
ENDBLK
  5
98
330
95
100
AcDbEntity
  8
0
100
AcDbBlockEnd
  0
BLOCK
  5
9C
330
9A
100
AcDbEntity
  8
0
100
AcDbBlockBegin
  2
block 22
 70
     0
 71
     0
 10
0.0
 20
0.0
 30
0.0
  3
block 22
  1

  0
MTEXT
  5
9E
330
9A
100
AcDbEntity
  8
CAJETIN
 62
     4
100
AcDbMText
 10
-1540.34592679687
 20
4849.468432330016
 30
0.0
 40
0.1998306800239333
 41
0.0
 71
     7
 72
     1
  1
\fMyriad Pro|b0|i0|c0|p34;\W4.66642; 
 73
     1
 44
1.0
  0
ENDBLK
  5
9D
330
9A
100
AcDbEntity
  8
0
100
AcDbBlockEnd
  0
BLOCK
  5
A1
330
9F
100
AcDbEntity
  8
0
100
AcDbBlockBegin
  2
block 23
 70
     0
 71
     0
 10
0.0
 20
0.0
 30
0.0
  3
block 23
  1

  0
MTEXT
  5
A3
330
9F
100
AcDbEntity
  8
CAJETIN
 62
     4
100
AcDbMText
 10
-1539.333068056029
 20
4849.468432330016
 30
0.0
 40
0.1998306800239333
 41
0.0
 71
     7
 72
     1
  1
\fMyriad Pro|b0|i0|c0|p34;\W4.57242; 
 73
     1
 44
1.0
  0
ENDBLK
  5
A2
330
9F
100
AcDbEntity
  8
0
100
AcDbBlockEnd
  0
BLOCK
  5
A6
330
A4
100
AcDbEntity
  8
0
100
AcDbBlockBegin
  2
block 24
 70
     0
 71
     0
 10
0.0
 20
0.0
 30
0.0
  3
block 24
  1

  0
MTEXT
  5
A8
330
A4
100
AcDbEntity
  8
CAJETIN
 62
     4
100
AcDbMText
 10
-1530.210449192946
 20
4906.006620655477
 30
0.0
 40
0.1998306800239333
 41
0.0
 71
     7
 72
     1
  1
\fMyriad Pro|b0|i0|c0|p34;\W4.66642; 
 73
     1
 44
1.0
  0
ENDBLK
  5
A7
330
A4
100
AcDbEntity
  8
0
100
AcDbBlockEnd
  0
BLOCK
  5
AB
330
A9
100
AcDbEntity
  8
0
100
AcDbBlockBegin
  2
block 25
 70
     0
 71
     0
 10
0.0
 20
0.0
 30
0.0
  3
block 25
  1

  0
MTEXT
  5
AD
330
A9
100
AcDbEntity
  8
CAJETIN
 62
     4
100
AcDbMText
 10
-1529.197590452106
 20
4906.006620655477
 30
0.0
 40
0.1998306800239333
 41
0.0
 71
     7
 72
     1
  1
\fMyriad Pro|b0|i0|c0|p34;\W4.57242; 
 73
     1
 44
1.0
  0
ENDBLK
  5
AC
330
A9
100
AcDbEntity
  8
0
100
AcDbBlockEnd
  0
BLOCK
  5
B0
330
AE
100
AcDbEntity
  8
0
100
AcDbBlockBegin
  2
block 26
 70
     0
 71
     0
 10
0.0
 20
0.0
 30
0.0
  3
block 26
  1

  0
ENDBLK
  5
B1
330
AE
100
AcDbEntity
  8
0
100
AcDbBlockEnd
  0
BLOCK
  5
B4
330
B2
100
AcDbEntity
  8
0
100
AcDbBlockBegin
  2
block 27
 70
     0
 71
     0
 10
0.0
 20
0.0
 30
0.0
  3
block 27
  1

  0
ENDBLK
  5
B5
330
B2
100
AcDbEntity
  8
0
100
AcDbBlockEnd
  0
BLOCK
  5
B8
330
B6
100
AcDbEntity
  8
0
100
AcDbBlockBegin
  2
block 28
 70
     0
 71
     0
 10
0.0
 20
0.0
 30
0.0
  3
block 28
  1

  0
ENDBLK
  5
B9
330
B6
100
AcDbEntity
  8
0
100
AcDbBlockEnd
  0
BLOCK
  5
BC
330
BA
100
AcDbEntity
  8
0
100
AcDbBlockBegin
  2
block 29
 70
     0
 71
     0
 10
0.0
 20
0.0
 30
0.0
  3
block 29
  1

  0
ENDBLK
  5
BD
330
BA
100
AcDbEntity
  8
0
100
AcDbBlockEnd
  0
BLOCK
  5
C1
330
BF
100
AcDbEntity
  8
0
100
AcDbBlockBegin
  2
block 30
 70
     0
 71
     0
 10
0.0
 20
0.0
 30
0.0
  3
block 30
  1

  0
POLYLINE
  5
C3
330
BF
100
AcDbEntity
  8
0
 62
     7
370
    25
100
AcDb2dPolyline
 66
     1
 10
0.0
 20
0.0
 30
0.0
  0
VERTEX
  5
C4
330
C3
100
AcDbEntity
  8
0
 62
     7
370
    25
100
AcDbVertex
100
AcDb2dVertex
 10
38.73357860253906
 20
173.7647019905111
 30
0.0
  0
VERTEX
  5
C5
330
C3
100
AcDbEntity
  8
0
 62
     7
370
    25
100
AcDbVertex
100
AcDb2dVertex
 10
38.73357860253906
 20
180.7904621032103
 30
0.0
  0
SEQEND
  5
C6
330
C3
100
AcDbEntity
  8
0
370
    25
  0
ENDBLK
  5
C2
330
BF
100
AcDbEntity
  8
0
100
AcDbBlockEnd
  0
BLOCK
  5
C9
330
C7
100
AcDbEntity
  8
0
100
AcDbBlockBegin
  2
block 31
 70
     0
 71
     0
 10
0.0
 20
0.0
 30
0.0
  3
block 31
  1

  0
POLYLINE
  5
CB
330
C7
100
AcDbEntity
  8
0
 62
     7
370
    25
100
AcDb2dPolyline
 66
     1
 10
0.0
 20
0.0
 30
0.0
  0
VERTEX
  5
CC
330
CB
100
AcDbEntity
  8
0
 62
     7
370
    25
100
AcDbVertex
100
AcDb2dVertex
 10
87.7921151856893
 20
166.7706367771852
 30
0.0
  0
VERTEX
  5
CD
330
CB
100
AcDbEntity
  8
0
 62
     7
370
    25
100
AcDbVertex
100
AcDb2dVertex
 10
79.59898369770481
 20
166.7706367771852
 30
0.0
  0
SEQEND
  5
CE
330
CB
100
AcDbEntity
  8
0
370
    25
  0
ENDBLK
  5
CA
330
C7
100
AcDbEntity
  8
0
100
AcDbBlockEnd
  0
BLOCK
  5
D1
330
CF
100
AcDbEntity
  8
0
100
AcDbBlockBegin
  2
block 32
 70
     0
 71
     0
 10
0.0
 20
0.0
 30
0.0
  3
block 32
  1

  0
POLYLINE
  5
D3
330
CF
100
AcDbEntity
  8
0
 62
     7
370
    25
100
AcDb2dPolyline
 66
     1
 10
0.0
 20
0.0
 30
0.0
  0
VERTEX
  5
D4
330
D3
100
AcDbEntity
  8
0
 62
     7
370
    25
100
AcDbVertex
100
AcDb2dVertex
 10
79.19935235778125
 20
167.2717262460807
 30
0.0
  0
VERTEX
  5
D5
330
D3
100
AcDbEntity
  8
0
 62
     7
370
    25
100
AcDbVertex
100
AcDb2dVertex
 10
79.19935235778125
 20
167.1702681171088
 30
0.0
  0
SEQEND
  5
D6
330
D3
100
AcDbEntity
  8
0
370
    25
  0
ENDBLK
  5
D2
330
CF
100
AcDbEntity
  8
0
100
AcDbBlockEnd
  0
BLOCK
  5
D9
330
D7
100
AcDbEntity
  8
0
100
AcDbBlockBegin
  2
block 33
 70
     0
 71
     0
 10
0.0
 20
0.0
 30
0.0
  3
block 33
  1

  0
POLYLINE
  5
DB
330
D7
100
AcDbEntity
  8
0
 62
     7
370
    25
100
AcDb2dPolyline
 66
     1
 10
0.0
 20
0.0
 30
0.0
  0
VERTEX
  5
DC
330
DB
100
AcDbEntity
  8
0
 62
     7
370
    25
100
AcDbVertex
100
AcDb2dVertex
 10
38.73357860253906
 20
173.7647019905111
 30
0.0
  0
VERTEX
  5
DD
330
DB
100
AcDbEntity
  8
0
 62
     7
370
    25
100
AcDbVertex
100
AcDb2dVertex
 10
128.657520280855
 20
173.7647019905111
 30
0.0
  0
SEQEND
  5
DE
330
DB
100
AcDbEntity
  8
0
370
    25
  0
ENDBLK
  5
DA
330
D7
100
AcDbEntity
  8
0
100
AcDbBlockEnd
  0
BLOCK
  5
E1
330
DF
100
AcDbEntity
  8
0
100
AcDbBlockBegin
  2
block 34
 70
     0
 71
     0
 10
0.0
 20
0.0
 30
0.0
  3
block 34
  1

  0
POLYLINE
  5
E3
330
DF
100
AcDbEntity
  8
0
 62
     7
370
    25
100
AcDb2dPolyline
 66
     1
 10
0.0
 20
0.0
 30
0.0
  0
VERTEX
  5
E4
330
E3
100
AcDbEntity
  8
0
 62
     7
370
    25
100
AcDbVertex
100
AcDb2dVertex
 10
117.6673139231815
 20
173.7647019905111
 30
0.0
  0
VERTEX
  5
E5
330
E3
100
AcDbEntity
  8
0
 62
     7
370
    25
100
AcDbVertex
100
AcDb2dVertex
 10
128.657520280855
 20
173.7647019905111
 30
0.0
  0
SEQEND
  5
E6
330
E3
100
AcDbEntity
  8
0
370
    25
  0
ENDBLK
  5
E2
330
DF
100
AcDbEntity
  8
0
100
AcDbBlockEnd
  0
BLOCK
  5
E9
330
E7
100
AcDbEntity
  8
0
100
AcDbBlockBegin
  2
block 35
 70
     0
 71
     0
 10
0.0
 20
0.0
 30
0.0
  3
block 35
  1

  0
POLYLINE
  5
EB
330
E7
100
AcDbEntity
  8
0
 62
     7
370
    25
100
AcDb2dPolyline
 66
     1
 10
0.0
 20
0.0
 30
0.0
  0
VERTEX
  5
EC
330
EB
100
AcDbEntity
  8
0
 62
     7
370
    25
100
AcDbVertex
100
AcDb2dVertex
 10
95.16186830952094
 20
177.9951097824002
 30
0.0
  0
VERTEX
  5
ED
330
EB
100
AcDbEntity
  8
0
 62
     7
370
    25
100
AcDbVertex
100
AcDb2dVertex
 10
95.07057321893495
 20
177.9913201748664
 30
0.0
  0
SEQEND
  5
EE
330
EB
100
AcDbEntity
  8
0
370
    25
  0
ENDBLK
  5
EA
330
E7
100
AcDbEntity
  8
0
100
AcDbBlockEnd
  0
BLOCK
  5
F1
330
EF
100
AcDbEntity
  8
0
100
AcDbBlockBegin
  2
block 36
 70
     0
 71
     0
 10
0.0
 20
0.0
 30
0.0
  3
block 36
  1

  0
POLYLINE
  5
F3
330
EF
100
AcDbEntity
  8
0
 62
     7
370
    25
100
AcDb2dPolyline
 66
     1
 10
0.0
 20
0.0
 30
0.0
  0
VERTEX
  5
F4
330
F3
100
AcDbEntity
  8
0
 62
     7
370
    25
100
AcDbVertex
100
AcDb2dVertex
 10
88.19174652561286
 20
167.2717262460807
 30
0.0
  0
VERTEX
  5
F5
330
F3
100
AcDbEntity
  8
0
 62
     7
370
    25
100
AcDbVertex
100
AcDb2dVertex
 10
88.19174652561286
 20
167.1702681171088
 30
0.0
  0
SEQEND
  5
F6
330
F3
100
AcDbEntity
  8
0
370
    25
  0
ENDBLK
  5
F2
330
EF
100
AcDbEntity
  8
0
100
AcDbBlockEnd
  0
BLOCK
  5
F9
330
F7
100
AcDbEntity
  8
0
100
AcDbBlockBegin
  2
block 37
 70
     0
 71
     0
 10
0.0
 20
0.0
 30
0.0
  3
block 37
  1

  0
POLYLINE
  5
FB
330
F7
100
AcDbEntity
  8
0
 62
     7
370
    25
100
AcDb2dPolyline
 66
     1
 10
0.0
 20
0.0
 30
0.0
  0
VERTEX
  5
FC
330
FB
100
AcDbEntity
  8
0
 62
     7
370
    25
100
AcDbVertex
100
AcDb2dVertex
 10
128.657520280855
 20
173.7647019905111
 30
0.0
  0
VERTEX
  5
FD
330
FB
100
AcDbEntity
  8
0
 62
     7
370
    25
100
AcDbVertex
100
AcDb2dVertex
 10
128.657520280855
 20
180.7904621032103
 30
0.0
  0
SEQEND
  5
FE
330
FB
100
AcDbEntity
  8
0
370
    25
  0
ENDBLK
  5
FA
330
F7
100
AcDbEntity
  8
0
100
AcDbBlockEnd
  0
BLOCK
  5
101
330
FF
100
AcDbEntity
  8
0
100
AcDbBlockBegin
  2
block 38
 70
     0
 71
     0
 10
0.0
 20
0.0
 30
0.0
  3
block 38
  1

  0
POLYLINE
  5
103
330
FF
100
AcDbEntity
  8
0
 62
     7
370
    25
100
AcDb2dPolyline
 66
     1
 10
0.0
 20
0.0
 30
0.0
  0
VERTEX
  5
104
330
103
100
AcDbEntity
  8
0
 62
     7
370
    25
100
AcDbVertex
100
AcDb2dVertex
 10
158.3391045243498
 20
177.2616484697301
 30
0.0
  0
VERTEX
  5
105
330
103
100
AcDbEntity
  8
0
 62
     7
370
    25
100
AcDbVertex
100
AcDb2dVertex
 10
158.3391045243498
 20
173.7647019905111
 30
0.0
  0
SEQEND
  5
106
330
103
100
AcDbEntity
  8
0
370
    25
  0
ENDBLK
  5
102
330
FF
100
AcDbEntity
  8
0
100
AcDbBlockEnd
  0
BLOCK
  5
109
330
107
100
AcDbEntity
  8
0
100
AcDbBlockBegin
  2
block 39
 70
     0
 71
     0
 10
0.0
 20
0.0
 30
0.0
  3
block 39
  1

  0
POLYLINE
  5
10B
330
107
100
AcDbEntity
  8
0
 62
     7
370
    25
100
AcDb2dPolyline
 66
     1
 10
0.0
 20
0.0
 30
0.0
  0
VERTEX
  5
10C
330
10B
100
AcDbEntity
  8
0
 62
     7
370
    25
100
AcDbVertex
100
AcDb2dVertex
 10
158.9278717311854
 20
177.8235439140537
 30
0.0
  0
VERTEX
  5
10D
330
10B
100
AcDbEntity
  8
0
 62
     7
370
    25
100
AcDbVertex
100
AcDb2dVertex
 10
158.6705229286657
 20
177.7322488234677
 30
0.0
  0
SEQEND
  5
10E
330
10B
100
AcDbEntity
  8
0
370
    25
  0
ENDBLK
  5
10A
330
107
100
AcDbEntity
  8
0
100
AcDbBlockEnd
  0
BLOCK
  5
111
330
10F
100
AcDbEntity
  8
0
100
AcDbBlockBegin
  2
block 40
 70
     0
 71
     0
 10
0.0
 20
0.0
 30
0.0
  3
block 40
  1

  0
POLYLINE
  5
113
330
10F
100
AcDbEntity
  8
0
 62
     7
370
    25
100
AcDb2dPolyline
 66
     1
 10
0.0
 20
0.0
 30
0.0
  0
VERTEX
  5
114
330
113
100
AcDbEntity
  8
0
 62
     7
370
    25
100
AcDbVertex
100
AcDb2dVertex
 10
159.2131258255447
 20
177.9234517490346
 30
0.0
  0
VERTEX
  5
115
330
113
100
AcDbEntity
  8
0
 62
     7
370
    25
100
AcDbVertex
100
AcDb2dVertex
 10
158.9278717311854
 20
177.8235439140537
 30
0.0
  0
SEQEND
  5
116
330
113
100
AcDbEntity
  8
0
370
    25
  0
ENDBLK
  5
112
330
10F
100
AcDbEntity
  8
0
100
AcDbBlockEnd
  0
BLOCK
  5
119
330
117
100
AcDbEntity
  8
0
100
AcDbBlockBegin
  2
block 41
 70
     0
 71
     0
 10
0.0
 20
0.0
 30
0.0
  3
block 41
  1

  0
POLYLINE
  5
11B
330
117
100
AcDbEntity
  8
0
 62
     7
370
    25
100
AcDb2dPolyline
 66
     1
 10
0.0
 20
0.0
 30
0.0
  0
VERTEX
  5
11C
330
11B
100
AcDbEntity
  8
0
 62
     7
370
    25
100
AcDbVertex
100
AcDb2dVertex
 10
159.4487705121892
 20
178.0047560561225
 30
0.0
  0
VERTEX
  5
11D
330
11B
100
AcDbEntity
  8
0
 62
     7
370
    25
100
AcDbVertex
100
AcDb2dVertex
 10
159.2131258255447
 20
177.9234517490346
 30
0.0
  0
SEQEND
  5
11E
330
11B
100
AcDbEntity
  8
0
370
    25
  0
ENDBLK
  5
11A
330
117
100
AcDbEntity
  8
0
100
AcDbBlockEnd
  0
BLOCK
  5
121
330
11F
100
AcDbEntity
  8
0
100
AcDbBlockBegin
  2
block 42
 70
     0
 71
     0
 10
0.0
 20
0.0
 30
0.0
  3
block 42
  1

  0
POLYLINE
  5
123
330
11F
100
AcDbEntity
  8
0
 62
     7
370
    25
100
AcDb2dPolyline
 66
     1
 10
0.0
 20
0.0
 30
0.0
  0
VERTEX
  5
124
330
123
100
AcDbEntity
  8
0
 62
     7
370
    25
100
AcDbVertex
100
AcDb2dVertex
 10
174.2254838156385
 20
166.7706367771852
 30
0.0
  0
VERTEX
  5
125
330
123
100
AcDbEntity
  8
0
 62
     7
370
    25
100
AcDbVertex
100
AcDb2dVertex
 10
182.418615303623
 20
166.7706367771852
 30
0.0
  0
SEQEND
  5
126
330
123
100
AcDbEntity
  8
0
370
    25
  0
ENDBLK
  5
122
330
11F
100
AcDbEntity
  8
0
100
AcDbBlockEnd
  0
BLOCK
  5
129
330
127
100
AcDbEntity
  8
0
100
AcDbBlockBegin
  2
block 43
 70
     0
 71
     0
 10
0.0
 20
0.0
 30
0.0
  3
block 43
  1

  0
POLYLINE
  5
12B
330
127
100
AcDbEntity
  8
0
 62
     7
370
    25
100
AcDb2dPolyline
 66
     1
 10
0.0
 20
0.0
 30
0.0
  0
VERTEX
  5
12C
330
12B
100
AcDbEntity
  8
0
 62
     7
370
    25
100
AcDbVertex
100
AcDb2dVertex
 10
176.0238248452945
 20
167.6198533745228
 30
0.0
  0
VERTEX
  5
12D
330
12B
100
AcDbEntity
  8
0
 62
     7
370
    25
100
AcDbVertex
100
AcDb2dVertex
 10
180.6199297641912
 20
167.6198533745228
 30
0.0
  0
SEQEND
  5
12E
330
12B
100
AcDbEntity
  8
0
370
    25
  0
ENDBLK
  5
12A
330
127
100
AcDbEntity
  8
0
100
AcDbBlockEnd
  0
BLOCK
  5
131
330
12F
100
AcDbEntity
  8
0
100
AcDbBlockBegin
  2
block 44
 70
     0
 71
     0
 10
0.0
 20
0.0
 30
0.0
  3
block 44
  1

  0
POLYLINE
  5
133
330
12F
100
AcDbEntity
  8
0
 62
     7
370
    25
100
AcDb2dPolyline
 66
     1
 10
0.0
 20
0.0
 30
0.0
  0
VERTEX
  5
134
330
133
100
AcDbEntity
  8
0
 62
     7
370
    25
100
AcDbVertex
100
AcDb2dVertex
 10
174.5252073205812
 20
168.7689657316909
 30
0.0
  0
VERTEX
  5
135
330
133
100
AcDbEntity
  8
0
 62
     7
370
    25
100
AcDbVertex
100
AcDb2dVertex
 10
176.0238248452945
 20
167.6198533745228
 30
0.0
  0
SEQEND
  5
136
330
133
100
AcDbEntity
  8
0
370
    25
  0
ENDBLK
  5
132
330
12F
100
AcDbEntity
  8
0
100
AcDbBlockEnd
  0
BLOCK
  5
139
330
137
100
AcDbEntity
  8
0
100
AcDbBlockBegin
  2
block 45
 70
     0
 71
     0
 10
0.0
 20
0.0
 30
0.0
  3
block 45
  1

  0
POLYLINE
  5
13B
330
137
100
AcDbEntity
  8
0
 62
     7
370
    25
100
AcDb2dPolyline
 66
     1
 10
0.0
 20
0.0
 30
0.0
  0
VERTEX
  5
13C
330
13B
100
AcDbEntity
  8
0
 62
     7
370
    25
100
AcDbVertex
100
AcDb2dVertex
 10
182.1188917986803
 20
168.7689657316909
 30
0.0
  0
VERTEX
  5
13D
330
13B
100
AcDbEntity
  8
0
 62
     7
370
    25
100
AcDbVertex
100
AcDb2dVertex
 10
174.5252073205812
 20
168.7689657316909
 30
0.0
  0
SEQEND
  5
13E
330
13B
100
AcDbEntity
  8
0
370
    25
  0
ENDBLK
  5
13A
330
137
100
AcDbEntity
  8
0
100
AcDbBlockEnd
  0
BLOCK
  5
141
330
13F
100
AcDbEntity
  8
0
100
AcDbBlockBegin
  2
block 46
 70
     0
 71
     0
 10
0.0
 20
0.0
 30
0.0
  3
block 46
  1

  0
POLYLINE
  5
143
330
13F
100
AcDbEntity
  8
0
 62
     7
370
    25
100
AcDb2dPolyline
 66
     1
 10
0.0
 20
0.0
 30
0.0
  0
VERTEX
  5
144
330
143
100
AcDbEntity
  8
0
 62
     7
370
    25
100
AcDbVertex
100
AcDb2dVertex
 10
173.825852475715
 20
167.2870569311037
 30
0.0
  0
VERTEX
  5
145
330
143
100
AcDbEntity
  8
0
 62
     7
370
    25
100
AcDbVertex
100
AcDb2dVertex
 10
173.825852475715
 20
167.1702681171088
 30
0.0
  0
SEQEND
  5
146
330
143
100
AcDbEntity
  8
0
370
    25
  0
ENDBLK
  5
142
330
13F
100
AcDbEntity
  8
0
100
AcDbBlockEnd
  0
BLOCK
  5
149
330
147
100
AcDbEntity
  8
0
100
AcDbBlockBegin
  2
block 47
 70
     0
 71
     0
 10
0.0
 20
0.0
 30
0.0
  3
block 47
  1

  0
POLYLINE
  5
14B
330
147
100
AcDbEntity
  8
0
 62
     7
370
    25
100
AcDb2dPolyline
 66
     1
 10
0.0
 20
0.0
 30
0.0
  0
VERTEX
  5
14C
330
14B
100
AcDbEntity
  8
0
 62
     7
370
    25
100
AcDbVertex
100
AcDb2dVertex
 10
176.0238248452945
 20
167.6198533745228
 30
0.0
  0
VERTEX
  5
14D
330
14B
100
AcDbEntity
  8
0
 62
     7
370
    25
100
AcDbVertex
100
AcDb2dVertex
 10
176.0238248452945
 20
166.7706367771852
 30
0.0
  0
SEQEND
  5
14E
330
14B
100
AcDbEntity
  8
0
370
    25
  0
ENDBLK
  5
14A
330
147
100
AcDbEntity
  8
0
100
AcDbBlockEnd
  0
BLOCK
  5
151
330
14F
100
AcDbEntity
  8
0
100
AcDbBlockBegin
  2
block 48
 70
     0
 71
     0
 10
0.0
 20
0.0
 30
0.0
  3
block 48
  1

  0
POLYLINE
  5
153
330
14F
100
AcDbEntity
  8
0
 62
     7
370
    25
100
AcDb2dPolyline
 66
     1
 10
0.0
 20
0.0
 30
0.0
  0
VERTEX
  5
154
330
153
100
AcDbEntity
  8
0
 62
     7
370
    25
100
AcDbVertex
100
AcDb2dVertex
 10
198.3049945949117
 20
173.7647019905111
 30
0.0
  0
VERTEX
  5
155
330
153
100
AcDbEntity
  8
0
 62
     7
370
    25
100
AcDbVertex
100
AcDb2dVertex
 10
196.2296677055156
 20
173.7647019905111
 30
0.0
  0
SEQEND
  5
156
330
153
100
AcDbEntity
  8
0
370
    25
  0
ENDBLK
  5
152
330
14F
100
AcDbEntity
  8
0
100
AcDbBlockEnd
  0
BLOCK
  5
159
330
157
100
AcDbEntity
  8
0
100
AcDbBlockBegin
  2
block 49
 70
     0
 71
     0
 10
0.0
 20
0.0
 30
0.0
  3
block 49
  1

  0
POLYLINE
  5
15B
330
157
100
AcDbEntity
  8
0
 62
     7
370
    25
100
AcDb2dPolyline
 66
     1
 10
0.0
 20
0.0
 30
0.0
  0
VERTEX
  5
15C
330
15B
100
AcDbEntity
  8
0
 62
     7
370
    25
100
AcDbVertex
100
AcDb2dVertex
 10
160.4144314137459
 20
173.7647019905111
 30
0.0
  0
VERTEX
  5
15D
330
15B
100
AcDbEntity
  8
0
 62
     7
370
    25
100
AcDbVertex
100
AcDb2dVertex
 10
158.3391045243498
 20
173.7647019905111
 30
0.0
  0
SEQEND
  5
15E
330
15B
100
AcDbEntity
  8
0
370
    25
  0
ENDBLK
  5
15A
330
157
100
AcDbEntity
  8
0
100
AcDbBlockEnd
  0
BLOCK
  5
161
330
15F
100
AcDbEntity
  8
0
100
AcDbBlockBegin
  2
block 50
 70
     0
 71
     0
 10
0.0
 20
0.0
 30
0.0
  3
block 50
  1

  0
POLYLINE
  5
163
330
15F
100
AcDbEntity
  8
0
 62
     7
370
    25
100
AcDb2dPolyline
 66
     1
 10
0.0
 20
0.0
 30
0.0
  0
VERTEX
  5
164
330
163
100
AcDbEntity
  8
0
 62
     7
370
    25
100
AcDbVertex
100
AcDb2dVertex
 10
180.6199297641912
 20
167.6198533745228
 30
0.0
  0
VERTEX
  5
165
330
163
100
AcDbEntity
  8
0
 62
     7
370
    25
100
AcDbVertex
100
AcDb2dVertex
 10
180.6199297641912
 20
166.7706367771852
 30
0.0
  0
SEQEND
  5
166
330
163
100
AcDbEntity
  8
0
370
    25
  0
ENDBLK
  5
162
330
15F
100
AcDbEntity
  8
0
100
AcDbBlockEnd
  0
BLOCK
  5
169
330
167
100
AcDbEntity
  8
0
100
AcDbBlockBegin
  2
block 51
 70
     0
 71
     0
 10
0.0
 20
0.0
 30
0.0
  3
block 51
  1

  0
POLYLINE
  5
16B
330
167
100
AcDbEntity
  8
0
 62
     7
370
    25
100
AcDb2dPolyline
 66
     1
 10
0.0
 20
0.0
 30
0.0
  0
VERTEX
  5
16C
330
16B
100
AcDbEntity
  8
0
 62
     7
370
    25
100
AcDbVertex
100
AcDb2dVertex
 10
158.8386436992542
 20
177.7613598995225
 30
0.0
  0
VERTEX
  5
16D
330
16B
100
AcDbEntity
  8
0
 62
     7
370
    25
100
AcDbVertex
100
AcDb2dVertex
 10
158.859314285802
 20
177.7613598995225
 30
0.0
  0
SEQEND
  5
16E
330
16B
100
AcDbEntity
  8
0
370
    25
  0
ENDBLK
  5
16A
330
167
100
AcDbEntity
  8
0
100
AcDbBlockEnd
  0
BLOCK
  5
171
330
16F
100
AcDbEntity
  8
0
100
AcDbBlockBegin
  2
block 52
 70
     0
 71
     0
 10
0.0
 20
0.0
 30
0.0
  3
block 52
  1

  0
POLYLINE
  5
173
330
16F
100
AcDbEntity
  8
0
 62
     7
370
    25
100
AcDb2dPolyline
 66
     1
 10
0.0
 20
0.0
 30
0.0
  0
VERTEX
  5
174
330
173
100
AcDbEntity
  8
0
 62
     7
370
    25
100
AcDbVertex
100
AcDb2dVertex
 10
197.7847848334595
 20
177.7613598995225
 30
0.0
  0
VERTEX
  5
175
330
173
100
AcDbEntity
  8
0
 62
     7
370
    25
100
AcDbVertex
100
AcDb2dVertex
 10
197.8054554200073
 20
177.7613598995225
 30
0.0
  0
SEQEND
  5
176
330
173
100
AcDbEntity
  8
0
370
    25
  0
ENDBLK
  5
172
330
16F
100
AcDbEntity
  8
0
100
AcDbBlockEnd
  0
BLOCK
  5
179
330
177
100
AcDbEntity
  8
0
100
AcDbBlockBegin
  2
block 53
 70
     0
 71
     0
 10
0.0
 20
0.0
 30
0.0
  3
block 53
  1

  0
POLYLINE
  5
17B
330
177
100
AcDbEntity
  8
0
 62
     7
370
    25
100
AcDb2dPolyline
 66
     1
 10
0.0
 20
0.0
 30
0.0
  0
VERTEX
  5
17C
330
17B
100
AcDbEntity
  8
0
 62
     7
370
    25
100
AcDbVertex
100
AcDb2dVertex
 10
182.8182466435466
 20
167.2870569311037
 30
0.0
  0
VERTEX
  5
17D
330
17B
100
AcDbEntity
  8
0
 62
     7
370
    25
100
AcDbVertex
100
AcDb2dVertex
 10
182.8182466435466
 20
167.1702681171088
 30
0.0
  0
SEQEND
  5
17E
330
17B
100
AcDbEntity
  8
0
370
    25
  0
ENDBLK
  5
17A
330
177
100
AcDbEntity
  8
0
100
AcDbBlockEnd
  0
BLOCK
  5
181
330
17F
100
AcDbEntity
  8
0
100
AcDbBlockBegin
  2
block 54
 70
     0
 71
     0
 10
0.0
 20
0.0
 30
0.0
  3
block 54
  1

  0
POLYLINE
  5
183
330
17F
100
AcDbEntity
  8
0
 62
     7
370
    25
100
AcDb2dPolyline
 66
     1
 10
0.0
 20
0.0
 30
0.0
  0
VERTEX
  5
184
330
183
100
AcDbEntity
  8
0
 62
     7
370
    25
100
AcDbVertex
100
AcDb2dVertex
 10
171.6743889258679
 20
180.8752115080562
 30
0.0
  0
VERTEX
  5
185
330
183
100
AcDbEntity
  8
0
 62
     7
370
    25
100
AcDbVertex
100
AcDb2dVertex
 10
171.3832781653201
 20
180.838348962046
 30
0.0
  0
VERTEX
  5
186
330
183
100
AcDbEntity
  8
0
 62
     7
370
    25
100
AcDbVertex
100
AcDb2dVertex
 10
171.0928564243239
 20
180.7997638671568
 30
0.0
  0
VERTEX
  5
187
330
183
100
AcDbEntity
  8
0
 62
     7
370
    25
100
AcDbVertex
100
AcDb2dVertex
 10
170.8034682126552
 20
180.7599729880523
 30
0.0
  0
VERTEX
  5
188
330
183
100
AcDbEntity
  8
0
 62
     7
370
    25
100
AcDbVertex
100
AcDb2dVertex
 10
170.514769020538
 20
180.7188040698447
 30
0.0
  0
VERTEX
  5
189
330
183
100
AcDbEntity
  8
0
 62
     7
370
    25
100
AcDbVertex
100
AcDb2dVertex
 10
170.2271033577482
 20
180.676084857646
 30
0.0
  0
VERTEX
  5
18A
330
183
100
AcDbEntity
  8
0
 62
     7
370
    25
100
AcDbVertex
100
AcDb2dVertex
 10
169.9411602438373
 20
180.6323321161199
 30
0.0
  0
VERTEX
  5
18B
330
183
100
AcDbEntity
  8
0
 62
     7
370
    25
100
AcDbVertex
100
AcDb2dVertex
 10
169.6562506592539
 20
180.5870290806027
 30
0.0
  0
VERTEX
  5
18C
330
183
100
AcDbEntity
  8
0
 62
     7
370
    25
100
AcDbVertex
100
AcDb2dVertex
 10
169.3730636235495
 20
180.5406925157581
 30
0.0
  0
VERTEX
  5
18D
330
183
100
AcDbEntity
  8
0
 62
     7
370
    25
100
AcDbVertex
100
AcDb2dVertex
 10
169.0909101171724
 20
180.4929779118103
 30
0.0
  0
VERTEX
  5
18E
330
183
100
AcDbEntity
  8
0
 62
     7
370
    25
100
AcDbVertex
100
AcDb2dVertex
 10
168.8101346498985
 20
180.4442297785351
 30
0.0
  0
VERTEX
  5
18F
330
183
100
AcDbEntity
  8
0
 62
     7
370
    25
100
AcDbVertex
100
AcDb2dVertex
 10
168.5307372217278
 20
180.3941036061568
 30
0.0
  0
VERTEX
  5
190
330
183
100
AcDbEntity
  8
0
 62
     7
370
    25
100
AcDbVertex
100
AcDb2dVertex
 10
168.2527178326603
 20
180.3429439044511
 30
0.0
  0
VERTEX
  5
191
330
183
100
AcDbEntity
  8
0
 62
     7
370
    25
100
AcDbVertex
100
AcDb2dVertex
 10
167.9757319729202
 20
180.2904061636422
 30
0.0
  0
VERTEX
  5
192
330
183
100
AcDbEntity
  8
0
 62
     7
370
    25
100
AcDbVertex
100
AcDb2dVertex
 10
167.6997796425075
 20
180.2368348935059
 30
0.0
  0
VERTEX
  5
193
330
183
100
AcDbEntity
  8
0
 62
     7
370
    25
100
AcDbVertex
100
AcDb2dVertex
 10
167.4252053511979
 20
180.1822300940422
 30
0.0
  0
VERTEX
  5
194
330
183
100
AcDbEntity
  8
0
 62
     7
370
    25
100
AcDbVertex
100
AcDb2dVertex
 10
167.15132007944
 20
180.1262472554753
 30
0.0
  0
VERTEX
  5
195
330
183
100
AcDbEntity
  8
0
 62
     7
370
    25
100
AcDbVertex
100
AcDb2dVertex
 10
166.8784683370094
 20
180.069230887581
 30
0.0
  0
VERTEX
  5
196
330
183
100
AcDbEntity
  8
0
 62
     7
370
    25
100
AcDbVertex
100
AcDb2dVertex
 10
166.6059611043546
 20
180.0108364805836
 30
0.0
  0
VERTEX
  5
197
330
183
100
AcDbEntity
  8
0
 62
     7
370
    25
100
AcDbVertex
100
AcDb2dVertex
 10
166.3337983814757
 20
179.9514085442587
 30
0.0
  0
VERTEX
  5
198
330
183
100
AcDbEntity
  8
0
 62
     7
370
    25
100
AcDbVertex
100
AcDb2dVertex
 10
166.0626691879241
 20
179.8906025688307
 30
0.0
  0
VERTEX
  5
199
330
183
100
AcDbEntity
  8
0
 62
     7
370
    25
100
AcDbVertex
100
AcDb2dVertex
 10
165.7915399943725
 20
179.8285908091874
 30
0.0
  0
VERTEX
  5
19A
330
183
100
AcDbEntity
  8
0
 62
     7
370
    25
100
AcDbVertex
100
AcDb2dVertex
 10
165.5217888399241
 20
179.7657177751046
 30
0.0
  0
VERTEX
  5
19B
330
183
100
AcDbEntity
  8
0
 62
     7
370
    25
100
AcDbVertex
100
AcDb2dVertex
 10
165.2537602343547
 20
179.7018112116944
 30
0.0
  0
VERTEX
  5
19C
330
183
100
AcDbEntity
  8
0
 62
     7
370
    25
100
AcDbVertex
100
AcDb2dVertex
 10
164.9874541776642
 20
179.6370433738447
 30
0.0
  0
VERTEX
  5
19D
330
183
100
AcDbEntity
  8
0
 62
     7
370
    25
100
AcDbVertex
100
AcDb2dVertex
 10
164.7239041991802
 20
179.5717587713314
 30
0.0
  0
VERTEX
  5
19E
330
183
100
AcDbEntity
  8
0
 62
     7
370
    25
100
AcDbVertex
100
AcDb2dVertex
 10
164.4634548086783
 20
179.5059574041543
 30
0.0
  0
VERTEX
  5
19F
330
183
100
AcDbEntity
  8
0
 62
     7
370
    25
100
AcDbVertex
100
AcDb2dVertex
 10
164.2061060061585
 20
179.4396392723135
 30
0.0
  0
VERTEX
  5
1A0
330
183
100
AcDbEntity
  8
0
 62
     7
370
    25
100
AcDbVertex
100
AcDb2dVertex
 10
163.951857791621
 20
179.3731488855849
 30
0.0
  0
VERTEX
  5
1A1
330
183
100
AcDbEntity
  8
0
 62
     7
370
    25
100
AcDbVertex
100
AcDb2dVertex
 10
163.7017436943929
 20
179.3066584988562
 30
0.0
  0
VERTEX
  5
1A2
330
183
100
AcDbEntity
  8
0
 62
     7
370
    25
100
AcDbVertex
100
AcDb2dVertex
 10
163.4554192046987
 20
179.2399958572396
 30
0.0
  0
VERTEX
  5
1A3
330
183
100
AcDbEntity
  8
0
 62
     7
370
    25
100
AcDbVertex
100
AcDb2dVertex
 10
163.213228832314
 20
179.1733332156231
 30
0.0
  0
VERTEX
  5
1A4
330
183
100
AcDbEntity
  8
0
 62
     7
370
    25
100
AcDbVertex
100
AcDb2dVertex
 10
162.9751725772388
 20
179.1068428288944
 30
0.0
  0
VERTEX
  5
1A5
330
183
100
AcDbEntity
  8
0
 62
     7
370
    25
100
AcDbVertex
100
AcDb2dVertex
 10
162.7419394590248
 20
179.0406969519416
 30
0.0
  0
VERTEX
  5
1A6
330
183
100
AcDbEntity
  8
0
 62
     7
370
    25
100
AcDbVertex
100
AcDb2dVertex
 10
162.5131849678962
 20
178.9750678396524
 30
0.0
  0
VERTEX
  5
1A7
330
183
100
AcDbEntity
  8
0
 62
     7
370
    25
100
AcDbVertex
100
AcDb2dVertex
 10
162.2895981234044
 20
178.909783237139
 30
0.0
  0
VERTEX
  5
1A8
330
183
100
AcDbEntity
  8
0
 62
     7
370
    25
100
AcDbVertex
100
AcDb2dVertex
 10
162.0708344157739
 20
178.8451876541772
 30
0.0
  0
VERTEX
  5
1A9
330
183
100
AcDbEntity
  8
0
 62
     7
370
    25
100
AcDbVertex
100
AcDb2dVertex
 10
161.8572383547803
 20
178.781281090767
 30
0.0
  0
VERTEX
  5
1AA
330
183
100
AcDbEntity
  8
0
 62
     7
370
    25
100
AcDbVertex
100
AcDb2dVertex
 10
161.6488099404236
 20
178.7180635469084
 30
0.0
  0
VERTEX
  5
1AB
330
183
100
AcDbEntity
  8
0
 62
     7
370
    25
100
AcDbVertex
100
AcDb2dVertex
 10
161.445204662928
 20
178.6557072774893
 30
0.0
  0
VERTEX
  5
1AC
330
183
100
AcDbEntity
  8
0
 62
     7
370
    25
100
AcDbVertex
100
AcDb2dVertex
 10
161.2467670320694
 20
178.5942122825097
 30
0.0
  0
VERTEX
  5
1AD
330
183
100
AcDbEntity
  8
0
 62
     7
370
    25
100
AcDbVertex
100
AcDb2dVertex
 10
161.0534970478478
 20
178.5335785619696
 30
0.0
  0
VERTEX
  5
1AE
330
183
100
AcDbEntity
  8
0
 62
     7
370
    25
100
AcDbVertex
100
AcDb2dVertex
 10
160.8657392200389
 20
178.4739783707569
 30
0.0
  0
VERTEX
  5
1AF
330
183
100
AcDbEntity
  8
0
 62
     7
370
    25
100
AcDbVertex
100
AcDb2dVertex
 10
160.6834935486427
 20
178.4155839637594
 30
0.0
  0
VERTEX
  5
1B0
330
183
100
AcDbEntity
  8
0
 62
     7
370
    25
100
AcDbVertex
100
AcDb2dVertex
 10
160.5067600336593
 20
178.3585675958651
 30
0.0
  0
VERTEX
  5
1B1
330
183
100
AcDbEntity
  8
0
 62
     7
370
    25
100
AcDbVertex
100
AcDb2dVertex
 10
160.3362276946402
 20
178.3027570121862
 30
0.0
  0
VERTEX
  5
1B2
330
183
100
AcDbEntity
  8
0
 62
     7
370
    25
100
AcDbVertex
100
AcDb2dVertex
 10
160.1712075120338
 20
178.2484967224983
 30
0.0
  0
VERTEX
  5
1B3
330
183
100
AcDbEntity
  8
0
 62
     7
370
    25
100
AcDbVertex
100
AcDb2dVertex
 10
160.0130775249434
 20
178.1957867268015
 30
0.0
  0
VERTEX
  5
1B4
330
183
100
AcDbEntity
  8
0
 62
     7
370
    25
100
AcDbVertex
100
AcDb2dVertex
 10
159.8611487138172
 20
178.1449715348715
 30
0.0
  0
VERTEX
  5
1B5
330
183
100
AcDbEntity
  8
0
 62
     7
370
    25
100
AcDbVertex
100
AcDb2dVertex
 10
159.7161100982071
 20
178.0960511467085
 30
0.0
  0
VERTEX
  5
1B6
330
183
100
AcDbEntity
  8
0
 62
     7
370
    25
100
AcDbVertex
100
AcDb2dVertex
 10
159.4487705121892
 20
178.0047560561225
 30
0.0
  0
SEQEND
  5
1B7
330
183
100
AcDbEntity
  8
0
370
    25
  0
ENDBLK
  5
182
330
17F
100
AcDbEntity
  8
0
100
AcDbBlockEnd
  0
BLOCK
  5
1BA
330
1B8
100
AcDbEntity
  8
0
100
AcDbBlockBegin
  2
block 55
 70
     0
 71
     0
 10
0.0
 20
0.0
 30
0.0
  3
block 55
  1

  0
POLYLINE
  5
1BC
330
1B8
100
AcDbEntity
  8
0
 62
     7
370
    25
100
AcDb2dPolyline
 66
     1
 10
0.0
 20
0.0
 30
0.0
  0
VERTEX
  5
1BD
330
1BC
100
AcDbEntity
  8
0
 62
     7
370
    25
100
AcDbVertex
100
AcDb2dVertex
 10
178.3220495596308
 20
181.2900012781147
 30
0.0
  0
VERTEX
  5
1BE
330
1BC
100
AcDbEntity
  8
0
 62
     7
370
    25
100
AcDbVertex
100
AcDb2dVertex
 10
178.0764140894881
 20
181.289484513451
 30
0.0
  0
VERTEX
  5
1BF
330
1BC
100
AcDbEntity
  8
0
 62
     7
370
    25
100
AcDbVertex
100
AcDb2dVertex
 10
177.8138976403314
 20
181.2875897096842
 30
0.0
  0
VERTEX
  5
1C0
330
1BC
100
AcDbEntity
  8
0
 62
     7
370
    25
100
AcDbVertex
100
AcDb2dVertex
 10
177.5506921716231
 20
181.284489121702
 30
0.0
  0
VERTEX
  5
1C1
330
1BC
100
AcDbEntity
  8
0
 62
     7
370
    25
100
AcDbVertex
100
AcDb2dVertex
 10
177.2867976833633
 20
181.2800104946166
 30
0.0
  0
VERTEX
  5
1C2
330
1BC
100
AcDbEntity
  8
0
 62
     7
370
    25
100
AcDbVertex
100
AcDb2dVertex
 10
177.021869665776
 20
181.2741538284281
 30
0.0
  0
VERTEX
  5
1C3
330
1BC
100
AcDbEntity
  8
0
 62
     7
370
    25
100
AcDbVertex
100
AcDb2dVertex
 10
176.7555636090856
 20
181.2669191231364
 30
0.0
  0
VERTEX
  5
1C4
330
1BC
100
AcDbEntity
  8
0
 62
     7
370
    25
100
AcDbVertex
100
AcDb2dVertex
 10
176.4878795132919
 20
181.2583063787415
 30
0.0
  0
VERTEX
  5
1C5
330
1BC
100
AcDbEntity
  8
0
 62
     7
370
    25
100
AcDbVertex
100
AcDb2dVertex
 10
176.2188173783951
 20
181.2483155952434
 30
0.0
  0
VERTEX
  5
1C6
330
1BC
100
AcDbEntity
  8
0
 62
     7
370
    25
100
AcDbVertex
100
AcDb2dVertex
 10
175.9480326946193
 20
181.2369467726421
 30
0.0
  0
VERTEX
  5
1C7
330
1BC
100
AcDbEntity
  8
0
 62
     7
370
    25
100
AcDbVertex
100
AcDb2dVertex
 10
175.6755254619646
 20
181.2240276560498
 30
0.0
  0
VERTEX
  5
1C8
330
1BC
100
AcDbEntity
  8
0
 62
     7
370
    25
100
AcDbVertex
100
AcDb2dVertex
 10
175.4012956804308
 20
181.2097305003543
 30
0.0
  0
VERTEX
  5
1C9
330
1BC
100
AcDbEntity
  8
0
 62
     7
370
    25
100
AcDbVertex
100
AcDb2dVertex
 10
175.1246543304665
 20
181.1937107957797
 30
0.0
  0
VERTEX
  5
1CA
330
1BC
100
AcDbEntity
  8
0
 62
     7
370
    25
100
AcDbVertex
100
AcDb2dVertex
 10
174.8462904316232
 20
181.176313052102
 30
0.0
  0
VERTEX
  5
1CB
330
1BC
100
AcDbEntity
  8
0
 62
     7
370
    25
100
AcDbVertex
100
AcDb2dVertex
 10
174.5655149643493
 20
181.1571927595453
 30
0.0
  0
VERTEX
  5
1CC
330
1BC
100
AcDbEntity
  8
0
 62
     7
370
    25
100
AcDbVertex
100
AcDb2dVertex
 10
174.2826724384207
 20
181.1363499181097
 30
0.0
  0
VERTEX
  5
1CD
330
1BC
100
AcDbEntity
  8
0
 62
     7
370
    25
100
AcDbVertex
100
AcDb2dVertex
 10
173.9977628538372
 20
181.1139567826829
 30
0.0
  0
VERTEX
  5
1CE
330
1BC
100
AcDbEntity
  8
0
 62
     7
370
    25
100
AcDbVertex
100
AcDb2dVertex
 10
173.710786210599
 20
181.0898410983772
 30
0.0
  0
VERTEX
  5
1CF
330
1BC
100
AcDbEntity
  8
0
 62
     7
370
    25
100
AcDbVertex
100
AcDb2dVertex
 10
173.4220870184818
 20
181.0641751200804
 30
0.0
  0
VERTEX
  5
1D0
330
1BC
100
AcDbEntity
  8
0
 62
     7
370
    25
100
AcDbVertex
100
AcDb2dVertex
 10
173.1320097872615
 20
181.0367865929046
 30
0.0
  0
VERTEX
  5
1D1
330
1BC
100
AcDbEntity
  8
0
 62
     7
370
    25
100
AcDbVertex
100
AcDb2dVertex
 10
172.8408990267137
 20
181.0076755168498
 30
0.0
  0
VERTEX
  5
1D2
330
1BC
100
AcDbEntity
  8
0
 62
     7
370
    25
100
AcDbVertex
100
AcDb2dVertex
 10
172.5494437563902
 20
180.976841891916
 30
0.0
  0
VERTEX
  5
1D3
330
1BC
100
AcDbEntity
  8
0
 62
     7
370
    25
100
AcDbVertex
100
AcDb2dVertex
 10
172.2576439762908
 20
180.9444579729912
 30
0.0
  0
VERTEX
  5
1D4
330
1BC
100
AcDbEntity
  8
0
 62
     7
370
    25
100
AcDbVertex
100
AcDb2dVertex
 10
171.9658441961914
 20
180.9106960149632
 30
0.0
  0
VERTEX
  5
1D5
330
1BC
100
AcDbEntity
  8
0
 62
     7
370
    25
100
AcDbVertex
100
AcDb2dVertex
 10
171.6743889258679
 20
180.8752115080562
 30
0.0
  0
SEQEND
  5
1D6
330
1BC
100
AcDbEntity
  8
0
370
    25
  0
ENDBLK
  5
1BB
330
1B8
100
AcDbEntity
  8
0
100
AcDbBlockEnd
  0
BLOCK
  5
1D9
330
1D7
100
AcDbEntity
  8
0
100
AcDbBlockBegin
  2
block 56
 70
     0
 71
     0
 10
0.0
 20
0.0
 30
0.0
  3
block 56
  1

  0
POLYLINE
  5
1DB
330
1D7
100
AcDbEntity
  8
0
 62
     7
370
    25
100
AcDb2dPolyline
 66
     1
 10
0.0
 20
0.0
 30
0.0
  0
VERTEX
  5
1DC
330
1DB
100
AcDbEntity
  8
0
 62
     7
370
    25
100
AcDbVertex
100
AcDb2dVertex
 10
184.9703992129452
 20
180.8750392531683
 30
0.0
  0
VERTEX
  5
1DD
330
1DB
100
AcDbEntity
  8
0
 62
     7
370
    25
100
AcDbVertex
100
AcDb2dVertex
 10
184.6789439426217
 20
180.9105237600753
 30
0.0
  0
VERTEX
  5
1DE
330
1DB
100
AcDbEntity
  8
0
 62
     7
370
    25
100
AcDbVertex
100
AcDb2dVertex
 10
184.3871441625223
 20
180.9444579729912
 30
0.0
  0
VERTEX
  5
1DF
330
1DB
100
AcDbEntity
  8
0
 62
     7
370
    25
100
AcDbVertex
100
AcDb2dVertex
 10
184.095344382423
 20
180.976841891916
 30
0.0
  0
VERTEX
  5
1E0
330
1DB
100
AcDbEntity
  8
0
 62
     7
370
    25
100
AcDbVertex
100
AcDb2dVertex
 10
183.8038891120994
 20
181.0075032619619
 30
0.0
  0
VERTEX
  5
1E1
330
1DB
100
AcDbEntity
  8
0
 62
     7
370
    25
100
AcDbVertex
100
AcDb2dVertex
 10
183.5131228613274
 20
181.0366143380167
 30
0.0
  0
VERTEX
  5
1E2
330
1DB
100
AcDbEntity
  8
0
 62
     7
370
    25
100
AcDbVertex
100
AcDb2dVertex
 10
183.223045630107
 20
181.0640028651925
 30
0.0
  0
VERTEX
  5
1E3
330
1DB
100
AcDbEntity
  8
0
 62
     7
370
    25
100
AcDbVertex
100
AcDb2dVertex
 10
182.9343464379899
 20
181.0898410983772
 30
0.0
  0
VERTEX
  5
1E4
330
1DB
100
AcDbEntity
  8
0
 62
     7
370
    25
100
AcDbVertex
100
AcDb2dVertex
 10
182.6473697947517
 20
181.1139567826829
 30
0.0
  0
VERTEX
  5
1E5
330
1DB
100
AcDbEntity
  8
0
 62
     7
370
    25
100
AcDbVertex
100
AcDb2dVertex
 10
182.3624602101682
 20
181.1363499181097
 30
0.0
  0
VERTEX
  5
1E6
330
1DB
100
AcDbEntity
  8
0
 62
     7
370
    25
100
AcDbVertex
100
AcDb2dVertex
 10
182.0796176842396
 20
181.1570205046574
 30
0.0
  0
VERTEX
  5
1E7
330
1DB
100
AcDbEntity
  8
0
 62
     7
370
    25
100
AcDbVertex
100
AcDb2dVertex
 10
181.7988422169657
 20
181.1761407972141
 30
0.0
  0
VERTEX
  5
1E8
330
1DB
100
AcDbEntity
  8
0
 62
     7
370
    25
100
AcDbVertex
100
AcDb2dVertex
 10
181.5204783181224
 20
181.1937107957797
 30
0.0
  0
VERTEX
  5
1E9
330
1DB
100
AcDbEntity
  8
0
 62
     7
370
    25
100
AcDbVertex
100
AcDb2dVertex
 10
181.2438369681581
 20
181.2095582454664
 30
0.0
  0
VERTEX
  5
1EA
330
1DB
100
AcDbEntity
  8
0
 62
     7
370
    25
100
AcDbVertex
100
AcDb2dVertex
 10
180.9696071866243
 20
181.2240276560498
 30
0.0
  0
VERTEX
  5
1EB
330
1DB
100
AcDbEntity
  8
0
 62
     7
370
    25
100
AcDbVertex
100
AcDb2dVertex
 10
180.6970999539695
 20
181.2369467726421
 30
0.0
  0
VERTEX
  5
1EC
330
1DB
100
AcDbEntity
  8
0
 62
     7
370
    25
100
AcDbVertex
100
AcDb2dVertex
 10
180.4263152701938
 20
181.2483155952434
 30
0.0
  0
VERTEX
  5
1ED
330
1DB
100
AcDbEntity
  8
0
 62
     7
370
    25
100
AcDbVertex
100
AcDb2dVertex
 10
180.1572531352969
 20
181.2583063787415
 30
0.0
  0
VERTEX
  5
1EE
330
1DB
100
AcDbEntity
  8
0
 62
     7
370
    25
100
AcDbVertex
100
AcDb2dVertex
 10
179.8895690395033
 20
181.2669191231364
 30
0.0
  0
VERTEX
  5
1EF
330
1DB
100
AcDbEntity
  8
0
 62
     7
370
    25
100
AcDbVertex
100
AcDb2dVertex
 10
179.6236074925887
 20
181.2741538284281
 30
0.0
  0
VERTEX
  5
1F0
330
1DB
100
AcDbEntity
  8
0
 62
     7
370
    25
100
AcDbVertex
100
AcDb2dVertex
 10
179.3586794750014
 20
181.2800104946166
 30
0.0
  0
VERTEX
  5
1F1
330
1DB
100
AcDbEntity
  8
0
 62
     7
370
    25
100
AcDbVertex
100
AcDb2dVertex
 10
179.0947849867416
 20
181.284489121702
 30
0.0
  0
VERTEX
  5
1F2
330
1DB
100
AcDbEntity
  8
0
 62
     7
370
    25
100
AcDbVertex
100
AcDb2dVertex
 10
178.8315795180333
 20
181.2875897096842
 30
0.0
  0
VERTEX
  5
1F3
330
1DB
100
AcDbEntity
  8
0
 62
     7
370
    25
100
AcDbVertex
100
AcDb2dVertex
 10
178.5690630688766
 20
181.289484513451
 30
0.0
  0
VERTEX
  5
1F4
330
1DB
100
AcDbEntity
  8
0
 62
     7
370
    25
100
AcDbVertex
100
AcDb2dVertex
 10
178.3220495596308
 20
181.2900012781147
 30
0.0
  0
SEQEND
  5
1F5
330
1DB
100
AcDbEntity
  8
0
370
    25
  0
ENDBLK
  5
1DA
330
1D7
100
AcDbEntity
  8
0
100
AcDbBlockEnd
  0
BLOCK
  5
1F8
330
1F6
100
AcDbEntity
  8
0
100
AcDbBlockBegin
  2
block 57
 70
     0
 71
     0
 10
0.0
 20
0.0
 30
0.0
  3
block 57
  1

  0
POLYLINE
  5
1FA
330
1F6
100
AcDbEntity
  8
0
 62
     7
370
    25
100
AcDb2dPolyline
 66
     1
 10
0.0
 20
0.0
 30
0.0
  0
VERTEX
  5
1FB
330
1FA
100
AcDbEntity
  8
0
 62
     7
370
    25
100
AcDbVertex
100
AcDb2dVertex
 10
185.261509973493
 20
180.8381767071581
 30
0.0
  0
VERTEX
  5
1FC
330
1FA
100
AcDbEntity
  8
0
 62
     7
370
    25
100
AcDbVertex
100
AcDb2dVertex
 10
184.9703992129452
 20
180.8750392531683
 30
0.0
  0
SEQEND
  5
1FD
330
1FA
100
AcDbEntity
  8
0
370
    25
  0
ENDBLK
  5
1F9
330
1F6
100
AcDbEntity
  8
0
100
AcDbBlockEnd
  0
BLOCK
  5
200
330
1FE
100
AcDbEntity
  8
0
100
AcDbBlockBegin
  2
block 58
 70
     0
 71
     0
 10
0.0
 20
0.0
 30
0.0
  3
block 58
  1

  0
POLYLINE
  5
202
330
1FE
100
AcDbEntity
  8
0
 62
     7
370
    25
100
AcDb2dPolyline
 66
     1
 10
0.0
 20
0.0
 30
0.0
  0
VERTEX
  5
203
330
202
100
AcDbEntity
  8
0
 62
     7
370
    25
100
AcDbVertex
100
AcDb2dVertex
 10
182.1188917986803
 20
168.7689657316909
 30
0.0
  0
VERTEX
  5
204
330
202
100
AcDbEntity
  8
0
 62
     7
370
    25
100
AcDbVertex
100
AcDb2dVertex
 10
180.6199297641912
 20
167.6198533745228
 30
0.0
  0
SEQEND
  5
205
330
202
100
AcDbEntity
  8
0
370
    25
  0
ENDBLK
  5
201
330
1FE
100
AcDbEntity
  8
0
100
AcDbBlockEnd
  0
BLOCK
  5
208
330
206
100
AcDbEntity
  8
0
100
AcDbBlockBegin
  2
block 59
 70
     0
 71
     0
 10
0.0
 20
0.0
 30
0.0
  3
block 59
  1

  0
POLYLINE
  5
20A
330
206
100
AcDbEntity
  8
0
 62
     7
370
    25
100
AcDb2dPolyline
 66
     1
 10
0.0
 20
0.0
 30
0.0
  0
VERTEX
  5
20B
330
20A
100
AcDbEntity
  8
0
 62
     7
370
    25
100
AcDbVertex
100
AcDb2dVertex
 10
196.7829504054443
 20
178.1449715348715
 30
0.0
  0
VERTEX
  5
20C
330
20A
100
AcDbEntity
  8
0
 62
     7
370
    25
100
AcDbVertex
100
AcDb2dVertex
 10
196.6310215943182
 20
178.1957867268015
 30
0.0
  0
VERTEX
  5
20D
330
20A
100
AcDbEntity
  8
0
 62
     7
370
    25
100
AcDbVertex
100
AcDb2dVertex
 10
196.4725470974519
 20
178.2484967224983
 30
0.0
  0
VERTEX
  5
20E
330
20A
100
AcDbEntity
  8
0
 62
     7
370
    25
100
AcDbVertex
100
AcDb2dVertex
 10
196.3078714246213
 20
178.3027570121862
 30
0.0
  0
VERTEX
  5
20F
330
20A
100
AcDbEntity
  8
0
 62
     7
370
    25
100
AcDbVertex
100
AcDb2dVertex
 10
196.1369945758264
 20
178.3585675958651
 30
0.0
  0
VERTEX
  5
210
330
20A
100
AcDbEntity
  8
0
 62
     7
370
    25
100
AcDbVertex
100
AcDb2dVertex
 10
195.9606055706188
 20
178.4155839637594
 30
0.0
  0
VERTEX
  5
211
330
20A
100
AcDbEntity
  8
0
 62
     7
370
    25
100
AcDbVertex
100
AcDb2dVertex
 10
195.7783598992226
 20
178.4739783707569
 30
0.0
  0
VERTEX
  5
212
330
20A
100
AcDbEntity
  8
0
 62
     7
370
    25
100
AcDbVertex
100
AcDb2dVertex
 10
195.5902575616379
 20
178.5335785619696
 30
0.0
  0
VERTEX
  5
213
330
20A
100
AcDbEntity
  8
0
 62
     7
370
    25
100
AcDbVertex
100
AcDb2dVertex
 10
195.3973320871921
 20
178.5940400276218
 30
0.0
  0
VERTEX
  5
214
330
20A
100
AcDbEntity
  8
0
 62
     7
370
    25
100
AcDbVertex
100
AcDb2dVertex
 10
195.1988944563335
 20
178.6557072774893
 30
0.0
  0
VERTEX
  5
215
330
20A
100
AcDbEntity
  8
0
 62
     7
370
    25
100
AcDbVertex
100
AcDb2dVertex
 10
194.9952891788379
 20
178.7180635469084
 30
0.0
  0
VERTEX
  5
216
330
20A
100
AcDbEntity
  8
0
 62
     7
370
    25
100
AcDbVertex
100
AcDb2dVertex
 10
194.7868607644812
 20
178.781281090767
 30
0.0
  0
VERTEX
  5
217
330
20A
100
AcDbEntity
  8
0
 62
     7
370
    25
100
AcDbVertex
100
AcDb2dVertex
 10
194.5732647034876
 20
178.8451876541772
 30
0.0
  0
VERTEX
  5
218
330
20A
100
AcDbEntity
  8
0
 62
     7
370
    25
100
AcDbVertex
100
AcDb2dVertex
 10
194.3545009958571
 20
178.909783237139
 30
0.0
  0
VERTEX
  5
219
330
20A
100
AcDbEntity
  8
0
 62
     7
370
    25
100
AcDbVertex
100
AcDb2dVertex
 10
194.1309141513653
 20
178.9748955847645
 30
0.0
  0
VERTEX
  5
21A
330
20A
100
AcDbEntity
  8
0
 62
     7
370
    25
100
AcDbVertex
100
AcDb2dVertex
 10
193.9021596602367
 20
179.0406969519416
 30
0.0
  0
VERTEX
  5
21B
330
20A
100
AcDbEntity
  8
0
 62
     7
370
    25
100
AcDbVertex
100
AcDb2dVertex
 10
193.6689265420227
 20
179.1068428288944
 30
0.0
  0
VERTEX
  5
21C
330
20A
100
AcDbEntity
  8
0
 62
     7
370
    25
100
AcDbVertex
100
AcDb2dVertex
 10
193.4312147967233
 20
179.1733332156231
 30
0.0
  0
VERTEX
  5
21D
330
20A
100
AcDbEntity
  8
0
 62
     7
370
    25
100
AcDbVertex
100
AcDb2dVertex
 10
193.1890244243386
 20
179.2398236023517
 30
0.0
  0
VERTEX
  5
21E
330
20A
100
AcDbEntity
  8
0
 62
     7
370
    25
100
AcDbVertex
100
AcDb2dVertex
 10
192.9423554248686
 20
179.3064862439683
 30
0.0
  0
VERTEX
  5
21F
330
20A
100
AcDbEntity
  8
0
 62
     7
370
    25
100
AcDbVertex
100
AcDb2dVertex
 10
192.6922413276405
 20
179.3731488855849
 30
0.0
  0
VERTEX
  5
220
330
20A
100
AcDbEntity
  8
0
 62
     7
370
    25
100
AcDbVertex
100
AcDb2dVertex
 10
192.4383376228788
 20
179.4396392723135
 30
0.0
  0
VERTEX
  5
221
330
20A
100
AcDbEntity
  8
0
 62
     7
370
    25
100
AcDbVertex
100
AcDb2dVertex
 10
192.180988820359
 20
179.5057851492664
 30
0.0
  0
VERTEX
  5
222
330
20A
100
AcDbEntity
  8
0
 62
     7
370
    25
100
AcDbVertex
100
AcDb2dVertex
 10
191.9201949200813
 20
179.5715865164435
 30
0.0
  0
VERTEX
  5
223
330
20A
100
AcDbEntity
  8
0
 62
     7
370
    25
100
AcDbVertex
100
AcDb2dVertex
 10
191.6566449415973
 20
179.6370433738447
 30
0.0
  0
VERTEX
  5
224
330
20A
100
AcDbEntity
  8
0
 62
     7
370
    25
100
AcDbVertex
100
AcDb2dVertex
 10
191.3906833946826
 20
179.7016389568065
 30
0.0
  0
VERTEX
  5
225
330
20A
100
AcDbEntity
  8
0
 62
     7
370
    25
100
AcDbVertex
100
AcDb2dVertex
 10
191.1223102793374
 20
179.7655455202167
 30
0.0
  0
VERTEX
  5
226
330
20A
100
AcDbEntity
  8
0
 62
     7
370
    25
100
AcDbVertex
100
AcDb2dVertex
 10
190.8529036346648
 20
179.8285908091874
 30
0.0
  0
VERTEX
  5
227
330
20A
100
AcDbEntity
  8
0
 62
     7
370
    25
100
AcDbVertex
100
AcDb2dVertex
 10
190.5817744411132
 20
179.8906025688307
 30
0.0
  0
VERTEX
  5
228
330
20A
100
AcDbEntity
  8
0
 62
     7
370
    25
100
AcDbVertex
100
AcDb2dVertex
 10
190.3103007377858
 20
179.9512362893708
 30
0.0
  0
VERTEX
  5
229
330
20A
100
AcDbEntity
  8
0
 62
     7
370
    25
100
AcDbVertex
100
AcDb2dVertex
 10
190.0384825246826
 20
180.0108364805836
 30
0.0
  0
VERTEX
  5
22A
330
20A
100
AcDbEntity
  8
0
 62
     7
370
    25
100
AcDbVertex
100
AcDb2dVertex
 10
189.7659752920279
 20
180.0690586326931
 30
0.0
  0
VERTEX
  5
22B
330
20A
100
AcDbEntity
  8
0
 62
     7
370
    25
100
AcDbVertex
100
AcDb2dVertex
 10
189.4931235495973
 20
180.1262472554753
 30
0.0
  0
VERTEX
  5
22C
330
20A
100
AcDbEntity
  8
0
 62
     7
370
    25
100
AcDbVertex
100
AcDb2dVertex
 10
189.2192382778394
 20
180.1820578391543
 30
0.0
  0
VERTEX
  5
22D
330
20A
100
AcDbEntity
  8
0
 62
     7
370
    25
100
AcDbVertex
100
AcDb2dVertex
 10
188.9446639865298
 20
180.2368348935059
 30
0.0
  0
VERTEX
  5
22E
330
20A
100
AcDbEntity
  8
0
 62
     7
370
    25
100
AcDbVertex
100
AcDb2dVertex
 10
188.6687116561171
 20
180.2904061636422
 30
0.0
  0
VERTEX
  5
22F
330
20A
100
AcDbEntity
  8
0
 62
     7
370
    25
100
AcDbVertex
100
AcDb2dVertex
 10
188.3920703061528
 20
180.3427716495632
 30
0.0
  0
VERTEX
  5
230
330
20A
100
AcDbEntity
  8
0
 62
     7
370
    25
100
AcDbVertex
100
AcDb2dVertex
 10
188.1137064073095
 20
180.3939313512689
 30
0.0
  0
VERTEX
  5
231
330
20A
100
AcDbEntity
  8
0
 62
     7
370
    25
100
AcDbVertex
100
AcDb2dVertex
 10
187.8343089791388
 20
180.4440575236472
 30
0.0
  0
VERTEX
  5
232
330
20A
100
AcDbEntity
  8
0
 62
     7
370
    25
100
AcDbVertex
100
AcDb2dVertex
 10
187.5535335118649
 20
180.4929779118103
 30
0.0
  0
VERTEX
  5
233
330
20A
100
AcDbEntity
  8
0
 62
     7
370
    25
100
AcDbVertex
100
AcDb2dVertex
 10
187.2717245152636
 20
180.5405202608702
 30
0.0
  0
VERTEX
  5
234
330
20A
100
AcDbEntity
  8
0
 62
     7
370
    25
100
AcDbVertex
100
AcDb2dVertex
 10
186.9881929697834
 20
180.5870290806027
 30
0.0
  0
VERTEX
  5
235
330
20A
100
AcDbEntity
  8
0
 62
     7
370
    25
100
AcDbVertex
100
AcDb2dVertex
 10
186.7036278949757
 20
180.632159861232
 30
0.0
  0
VERTEX
  5
236
330
20A
100
AcDbEntity
  8
0
 62
     7
370
    25
100
AcDbVertex
100
AcDb2dVertex
 10
186.4173402712891
 20
180.676084857646
 30
0.0
  0
VERTEX
  5
237
330
20A
100
AcDbEntity
  8
0
 62
     7
370
    25
100
AcDbVertex
100
AcDb2dVertex
 10
186.1300191182751
 20
180.7186318149568
 30
0.0
  0
VERTEX
  5
238
330
20A
100
AcDbEntity
  8
0
 62
     7
370
    25
100
AcDbVertex
100
AcDb2dVertex
 10
185.8413199261579
 20
180.7599729880523
 30
0.0
  0
VERTEX
  5
239
330
20A
100
AcDbEntity
  8
0
 62
     7
370
    25
100
AcDbVertex
100
AcDb2dVertex
 10
185.5519317144891
 20
180.7997638671568
 30
0.0
  0
VERTEX
  5
23A
330
20A
100
AcDbEntity
  8
0
 62
     7
370
    25
100
AcDbVertex
100
AcDb2dVertex
 10
185.261509973493
 20
180.8381767071581
 30
0.0
  0
SEQEND
  5
23B
330
20A
100
AcDbEntity
  8
0
370
    25
  0
ENDBLK
  5
209
330
206
100
AcDbEntity
  8
0
100
AcDbBlockEnd
  0
BLOCK
  5
23E
330
23C
100
AcDbEntity
  8
0
100
AcDbBlockBegin
  2
block 60
 70
     0
 71
     0
 10
0.0
 20
0.0
 30
0.0
  3
block 60
  1

  0
POLYLINE
  5
240
330
23C
100
AcDbEntity
  8
0
 62
     7
370
    25
100
AcDb2dPolyline
 66
     1
 10
0.0
 20
0.0
 30
0.0
  0
VERTEX
  5
241
330
240
100
AcDbEntity
  8
0
 62
     7
370
    25
100
AcDbVertex
100
AcDb2dVertex
 10
197.0654484215971
 20
178.0493700720881
 30
0.0
  0
VERTEX
  5
242
330
240
100
AcDbEntity
  8
0
 62
     7
370
    25
100
AcDbVertex
100
AcDb2dVertex
 10
196.7829504054443
 20
178.1449715348715
 30
0.0
  0
SEQEND
  5
243
330
240
100
AcDbEntity
  8
0
370
    25
  0
ENDBLK
  5
23F
330
23C
100
AcDbEntity
  8
0
100
AcDbBlockEnd
  0
BLOCK
  5
246
330
244
100
AcDbEntity
  8
0
100
AcDbBlockBegin
  2
block 61
 70
     0
 71
     0
 10
0.0
 20
0.0
 30
0.0
  3
block 61
  1

  0
POLYLINE
  5
248
330
244
100
AcDbEntity
  8
0
 62
     7
370
    25
100
AcDb2dPolyline
 66
     1
 10
0.0
 20
0.0
 30
0.0
  0
VERTEX
  5
249
330
248
100
AcDbEntity
  8
0
 62
     7
370
    25
100
AcDbVertex
100
AcDb2dVertex
 10
197.3172850677041
 20
177.9627258634754
 30
0.0
  0
VERTEX
  5
24A
330
248
100
AcDbEntity
  8
0
 62
     7
370
    25
100
AcDbVertex
100
AcDb2dVertex
 10
197.0654484215971
 20
178.0493700720881
 30
0.0
  0
SEQEND
  5
24B
330
248
100
AcDbEntity
  8
0
370
    25
  0
ENDBLK
  5
247
330
244
100
AcDbEntity
  8
0
100
AcDbBlockEnd
  0
BLOCK
  5
24E
330
24C
100
AcDbEntity
  8
0
100
AcDbBlockBegin
  2
block 62
 70
     0
 71
     0
 10
0.0
 20
0.0
 30
0.0
  3
block 62
  1

  0
POLYLINE
  5
250
330
24C
100
AcDbEntity
  8
0
 62
     7
370
    25
100
AcDb2dPolyline
 66
     1
 10
0.0
 20
0.0
 30
0.0
  0
VERTEX
  5
251
330
250
100
AcDbEntity
  8
0
 62
     7
370
    25
100
AcDbVertex
100
AcDb2dVertex
 10
197.6307889636786
 20
177.853516264548
 30
0.0
  0
VERTEX
  5
252
330
250
100
AcDbEntity
  8
0
 62
     7
370
    25
100
AcDbVertex
100
AcDb2dVertex
 10
197.3172850677041
 20
177.9627258634754
 30
0.0
  0
SEQEND
  5
253
330
250
100
AcDbEntity
  8
0
370
    25
  0
ENDBLK
  5
24F
330
24C
100
AcDbEntity
  8
0
100
AcDbBlockEnd
  0
BLOCK
  5
256
330
254
100
AcDbEntity
  8
0
100
AcDbBlockBegin
  2
block 63
 70
     0
 71
     0
 10
0.0
 20
0.0
 30
0.0
  3
block 63
  1

  0
POLYLINE
  5
258
330
254
100
AcDbEntity
  8
0
 62
     7
370
    25
100
AcDb2dPolyline
 66
     1
 10
0.0
 20
0.0
 30
0.0
  0
VERTEX
  5
259
330
258
100
AcDbEntity
  8
0
 62
     7
370
    25
100
AcDbVertex
100
AcDb2dVertex
 10
197.790641499648
 20
177.7971889162053
 30
0.0
  0
VERTEX
  5
25A
330
258
100
AcDbEntity
  8
0
 62
     7
370
    25
100
AcDbVertex
100
AcDb2dVertex
 10
197.6307889636786
 20
177.853516264548
 30
0.0
  0
SEQEND
  5
25B
330
258
100
AcDbEntity
  8
0
370
    25
  0
ENDBLK
  5
257
330
254
100
AcDbEntity
  8
0
100
AcDbBlockEnd
  0
BLOCK
  5
25E
330
25C
100
AcDbEntity
  8
0
100
AcDbBlockBegin
  2
block 64
 70
     0
 71
     0
 10
0.0
 20
0.0
 30
0.0
  3
block 64
  1

  0
POLYLINE
  5
260
330
25C
100
AcDbEntity
  8
0
 62
     7
370
    25
100
AcDb2dPolyline
 66
     1
 10
0.0
 20
0.0
 30
0.0
  0
VERTEX
  5
261
330
260
100
AcDbEntity
  8
0
 62
     7
370
    25
100
AcDbVertex
100
AcDb2dVertex
 10
197.97323168082
 20
177.7322488234677
 30
0.0
  0
VERTEX
  5
262
330
260
100
AcDbEntity
  8
0
 62
     7
370
    25
100
AcDbVertex
100
AcDb2dVertex
 10
197.790641499648
 20
177.7971889162053
 30
0.0
  0
SEQEND
  5
263
330
260
100
AcDbEntity
  8
0
370
    25
  0
ENDBLK
  5
25F
330
25C
100
AcDbEntity
  8
0
100
AcDbBlockEnd
  0
BLOCK
  5
266
330
264
100
AcDbEntity
  8
0
100
AcDbBlockBegin
  2
block 65
 70
     0
 71
     0
 10
0.0
 20
0.0
 30
0.0
  3
block 65
  1

  0
POLYLINE
  5
268
330
264
100
AcDbEntity
  8
0
 62
     7
370
    25
100
AcDb2dPolyline
 66
     1
 10
0.0
 20
0.0
 30
0.0
  0
VERTEX
  5
269
330
268
100
AcDbEntity
  8
0
 62
     7
370
    25
100
AcDbVertex
100
AcDb2dVertex
 10
198.3049945949117
 20
177.2616484697301
 30
0.0
  0
VERTEX
  5
26A
330
268
100
AcDbEntity
  8
0
 62
     7
370
    25
100
AcDbVertex
100
AcDb2dVertex
 10
198.3049945949117
 20
173.7647019905111
 30
0.0
  0
SEQEND
  5
26B
330
268
100
AcDbEntity
  8
0
370
    25
  0
ENDBLK
  5
267
330
264
100
AcDbEntity
  8
0
100
AcDbBlockEnd
  0
BLOCK
  5
26E
330
26C
100
AcDbEntity
  8
0
100
AcDbBlockBegin
  2
block 66
 70
     0
 71
     0
 10
0.0
 20
0.0
 30
0.0
  3
block 66
  1

  0
SPLINE
  5
270
330
26C
100
AcDbEntity
  8
0
 62
     7
370
    25
100
AcDbSpline
210
0.0
220
0.0
230
1.0
 70
     8
 71
     3
 72
     8
 73
     4
 74
     0
 42
0.0000000001
 43
0.0000000001
 40
0.0
 40
0.0
 40
0.0
 40
0.0
 40
1.0
 40
1.0
 40
1.0
 40
1.0
 10
125.36676290245
 20
180.8641871952307
 30
0.0
 10
126.0464806900959
 20
180.9647840497632
 30
0.0
 10
127.4004041089748
 20
181.1742459934472
 30
0.0
 10
128.0790883672933
 20
181.2838001021504
 30
0.0
  0
ENDBLK
  5
26F
330
26C
100
AcDbEntity
  8
0
100
AcDbBlockEnd
  0
BLOCK
  5
273
330
271
100
AcDbEntity
  8
0
100
AcDbBlockBegin
  2
block 67
 70
     0
 71
     0
 10
0.0
 20
0.0
 30
0.0
  3
block 67
  1

  0
SPLINE
  5
275
330
271
100
AcDbEntity
  8
0
 62
     7
370
    25
100
AcDbSpline
210
0.0
220
0.0
230
1.0
 70
     8
 71
     3
 72
     8
 73
     4
 74
     0
 42
0.0000000001
 43
0.0000000001
 40
0.0
 40
0.0
 40
0.0
 40
0.0
 40
1.0
 40
1.0
 40
1.0
 40
1.0
 10
39.31201051610083
 20
181.2838001021504
 30
0.0
 10
39.99069477441928
 20
181.1742459934472
 30
0.0
 10
41.34530721284982
 20
180.9646117948753
 30
0.0
 10
42.02536951027145
 20
180.8640149403428
 30
0.0
  0
ENDBLK
  5
274
330
271
100
AcDbEntity
  8
0
100
AcDbBlockEnd
  0
BLOCK
  5
278
330
276
100
AcDbEntity
  8
0
100
AcDbBlockBegin
  2
block 68
 70
     0
 71
     0
 10
0.0
 20
0.0
 30
0.0
  3
block 68
  1

  0
SPLINE
  5
27A
330
276
100
AcDbEntity
  8
0
 62
     7
370
    25
100
AcDbSpline
210
0.0
220
0.0
230
1.0
 70
     8
 71
     3
 72
     8
 73
     4
 74
     0
 42
0.0000000001
 43
0.0000000001
 40
0.0
 40
0.0
 40
0.0
 40
0.0
 40
1.0
 40
1.0
 40
1.0
 40
1.0
 10
72.32827713441456
 20
177.9909756650906
 30
0.0
 10
78.08176264509848
 20
177.6850509841836
 30
0.0
 10
89.29228300439372
 20
177.6847064744078
 30
0.0
 10
95.04576851507764
 20
177.990286645539
 30
0.0
  0
ENDBLK
  5
279
330
276
100
AcDbEntity
  8
0
100
AcDbBlockEnd
  0
BLOCK
  5
27D
330
27B
100
AcDbEntity
  8
0
100
AcDbBlockBegin
  2
block 69
 70
     0
 71
     0
 10
0.0
 20
0.0
 30
0.0
  3
block 69
  1

  0
SPLINE
  5
27F
330
27B
100
AcDbEntity
  8
0
 62
     7
370
    25
100
AcDbSpline
210
0.0
220
0.0
230
1.0
 70
     8
 71
     3
 72
     8
 73
     4
 74
     0
 42
0.0000000001
 43
0.0000000001
 40
0.0
 40
0.0
 40
0.0
 40
0.0
 40
1.0
 40
1.0
 40
1.0
 40
1.0
 10
127.9891713158105
 20
181.2695029464549
 30
0.0
 10
127.8758275995735
 20
181.2581341238536
 30
0.0
 10
127.7135634951735
 20
181.1764853069899
 30
0.0
 10
127.6370823249468
 20
181.0920804119199
 30
0.0
  0
ENDBLK
  5
27E
330
27B
100
AcDbEntity
  8
0
100
AcDbBlockEnd
  0
BLOCK
  5
282
330
280
100
AcDbEntity
  8
0
100
AcDbBlockBegin
  2
block 70
 70
     0
 71
     0
 10
0.0
 20
0.0
 30
0.0
  3
block 70
  1

  0
SPLINE
  5
284
330
280
100
AcDbEntity
  8
0
 62
     7
370
    25
100
AcDbSpline
210
0.0
220
0.0
230
1.0
 70
     8
 71
     3
 72
    11
 73
     7
 74
     0
 42
0.0000000001
 43
0.0000000001
 40
0.0
 40
0.0
 40
0.0
 40
0.0
 40
1.0
 40
1.0
 40
1.0
 40
2.0
 40
2.0
 40
2.0
 40
2.0
 10
39.31201051610083
 20
181.2838001021504
 30
0.0
 10
39.03950328344606
 20
181.3273805887886
 30
0.0
 10
38.7833602651416
 20
181.1416898196345
 30
0.0
 10
38.73977977850339
 20
180.8693548418676
 30
0.0
 10
38.73616242585753
 20
180.8492010199836
 30
0.0
 10
38.73306183787537
 20
180.8107881799823
 30
0.0
 10
38.73357860253906
 20
180.7904621032103
 30
0.0
  0
ENDBLK
  5
283
330
280
100
AcDbEntity
  8
0
100
AcDbBlockEnd
  0
BLOCK
  5
287
330
285
100
AcDbEntity
  8
0
100
AcDbBlockBegin
  2
block 71
 70
     0
 71
     0
 10
0.0
 20
0.0
 30
0.0
  3
block 71
  1

  0
SPLINE
  5
289
330
285
100
AcDbEntity
  8
0
 62
     7
370
    25
100
AcDbSpline
210
0.0
220
0.0
230
1.0
 70
     8
 71
     3
 72
    11
 73
     7
 74
     0
 42
0.0000000001
 43
0.0000000001
 40
0.0
 40
0.0
 40
0.0
 40
0.0
 40
1.0
 40
1.0
 40
1.0
 40
2.0
 40
2.0
 40
2.0
 40
2.0
 10
128.657520280855
 20
180.7904621032103
 30
0.0
 10
128.657520280855
 20
181.066414433623
 30
0.0
 10
128.4335889265875
 20
181.2900012781147
 30
0.0
 10
128.1579811059506
 20
181.2900012781147
 30
0.0
 10
128.1376550291786
 20
181.2905180427784
 30
0.0
 10
128.0990699342895
 20
181.2875897096842
 30
0.0
 10
128.0790883672933
 20
181.2838001021504
 30
0.0
  0
ENDBLK
  5
288
330
285
100
AcDbEntity
  8
0
100
AcDbBlockEnd
  0
BLOCK
  5
28C
330
28A
100
AcDbEntity
  8
0
100
AcDbBlockBegin
  2
block 72
 70
     0
 71
     0
 10
0.0
 20
0.0
 30
0.0
  3
block 72
  1

  0
SPLINE
  5
28E
330
28A
100
AcDbEntity
  8
0
 62
     7
370
    25
100
AcDbSpline
210
0.0
220
0.0
230
1.0
 70
     8
 71
     3
 72
     8
 73
     4
 74
     0
 42
0.0000000001
 43
0.0000000001
 40
0.0
 40
0.0
 40
0.0
 40
0.0
 40
1.0
 40
1.0
 40
1.0
 40
1.0
 10
88.64512139056062
 20
167.7691983623304
 30
0.0
 10
88.39104543091094
 20
167.7485277757826
 30
0.0
 10
88.18881819251858
 20
167.5266634801699
 30
0.0
 10
88.19174652561286
 20
167.2717262460807
 30
0.0
  0
ENDBLK
  5
28D
330
28A
100
AcDbEntity
  8
0
100
AcDbBlockEnd
  0
BLOCK
  5
291
330
28F
100
AcDbEntity
  8
0
100
AcDbBlockBegin
  2
block 73
 70
     0
 71
     0
 10
0.0
 20
0.0
 30
0.0
  3
block 73
  1

  0
SPLINE
  5
293
330
28F
100
AcDbEntity
  8
0
 62
     7
370
    25
100
AcDbSpline
210
0.0
220
0.0
230
1.0
 70
     8
 71
     3
 72
     8
 73
     4
 74
     0
 42
0.0000000001
 43
0.0000000001
 40
0.0
 40
0.0
 40
0.0
 40
0.0
 40
1.0
 40
1.0
 40
1.0
 40
1.0
 10
79.19935235778125
 20
167.2717262460807
 30
0.0
 10
79.20210843598763
 20
167.5266634801699
 30
0.0
 10
78.99988119759527
 20
167.7485277757826
 30
0.0
 10
78.7458052379456
 20
167.7691983623304
 30
0.0
  0
ENDBLK
  5
292
330
28F
100
AcDbEntity
  8
0
100
AcDbBlockEnd
  0
BLOCK
  5
296
330
294
100
AcDbEntity
  8
0
100
AcDbBlockBegin
  2
block 74
 70
     0
 71
     0
 10
0.0
 20
0.0
 30
0.0
  3
block 74
  1

  0
SPLINE
  5
298
330
294
100
AcDbEntity
  8
0
 62
     7
370
    25
100
AcDbSpline
210
0.0
220
0.0
230
1.0
 70
     8
 71
     3
 72
     8
 73
     4
 74
     0
 42
0.0000000001
 43
0.0000000001
 40
0.0
 40
0.0
 40
0.0
 40
0.0
 40
1.0
 40
1.0
 40
1.0
 40
1.0
 10
87.7921151856893
 20
166.7706367771852
 30
0.0
 10
88.01277369708674
 20
166.7706367771852
 30
0.0
 10
88.19174652561286
 20
166.9496096057113
 30
0.0
 10
88.19174652561286
 20
167.1702681171088
 30
0.0
  0
ENDBLK
  5
297
330
294
100
AcDbEntity
  8
0
100
AcDbBlockEnd
  0
BLOCK
  5
29B
330
299
100
AcDbEntity
  8
0
100
AcDbBlockBegin
  2
block 75
 70
     0
 71
     0
 10
0.0
 20
0.0
 30
0.0
  3
block 75
  1

  0
SPLINE
  5
29D
330
299
100
AcDbEntity
  8
0
 62
     7
370
    25
100
AcDbSpline
210
0.0
220
0.0
230
1.0
 70
     8
 71
     3
 72
     8
 73
     4
 74
     0
 42
0.0000000001
 43
0.0000000001
 40
0.0
 40
0.0
 40
0.0
 40
0.0
 40
1.0
 40
1.0
 40
1.0
 40
1.0
 10
79.19935235778125
 20
167.1702681171088
 30
0.0
 10
79.19935235778125
 20
166.9496096057113
 30
0.0
 10
79.37832518630736
 20
166.7706367771852
 30
0.0
 10
79.59898369770481
 20
166.7706367771852
 30
0.0
  0
ENDBLK
  5
29C
330
299
100
AcDbEntity
  8
0
100
AcDbBlockEnd
  0
BLOCK
  5
2A0
330
29E
100
AcDbEntity
  8
0
100
AcDbBlockBegin
  2
block 76
 70
     0
 71
     0
 10
0.0
 20
0.0
 30
0.0
  3
block 76
  1

  0
SPLINE
  5
2A2
330
29E
100
AcDbEntity
  8
0
 62
     7
370
    25
100
AcDbSpline
210
0.0
220
0.0
230
1.0
 70
    11
 71
     3
 72
    20
 73
    16
 74
     0
 42
0.0000000001
 43
0.0000000001
 40
0.0
 40
0.0
 40
0.0
 40
0.0
 40
1.0
 40
1.0
 40
1.0
 40
2.0
 40
2.0
 40
2.0
 40
3.0
 40
3.0
 40
3.0
 40
4.0
 40
4.0
 40
4.0
 40
5.0
 40
5.0
 40
5.0
 40
5.0
 10
87.49221942585874
 20
107.6978900311919
 30
0.0
 10
87.49221942585874
 20
109.7945765266874
 30
0.0
 10
85.79240819208044
 20
111.4947322702415
 30
0.0
 10
83.69554944169705
 20
111.4947322702415
 30
0.0
 10
81.59851843642578
 20
111.4947322702415
 30
0.0
 10
79.89870720264747
 20
109.7945765266874
 30
0.0
 10
79.89870720264747
 20
107.6978900311919
 30
0.0
 10
79.89870720264747
 20
105.6008590259207
 30
0.0
 10
81.59869069131368
 20
103.9010477921424
 30
0.0
 10
83.69554944169705
 20
103.9010477921424
 30
0.0
 10
85.79240819208044
 20
103.9010477921424
 30
0.0
 10
87.49221942585874
 20
105.6008590259207
 30
0.0
 10
87.49221942585874
 20
107.6978900311919
 30
0.0
 10
87.49221942585874
 20
107.6978900311919
 30
0.0
 10
87.49221942585874
 20
107.6978900311919
 30
0.0
 10
87.49221942585874
 20
107.6978900311919
 30
0.0
  0
ENDBLK
  5
2A1
330
29E
100
AcDbEntity
  8
0
100
AcDbBlockEnd
  0
BLOCK
  5
2A5
330
2A3
100
AcDbEntity
  8
0
100
AcDbBlockBegin
  2
block 77
 70
     0
 71
     0
 10
0.0
 20
0.0
 30
0.0
  3
block 77
  1

  0
SPLINE
  5
2A7
330
2A3
100
AcDbEntity
  8
0
 62
     7
370
    25
100
AcDbSpline
210
0.0
220
0.0
230
1.0
 70
    11
 71
     3
 72
    20
 73
    16
 74
     0
 42
0.0000000001
 43
0.0000000001
 40
0.0
 40
0.0
 40
0.0
 40
0.0
 40
1.0
 40
1.0
 40
1.0
 40
2.0
 40
2.0
 40
2.0
 40
3.0
 40
3.0
 40
3.0
 40
4.0
 40
4.0
 40
4.0
 40
5.0
 40
5.0
 40
5.0
 40
5.0
 10
85.9936019011454
 20
107.6978900311919
 30
0.0
 10
85.9936019011454
 20
108.967064045225
 30
0.0
 10
84.96472345573014
 20
109.9957702357524
 30
0.0
 10
83.69554944169705
 20
109.9957702357524
 30
0.0
 10
82.42637542766397
 20
109.9957702357524
 30
0.0
 10
81.39749698224871
 20
108.967064045225
 30
0.0
 10
81.39749698224871
 20
107.6978900311919
 30
0.0
 10
81.39749698224871
 20
106.4287160171588
 30
0.0
 10
82.42637542766397
 20
105.3996653168557
 30
0.0
 10
83.69554944169705
 20
105.3996653168557
 30
0.0
 10
84.96472345573014
 20
105.3996653168557
 30
0.0
 10
85.9936019011454
 20
106.4287160171588
 30
0.0
 10
85.9936019011454
 20
107.6978900311919
 30
0.0
 10
85.9936019011454
 20
107.6978900311919
 30
0.0
 10
85.9936019011454
 20
107.6978900311919
 30
0.0
 10
85.9936019011454
 20
107.6978900311919
 30
0.0
  0
ENDBLK
  5
2A6
330
2A3
100
AcDbEntity
  8
0
100
AcDbBlockEnd
  0
BLOCK
  5
2AA
330
2A8
100
AcDbEntity
  8
0
100
AcDbBlockBegin
  2
block 78
 70
     0
 71
     0
 10
0.0
 20
0.0
 30
0.0
  3
block 78
  1

  0
SPLINE
  5
2AC
330
2A8
100
AcDbEntity
  8
0
 62
     7
370
    25
100
AcDbSpline
210
0.0
220
0.0
230
1.0
 70
     8
 71
     3
 72
     8
 73
     4
 74
     0
 42
0.0000000001
 43
0.0000000001
 40
0.0
 40
0.0
 40
0.0
 40
0.0
 40
1.0
 40
1.0
 40
1.0
 40
1.0
 10
160.8471356921459
 20
173.5802170055723
 30
0.0
 10
160.7537735429051
 20
173.6895988593876
 30
0.0
 10
160.5577474804771
 20
173.7731424800182
 30
0.0
 10
160.4144314137459
 20
173.7647019905111
 30
0.0
  0
ENDBLK
  5
2AB
330
2A8
100
AcDbEntity
  8
0
100
AcDbBlockEnd
  0
BLOCK
  5
2AF
330
2AD
100
AcDbEntity
  8
0
100
AcDbBlockBegin
  2
block 79
 70
     0
 71
     0
 10
0.0
 20
0.0
 30
0.0
  3
block 79
  1

  0
SPLINE
  5
2B1
330
2AD
100
AcDbEntity
  8
0
 62
     7
370
    25
100
AcDbSpline
210
0.0
220
0.0
230
1.0
 70
     8
 71
     3
 72
     8
 73
     4
 74
     0
 42
0.0000000001
 43
0.0000000001
 40
0.0
 40
0.0
 40
0.0
 40
0.0
 40
1.0
 40
1.0
 40
1.0
 40
1.0
 10
196.2296677055156
 20
173.7647019905111
 30
0.0
 10
196.0860071290086
 20
173.7731424800182
 30
0.0
 10
195.8903255763564
 20
173.6895988593876
 30
0.0
 10
195.7969634271156
 20
173.5802170055723
 30
0.0
  0
ENDBLK
  5
2B0
330
2AD
100
AcDbEntity
  8
0
100
AcDbBlockEnd
  0
BLOCK
  5
2B4
330
2B2
100
AcDbEntity
  8
0
100
AcDbBlockBegin
  2
block 80
 70
     0
 71
     0
 10
0.0
 20
0.0
 30
0.0
  3
block 80
  1

  0
SPLINE
  5
2B6
330
2B2
100
AcDbEntity
  8
0
 62
     7
370
    25
100
AcDbSpline
210
0.0
220
0.0
230
1.0
 70
     8
 71
     3
 72
     8
 73
     4
 74
     0
 42
0.0000000001
 43
0.0000000001
 40
0.0
 40
0.0
 40
0.0
 40
0.0
 40
1.0
 40
1.0
 40
1.0
 40
1.0
 10
158.8386436992542
 20
177.7613598995225
 30
0.0
 10
158.5626913688415
 20
177.7613598995225
 30
0.0
 10
158.3391045243498
 20
177.5376008001429
 30
0.0
 10
158.3391045243498
 20
177.2616484697301
 30
0.0
  0
ENDBLK
  5
2B5
330
2B2
100
AcDbEntity
  8
0
100
AcDbBlockEnd
  0
BLOCK
  5
2B9
330
2B7
100
AcDbEntity
  8
0
100
AcDbBlockBegin
  2
block 81
 70
     0
 71
     0
 10
0.0
 20
0.0
 30
0.0
  3
block 81
  1

  0
SPLINE
  5
2BB
330
2B7
100
AcDbEntity
  8
0
 62
     7
370
    25
100
AcDbSpline
210
0.0
220
0.0
230
1.0
 70
     8
 71
     3
 72
     8
 73
     4
 74
     0
 42
0.0000000001
 43
0.0000000001
 40
0.0
 40
0.0
 40
0.0
 40
0.0
 40
1.0
 40
1.0
 40
1.0
 40
1.0
 10
198.3049945949117
 20
177.2616484697301
 30
0.0
 10
198.3049945949117
 20
177.5376008001429
 30
0.0
 10
198.08140775042
 20
177.7613598995225
 30
0.0
 10
197.8054554200073
 20
177.7613598995225
 30
0.0
  0
ENDBLK
  5
2BA
330
2B7
100
AcDbEntity
  8
0
100
AcDbBlockEnd
  0
BLOCK
  5
2BE
330
2BC
100
AcDbEntity
  8
0
100
AcDbBlockBegin
  2
block 82
 70
     0
 71
     0
 10
0.0
 20
0.0
 30
0.0
  3
block 82
  1

  0
SPLINE
  5
2C0
330
2BC
100
AcDbEntity
  8
0
 62
     7
370
    25
100
AcDbSpline
210
0.0
220
0.0
230
1.0
 70
     8
 71
     3
 72
     8
 73
     4
 74
     0
 42
0.0000000001
 43
0.0000000001
 40
0.0
 40
0.0
 40
0.0
 40
0.0
 40
1.0
 40
1.0
 40
1.0
 40
1.0
 10
173.825852475715
 20
167.2870569311037
 30
0.0
 10
173.8292975734729
 20
167.5354484794527
 30
0.0
 10
173.6336160208207
 20
167.756451500626
 30
0.0
 10
173.3866025115748
 20
167.7829787533622
 30
0.0
  0
ENDBLK
  5
2BF
330
2BC
100
AcDbEntity
  8
0
100
AcDbBlockEnd
  0
BLOCK
  5
2C3
330
2C1
100
AcDbEntity
  8
0
100
AcDbBlockBegin
  2
block 83
 70
     0
 71
     0
 10
0.0
 20
0.0
 30
0.0
  3
block 83
  1

  0
SPLINE
  5
2C5
330
2C1
100
AcDbEntity
  8
0
 62
     7
370
    25
100
AcDbSpline
210
0.0
220
0.0
230
1.0
 70
     8
 71
     3
 72
     8
 73
     4
 74
     0
 42
0.0000000001
 43
0.0000000001
 40
0.0
 40
0.0
 40
0.0
 40
0.0
 40
1.0
 40
1.0
 40
1.0
 40
1.0
 10
183.2574966076867
 20
167.7829787533622
 30
0.0
 10
183.010138588665
 20
167.756451500626
 30
0.0
 10
182.8148015457886
 20
167.5354484794527
 30
0.0
 10
182.8182466435466
 20
167.2870569311037
 30
0.0
  0
ENDBLK
  5
2C4
330
2C1
100
AcDbEntity
  8
0
100
AcDbBlockEnd
  0
BLOCK
  5
2C8
330
2C6
100
AcDbEntity
  8
0
100
AcDbBlockBegin
  2
block 84
 70
     0
 71
     0
 10
0.0
 20
0.0
 30
0.0
  3
block 84
  1

  0
SPLINE
  5
2CA
330
2C6
100
AcDbEntity
  8
0
 62
     7
370
    25
100
AcDbSpline
210
0.0
220
0.0
230
1.0
 70
     8
 71
     3
 72
     8
 73
     4
 74
     0
 42
0.0000000001
 43
0.0000000001
 40
0.0
 40
0.0
 40
0.0
 40
0.0
 40
1.0
 40
1.0
 40
1.0
 40
1.0
 10
197.7847848334595
 20
177.7613598995225
 30
0.0
 10
197.6552491577602
 20
177.7677333303747
 30
0.0
 10
197.5015977977551
 20
177.6804001022104
 30
0.0
 10
197.4413085869907
 20
177.5655060919824
 30
0.0
  0
ENDBLK
  5
2C9
330
2C6
100
AcDbEntity
  8
0
100
AcDbBlockEnd
  0
BLOCK
  5
2CD
330
2CB
100
AcDbEntity
  8
0
100
AcDbBlockBegin
  2
block 85
 70
     0
 71
     0
 10
0.0
 20
0.0
 30
0.0
  3
block 85
  1

  0
SPLINE
  5
2CF
330
2CB
100
AcDbEntity
  8
0
 62
     7
370
    25
100
AcDbSpline
210
0.0
220
0.0
230
1.0
 70
     8
 71
     3
 72
     8
 73
     4
 74
     0
 42
0.0000000001
 43
0.0000000001
 40
0.0
 40
0.0
 40
0.0
 40
0.0
 40
1.0
 40
1.0
 40
1.0
 40
1.0
 10
159.2027905322708
 20
177.5655060919824
 30
0.0
 10
159.1425013215064
 20
177.6804001022104
 30
0.0
 10
158.9888499615014
 20
177.7677333303747
 30
0.0
 10
158.859314285802
 20
177.7613598995225
 30
0.0
  0
ENDBLK
  5
2CE
330
2CB
100
AcDbEntity
  8
0
100
AcDbBlockEnd
  0
BLOCK
  5
2D2
330
2D0
100
AcDbEntity
  8
0
100
AcDbBlockBegin
  2
block 86
 70
     0
 71
     0
 10
0.0
 20
0.0
 30
0.0
  3
block 86
  1

  0
SPLINE
  5
2D4
330
2D0
100
AcDbEntity
  8
0
 62
     7
370
    25
100
AcDbSpline
210
0.0
220
0.0
230
1.0
 70
     8
 71
     3
 72
     8
 73
     4
 74
     0
 42
0.0000000001
 43
0.0000000001
 40
0.0
 40
0.0
 40
0.0
 40
0.0
 40
1.0
 40
1.0
 40
1.0
 40
1.0
 10
182.418615303623
 20
166.7706367771852
 30
0.0
 10
182.6394460699083
 20
166.7706367771852
 30
0.0
 10
182.8182466435466
 20
166.9496096057113
 30
0.0
 10
182.8182466435466
 20
167.1702681171088
 30
0.0
  0
ENDBLK
  5
2D3
330
2D0
100
AcDbEntity
  8
0
100
AcDbBlockEnd
  0
BLOCK
  5
2D7
330
2D5
100
AcDbEntity
  8
0
100
AcDbBlockBegin
  2
block 87
 70
     0
 71
     0
 10
0.0
 20
0.0
 30
0.0
  3
block 87
  1

  0
SPLINE
  5
2D9
330
2D5
100
AcDbEntity
  8
0
 62
     7
370
    25
100
AcDbSpline
210
0.0
220
0.0
230
1.0
 70
     8
 71
     3
 72
     8
 73
     4
 74
     0
 42
0.0000000001
 43
0.0000000001
 40
0.0
 40
0.0
 40
0.0
 40
0.0
 40
1.0
 40
1.0
 40
1.0
 40
1.0
 10
173.825852475715
 20
167.1702681171088
 30
0.0
 10
173.825852475715
 20
166.9496096057113
 30
0.0
 10
174.0046530493532
 20
166.7706367771852
 30
0.0
 10
174.2254838156385
 20
166.7706367771852
 30
0.0
  0
ENDBLK
  5
2D8
330
2D5
100
AcDbEntity
  8
0
100
AcDbBlockEnd
  0
BLOCK
  5
2DC
330
2DA
100
AcDbEntity
  8
0
100
AcDbBlockBegin
  2
block 88
 70
     0
 71
     0
 10
0.0
 20
0.0
 30
0.0
  3
block 88
  1

  0
SPLINE
  5
2DE
330
2DA
100
AcDbEntity
  8
0
 62
     7
370
    25
100
AcDbSpline
210
0.0
220
0.0
230
1.0
 70
     8
 71
     3
 72
    23
 73
    19
 74
     0
 42
0.0000000001
 43
0.0000000001
 40
0.0
 40
0.0
 40
0.0
 40
0.0
 40
1.0
 40
1.0
 40
1.0
 40
2.0
 40
2.0
 40
2.0
 40
3.0
 40
3.0
 40
3.0
 40
4.0
 40
4.0
 40
4.0
 40
5.0
 40
5.0
 40
5.0
 40
6.0
 40
6.0
 40
6.0
 40
6.0
 10
78.7458052379456
 20
167.7691983623304
 30
0.0
 10
76.24121916790745
 20
168.0012256963291
 30
0.0
 10
73.74042270540306
 20
168.2792450853966
 30
0.0
 10
71.24737771285409
 20
168.6163479010132
 30
0.0
 10
68.74916507366817
 20
168.9543119910692
 30
0.0
 10
66.25870390443767
 20
169.3515317625622
 30
0.0
 10
63.78374567511798
 20
169.8295390764794
 30
0.0
 10
62.54333822736388
 20
170.0689733706577
 30
0.0
 10
61.30689264203143
 20
170.328733741608
 30
0.0
 10
60.07595921311172
 20
170.6126097968641
 30
0.0
 10
58.84244196087354
 20
170.8970026167838
 30
0.0
 10
57.6142646101602
 20
171.2055111210093
 30
0.0
 10
56.39418323917806
 20
171.5434752110653
 30
0.0
 10
55.17048451555007
 20
171.8823005755609
 30
0.0
 10
53.95488177165329
 20
172.250581525887
 30
0.0
 10
52.75099236013358
 20
172.6546914928959
 30
0.0
 10
51.54227981175272
 20
173.0603517538959
 30
0.0
 10
50.34528059574893
 20
173.5021855413545
 30
0.0
 10
49.7187895684636
 20
173.7647019905111
 30
0.0
  0
ENDBLK
  5
2DD
330
2DA
100
AcDbEntity
  8
0
100
AcDbBlockEnd
  0
BLOCK
  5
2E1
330
2DF
100
AcDbEntity
  8
0
100
AcDbBlockBegin
  2
block 89
 70
     0
 71
     0
 10
0.0
 20
0.0
 30
0.0
  3
block 89
  1

  0
SPLINE
  5
2E3
330
2DF
100
AcDbEntity
  8
0
 62
     7
370
    25
100
AcDbSpline
210
0.0
220
0.0
230
1.0
 70
     8
 71
     3
 72
    23
 73
    19
 74
     0
 42
0.0000000001
 43
0.0000000001
 40
0.0
 40
0.0
 40
0.0
 40
0.0
 40
1.0
 40
1.0
 40
1.0
 40
2.0
 40
2.0
 40
2.0
 40
3.0
 40
3.0
 40
3.0
 40
4.0
 40
4.0
 40
4.0
 40
5.0
 40
5.0
 40
5.0
 40
6.0
 40
6.0
 40
6.0
 40
6.0
 10
117.6721370600426
 20
173.7647019905111
 30
0.0
 10
117.0458182876452
 20
173.5021855413545
 30
0.0
 10
115.8486468167535
 20
173.0603517538959
 30
0.0
 10
114.6401065232605
 20
172.6546914928959
 30
0.0
 10
113.4360448568529
 20
172.250581525887
 30
0.0
 10
112.220614367844
 20
171.8823005755609
 30
0.0
 10
110.996915644216
 20
171.5434752110653
 30
0.0
 10
109.776662018346
 20
171.2055111210093
 30
0.0
 10
108.5488291774085
 20
170.8970026167838
 30
0.0
 10
107.3151396702824
 20
170.6126097968641
 30
0.0
 10
106.0842062413627
 20
170.328733741608
 30
0.0
 10
104.8475884011423
 20
170.0689733706577
 30
0.0
 10
103.6071809533882
 20
169.8295390764794
 30
0.0
 10
101.1323949789564
 20
169.3515317625622
 30
0.0
 10
98.64176155483804
 20
168.9543119910692
 30
0.0
 10
96.14372117054002
 20
168.6163479010132
 30
0.0
 10
93.65067617799104
 20
168.2792450853966
 30
0.0
 10
91.14987971548666
 20
168.0012256963291
 30
0.0
 10
88.64512139056062
 20
167.7691983623304
 30
0.0
  0
ENDBLK
  5
2E2
330
2DF
100
AcDbEntity
  8
0
100
AcDbBlockEnd
  0
BLOCK
  5
2E6
330
2E4
100
AcDbEntity
  8
0
100
AcDbBlockBegin
  2
block 90
 70
     0
 71
     0
 10
0.0
 20
0.0
 30
0.0
  3
block 90
  1

  0
POLYLINE
  5
2E8
330
2E4
100
AcDbEntity
  8
0
 62
     7
370
    25
100
AcDb2dPolyline
 66
     1
 10
0.0
 20
0.0
 30
0.0
  0
VERTEX
  5
2E9
330
2E8
100
AcDbEntity
  8
0
 62
     7
370
    25
100
AcDbVertex
100
AcDb2dVertex
 10
72.31501350804642
 20
177.9914924297543
 30
0.0
  0
VERTEX
  5
2EA
330
2E8
100
AcDbEntity
  8
0
 62
     7
370
    25
100
AcDbVertex
100
AcDb2dVertex
 10
72.32827713441456
 20
177.9909756650906
 30
0.0
  0
SEQEND
  5
2EB
330
2E8
100
AcDbEntity
  8
0
370
    25
  0
ENDBLK
  5
2E7
330
2E4
100
AcDbEntity
  8
0
100
AcDbBlockEnd
  0
BLOCK
  5
2EE
330
2EC
100
AcDbEntity
  8
0
100
AcDbBlockBegin
  2
block 91
 70
     0
 71
     0
 10
0.0
 20
0.0
 30
0.0
  3
block 91
  1

  0
SPLINE
  5
2F0
330
2EC
100
AcDbEntity
  8
0
 62
     7
370
    25
100
AcDbSpline
210
0.0
220
0.0
230
1.0
 70
     8
 71
     3
 72
    14
 73
    10
 74
     0
 42
0.0000000001
 43
0.0000000001
 40
0.0
 40
0.0
 40
0.0
 40
0.0
 40
1.0
 40
1.0
 40
1.0
 40
2.0
 40
2.0
 40
2.0
 40
3.0
 40
3.0
 40
3.0
 40
3.0
 10
72.31501350804642
 20
177.9914924297543
 30
0.0
 10
66.88553944149879
 20
178.2112896667123
 30
0.0
 10
61.46054400203652
 20
178.5881833614333
 30
0.0
 10
56.05225728670037
 20
179.1214844943658
 30
0.0
 10
53.52166072858961
 20
179.3710818269301
 30
0.0
 10
50.99468152312471
 20
179.6549578821861
 30
0.0
 10
48.47218094474516
 20
179.9736294247976
 30
0.0
 10
46.3198561204586
 20
180.2454476379008
 30
0.0
 10
44.1708041390421
 20
180.5427595744129
 30
0.0
 10
42.02536951027145
 20
180.8640149403428
 30
0.0
  0
ENDBLK
  5
2EF
330
2EC
100
AcDbEntity
  8
0
100
AcDbBlockEnd
  0
BLOCK
  5
2F3
330
2F1
100
AcDbEntity
  8
0
100
AcDbBlockBegin
  2
block 92
 70
     0
 71
     0
 10
0.0
 20
0.0
 30
0.0
  3
block 92
  1

  0
SPLINE
  5
2F5
330
2F1
100
AcDbEntity
  8
0
 62
     7
370
    25
100
AcDbSpline
210
0.0
220
0.0
230
1.0
 70
     8
 71
     3
 72
    14
 73
    10
 74
     0
 42
0.0000000001
 43
0.0000000001
 40
0.0
 40
0.0
 40
0.0
 40
0.0
 40
1.0
 40
1.0
 40
1.0
 40
2.0
 40
2.0
 40
2.0
 40
3.0
 40
3.0
 40
3.0
 40
3.0
 10
125.36676290245
 20
180.8641871952307
 30
0.0
 10
123.2277017045316
 20
180.5437931037403
 30
0.0
 10
121.0848508990795
 20
180.2473424416677
 30
0.0
 10
118.9388995056451
 20
179.9762132481161
 30
0.0
 10
116.4232891227815
 20
179.6582307250562
 30
0.0
 10
113.9035446226083
 20
179.3748714344638
 30
0.0
 10
111.3803550246772
 20
179.1256186116753
 30
0.0
 10
105.9867099748124
 20
178.5928342434065
 30
0.0
 10
100.5767007105972
 20
178.2159405486855
 30
0.0
 10
95.16186830952094
 20
177.9951097824002
 30
0.0
  0
ENDBLK
  5
2F4
330
2F1
100
AcDbEntity
  8
0
100
AcDbBlockEnd
  0
BLOCK
  5
2F8
330
2F6
100
AcDbEntity
  8
0
100
AcDbBlockBegin
  2
block 93
 70
     0
 71
     0
 10
0.0
 20
0.0
 30
0.0
  3
block 93
  1

  0
POLYLINE
  5
2FA
330
2F6
100
AcDbEntity
  8
0
 62
     7
370
    25
100
AcDb2dPolyline
 66
     1
 10
0.0
 20
0.0
 30
0.0
  0
VERTEX
  5
2FB
330
2FA
100
AcDbEntity
  8
0
 62
     7
370
    25
100
AcDbVertex
100
AcDb2dVertex
 10
95.04594076996553
 20
177.990286645539
 30
0.0
  0
VERTEX
  5
2FC
330
2FA
100
AcDbEntity
  8
0
 62
     7
370
    25
100
AcDbVertex
100
AcDb2dVertex
 10
95.07057321893495
 20
177.9913201748664
 30
0.0
  0
SEQEND
  5
2FD
330
2FA
100
AcDbEntity
  8
0
370
    25
  0
ENDBLK
  5
2F9
330
2F6
100
AcDbEntity
  8
0
100
AcDbBlockEnd
  0
BLOCK
  5
300
330
2FE
100
AcDbEntity
  8
0
100
AcDbBlockBegin
  2
block 94
 70
     0
 71
     0
 10
0.0
 20
0.0
 30
0.0
  3
block 94
  1

  0
SPLINE
  5
302
330
2FE
100
AcDbEntity
  8
0
 62
     7
370
    25
100
AcDbSpline
210
0.0
220
0.0
230
1.0
 70
     8
 71
     3
 72
   101
 73
    97
 74
     0
 42
0.0000000001
 43
0.0000000001
 40
0.0
 40
0.0
 40
0.0
 40
0.0
 40
1.0
 40
1.0
 40
1.0
 40
2.0
 40
2.0
 40
2.0
 40
3.0
 40
3.0
 40
3.0
 40
4.0
 40
4.0
 40
4.0
 40
5.0
 40
5.0
 40
5.0
 40
6.0
 40
6.0
 40
6.0
 40
7.0
 40
7.0
 40
7.0
 40
8.0
 40
8.0
 40
8.0
 40
9.0
 40
9.0
 40
9.0
 40
10.0
 40
10.0
 40
10.0
 40
11.0
 40
11.0
 40
11.0
 40
12.0
 40
12.0
 40
12.0
 40
13.0
 40
13.0
 40
13.0
 40
14.0
 40
14.0
 40
14.0
 40
15.0
 40
15.0
 40
15.0
 40
16.0
 40
16.0
 40
16.0
 40
17.0
 40
17.0
 40
17.0
 40
18.0
 40
18.0
 40
18.0
 40
19.0
 40
19.0
 40
19.0
 40
20.0
 40
20.0
 40
20.0
 40
21.0
 40
21.0
 40
21.0
 40
22.0
 40
22.0
 40
22.0
 40
23.0
 40
23.0
 40
23.0
 40
24.0
 40
24.0
 40
24.0
 40
25.0
 40
25.0
 40
25.0
 40
26.0
 40
26.0
 40
26.0
 40
27.0
 40
27.0
 40
27.0
 40
28.0
 40
28.0
 40
28.0
 40
29.0
 40
29.0
 40
29.0
 40
30.0
 40
30.0
 40
30.0
 40
31.0
 40
31.0
 40
31.0
 40
32.0
 40
32.0
 40
32.0
 40
32.0
 10
128.657520280855
 20
107.6978900311919
 30
0.0
 10
128.657520280855
 20
108.3517695856531
 30
0.0
 10
128.5851732279378
 20
109.0056491401142
 30
0.0
 10
128.4408236318793
 20
109.6564281065932
 30
0.0
 10
128.2968185455965
 20
110.3072070730721
 30
0.0
 10
128.0804664063965
 20
110.9548854515689
 30
0.0
 10
127.7934897631583
 20
111.5963626541014
 30
0.0
 10
127.5065131199201
 20
112.2378398566339
 30
0.0
 10
127.1485674628678
 20
112.8727713734262
 30
0.0
 10
126.7213753408806
 20
113.4987456360478
 30
0.0
 10
126.2941832188933
 20
114.1243753888937
 30
0.0
 10
125.7980891417469
 20
114.7410478875688
 30
0.0
 10
125.2348156583201
 20
115.3449735245395
 30
0.0
 10
124.6718866846692
 20
115.949243671286
 30
0.0
 10
124.0421228145138
 20
116.5411114661038
 30
0.0
 10
123.3482801260603
 20
117.1178208307866
 30
0.0
 10
122.6547819473826
 20
117.6945301954694
 30
0.0
 10
121.8975494601826
 20
118.2560811300171
 30
0.0
 10
121.0800277622183
 20
118.7997175562235
 30
0.0
 10
120.262506064254
 20
119.3436984922056
 30
0.0
 10
119.3850396653012
 20
119.8694204100706
 30
0.0
 10
118.4514181728936
 20
120.3748162511636
 30
0.0
 10
117.5181411902617
 20
120.8805566020323
 30
0.0
 10
116.5287091141751
 20
121.3656263663533
 30
0.0
 10
115.4882895912707
 20
121.8279584854718
 30
0.0
 10
114.4478700683663
 20
122.2902906045903
 30
0.0
 10
113.356463098644
 20
122.730229588282
 30
0.0
 10
112.2188918189651
 20
123.1450193583405
 30
0.0
 10
111.0816650490619
 20
123.5598091283991
 30
0.0
 10
109.8982739692021
 20
123.9497941946004
 30
0.0
 10
108.6749197553499
 20
124.3132520080654
 30
0.0
 10
107.4515655414977
 20
124.6763653117545
 30
0.0
 10
106.1879036838773
 20
125.0129513627074
 30
0.0
 10
104.890479868229
 20
125.321287612045
 30
0.0
 10
103.5927115428048
 20
125.6296238613825
 30
0.0
 10
102.2610090044647
 20
125.909365799329
 30
0.0
 10
100.9017456840609
 20
126.1598244063328
 30
0.0
 10
99.54231010876923
 20
126.4099385035609
 30
0.0
 10
98.15531375141386
 20
126.6307692698462
 30
0.0
 10
96.74730229773492
 20
126.8205941563099
 30
0.0
 10
95.33929084405597
 20
127.0104190427736
 30
0.0
 10
93.91026429405346
 20
127.1692380494156
 30
0.0
 10
92.46711284324331
 20
127.297051176236
 30
0.0
 10
91.02396139243316
 20
127.4245197932806
 30
0.0
 10
89.56685729570326
 20
127.5206380207277
 30
0.0
 10
88.10251849368164
 20
127.5847168390258
 30
0.0
 10
86.63817969166003
 20
127.6487956573239
 30
0.0
 10
85.16695069412249
 20
127.6808350664729
 30
0.0
 10
83.69554944169705
 20
127.6808350664729
 30
0.0
 10
82.22414818927162
 20
127.6808350664729
 30
0.0
 10
80.75274693684618
 20
127.6487956573239
 30
0.0
 10
79.28840813482456
 20
127.5847168390258
 30
0.0
 10
77.82424158769085
 20
127.5206380207277
 30
0.0
 10
76.36696523607306
 20
127.4245197932806
 30
0.0
 10
74.92381378526291
 20
127.297051176236
 30
0.0
 10
73.48083458934065
 20
127.1692380494156
 30
0.0
 10
72.05180803933814
 20
127.0104190427736
 30
0.0
 10
70.6437965856592
 20
126.8205941563099
 30
0.0
 10
69.23578513198025
 20
126.6307692698462
 30
0.0
 10
67.84878877462488
 20
126.4099385035609
 30
0.0
 10
66.4893531993332
 20
126.1598244063328
 30
0.0
 10
65.12991762404151
 20
125.909365799329
 30
0.0
 10
63.79821508570143
 20
125.6296238613825
 30
0.0
 10
62.50061901516516
 20
125.321287612045
 30
0.0
 10
61.20302294462888
 20
125.0129513627074
 30
0.0
 10
59.93936108700854
 20
124.6763653117545
 30
0.0
 10
58.71600687315635
 20
124.3132520080654
 30
0.0
 10
57.49265265930415
 20
123.9497941946004
 30
0.0
 10
56.3094338343322
 20
123.5598091283991
 30
0.0
 10
55.17203480954115
 20
123.1450193583405
 30
0.0
 10
54.0346357847501
 20
122.730229588282
 30
0.0
 10
52.94305656013994
 20
122.2902906045903
 30
0.0
 10
51.90263703723551
 20
121.8279584854718
 30
0.0
 10
50.86221751433109
 20
121.3656263663533
 30
0.0
 10
49.87295769313238
 20
120.8805566020323
 30
0.0
 10
48.93950845561266
 20
120.3748162511636
 30
0.0
 10
48.00605921809294
 20
119.8694204100706
 30
0.0
 10
47.1285928191401
 20
119.3436984922056
 30
0.0
 10
46.31107112117579
 20
118.7997175562235
 30
0.0
 10
45.49354942321148
 20
118.2560811300171
 30
0.0
 10
44.73631693601151
 20
117.6945301954694
 30
0.0
 10
44.04264650244592
 20
117.1178208307866
 30
0.0
 10
43.34897606888033
 20
116.5411114661038
 30
0.0
 10
42.71921219872494
 20
115.949243671286
 30
0.0
 10
42.1561109701861
 20
115.3449735245395
 30
0.0
 10
41.59300974164726
 20
114.7410478875688
 30
0.0
 10
41.09674340961288
 20
114.1243753888937
 30
0.0
 10
40.66972354251353
 20
113.4987456360478
 30
0.0
 10
40.24253142052628
 20
112.8727713734262
 30
0.0
 10
39.88458576347406
 20
112.2378398566339
 30
0.0
 10
39.59760912023585
 20
111.5963626541014
 30
0.0
 10
39.31046022210975
 20
110.9548854515689
 30
0.0
 10
39.09428033779765
 20
110.3072070730721
 30
0.0
 10
38.95010299662695
 20
109.6564281065932
 30
0.0
 10
38.80592565545626
 20
109.0056491401142
 30
0.0
 10
38.73357860253906
 20
108.3517695856531
 30
0.0
 10
38.73357860253906
 20
107.6978900311919
 30
0.0
  0
ENDBLK
  5
301
330
2FE
100
AcDbEntity
  8
0
100
AcDbBlockEnd
  0
BLOCK
  5
305
330
303
100
AcDbEntity
  8
0
100
AcDbBlockBegin
  2
block 95
 70
     0
 71
     0
 10
0.0
 20
0.0
 30
0.0
  3
block 95
  1

  0
SPLINE
  5
307
330
303
100
AcDbEntity
  8
0
 62
     7
370
    25
100
AcDbSpline
210
0.0
220
0.0
230
1.0
 70
     8
 71
     3
 72
   101
 73
    97
 74
     0
 42
0.0000000001
 43
0.0000000001
 40
0.0
 40
0.0
 40
0.0
 40
0.0
 40
1.0
 40
1.0
 40
1.0
 40
2.0
 40
2.0
 40
2.0
 40
3.0
 40
3.0
 40
3.0
 40
4.0
 40
4.0
 40
4.0
 40
5.0
 40
5.0
 40
5.0
 40
6.0
 40
6.0
 40
6.0
 40
7.0
 40
7.0
 40
7.0
 40
8.0
 40
8.0
 40
8.0
 40
9.0
 40
9.0
 40
9.0
 40
10.0
 40
10.0
 40
10.0
 40
11.0
 40
11.0
 40
11.0
 40
12.0
 40
12.0
 40
12.0
 40
13.0
 40
13.0
 40
13.0
 40
14.0
 40
14.0
 40
14.0
 40
15.0
 40
15.0
 40
15.0
 40
16.0
 40
16.0
 40
16.0
 40
17.0
 40
17.0
 40
17.0
 40
18.0
 40
18.0
 40
18.0
 40
19.0
 40
19.0
 40
19.0
 40
20.0
 40
20.0
 40
20.0
 40
21.0
 40
21.0
 40
21.0
 40
22.0
 40
22.0
 40
22.0
 40
23.0
 40
23.0
 40
23.0
 40
24.0
 40
24.0
 40
24.0
 40
25.0
 40
25.0
 40
25.0
 40
26.0
 40
26.0
 40
26.0
 40
27.0
 40
27.0
 40
27.0
 40
28.0
 40
28.0
 40
28.0
 40
29.0
 40
29.0
 40
29.0
 40
30.0
 40
30.0
 40
30.0
 40
31.0
 40
31.0
 40
31.0
 40
32.0
 40
32.0
 40
32.0
 40
32.0
 10
38.73357860253906
 20
107.6978900311919
 30
0.0
 10
38.73357860253906
 20
107.0440104767308
 30
0.0
 10
38.80592565545626
 20
106.3901309222697
 30
0.0
 10
38.95010299662695
 20
105.7390074460149
 30
0.0
 10
39.09428033779765
 20
105.088228479536
 30
0.0
 10
39.31046022210975
 20
104.440894610815
 30
0.0
 10
39.59760912023585
 20
103.7994174082825
 30
0.0
 10
39.88458576347406
 20
103.15794020575
 30
0.0
 10
40.24253142052628
 20
102.5230086889577
 30
0.0
 10
40.66972354251353
 20
101.897034426336
 30
0.0
 10
41.09674340961288
 20
101.2714046734902
 30
0.0
 10
41.59300974164726
 20
100.6547321748151
 30
0.0
 10
42.1561109701861
 20
100.0508065378444
 30
0.0
 10
42.71921219872494
 20
99.4465363910979
 30
0.0
 10
43.34897606888033
 20
98.85466859628008
 30
0.0
 10
44.04264650244592
 20
98.2779592315973
 30
0.0
 10
44.73631693601151
 20
97.70124986691451
 30
0.0
 10
45.49354942321148
 20
97.13969893236676
 30
0.0
 10
46.31107112117579
 20
96.5957179963846
 30
0.0
 10
47.1285928191401
 20
96.05208157017825
 30
0.0
 10
48.00605921809294
 20
95.52635965231329
 30
0.0
 10
48.93950845561266
 20
95.02061930144451
 30
0.0
 10
49.87295769313238
 20
94.51522346035154
 30
0.0
 10
50.86221751433109
 20
94.03015369603052
 30
0.0
 10
51.90263703723551
 20
93.56782157691207
 30
0.0
 10
52.94305656013994
 20
93.10514494801781
 30
0.0
 10
54.0346357847501
 20
92.6655504741019
 30
0.0
 10
55.17203480954115
 20
92.25076070404332
 30
0.0
 10
56.3094338343322
 20
91.83597093398473
 30
0.0
 10
57.49265265930415
 20
91.44598586778346
 30
0.0
 10
58.71600687315635
 20
91.0825280543185
 30
0.0
 10
59.93936108700854
 20
90.71907024085355
 30
0.0
 10
61.20302294462888
 20
90.3824841899007
 30
0.0
 10
62.50061901516516
 20
90.07449245033892
 30
0.0
 10
63.79821508570143
 20
89.76615620100135
 30
0.0
 10
65.12991762404151
 20
89.48606975327907
 30
0.0
 10
66.4893531993332
 20
89.23595565605105
 30
0.0
 10
67.84878877462488
 20
88.98549704904723
 30
0.0
 10
69.23578513198025
 20
88.76501079253768
 30
0.0
 10
70.6437965856592
 20
88.575185906074
 30
0.0
 10
72.05180803933814
 20
88.3853610196103
 30
0.0
 10
73.48083458934065
 20
88.22619750319247
 30
0.0
 10
74.92381378526291
 20
88.0987288861479
 30
0.0
 10
76.36696523607306
 20
87.97126026910331
 30
0.0
 10
77.82424158769085
 20
87.87514204165618
 30
0.0
 10
79.28840813482456
 20
87.81106322335809
 30
0.0
 10
80.75274693684618
 20
87.74698440506
 30
0.0
 10
82.22414818927162
 20
87.71494499591095
 30
0.0
 10
83.69554944169705
 20
87.71494499591095
 30
0.0
 10
85.16695069412249
 20
87.71494499591095
 30
0.0
 10
86.63817969166003
 20
87.74698440506
 30
0.0
 10
88.10251849368164
 20
87.81106322335809
 30
0.0
 10
89.56685729570326
 20
87.87514204165618
 30
0.0
 10
91.02396139243316
 20
87.97126026910331
 30
0.0
 10
92.46711284324331
 20
88.0987288861479
 30
0.0
 10
93.91026429405346
 20
88.22619750319247
 30
0.0
 10
95.33929084405597
 20
88.3853610196103
 30
0.0
 10
96.74730229773492
 20
88.575185906074
 30
0.0
 10
98.15531375141386
 20
88.76501079253768
 30
0.0
 10
99.54231010876923
 20
88.98549704904723
 30
0.0
 10
100.9017456840609
 20
89.23595565605105
 30
0.0
 10
102.2610090044647
 20
89.48606975327907
 30
0.0
 10
103.5927115428048
 20
89.76615620100135
 30
0.0
 10
104.890479868229
 20
90.07449245033892
 30
0.0
 10
106.1879036838773
 20
90.3824841899007
 30
0.0
 10
107.4515655414977
 20
90.71907024085355
 30
0.0
 10
108.6749197553499
 20
91.0825280543185
 30
0.0
 10
109.8982739692021
 20
91.44598586778346
 30
0.0
 10
111.0816650490619
 20
91.83597093398473
 30
0.0
 10
112.2188918189651
 20
92.25076070404332
 30
0.0
 10
113.356463098644
 20
92.6655504741019
 30
0.0
 10
114.4478700683663
 20
93.10514494801781
 30
0.0
 10
115.4882895912707
 20
93.56782157691207
 30
0.0
 10
116.5287091141751
 20
94.03015369603052
 30
0.0
 10
117.5181411902617
 20
94.51522346035154
 30
0.0
 10
118.4514181728936
 20
95.02061930144451
 30
0.0
 10
119.3850396653012
 20
95.52635965231329
 30
0.0
 10
120.262506064254
 20
96.05208157017825
 30
0.0
 10
121.0800277622183
 20
96.5957179963846
 30
0.0
 10
121.8975494601826
 20
97.13969893236676
 30
0.0
 10
122.6547819473826
 20
97.70124986691451
 30
0.0
 10
123.3482801260603
 20
98.2779592315973
 30
0.0
 10
124.0421228145138
 20
98.85466859628008
 30
0.0
 10
124.6718866846692
 20
99.4465363910979
 30
0.0
 10
125.2348156583201
 20
100.0508065378444
 30
0.0
 10
125.7980891417469
 20
100.6547321748151
 30
0.0
 10
126.2941832188933
 20
101.2714046734902
 30
0.0
 10
126.7213753408806
 20
101.897034426336
 30
0.0
 10
127.1485674628678
 20
102.5230086889577
 30
0.0
 10
127.5065131199201
 20
103.15794020575
 30
0.0
 10
127.7934897631583
 20
103.7994174082825
 30
0.0
 10
128.0804664063965
 20
104.440894610815
 30
0.0
 10
128.2968185455965
 20
105.088228479536
 30
0.0
 10
128.4408236318793
 20
105.7390074460149
 30
0.0
 10
128.5851732279378
 20
106.3901309222697
 30
0.0
 10
128.657520280855
 20
107.0440104767308
 30
0.0
 10
128.657520280855
 20
107.6978900311919
 30
0.0
  0
ENDBLK
  5
306
330
303
100
AcDbEntity
  8
0
100
AcDbBlockEnd
  0
BLOCK
  5
30A
330
308
100
AcDbEntity
  8
0
100
AcDbBlockBegin
  2
block 96
 70
     0
 71
     0
 10
0.0
 20
0.0
 30
0.0
  3
block 96
  1

  0
SPLINE
  5
30C
330
308
100
AcDbEntity
  8
0
 62
     7
370
    25
100
AcDbSpline
210
0.0
220
0.0
230
1.0
 70
     8
 71
     3
 72
    47
 73
    43
 74
     0
 42
0.0000000001
 43
0.0000000001
 40
0.0
 40
0.0
 40
0.0
 40
0.0
 40
1.0
 40
1.0
 40
1.0
 40
2.0
 40
2.0
 40
2.0
 40
3.0
 40
3.0
 40
3.0
 40
4.0
 40
4.0
 40
4.0
 40
5.0
 40
5.0
 40
5.0
 40
6.0
 40
6.0
 40
6.0
 40
7.0
 40
7.0
 40
7.0
 40
8.0
 40
8.0
 40
8.0
 40
9.0
 40
9.0
 40
9.0
 40
10.0
 40
10.0
 40
10.0
 40
11.0
 40
11.0
 40
11.0
 40
12.0
 40
12.0
 40
12.0
 40
13.0
 40
13.0
 40
13.0
 40
14.0
 40
14.0
 40
14.0
 40
14.0
 10
83.69554944169705
 20
88.57863100383196
 30
0.0
 10
85.84442916822566
 20
88.57863100383196
 30
0.0
 10
87.99382565941795
 20
88.64822197854278
 30
0.0
 10
90.13874352352491
 20
88.78843745729182
 30
0.0
 10
92.28245560341657
 20
88.92865293604086
 30
0.0
 10
94.42151680133497
 20
89.13949291882811
 30
0.0
 10
96.5504149608674
 20
89.42612505229053
 30
0.0
 10
98.67741831663295
 20
89.71275718575293
 30
0.0
 10
100.7942586340125
 20
90.07483696011471
 30
0.0
 10
102.8935289528265
 20
90.52235515887394
 30
0.0
 10
104.9896986836582
 20
90.96918433808158
 30
0.0
 10
107.0684706708123
 20
91.50145194168665
 30
0.0
 10
109.1145142292658
 20
92.13707247803057
 30
0.0
 10
110.136674734053
 20
92.45471049131464
 30
0.0
 10
111.1509115139969
 20
92.79818673778342
 30
0.0
 10
112.1541239811154
 20
93.17094631519488
 30
0.0
 10
113.1563029189064
 20
93.54336138283054
 30
0.0
 10
114.1478020536478
 20
93.94540429118467
 30
0.0
 10
115.1241427582542
 20
94.38189817711842
 30
0.0
 10
116.0994499335331
 20
94.81770304350057
 30
0.0
 10
117.0599431884528
 20
95.28795888746234
 30
0.0
 10
117.9983878177216
 20
95.79886688496806
 30
0.0
 10
118.9361434274388
 20
96.30943037269799
 30
0.0
 10
119.8521949212808
 20
96.86099052374765
 30
0.0
 10
120.7348289668706
 20
97.46216008251196
 30
0.0
 10
121.6167739929087
 20
98.06332964127628
 30
0.0
 10
122.4653015706947
 20
98.71445311753104
 30
0.0
 10
123.2604301332323
 20
99.42862188275649
 30
0.0
 10
124.055214185994
 20
100.142790647982
 30
0.0
 10
124.7965992235074
 20
100.9203492119539
 30
0.0
 10
125.4418660335736
 20
101.7709438483947
 30
0.0
 10
125.7653607130462
 20
102.1974469508303
 30
0.0
 10
126.0643951984373
 20
102.6422090713832
 30
0.0
 10
126.3317347844551
 20
103.1059192296048
 30
0.0
 10
126.5994188802487
 20
103.5699738976022
 30
0.0
 10
126.8350635668933
 20
104.0533211130443
 30
0.0
 10
127.0293670804424
 20
104.5528602879487
 30
0.0
 10
127.2236705939914
 20
105.0527439726289
 30
0.0
 10
127.3769774442207
 20
105.5691641265474
 30
0.0
 10
127.4803303769595
 20
106.0962640835155
 30
0.0
 10
127.5836833096984
 20
106.6237085502595
 30
0.0
 10
127.6370823249468
 20
107.1614883102773
 30
0.0
 10
127.6370823249468
 20
107.6978900311919
 30
0.0
  0
ENDBLK
  5
30B
330
308
100
AcDbEntity
  8
0
100
AcDbBlockEnd
  0
BLOCK
  5
30F
330
30D
100
AcDbEntity
  8
0
100
AcDbBlockBegin
  2
block 97
 70
     0
 71
     0
 10
0.0
 20
0.0
 30
0.0
  3
block 97
  1

  0
SPLINE
  5
311
330
30D
100
AcDbEntity
  8
0
 62
     7
370
    25
100
AcDbSpline
210
0.0
220
0.0
230
1.0
 70
     8
 71
     3
 72
    47
 73
    43
 74
     0
 42
0.0000000001
 43
0.0000000001
 40
0.0
 40
0.0
 40
0.0
 40
0.0
 40
1.0
 40
1.0
 40
1.0
 40
2.0
 40
2.0
 40
2.0
 40
3.0
 40
3.0
 40
3.0
 40
4.0
 40
4.0
 40
4.0
 40
5.0
 40
5.0
 40
5.0
 40
6.0
 40
6.0
 40
6.0
 40
7.0
 40
7.0
 40
7.0
 40
8.0
 40
8.0
 40
8.0
 40
9.0
 40
9.0
 40
9.0
 40
10.0
 40
10.0
 40
10.0
 40
11.0
 40
11.0
 40
11.0
 40
12.0
 40
12.0
 40
12.0
 40
13.0
 40
13.0
 40
13.0
 40
14.0
 40
14.0
 40
14.0
 40
14.0
 10
127.6370823249468
 20
107.6978900311919
 30
0.0
 10
127.6370823249468
 20
108.2342917521066
 30
0.0
 10
127.5836833096984
 20
108.7720715121244
 30
0.0
 10
127.4803303769595
 20
109.2995159788683
 30
0.0
 10
127.3769774442207
 20
109.8262714260607
 30
0.0
 10
127.2236705939914
 20
110.3430360897549
 30
0.0
 10
127.0293670804424
 20
110.8429197744352
 30
0.0
 10
126.8350635668933
 20
111.3424589493396
 30
0.0
 10
126.5994188802487
 20
111.8254616550058
 30
0.0
 10
126.3317347844551
 20
112.2898608327791
 30
0.0
 10
126.0643951984373
 20
112.7535709910007
 30
0.0
 10
125.7653607130462
 20
113.1983331115536
 30
0.0
 10
125.4418660335736
 20
113.6244917042134
 30
0.0
 10
124.7965992235074
 20
114.47543085043
 30
0.0
 10
124.055214185994
 20
115.2529894144019
 30
0.0
 10
123.2604301332323
 20
115.9671581796274
 30
0.0
 10
122.4653015706947
 20
116.6813269448528
 30
0.0
 10
121.6167739929087
 20
117.3324504211076
 30
0.0
 10
120.7348289668706
 20
117.9336199798719
 30
0.0
 10
119.8521949212808
 20
118.5347895386362
 30
0.0
 10
118.9361434274388
 20
119.0863496896859
 30
0.0
 10
117.9983878177216
 20
119.5969131774158
 30
0.0
 10
117.0599431884528
 20
120.1078211749215
 30
0.0
 10
116.0994499335331
 20
120.5780770188833
 30
0.0
 10
115.1241427582542
 20
121.0138818852654
 30
0.0
 10
114.1478020536478
 20
121.4500312614234
 30
0.0
 10
113.1563029189064
 20
121.8520741697775
 30
0.0
 10
112.1541239811154
 20
122.224833747189
 30
0.0
 10
111.1509115139969
 20
122.5975933246004
 30
0.0
 10
110.136674734053
 20
122.9410695710692
 30
0.0
 10
109.1145142292658
 20
123.2583630745775
 30
0.0
 10
107.0681261610365
 20
123.8939836109214
 30
0.0
 10
104.9896986836582
 20
124.4265957243023
 30
0.0
 10
102.8935289528265
 20
124.8734249035099
 30
0.0
 10
100.7940863791246
 20
125.3209431022692
 30
0.0
 10
98.67724606174505
 20
125.6830228766309
 30
0.0
 10
96.5504149608674
 20
125.9693105003175
 30
0.0
 10
94.42151680133497
 20
126.2562871435558
 30
0.0
 10
92.28245560341657
 20
126.467127126343
 30
0.0
 10
90.13874352352491
 20
126.6073426050921
 30
0.0
 10
87.99382565941795
 20
126.7475580838411
 30
0.0
 10
85.84442916822566
 20
126.8168045487761
 30
0.0
 10
83.69554944169705
 20
126.8171490585519
 30
0.0
  0
ENDBLK
  5
310
330
30D
100
AcDbEntity
  8
0
100
AcDbBlockEnd
  0
BLOCK
  5
314
330
312
100
AcDbEntity
  8
0
100
AcDbBlockBegin
  2
block 98
 70
     0
 71
     0
 10
0.0
 20
0.0
 30
0.0
  3
block 98
  1

  0
SPLINE
  5
316
330
312
100
AcDbEntity
  8
0
 62
     7
370
    25
100
AcDbSpline
210
0.0
220
0.0
230
1.0
 70
     8
 71
     3
 72
    47
 73
    43
 74
     0
 42
0.0000000001
 43
0.0000000001
 40
0.0
 40
0.0
 40
0.0
 40
0.0
 40
1.0
 40
1.0
 40
1.0
 40
2.0
 40
2.0
 40
2.0
 40
3.0
 40
3.0
 40
3.0
 40
4.0
 40
4.0
 40
4.0
 40
5.0
 40
5.0
 40
5.0
 40
6.0
 40
6.0
 40
6.0
 40
7.0
 40
7.0
 40
7.0
 40
8.0
 40
8.0
 40
8.0
 40
9.0
 40
9.0
 40
9.0
 40
10.0
 40
10.0
 40
10.0
 40
11.0
 40
11.0
 40
11.0
 40
12.0
 40
12.0
 40
12.0
 40
13.0
 40
13.0
 40
13.0
 40
14.0
 40
14.0
 40
14.0
 40
14.0
 10
39.75401655844731
 20
107.6978900311919
 30
0.0
 10
39.75401655844731
 20
107.1614883102773
 30
0.0
 10
39.80741557369572
 20
106.6237085502595
 30
0.0
 10
39.91094076132246
 20
106.0962640835155
 30
0.0
 10
40.01412143917342
 20
105.5691641265474
 30
0.0
 10
40.16725603451481
 20
105.0527439726289
 30
0.0
 10
40.36173180295175
 20
104.5528602879487
 30
0.0
 10
40.55603531650079
 20
104.0533211130443
 30
0.0
 10
40.79168000314537
 20
103.5699738976022
 30
0.0
 10
41.0591918440511
 20
103.1059192296048
 30
0.0
 10
41.32653143006893
 20
102.6422090713832
 30
0.0
 10
41.62573817034789
 20
102.1974469508303
 30
0.0
 10
41.9490605949326
 20
101.7709438483947
 30
0.0
 10
42.59432740499883
 20
100.9203492119539
 30
0.0
 10
43.33571244251218
 20
100.142790647982
 30
0.0
 10
44.13066875016184
 20
99.42862188275649
 30
0.0
 10
44.9256250578115
 20
98.71445311753104
 30
0.0
 10
45.77432489048536
 20
98.06332964127628
 30
0.0
 10
46.65644217141146
 20
97.46216008251196
 30
0.0
 10
47.53890396211334
 20
96.86099052374765
 30
0.0
 10
48.45478320106746
 20
96.30943037269799
 30
0.0
 10
49.39253881078463
 20
95.79886688496806
 30
0.0
 10
50.33115569494129
 20
95.28795888746234
 30
0.0
 10
51.29147669497311
 20
94.81770304350057
 30
0.0
 10
52.26695612513996
 20
94.38189817711842
 30
0.0
 10
53.24329682974631
 20
93.94574880096047
 30
0.0
 10
54.23479596448767
 20
93.54370589260634
 30
0.0
 10
55.23697490227873
 20
93.17094631519488
 30
0.0
 10
56.24018736939718
 20
92.79818673778342
 30
0.0
 10
57.2542518944532
 20
92.45471049131464
 30
0.0
 10
58.27641239924044
 20
92.13741698780638
 30
0.0
 10
60.32280046746968
 20
91.50145194168665
 30
0.0
 10
62.40140019973586
 20
90.96918433808158
 30
0.0
 10
64.49756993056765
 20
90.52235515887394
 30
0.0
 10
66.5968402493816
 20
90.07483696011471
 30
0.0
 10
68.71368056676117
 20
89.71275718575293
 30
0.0
 10
70.84051166763881
 20
89.42612505229053
 30
0.0
 10
72.96958208205913
 20
89.13949291882811
 30
0.0
 10
75.10864327997754
 20
88.92865293604086
 30
0.0
 10
77.25235535986921
 20
88.78843745729182
 30
0.0
 10
79.39710096908826
 20
88.64822197854278
 30
0.0
 10
81.54666971516845
 20
88.57863100383196
 30
0.0
 10
83.69554944169705
 20
88.57863100383196
 30
0.0
  0
ENDBLK
  5
315
330
312
100
AcDbEntity
  8
0
100
AcDbBlockEnd
  0
BLOCK
  5
319
330
317
100
AcDbEntity
  8
0
100
AcDbBlockBegin
  2
block 99
 70
     0
 71
     0
 10
0.0
 20
0.0
 30
0.0
  3
block 99
  1

  0
SPLINE
  5
31B
330
317
100
AcDbEntity
  8
0
 62
     7
370
    25
100
AcDbSpline
210
0.0
220
0.0
230
1.0
 70
     8
 71
     3
 72
    47
 73
    43
 74
     0
 42
0.0000000001
 43
0.0000000001
 40
0.0
 40
0.0
 40
0.0
 40
0.0
 40
1.0
 40
1.0
 40
1.0
 40
2.0
 40
2.0
 40
2.0
 40
3.0
 40
3.0
 40
3.0
 40
4.0
 40
4.0
 40
4.0
 40
5.0
 40
5.0
 40
5.0
 40
6.0
 40
6.0
 40
6.0
 40
7.0
 40
7.0
 40
7.0
 40
8.0
 40
8.0
 40
8.0
 40
9.0
 40
9.0
 40
9.0
 40
10.0
 40
10.0
 40
10.0
 40
11.0
 40
11.0
 40
11.0
 40
12.0
 40
12.0
 40
12.0
 40
13.0
 40
13.0
 40
13.0
 40
14.0
 40
14.0
 40
14.0
 40
14.0
 10
83.69554944169705
 20
126.8171490585519
 30
0.0
 10
81.54666971516845
 20
126.8171490585519
 30
0.0
 10
79.39710096908826
 20
126.7475580838411
 30
0.0
 10
77.25235535986921
 20
126.6073426050921
 30
0.0
 10
75.10864327997754
 20
126.467127126343
 30
0.0
 10
72.96958208205913
 20
126.2562871435558
 30
0.0
 10
70.84051166763881
 20
125.9693105003175
 30
0.0
 10
68.71368056676117
 20
125.6830228766309
 30
0.0
 10
66.5968402493816
 20
125.3209431022692
 30
0.0
 10
64.49756993056765
 20
124.8734249035099
 30
0.0
 10
62.40140019973586
 20
124.4265957243023
 30
0.0
 10
60.32280046746968
 20
123.8943281206972
 30
0.0
 10
58.27641239924044
 20
123.2583630745775
 30
0.0
 10
57.2542518944532
 20
122.9410695710692
 30
0.0
 10
56.24018736939718
 20
122.5975933246004
 30
0.0
 10
55.23697490227873
 20
122.224833747189
 30
0.0
 10
54.23462370959978
 20
121.8520741697775
 30
0.0
 10
53.24329682974631
 20
121.4500312614234
 30
0.0
 10
52.26695612513996
 20
121.0138818852654
 30
0.0
 10
51.29147669497311
 20
120.5780770188833
 30
0.0
 10
50.33115569494129
 20
120.1078211749215
 30
0.0
 10
49.39253881078463
 20
119.5969131774158
 30
0.0
 10
48.45478320106746
 20
119.0863496896859
 30
0.0
 10
47.53890396211334
 20
118.5347895386362
 30
0.0
 10
46.65626991652356
 20
117.9336199798719
 30
0.0
 10
45.77432489048536
 20
117.3324504211076
 30
0.0
 10
44.9256250578115
 20
116.6813269448528
 30
0.0
 10
44.13066875016184
 20
115.9671581796274
 30
0.0
 10
43.33571244251218
 20
115.2529894144019
 30
0.0
 10
42.59432740499883
 20
114.47543085043
 30
0.0
 10
41.9490605949326
 20
113.6248362139892
 30
0.0
 10
41.62573817034789
 20
113.1983331115536
 30
0.0
 10
41.32653143006893
 20
112.7535709910007
 30
0.0
 10
41.0591918440511
 20
112.2898608327791
 30
0.0
 10
40.79168000314537
 20
111.8254616550058
 30
0.0
 10
40.55603531650079
 20
111.3424589493396
 30
0.0
 10
40.36173180295175
 20
110.8429197744352
 30
0.0
 10
40.16725603451481
 20
110.3430360897549
 30
0.0
 10
40.01412143917342
 20
109.8262714260607
 30
0.0
 10
39.91076850643457
 20
109.2995159788683
 30
0.0
 10
39.80741557369572
 20
108.7720715121244
 30
0.0
 10
39.75401655844731
 20
108.2342917521066
 30
0.0
 10
39.75401655844731
 20
107.6978900311919
 30
0.0
  0
ENDBLK
  5
31A
330
317
100
AcDbEntity
  8
0
100
AcDbBlockEnd
  0
BLOCK
  5
31E
330
31C
100
AcDbEntity
  8
0
100
AcDbBlockBegin
  2
block 100
 70
     0
 71
     0
 10
0.0
 20
0.0
 30
0.0
  3
block 100
  1

  0
SPLINE
  5
320
330
31C
100
AcDbEntity
  8
0
 62
     7
370
    25
100
AcDbSpline
210
0.0
220
0.0
230
1.0
 70
     8
 71
     3
 72
    23
 73
    19
 74
     0
 42
0.0000000001
 43
0.0000000001
 40
0.0
 40
0.0
 40
0.0
 40
0.0
 40
1.0
 40
1.0
 40
1.0
 40
2.0
 40
2.0
 40
2.0
 40
3.0
 40
3.0
 40
3.0
 40
4.0
 40
4.0
 40
4.0
 40
5.0
 40
5.0
 40
5.0
 40
6.0
 40
6.0
 40
6.0
 40
6.0
 10
160.8471356921459
 20
173.5802170055723
 30
0.0
 10
161.2574468351191
 20
173.1523358640334
 30
0.0
 10
161.6901511135191
 20
172.7447807992666
 30
0.0
 10
162.1421479393637
 20
172.3604801443659
 30
0.0
 10
162.5938002554325
 20
171.9761794894653
 30
0.0
 10
163.0654341384974
 20
171.6147887346551
 30
0.0
 10
163.5536044908006
 20
171.2780304288144
 30
0.0
 10
164.0407413137764
 20
170.9419611425252
 30
0.0
 10
164.545103625542
 20
170.6301797954297
 30
0.0
 10
165.0625573087878
 20
170.3433754070794
 30
0.0
 10
165.5786329529305
 20
170.0574322931686
 30
0.0
 10
166.1081444783292
 20
169.7961216282272
 30
0.0
 10
166.6479912970018
 20
169.5589266475915
 30
0.0
 10
167.7201057192794
 20
169.0881540389661
 30
0.0
 10
168.8339058244285
 20
168.7121216186845
 30
0.0
 10
169.9683765161253
 20
168.4199773288094
 30
0.0
 10
171.0921674047723
 20
168.1304168622527
 30
0.0
 10
172.2362843701914
 20
167.9231942321113
 30
0.0
 10
173.3866025115748
 20
167.7829787533622
 30
0.0
  0
ENDBLK
  5
31F
330
31C
100
AcDbEntity
  8
0
100
AcDbBlockEnd
  0
BLOCK
  5
323
330
321
100
AcDbEntity
  8
0
100
AcDbBlockBegin
  2
block 101
 70
     0
 71
     0
 10
0.0
 20
0.0
 30
0.0
  3
block 101
  1

  0
SPLINE
  5
325
330
321
100
AcDbEntity
  8
0
 62
     7
370
    25
100
AcDbSpline
210
0.0
220
0.0
230
1.0
 70
     8
 71
     3
 72
    23
 73
    19
 74
     0
 42
0.0000000001
 43
0.0000000001
 40
0.0
 40
0.0
 40
0.0
 40
0.0
 40
1.0
 40
1.0
 40
1.0
 40
2.0
 40
2.0
 40
2.0
 40
3.0
 40
3.0
 40
3.0
 40
4.0
 40
4.0
 40
4.0
 40
5.0
 40
5.0
 40
5.0
 40
6.0
 40
6.0
 40
6.0
 40
6.0
 10
183.2574966076867
 20
167.7829787533622
 30
0.0
 10
184.4078147490701
 20
167.9231942321113
 30
0.0
 10
185.5519317144891
 20
168.1304168622527
 30
0.0
 10
186.6753780933605
 20
168.4199773288094
 30
0.0
 10
187.810193294833
 20
168.7121216186845
 30
0.0
 10
188.9239933999821
 20
169.0881540389661
 30
0.0
 10
189.9957633124839
 20
169.5589266475915
 30
0.0
 10
190.5359546409323
 20
169.7961216282272
 30
0.0
 10
191.065466166331
 20
170.0574322931686
 30
0.0
 10
191.5815418104737
 20
170.3433754070794
 30
0.0
 10
192.0989954937195
 20
170.6301797954297
 30
0.0
 10
192.6030132957093
 20
170.9419611425252
 30
0.0
 10
193.0904946284609
 20
171.2780304288144
 30
0.0
 10
193.5786649807641
 20
171.6147887346551
 30
0.0
 10
194.0499543540533
 20
171.9761794894653
 30
0.0
 10
194.5019511798978
 20
172.3604801443659
 30
0.0
 10
194.9539480057424
 20
172.7447807992666
 30
0.0
 10
195.3866522841424
 20
173.1523358640334
 30
0.0
 10
195.7969634271156
 20
173.5802170055723
 30
0.0
  0
ENDBLK
  5
324
330
321
100
AcDbEntity
  8
0
100
AcDbBlockEnd
  0
BLOCK
  5
328
330
326
100
AcDbEntity
  8
0
100
AcDbBlockBegin
  2
block 102
 70
     0
 71
     0
 10
0.0
 20
0.0
 30
0.0
  3
block 102
  1

  0
SPLINE
  5
32A
330
326
100
AcDbEntity
  8
0
 62
     7
370
    25
100
AcDbSpline
210
0.0
220
0.0
230
1.0
 70
     8
 71
     3
 72
    29
 73
    25
 74
     0
 42
0.0000000001
 43
0.0000000001
 40
0.0
 40
0.0
 40
0.0
 40
0.0
 40
1.0
 40
1.0
 40
1.0
 40
2.0
 40
2.0
 40
2.0
 40
3.0
 40
3.0
 40
3.0
 40
4.0
 40
4.0
 40
4.0
 40
5.0
 40
5.0
 40
5.0
 40
6.0
 40
6.0
 40
6.0
 40
7.0
 40
7.0
 40
7.0
 40
8.0
 40
8.0
 40
8.0
 40
8.0
 10
174.5252073205812
 20
168.7689657316909
 30
0.0
 10
173.7617736574169
 20
168.8356283733075
 30
0.0
 10
173.0000625431315
 20
168.931057581203
 30
0.0
 10
172.2442080950347
 20
169.0593874726871
 30
0.0
 10
171.4880091371622
 20
169.187889619059
 30
0.0
 10
170.7376668454781
 20
169.3494647039074
 30
0.0
 10
169.9973153372921
 20
169.5489358640934
 30
0.0
 10
169.2566193193304
 20
169.7484070242794
 30
0.0
 10
168.5262585946425
 20
169.9859465146909
 30
0.0
 10
167.812089829417
 20
170.2655161977494
 30
0.0
 10
167.0979210641916
 20
170.545085880808
 30
0.0
 10
166.3999442584285
 20
170.8668580114017
 30
0.0
 10
165.7260831369712
 20
171.2328996481851
 30
0.0
 10
165.0522220155139
 20
171.5989412849685
 30
0.0
 10
164.4017875588108
 20
172.0094246828297
 30
0.0
 10
163.7833925112566
 20
172.4631440575532
 30
0.0
 10
163.1649974637025
 20
172.9168634322768
 30
0.0
 10
162.5779528057458
 20
173.4138187838627
 30
0.0
 10
162.0288042231267
 20
173.9493592303379
 30
0.0
 10
161.4796556405076
 20
174.4847274219251
 30
0.0
 10
160.9680586234503
 20
175.0586807084015
 30
0.0
 10
160.4964247403854
 20
175.6639843844754
 30
0.0
 10
160.0251353670962
 20
176.2694603154372
 30
0.0
 10
159.5941536375752
 20
176.9061143811085
 30
0.0
 10
159.2027905322708
 20
177.5655060919824
 30
0.0
  0
ENDBLK
  5
329
330
326
100
AcDbEntity
  8
0
100
AcDbBlockEnd
  0
BLOCK
  5
32D
330
32B
100
AcDbEntity
  8
0
100
AcDbBlockBegin
  2
block 103
 70
     0
 71
     0
 10
0.0
 20
0.0
 30
0.0
  3
block 103
  1

  0
SPLINE
  5
32F
330
32B
100
AcDbEntity
  8
0
 62
     7
370
    25
100
AcDbSpline
210
0.0
220
0.0
230
1.0
 70
     8
 71
     3
 72
    29
 73
    25
 74
     0
 42
0.0000000001
 43
0.0000000001
 40
0.0
 40
0.0
 40
0.0
 40
0.0
 40
1.0
 40
1.0
 40
1.0
 40
2.0
 40
2.0
 40
2.0
 40
3.0
 40
3.0
 40
3.0
 40
4.0
 40
4.0
 40
4.0
 40
5.0
 40
5.0
 40
5.0
 40
6.0
 40
6.0
 40
6.0
 40
7.0
 40
7.0
 40
7.0
 40
8.0
 40
8.0
 40
8.0
 40
8.0
 10
197.4413085869907
 20
177.5655060919824
 30
0.0
 10
197.0499454816863
 20
176.9061143811085
 30
0.0
 10
196.6189637521653
 20
176.2694603154372
 30
0.0
 10
196.1473298691003
 20
175.6639843844754
 30
0.0
 10
195.6760404958112
 20
175.0586807084015
 30
0.0
 10
195.1644434787539
 20
174.4847274219251
 30
0.0
 10
194.6152948961348
 20
173.9493592303379
 30
0.0
 10
194.0661463135157
 20
173.4138187838627
 30
0.0
 10
193.479101655559
 20
172.9168634322768
 30
0.0
 10
192.8607066080049
 20
172.4631440575532
 30
0.0
 10
192.241967050675
 20
172.0094246828297
 30
0.0
 10
191.5918771037476
 20
171.5989412849685
 30
0.0
 10
190.9180159822903
 20
171.2328996481851
 30
0.0
 10
190.2438103510572
 20
170.8668580114017
 30
0.0
 10
189.5461780550699
 20
170.545085880808
 30
0.0
 10
188.8320092898445
 20
170.2655161977494
 30
0.0
 10
188.117840524619
 20
169.9859465146909
 30
0.0
 10
187.3874797999311
 20
169.7484070242794
 30
0.0
 10
186.6467837819694
 20
169.5489358640934
 30
0.0
 10
185.9064322737834
 20
169.3494647039074
 30
0.0
 10
185.1560899820994
 20
169.187889619059
 30
0.0
 10
184.3998910242268
 20
169.0593874726871
 30
0.0
 10
183.64403657613
 20
168.931057581203
 30
0.0
 10
182.8823254618446
 20
168.8356283733075
 30
0.0
 10
182.1188917986803
 20
168.7689657316909
 30
0.0
  0
ENDBLK
  5
32E
330
32B
100
AcDbEntity
  8
0
100
AcDbBlockEnd
  0
BLOCK
  5
333
330
331
100
AcDbEntity
  8
0
100
AcDbBlockBegin
  2
block 104
 70
     0
 71
     0
 10
0.0
 20
0.0
 30
0.0
  3
block 104
  1

  0
SPLINE
  5
335
330
331
100
AcDbEntity
  8
SOMBREA
370
     0
100
AcDbSpline
210
0.0
220
0.0
230
1.0
 70
    11
 71
     3
 72
    11
 73
     7
 74
     0
 42
0.0000000001
 43
0.0000000001
 40
0.0
 40
0.0
 40
0.0
 40
0.0
 40
1.0
 40
1.0
 40
1.0
 40
2.0
 40
2.0
 40
2.0
 40
2.0
 10
158.8386436992542
 20
177.7611876446346
 30
0.0
 10
158.5458103898275
 20
177.7611876446346
 30
0.0
 10
158.3391045243498
 20
177.554309524269
 30
0.0
 10
158.3391045243498
 20
177.2616484697301
 30
0.0
 10
158.3391045243498
 20
177.2616484697301
 30
0.0
 10
158.8386436992542
 20
177.7611876446346
 30
0.0
 10
158.8386436992542
 20
177.7611876446346
 30
0.0
  0
SPLINE
  5
336
330
331
100
AcDbEntity
  8
SOMBREA
370
     0
100
AcDbSpline
210
0.0
220
0.0
230
1.0
 70
    11
 71
     3
 72
    11
 73
     7
 74
     0
 42
0.0000000001
 43
0.0000000001
 40
0.0
 40
0.0
 40
0.0
 40
0.0
 40
1.0
 40
1.0
 40
1.0
 40
2.0
 40
2.0
 40
2.0
 40
2.0
 10
197.7847848334595
 20
177.7611876446346
 30
0.0
 10
197.6404352374009
 20
177.7611876446346
 30
0.0
 10
197.5150336790111
 20
177.6898741210448
 30
0.0
 10
197.4413085869907
 20
177.5655060919824
 30
0.0
 10
197.4413085869907
 20
177.5655060919824
 30
0.0
 10
197.7847848334595
 20
177.7611876446346
 30
0.0
 10
197.7847848334595
 20
177.7611876446346
 30
0.0
  0
HATCH
  5
337
330
331
100
AcDbEntity
  8
SOMBREA
 62
     7
100
AcDbHatch
 10
0.0
 20
0.0
 30
0.0
210
0.0
220
0.0
230
1.0
  2
AI_USER_DEFINED_HATCH
 70
     0
 71
     0
 91
        2
 92
        1
 93
        1
 72
     4
 94
        3
 73
     0
 74
     1
 95
       11
 96
        7
 40
0.0
 40
0.0
 40
0.0
 40
0.0
 40
1.0
 40
1.0
 40
1.0
 40
2.0
 40
2.0
 40
2.0
 40
2.0
 10
158.8386436992542
 20
177.7611876446346
 10
158.5458103898275
 20
177.7611876446346
 10
158.3391045243498
 20
177.554309524269
 10
158.3391045243498
 20
177.2616484697301
 10
158.3391045243498
 20
177.2616484697301
 10
158.8386436992542
 20
177.7611876446346
 10
158.8386436992542
 20
177.7611876446346
 97
        0
 92
        1
 93
        1
 72
     4
 94
        3
 73
     0
 74
     1
 95
       11
 96
        7
 40
0.0
 40
0.0
 40
0.0
 40
0.0
 40
1.0
 40
1.0
 40
1.0
 40
2.0
 40
2.0
 40
2.0
 40
2.0
 10
197.7847848334595
 20
177.7611876446346
 10
197.6404352374009
 20
177.7611876446346
 10
197.5150336790111
 20
177.6898741210448
 10
197.4413085869907
 20
177.5655060919824
 10
197.4413085869907
 20
177.5655060919824
 10
197.7847848334595
 20
177.7611876446346
 10
197.7847848334595
 20
177.7611876446346
 97
        0
 75
     0
 76
     0
 52
45.0
 41
10.0
 77
     0
 78
     1
 53
45.0
 43
0.0
 44
0.0
 45
-7.071067811865475
 46
7.071067811865476
 79
     0
 98
        0
  0
ENDBLK
  5
334
330
331
100
AcDbEntity
  8
0
100
AcDbBlockEnd
  0
BLOCK
  5
33B
330
339
100
AcDbEntity
  8
0
100
AcDbBlockBegin
  2
block 105
 70
     0
 71
     0
 10
0.0
 20
0.0
 30
0.0
  3
block 105
  1

  0
POLYLINE
  5
33D
330
339
100
AcDbEntity
  8
EJES
  6
AI-Linetype-1
 62
     2
370
    25
100
AcDb2dPolyline
 66
     1
 10
0.0
 20
0.0
 30
0.0
  0
VERTEX
  5
33E
330
33D
100
AcDbEntity
  8
EJES
  6
AI-Linetype-1
 62
     2
370
    25
100
AcDbVertex
100
AcDb2dVertex
 10
83.69554944169705
 20
187.8012360406623
 30
0.0
  0
VERTEX
  5
33F
330
33D
100
AcDbEntity
  8
EJES
  6
AI-Linetype-1
 62
     2
370
    25
100
AcDbVertex
100
AcDb2dVertex
 10
83.69554944169705
 20
161.8212370832096
 30
0.0
  0
SEQEND
  5
340
330
33D
100
AcDbEntity
  8
EJES
  6
AI-Linetype-1
370
    25
  0
ENDBLK
  5
33C
330
339
100
AcDbEntity
  8
0
100
AcDbBlockEnd
  0
BLOCK
  5
344
330
342
100
AcDbEntity
  8
0
100
AcDbBlockBegin
  2
block 106
 70
     0
 71
     0
 10
0.0
 20
0.0
 30
0.0
  3
block 106
  1

  0
POLYLINE
  5
346
330
342
100
AcDbEntity
  8
EJES
  6
AI-Linetype-2
 62
     2
370
    25
100
AcDb2dPolyline
 66
     1
 10
0.0
 20
0.0
 30
0.0
  0
VERTEX
  5
347
330
346
100
AcDbEntity
  8
EJES
  6
AI-Linetype-2
 62
     2
370
    25
100
AcDbVertex
100
AcDb2dVertex
 10
83.69554944169705
 20
132.9318530691581
 30
0.0
  0
VERTEX
  5
348
330
346
100
AcDbEntity
  8
EJES
  6
AI-Linetype-2
 62
     2
370
    25
100
AcDbVertex
100
AcDb2dVertex
 10
83.69554944169705
 20
82.35299484541939
 30
0.0
  0
SEQEND
  5
349
330
346
100
AcDbEntity
  8
EJES
  6
AI-Linetype-2
370
    25
  0
ENDBLK
  5
345
330
342
100
AcDbEntity
  8
0
100
AcDbBlockEnd
  0
BLOCK
  5
34D
330
34B
100
AcDbEntity
  8
0
100
AcDbBlockBegin
  2
block 107
 70
     0
 71
     0
 10
0.0
 20
0.0
 30
0.0
  3
block 107
  1

  0
POLYLINE
  5
34F
330
34B
100
AcDbEntity
  8
EJES
  6
AI-Linetype-3
 62
     2
370
    25
100
AcDb2dPolyline
 66
     1
 10
0.0
 20
0.0
 30
0.0
  0
VERTEX
  5
350
330
34F
100
AcDbEntity
  8
EJES
  6
AI-Linetype-3
 62
     2
370
    25
100
AcDbVertex
100
AcDb2dVertex
 10
133.8065633899046
 20
107.6978900311919
 30
0.0
  0
VERTEX
  5
351
330
34F
100
AcDbEntity
  8
EJES
  6
AI-Linetype-3
 62
     2
370
    25
100
AcDbVertex
100
AcDb2dVertex
 10
33.30307100666405
 20
107.6978900311919
 30
0.0
  0
SEQEND
  5
352
330
34F
100
AcDbEntity
  8
EJES
  6
AI-Linetype-3
370
    25
  0
ENDBLK
  5
34E
330
34B
100
AcDbEntity
  8
0
100
AcDbBlockEnd
  0
BLOCK
  5
356
330
354
100
AcDbEntity
  8
0
100
AcDbBlockBegin
  2
block 108
 70
     0
 71
     0
 10
0.0
 20
0.0
 30
0.0
  3
block 108
  1

  0
POLYLINE
  5
358
330
354
100
AcDbEntity
  8
EJES
  6
AI-Linetype-4
 62
     2
370
    25
100
AcDb2dPolyline
 66
     1
 10
0.0
 20
0.0
 30
0.0
  0
VERTEX
  5
359
330
358
100
AcDbEntity
  8
EJES
  6
AI-Linetype-4
 62
     2
370
    25
100
AcDbVertex
100
AcDb2dVertex
 10
178.3220495596308
 20
161.8212370832096
 30
0.0
  0
VERTEX
  5
35A
330
358
100
AcDbEntity
  8
EJES
  6
AI-Linetype-4
 62
     2
370
    25
100
AcDbVertex
100
AcDb2dVertex
 10
178.3220495596308
 20
187.8012360406623
 30
0.0
  0
SEQEND
  5
35B
330
358
100
AcDbEntity
  8
EJES
  6
AI-Linetype-4
370
    25
  0
ENDBLK
  5
357
330
354
100
AcDbEntity
  8
0
100
AcDbBlockEnd
  0
BLOCK
  5
360
330
35E
100
AcDbEntity
  8
0
100
AcDbBlockBegin
  2
block 109
 70
     0
 71
     0
 10
0.0
 20
0.0
 30
0.0
  3
block 109
  1

  0
INSERT
  5
363
330
35E
100
AcDbEntity
  8
COTAS
100
AcDbBlockReference
  2
block 110
 10
0.0
 20
0.0
 30
0.0
  0
INSERT
  5
36B
330
35E
100
AcDbEntity
  8
COTAS
100
AcDbBlockReference
  2
block 111
 10
0.0
 20
0.0
 30
0.0
  0
INSERT
  5
373
330
35E
100
AcDbEntity
  8
COTAS
100
AcDbBlockReference
  2
block 112
 10
0.0
 20
0.0
 30
0.0
  0
INSERT
  5
37B
330
35E
100
AcDbEntity
  8
COTAS
100
AcDbBlockReference
  2
block 113
 10
0.0
 20
0.0
 30
0.0
  0
INSERT
  5
383
330
35E
100
AcDbEntity
  8
COTAS
100
AcDbBlockReference
  2
block 114
 10
0.0
 20
0.0
 30
0.0
  0
INSERT
  5
38E
330
35E
100
AcDbEntity
  8
COTAS
100
AcDbBlockReference
  2
block 115
 10
0.0
 20
0.0
 30
0.0
  0
INSERT
  5
399
330
35E
100
AcDbEntity
  8
COTAS
100
AcDbBlockReference
  2
block 116
 10
0.0
 20
0.0
 30
0.0
  0
INSERT
  5
39E
330
35E
100
AcDbEntity
  8
COTAS
100
AcDbBlockReference
  2
block 117
 10
0.0
 20
0.0
 30
0.0
  0
INSERT
  5
3A6
330
35E
100
AcDbEntity
  8
COTAS
100
AcDbBlockReference
  2
block 118
 10
0.0
 20
0.0
 30
0.0
  0
INSERT
  5
3AE
330
35E
100
AcDbEntity
  8
COTAS
100
AcDbBlockReference
  2
block 119
 10
0.0
 20
0.0
 30
0.0
  0
ENDBLK
  5
361
330
35E
100
AcDbEntity
  8
0
100
AcDbBlockEnd
  0
BLOCK
  5
364
330
362
100
AcDbEntity
  8
0
100
AcDbBlockBegin
  2
block 110
 70
     0
 71
     0
 10
0.0
 20
0.0
 30
0.0
  3
block 110
  1

  0
POLYLINE
  5
366
330
362
100
AcDbEntity
  8
COTAS
 62
     3
370
    25
100
AcDb2dPolyline
 66
     1
 10
0.0
 20
0.0
 30
0.0
  0
VERTEX
  5
367
330
366
100
AcDbEntity
  8
COTAS
 62
     3
370
    25
100
AcDbVertex
100
AcDb2dVertex
 10
128.657520280855
 20
106.1992725064786
 30
0.0
  0
VERTEX
  5
368
330
366
100
AcDbEntity
  8
COTAS
 62
     3
370
    25
100
AcDbVertex
100
AcDb2dVertex
 10
128.657520280855
 20
71.53573239519548
 30
0.0
  0
SEQEND
  5
369
330
366
100
AcDbEntity
  8
COTAS
370
    25
  0
ENDBLK
  5
365
330
362
100
AcDbEntity
  8
0
100
AcDbBlockEnd
  0
BLOCK
  5
36C
330
36A
100
AcDbEntity
  8
0
100
AcDbBlockBegin
  2
block 111
 70
     0
 71
     0
 10
0.0
 20
0.0
 30
0.0
  3
block 111
  1

  0
POLYLINE
  5
36E
330
36A
100
AcDbEntity
  8
COTAS
 62
     3
370
    25
100
AcDb2dPolyline
 66
     1
 10
0.0
 20
0.0
 30
0.0
  0
VERTEX
  5
36F
330
36E
100
AcDbEntity
  8
COTAS
 62
     3
370
    25
100
AcDbVertex
100
AcDb2dVertex
 10
38.73357860253906
 20
106.1992725064786
 30
0.0
  0
VERTEX
  5
370
330
36E
100
AcDbEntity
  8
COTAS
 62
     3
370
    25
100
AcDbVertex
100
AcDb2dVertex
 10
38.73357860253906
 20
71.53573239519548
 30
0.0
  0
SEQEND
  5
371
330
36E
100
AcDbEntity
  8
COTAS
370
    25
  0
ENDBLK
  5
36D
330
36A
100
AcDbEntity
  8
0
100
AcDbBlockEnd
  0
BLOCK
  5
374
330
372
100
AcDbEntity
  8
0
100
AcDbBlockBegin
  2
block 112
 70
     0
 71
     0
 10
0.0
 20
0.0
 30
0.0
  3
block 112
  1

  0
POLYLINE
  5
376
330
372
100
AcDbEntity
  8
COTAS
 62
     3
370
    25
100
AcDb2dPolyline
 66
     1
 10
0.0
 20
0.0
 30
0.0
  0
VERTEX
  5
377
330
376
100
AcDbEntity
  8
COTAS
 62
     3
370
    25
100
AcDbVertex
100
AcDb2dVertex
 10
126.159479896557
 20
72.53515525478016
 30
0.0
  0
VERTEX
  5
378
330
376
100
AcDbEntity
  8
COTAS
 62
     3
370
    25
100
AcDbVertex
100
AcDb2dVertex
 10
87.76352087429822
 20
72.53515525478016
 30
0.0
  0
SEQEND
  5
379
330
376
100
AcDbEntity
  8
COTAS
370
    25
  0
ENDBLK
  5
375
330
372
100
AcDbEntity
  8
0
100
AcDbBlockEnd
  0
BLOCK
  5
37C
330
37A
100
AcDbEntity
  8
0
100
AcDbBlockBegin
  2
block 113
 70
     0
 71
     0
 10
0.0
 20
0.0
 30
0.0
  3
block 113
  1

  0
POLYLINE
  5
37E
330
37A
100
AcDbEntity
  8
COTAS
 62
     3
370
    25
100
AcDb2dPolyline
 66
     1
 10
0.0
 20
0.0
 30
0.0
  0
VERTEX
  5
37F
330
37E
100
AcDbEntity
  8
COTAS
 62
     3
370
    25
100
AcDbVertex
100
AcDb2dVertex
 10
41.23144673194918
 20
72.53515525478016
 30
0.0
  0
VERTEX
  5
380
330
37E
100
AcDbEntity
  8
COTAS
 62
     3
370
    25
100
AcDbVertex
100
AcDb2dVertex
 10
79.6275780090959
 20
72.53515525478016
 30
0.0
  0
SEQEND
  5
381
330
37E
100
AcDbEntity
  8
COTAS
370
    25
  0
ENDBLK
  5
37D
330
37A
100
AcDbEntity
  8
0
100
AcDbBlockEnd
  0
BLOCK
  5
384
330
382
100
AcDbEntity
  8
0
100
AcDbBlockBegin
  2
block 114
 70
     0
 71
     0
 10
0.0
 20
0.0
 30
0.0
  3
block 114
  1

  0
POLYLINE
  5
386
330
382
100
AcDbEntity
  8
COTAS
370
     0
100
AcDb2dPolyline
 66
     1
 10
0.0
 20
0.0
 30
0.0
  0
VERTEX
  5
387
330
386
100
AcDbEntity
  8
COTAS
370
     0
100
AcDbVertex
100
AcDb2dVertex
 10
126.159479896557
 20
72.95132306394194
 30
0.0
  0
VERTEX
  5
388
330
386
100
AcDbEntity
  8
COTAS
370
     0
100
AcDbVertex
100
AcDb2dVertex
 10
126.159479896557
 20
72.1186429358426
 30
0.0
  0
VERTEX
  5
389
330
386
100
AcDbEntity
  8
COTAS
370
     0
100
AcDbVertex
100
AcDb2dVertex
 10
128.657520280855
 20
72.53515525478016
 30
0.0
  0
VERTEX
  5
38A
330
386
100
AcDbEntity
  8
COTAS
370
     0
100
AcDbVertex
100
AcDb2dVertex
 10
126.159479896557
 20
72.95132306394194
 30
0.0
  0
SEQEND
  5
38B
330
386
100
AcDbEntity
  8
COTAS
370
     0
  0
HATCH
  5
38C
330
382
100
AcDbEntity
  8
COTAS
 62
     3
100
AcDbHatch
 10
0.0
 20
0.0
 30
0.0
210
0.0
220
0.0
230
1.0
  2
SOLID
 70
     1
 71
     0
 91
        1
 92
        1
 93
        3
 72
     1
 10
126.159479896557
 20
72.95132306394194
 11
126.159479896557
 21
72.1186429358426
 72
     1
 10
126.159479896557
 20
72.1186429358426
 11
128.657520280855
 21
72.53515525478016
 72
     1
 10
128.657520280855
 20
72.53515525478016
 11
126.159479896557
 21
72.95132306394194
 97
        0
 75
     2
 76
     1
 98
        0
  0
ENDBLK
  5
385
330
382
100
AcDbEntity
  8
0
100
AcDbBlockEnd
  0
BLOCK
  5
38F
330
38D
100
AcDbEntity
  8
0
100
AcDbBlockBegin
  2
block 115
 70
     0
 71
     0
 10
0.0
 20
0.0
 30
0.0
  3
block 115
  1

  0
POLYLINE
  5
391
330
38D
100
AcDbEntity
  8
COTAS
370
     0
100
AcDb2dPolyline
 66
     1
 10
0.0
 20
0.0
 30
0.0
  0
VERTEX
  5
392
330
391
100
AcDbEntity
  8
COTAS
370
     0
100
AcDbVertex
100
AcDb2dVertex
 10
41.23144673194918
 20
72.95132306394194
 30
0.0
  0
VERTEX
  5
393
330
391
100
AcDbEntity
  8
COTAS
370
     0
100
AcDbVertex
100
AcDb2dVertex
 10
41.23144673194918
 20
72.1186429358426
 30
0.0
  0
VERTEX
  5
394
330
391
100
AcDbEntity
  8
COTAS
370
     0
100
AcDbVertex
100
AcDb2dVertex
 10
38.73357860253906
 20
72.53515525478016
 30
0.0
  0
VERTEX
  5
395
330
391
100
AcDbEntity
  8
COTAS
370
     0
100
AcDbVertex
100
AcDb2dVertex
 10
41.23144673194918
 20
72.95132306394194
 30
0.0
  0
SEQEND
  5
396
330
391
100
AcDbEntity
  8
COTAS
370
     0
  0
HATCH
  5
397
330
38D
100
AcDbEntity
  8
COTAS
 62
     3
100
AcDbHatch
 10
0.0
 20
0.0
 30
0.0
210
0.0
220
0.0
230
1.0
  2
SOLID
 70
     1
 71
     0
 91
        1
 92
        1
 93
        3
 72
     1
 10
41.23144673194918
 20
72.95132306394194
 11
41.23144673194918
 21
72.1186429358426
 72
     1
 10
41.23144673194918
 20
72.1186429358426
 11
38.73357860253906
 21
72.53515525478016
 72
     1
 10
38.73357860253906
 20
72.53515525478016
 11
41.23144673194918
 21
72.95132306394194
 97
        0
 75
     2
 76
     1
 98
        0
  0
ENDBLK
  5
390
330
38D
100
AcDbEntity
  8
0
100
AcDbBlockEnd
  0
BLOCK
  5
39A
330
398
100
AcDbEntity
  8
0
100
AcDbBlockBegin
  2
block 116
 70
     0
 71
     0
 10
0.0
 20
0.0
 30
0.0
  3
block 116
  1

  0
MTEXT
  5
39C
330
398
100
AcDbEntity
  8
COTAS
 62
     6
100
AcDbMText
 10
80.8407691845621
 20
71.53573239519548
 30
0.0
 40
1.998306857433339
 41
0.0
 71
     7
 72
     1
  1
\fMyriad Pro|b0|i0|c0|p34;\W1;900
 73
     1
 44
1.0
  0
ENDBLK
  5
39B
330
398
100
AcDbEntity
  8
0
100
AcDbBlockEnd
  0
BLOCK
  5
39F
330
39D
100
AcDbEntity
  8
0
100
AcDbBlockBegin
  2
block 117
 70
     0
 71
     0
 10
0.0
 20
0.0
 30
0.0
  3
block 117
  1

  0
POLYLINE
  5
3A1
330
39D
100
AcDbEntity
  8
COTAS
370
     0
100
AcDb2dPolyline
 66
     1
 10
0.0
 20
0.0
 30
0.0
  0
VERTEX
  5
3A2
330
3A1
100
AcDbEntity
  8
COTAS
370
     0
100
AcDbVertex
100
AcDb2dVertex
 10
128.657520280855
 20
107.6978900311919
 30
0.0
  0
VERTEX
  5
3A3
330
3A1
100
AcDbEntity
  8
COTAS
370
     0
100
AcDbVertex
100
AcDb2dVertex
 10
128.657520280855
 20
107.6978900311919
 30
0.0
  0
SEQEND
  5
3A4
330
3A1
100
AcDbEntity
  8
COTAS
370
     0
  0
ENDBLK
  5
3A0
330
39D
100
AcDbEntity
  8
0
100
AcDbBlockEnd
  0
BLOCK
  5
3A7
330
3A5
100
AcDbEntity
  8
0
100
AcDbBlockBegin
  2
block 118
 70
     0
 71
     0
 10
0.0
 20
0.0
 30
0.0
  3
block 118
  1

  0
POLYLINE
  5
3A9
330
3A5
100
AcDbEntity
  8
COTAS
370
     0
100
AcDb2dPolyline
 66
     1
 10
0.0
 20
0.0
 30
0.0
  0
VERTEX
  5
3AA
330
3A9
100
AcDbEntity
  8
COTAS
370
     0
100
AcDbVertex
100
AcDb2dVertex
 10
38.73357860253906
 20
107.6978900311919
 30
0.0
  0
VERTEX
  5
3AB
330
3A9
100
AcDbEntity
  8
COTAS
370
     0
100
AcDbVertex
100
AcDb2dVertex
 10
38.73357860253906
 20
107.6978900311919
 30
0.0
  0
SEQEND
  5
3AC
330
3A9
100
AcDbEntity
  8
COTAS
370
     0
  0
ENDBLK
  5
3A8
330
3A5
100
AcDbEntity
  8
0
100
AcDbBlockEnd
  0
BLOCK
  5
3AF
330
3AD
100
AcDbEntity
  8
0
100
AcDbBlockBegin
  2
block 119
 70
     0
 71
     0
 10
0.0
 20
0.0
 30
0.0
  3
block 119
  1

  0
POLYLINE
  5
3B1
330
3AD
100
AcDbEntity
  8
COTAS
370
     0
100
AcDb2dPolyline
 66
     1
 10
0.0
 20
0.0
 30
0.0
  0
VERTEX
  5
3B2
330
3B1
100
AcDbEntity
  8
COTAS
370
     0
100
AcDbVertex
100
AcDb2dVertex
 10
38.73357860253906
 20
72.53515525478016
 30
0.0
  0
VERTEX
  5
3B3
330
3B1
100
AcDbEntity
  8
COTAS
370
     0
100
AcDbVertex
100
AcDb2dVertex
 10
38.73357860253906
 20
72.53515525478016
 30
0.0
  0
SEQEND
  5
3B4
330
3B1
100
AcDbEntity
  8
COTAS
370
     0
  0
ENDBLK
  5
3B0
330
3AD
100
AcDbEntity
  8
0
100
AcDbBlockEnd
  0
BLOCK
  5
3B7
330
3B5
100
AcDbEntity
  8
0
100
AcDbBlockBegin
  2
block 120
 70
     0
 71
     0
 10
0.0
 20
0.0
 30
0.0
  3
block 120
  1

  0
INSERT
  5
3BA
330
3B5
100
AcDbEntity
  8
COTAS
100
AcDbBlockReference
  2
block 121
 10
0.0
 20
0.0
 30
0.0
  0
INSERT
  5
3C2
330
3B5
100
AcDbEntity
  8
COTAS
100
AcDbBlockReference
  2
block 122
 10
0.0
 20
0.0
 30
0.0
  0
INSERT
  5
3CA
330
3B5
100
AcDbEntity
  8
COTAS
100
AcDbBlockReference
  2
block 123
 10
0.0
 20
0.0
 30
0.0
  0
INSERT
  5
3D2
330
3B5
100
AcDbEntity
  8
COTAS
100
AcDbBlockReference
  2
block 124
 10
0.0
 20
0.0
 30
0.0
  0
INSERT
  5
3DA
330
3B5
100
AcDbEntity
  8
COTAS
100
AcDbBlockReference
  2
block 125
 10
0.0
 20
0.0
 30
0.0
  0
INSERT
  5
3E5
330
3B5
100
AcDbEntity
  8
COTAS
100
AcDbBlockReference
  2
block 126
 10
0.0
 20
0.0
 30
0.0
  0
INSERT
  5
3F0
330
3B5
100
AcDbEntity
  8
COTAS
100
AcDbBlockReference
  2
block 127
 10
0.0
 20
0.0
 30
0.0
  0
INSERT
  5
3F5
330
3B5
100
AcDbEntity
  8
COTAS
100
AcDbBlockReference
  2
block 128
 10
0.0
 20
0.0
 30
0.0
  0
INSERT
  5
3FD
330
3B5
100
AcDbEntity
  8
COTAS
100
AcDbBlockReference
  2
block 129
 10
0.0
 20
0.0
 30
0.0
  0
INSERT
  5
405
330
3B5
100
AcDbEntity
  8
COTAS
100
AcDbBlockReference
  2
block 130
 10
0.0
 20
0.0
 30
0.0
  0
ENDBLK
  5
3B8
330
3B5
100
AcDbEntity
  8
0
100
AcDbBlockEnd
  0
BLOCK
  5
3BB
330
3B9
100
AcDbEntity
  8
0
100
AcDbBlockBegin
  2
block 121
 70
     0
 71
     0
 10
0.0
 20
0.0
 30
0.0
  3
block 121
  1

  0
POLYLINE
  5
3BD
330
3B9
100
AcDbEntity
  8
COTAS
 62
     3
370
    25
100
AcDb2dPolyline
 66
     1
 10
0.0
 20
0.0
 30
0.0
  0
VERTEX
  5
3BE
330
3BD
100
AcDbEntity
  8
COTAS
 62
     3
370
    25
100
AcDbVertex
100
AcDb2dVertex
 10
82.19675966209583
 20
87.71494499591095
 30
0.0
  0
VERTEX
  5
3BF
330
3BD
100
AcDbEntity
  8
COTAS
 62
     3
370
    25
100
AcDbVertex
100
AcDb2dVertex
 10
27.82140370908331
 20
87.71494499591095
 30
0.0
  0
SEQEND
  5
3C0
330
3BD
100
AcDbEntity
  8
COTAS
370
    25
  0
ENDBLK
  5
3BC
330
3B9
100
AcDbEntity
  8
0
100
AcDbBlockEnd
  0
BLOCK
  5
3C3
330
3C1
100
AcDbEntity
  8
0
100
AcDbBlockBegin
  2
block 122
 70
     0
 71
     0
 10
0.0
 20
0.0
 30
0.0
  3
block 122
  1

  0
POLYLINE
  5
3C5
330
3C1
100
AcDbEntity
  8
COTAS
 62
     3
370
    25
100
AcDb2dPolyline
 66
     1
 10
0.0
 20
0.0
 30
0.0
  0
VERTEX
  5
3C6
330
3C5
100
AcDbEntity
  8
COTAS
 62
     3
370
    25
100
AcDbVertex
100
AcDb2dVertex
 10
82.19675966209583
 20
127.6808350664729
 30
0.0
  0
VERTEX
  5
3C7
330
3C5
100
AcDbEntity
  8
COTAS
 62
     3
370
    25
100
AcDbVertex
100
AcDb2dVertex
 10
27.82140370908331
 20
127.6808350664729
 30
0.0
  0
SEQEND
  5
3C8
330
3C5
100
AcDbEntity
  8
COTAS
370
    25
  0
ENDBLK
  5
3C4
330
3C1
100
AcDbEntity
  8
0
100
AcDbBlockEnd
  0
BLOCK
  5
3CB
330
3C9
100
AcDbEntity
  8
0
100
AcDbBlockBegin
  2
block 123
 70
     0
 71
     0
 10
0.0
 20
0.0
 30
0.0
  3
block 123
  1

  0
POLYLINE
  5
3CD
330
3C9
100
AcDbEntity
  8
COTAS
 62
     3
370
    25
100
AcDb2dPolyline
 66
     1
 10
0.0
 20
0.0
 30
0.0
  0
VERTEX
  5
3CE
330
3CD
100
AcDbEntity
  8
COTAS
 62
     3
370
    25
100
AcDbVertex
100
AcDb2dVertex
 10
28.8206543137801
 20
90.21264087043318
 30
0.0
  0
VERTEX
  5
3CF
330
3CD
100
AcDbEntity
  8
COTAS
 62
     3
370
    25
100
AcDbVertex
100
AcDb2dVertex
 10
28.8206543137801
 20
105.1998496468939
 30
0.0
  0
SEQEND
  5
3D0
330
3CD
100
AcDbEntity
  8
COTAS
370
    25
  0
ENDBLK
  5
3CC
330
3C9
100
AcDbEntity
  8
0
100
AcDbBlockEnd
  0
BLOCK
  5
3D3
330
3D1
100
AcDbEntity
  8
0
100
AcDbBlockBegin
  2
block 124
 70
     0
 71
     0
 10
0.0
 20
0.0
 30
0.0
  3
block 124
  1

  0
POLYLINE
  5
3D5
330
3D1
100
AcDbEntity
  8
COTAS
 62
     3
370
    25
100
AcDb2dPolyline
 66
     1
 10
0.0
 20
0.0
 30
0.0
  0
VERTEX
  5
3D6
330
3D5
100
AcDbEntity
  8
COTAS
 62
     3
370
    25
100
AcDbVertex
100
AcDb2dVertex
 10
28.8206543137801
 20
125.1831391919507
 30
0.0
  0
VERTEX
  5
3D7
330
3D5
100
AcDbEntity
  8
COTAS
 62
     3
370
    25
100
AcDbVertex
100
AcDb2dVertex
 10
28.8206543137801
 20
110.1955859057142
 30
0.0
  0
SEQEND
  5
3D8
330
3D5
100
AcDbEntity
  8
COTAS
370
    25
  0
ENDBLK
  5
3D4
330
3D1
100
AcDbEntity
  8
0
100
AcDbBlockEnd
  0
BLOCK
  5
3DB
330
3D9
100
AcDbEntity
  8
0
100
AcDbBlockBegin
  2
block 125
 70
     0
 71
     0
 10
0.0
 20
0.0
 30
0.0
  3
block 125
  1

  0
POLYLINE
  5
3DD
330
3D9
100
AcDbEntity
  8
COTAS
370
     0
100
AcDb2dPolyline
 66
     1
 10
0.0
 20
0.0
 30
0.0
  0
VERTEX
  5
3DE
330
3DD
100
AcDbEntity
  8
COTAS
370
     0
100
AcDbVertex
100
AcDb2dVertex
 10
28.40431424973043
 20
90.21264087043318
 30
0.0
  0
VERTEX
  5
3DF
330
3DD
100
AcDbEntity
  8
COTAS
370
     0
100
AcDbVertex
100
AcDb2dVertex
 10
29.23682212294187
 20
90.21264087043318
 30
0.0
  0
VERTEX
  5
3E0
330
3DD
100
AcDbEntity
  8
COTAS
370
     0
100
AcDbVertex
100
AcDb2dVertex
 10
28.8206543137801
 20
87.71494499591095
 30
0.0
  0
VERTEX
  5
3E1
330
3DD
100
AcDbEntity
  8
COTAS
370
     0
100
AcDbVertex
100
AcDb2dVertex
 10
28.40431424973043
 20
90.21264087043318
 30
0.0
  0
SEQEND
  5
3E2
330
3DD
100
AcDbEntity
  8
COTAS
370
     0
  0
HATCH
  5
3E3
330
3D9
100
AcDbEntity
  8
COTAS
 62
     3
100
AcDbHatch
 10
0.0
 20
0.0
 30
0.0
210
0.0
220
0.0
230
1.0
  2
SOLID
 70
     1
 71
     0
 91
        1
 92
        1
 93
        3
 72
     1
 10
28.40431424973043
 20
90.21264087043318
 11
29.23682212294187
 21
90.21264087043318
 72
     1
 10
29.23682212294187
 20
90.21264087043318
 11
28.8206543137801
 21
87.71494499591095
 72
     1
 10
28.8206543137801
 20
87.71494499591095
 11
28.40431424973043
 21
90.21264087043318
 97
        0
 75
     2
 76
     1
 98
        0
  0
ENDBLK
  5
3DC
330
3D9
100
AcDbEntity
  8
0
100
AcDbBlockEnd
  0
BLOCK
  5
3E6
330
3E4
100
AcDbEntity
  8
0
100
AcDbBlockBegin
  2
block 126
 70
     0
 71
     0
 10
0.0
 20
0.0
 30
0.0
  3
block 126
  1

  0
POLYLINE
  5
3E8
330
3E4
100
AcDbEntity
  8
COTAS
370
     0
100
AcDb2dPolyline
 66
     1
 10
0.0
 20
0.0
 30
0.0
  0
VERTEX
  5
3E9
330
3E8
100
AcDbEntity
  8
COTAS
370
     0
100
AcDbVertex
100
AcDb2dVertex
 10
28.40431424973043
 20
125.1831391919507
 30
0.0
  0
VERTEX
  5
3EA
330
3E8
100
AcDbEntity
  8
COTAS
370
     0
100
AcDbVertex
100
AcDb2dVertex
 10
29.23682212294187
 20
125.1831391919507
 30
0.0
  0
VERTEX
  5
3EB
330
3E8
100
AcDbEntity
  8
COTAS
370
     0
100
AcDbVertex
100
AcDb2dVertex
 10
28.8206543137801
 20
127.6808350664729
 30
0.0
  0
VERTEX
  5
3EC
330
3E8
100
AcDbEntity
  8
COTAS
370
     0
100
AcDbVertex
100
AcDb2dVertex
 10
28.40431424973043
 20
125.1831391919507
 30
0.0
  0
SEQEND
  5
3ED
330
3E8
100
AcDbEntity
  8
COTAS
370
     0
  0
HATCH
  5
3EE
330
3E4
100
AcDbEntity
  8
COTAS
 62
     3
100
AcDbHatch
 10
0.0
 20
0.0
 30
0.0
210
0.0
220
0.0
230
1.0
  2
SOLID
 70
     1
 71
     0
 91
        1
 92
        1
 93
        3
 72
     1
 10
28.40431424973043
 20
125.1831391919507
 11
29.23682212294187
 21
125.1831391919507
 72
     1
 10
29.23682212294187
 20
125.1831391919507
 11
28.8206543137801
 21
127.6808350664729
 72
     1
 10
28.8206543137801
 20
127.6808350664729
 11
28.40431424973043
 21
125.1831391919507
 97
        0
 75
     2
 76
     1
 98
        0
  0
ENDBLK
  5
3E7
330
3E4
100
AcDbEntity
  8
0
100
AcDbBlockEnd
  0
BLOCK
  5
3F1
330
3EF
100
AcDbEntity
  8
0
100
AcDbBlockBegin
  2
block 127
 70
     0
 71
     0
 10
0.0
 20
0.0
 30
0.0
  3
block 127
  1

  0
MTEXT
  5
3F3
330
3EF
100
AcDbEntity
  8
COTAS
 62
     6
100
AcDbMText
 10
25.96587405664514
 20
106.698811681383
 30
0.0
 40
1.998306857433339
 41
0.0
 71
     7
 72
     1
  1
\fMyriad Pro|b0|i0|c0|p34;\W1;400
 73
     1
 44
1.0
  0
ENDBLK
  5
3F2
330
3EF
100
AcDbEntity
  8
0
100
AcDbBlockEnd
  0
BLOCK
  5
3F6
330
3F4
100
AcDbEntity
  8
0
100
AcDbBlockBegin
  2
block 128
 70
     0
 71
     0
 10
0.0
 20
0.0
 30
0.0
  3
block 128
  1

  0
POLYLINE
  5
3F8
330
3F4
100
AcDbEntity
  8
COTAS
370
     0
100
AcDb2dPolyline
 66
     1
 10
0.0
 20
0.0
 30
0.0
  0
VERTEX
  5
3F9
330
3F8
100
AcDbEntity
  8
COTAS
370
     0
100
AcDbVertex
100
AcDb2dVertex
 10
83.69554944169705
 20
87.71494499591095
 30
0.0
  0
VERTEX
  5
3FA
330
3F8
100
AcDbEntity
  8
COTAS
370
     0
100
AcDbVertex
100
AcDb2dVertex
 10
83.69554944169705
 20
87.71494499591095
 30
0.0
  0
SEQEND
  5
3FB
330
3F8
100
AcDbEntity
  8
COTAS
370
     0
  0
ENDBLK
  5
3F7
330
3F4
100
AcDbEntity
  8
0
100
AcDbBlockEnd
  0
BLOCK
  5
3FE
330
3FC
100
AcDbEntity
  8
0
100
AcDbBlockBegin
  2
block 129
 70
     0
 71
     0
 10
0.0
 20
0.0
 30
0.0
  3
block 129
  1

  0
POLYLINE
  5
400
330
3FC
100
AcDbEntity
  8
COTAS
370
     0
100
AcDb2dPolyline
 66
     1
 10
0.0
 20
0.0
 30
0.0
  0
VERTEX
  5
401
330
400
100
AcDbEntity
  8
COTAS
370
     0
100
AcDbVertex
100
AcDb2dVertex
 10
83.69554944169705
 20
127.6808350664729
 30
0.0
  0
VERTEX
  5
402
330
400
100
AcDbEntity
  8
COTAS
370
     0
100
AcDbVertex
100
AcDb2dVertex
 10
83.69554944169705
 20
127.6808350664729
 30
0.0
  0
SEQEND
  5
403
330
400
100
AcDbEntity
  8
COTAS
370
     0
  0
ENDBLK
  5
3FF
330
3FC
100
AcDbEntity
  8
0
100
AcDbBlockEnd
  0
BLOCK
  5
406
330
404
100
AcDbEntity
  8
0
100
AcDbBlockBegin
  2
block 130
 70
     0
 71
     0
 10
0.0
 20
0.0
 30
0.0
  3
block 130
  1

  0
POLYLINE
  5
408
330
404
100
AcDbEntity
  8
COTAS
370
     0
100
AcDb2dPolyline
 66
     1
 10
0.0
 20
0.0
 30
0.0
  0
VERTEX
  5
409
330
408
100
AcDbEntity
  8
COTAS
370
     0
100
AcDbVertex
100
AcDb2dVertex
 10
28.8206543137801
 20
127.6808350664729
 30
0.0
  0
VERTEX
  5
40A
330
408
100
AcDbEntity
  8
COTAS
370
     0
100
AcDbVertex
100
AcDb2dVertex
 10
28.8206543137801
 20
127.6808350664729
 30
0.0
  0
SEQEND
  5
40B
330
408
100
AcDbEntity
  8
COTAS
370
     0
  0
ENDBLK
  5
407
330
404
100
AcDbEntity
  8
0
100
AcDbBlockEnd
  0
BLOCK
  5
40E
330
40C
100
AcDbEntity
  8
0
100
AcDbBlockBegin
  2
block 131
 70
     0
 71
     0
 10
0.0
 20
0.0
 30
0.0
  3
block 131
  1

  0
INSERT
  5
411
330
40C
100
AcDbEntity
  8
COTAS
100
AcDbBlockReference
  2
block 132
 10
0.0
 20
0.0
 30
0.0
  0
INSERT
  5
419
330
40C
100
AcDbEntity
  8
COTAS
100
AcDbBlockReference
  2
block 133
 10
0.0
 20
0.0
 30
0.0
  0
INSERT
  5
421
330
40C
100
AcDbEntity
  8
COTAS
100
AcDbBlockReference
  2
block 134
 10
0.0
 20
0.0
 30
0.0
  0
INSERT
  5
429
330
40C
100
AcDbEntity
  8
COTAS
100
AcDbBlockReference
  2
block 135
 10
0.0
 20
0.0
 30
0.0
  0
INSERT
  5
431
330
40C
100
AcDbEntity
  8
COTAS
100
AcDbBlockReference
  2
block 136
 10
0.0
 20
0.0
 30
0.0
  0
INSERT
  5
43C
330
40C
100
AcDbEntity
  8
COTAS
100
AcDbBlockReference
  2
block 137
 10
0.0
 20
0.0
 30
0.0
  0
INSERT
  5
447
330
40C
100
AcDbEntity
  8
COTAS
100
AcDbBlockReference
  2
block 138
 10
0.0
 20
0.0
 30
0.0
  0
INSERT
  5
44C
330
40C
100
AcDbEntity
  8
COTAS
100
AcDbBlockReference
  2
block 139
 10
0.0
 20
0.0
 30
0.0
  0
INSERT
  5
454
330
40C
100
AcDbEntity
  8
COTAS
100
AcDbBlockReference
  2
block 140
 10
0.0
 20
0.0
 30
0.0
  0
INSERT
  5
45C
330
40C
100
AcDbEntity
  8
COTAS
100
AcDbBlockReference
  2
block 141
 10
0.0
 20
0.0
 30
0.0
  0
ENDBLK
  5
40F
330
40C
100
AcDbEntity
  8
0
100
AcDbBlockEnd
  0
BLOCK
  5
412
330
410
100
AcDbEntity
  8
0
100
AcDbBlockBegin
  2
block 132
 70
     0
 71
     0
 10
0.0
 20
0.0
 30
0.0
  3
block 132
  1

  0
POLYLINE
  5
414
330
410
100
AcDbEntity
  8
COTAS
 62
     3
370
    25
100
AcDb2dPolyline
 66
     1
 10
0.0
 20
0.0
 30
0.0
  0
VERTEX
  5
415
330
414
100
AcDbEntity
  8
COTAS
 62
     3
370
    25
100
AcDbVertex
100
AcDb2dVertex
 10
49.7187895684636
 20
172.2659122109099
 30
0.0
  0
VERTEX
  5
416
330
414
100
AcDbEntity
  8
COTAS
 62
     3
370
    25
100
AcDbVertex
100
AcDb2dVertex
 10
49.7187895684636
 20
153.6201818703817
 30
0.0
  0
SEQEND
  5
417
330
414
100
AcDbEntity
  8
COTAS
370
    25
  0
ENDBLK
  5
413
330
410
100
AcDbEntity
  8
0
100
AcDbBlockEnd
  0
BLOCK
  5
41A
330
418
100
AcDbEntity
  8
0
100
AcDbBlockBegin
  2
block 133
 70
     0
 71
     0
 10
0.0
 20
0.0
 30
0.0
  3
block 133
  1

  0
POLYLINE
  5
41C
330
418
100
AcDbEntity
  8
COTAS
 62
     3
370
    25
100
AcDb2dPolyline
 66
     1
 10
0.0
 20
0.0
 30
0.0
  0
VERTEX
  5
41D
330
41C
100
AcDbEntity
  8
COTAS
 62
     3
370
    25
100
AcDbVertex
100
AcDb2dVertex
 10
117.6673139231815
 20
172.2659122109099
 30
0.0
  0
VERTEX
  5
41E
330
41C
100
AcDbEntity
  8
COTAS
 62
     3
370
    25
100
AcDbVertex
100
AcDb2dVertex
 10
117.6673139231815
 20
153.6201818703817
 30
0.0
  0
SEQEND
  5
41F
330
41C
100
AcDbEntity
  8
COTAS
370
    25
  0
ENDBLK
  5
41B
330
418
100
AcDbEntity
  8
0
100
AcDbBlockEnd
  0
BLOCK
  5
422
330
420
100
AcDbEntity
  8
0
100
AcDbBlockBegin
  2
block 134
 70
     0
 71
     0
 10
0.0
 20
0.0
 30
0.0
  3
block 134
  1

  0
POLYLINE
  5
424
330
420
100
AcDbEntity
  8
COTAS
 62
     3
370
    25
100
AcDb2dPolyline
 66
     1
 10
0.0
 20
0.0
 30
0.0
  0
VERTEX
  5
425
330
424
100
AcDbEntity
  8
COTAS
 62
     3
370
    25
100
AcDbVertex
100
AcDb2dVertex
 10
52.21665769787372
 20
154.6192602201907
 30
0.0
  0
VERTEX
  5
426
330
424
100
AcDbEntity
  8
COTAS
 62
     3
370
    25
100
AcDbVertex
100
AcDb2dVertex
 10
79.67253653483729
 20
154.6192602201907
 30
0.0
  0
SEQEND
  5
427
330
424
100
AcDbEntity
  8
COTAS
370
    25
  0
ENDBLK
  5
423
330
420
100
AcDbEntity
  8
0
100
AcDbBlockEnd
  0
BLOCK
  5
42A
330
428
100
AcDbEntity
  8
0
100
AcDbBlockBegin
  2
block 135
 70
     0
 71
     0
 10
0.0
 20
0.0
 30
0.0
  3
block 135
  1

  0
POLYLINE
  5
42C
330
428
100
AcDbEntity
  8
COTAS
 62
     3
370
    25
100
AcDb2dPolyline
 66
     1
 10
0.0
 20
0.0
 30
0.0
  0
VERTEX
  5
42D
330
42C
100
AcDbEntity
  8
COTAS
 62
     3
370
    25
100
AcDbVertex
100
AcDb2dVertex
 10
115.1692735388834
 20
154.6192602201907
 30
0.0
  0
VERTEX
  5
42E
330
42C
100
AcDbEntity
  8
COTAS
 62
     3
370
    25
100
AcDbVertex
100
AcDb2dVertex
 10
87.71339470191988
 20
154.6192602201907
 30
0.0
  0
SEQEND
  5
42F
330
42C
100
AcDbEntity
  8
COTAS
370
    25
  0
ENDBLK
  5
42B
330
428
100
AcDbEntity
  8
0
100
AcDbBlockEnd
  0
BLOCK
  5
432
330
430
100
AcDbEntity
  8
0
100
AcDbBlockBegin
  2
block 136
 70
     0
 71
     0
 10
0.0
 20
0.0
 30
0.0
  3
block 136
  1

  0
POLYLINE
  5
434
330
430
100
AcDbEntity
  8
COTAS
370
     0
100
AcDb2dPolyline
 66
     1
 10
0.0
 20
0.0
 30
0.0
  0
VERTEX
  5
435
330
434
100
AcDbEntity
  8
COTAS
370
     0
100
AcDbVertex
100
AcDb2dVertex
 10
52.21665769787372
 20
155.0356002842403
 30
0.0
  0
VERTEX
  5
436
330
434
100
AcDbEntity
  8
COTAS
370
     0
100
AcDbVertex
100
AcDb2dVertex
 10
52.21665769787372
 20
154.2030924110289
 30
0.0
  0
VERTEX
  5
437
330
434
100
AcDbEntity
  8
COTAS
370
     0
100
AcDbVertex
100
AcDb2dVertex
 10
49.7187895684636
 20
154.6192602201907
 30
0.0
  0
VERTEX
  5
438
330
434
100
AcDbEntity
  8
COTAS
370
     0
100
AcDbVertex
100
AcDb2dVertex
 10
52.21665769787372
 20
155.0356002842403
 30
0.0
  0
SEQEND
  5
439
330
434
100
AcDbEntity
  8
COTAS
370
     0
  0
HATCH
  5
43A
330
430
100
AcDbEntity
  8
COTAS
 62
     3
100
AcDbHatch
 10
0.0
 20
0.0
 30
0.0
210
0.0
220
0.0
230
1.0
  2
SOLID
 70
     1
 71
     0
 91
        1
 92
        1
 93
        3
 72
     1
 10
52.21665769787372
 20
155.0356002842403
 11
52.21665769787372
 21
154.2030924110289
 72
     1
 10
52.21665769787372
 20
154.2030924110289
 11
49.7187895684636
 21
154.6192602201907
 72
     1
 10
49.7187895684636
 20
154.6192602201907
 11
52.21665769787372
 21
155.0356002842403
 97
        0
 75
     2
 76
     1
 98
        0
  0
ENDBLK
  5
433
330
430
100
AcDbEntity
  8
0
100
AcDbBlockEnd
  0
BLOCK
  5
43D
330
43B
100
AcDbEntity
  8
0
100
AcDbBlockBegin
  2
block 137
 70
     0
 71
     0
 10
0.0
 20
0.0
 30
0.0
  3
block 137
  1

  0
POLYLINE
  5
43F
330
43B
100
AcDbEntity
  8
COTAS
370
     0
100
AcDb2dPolyline
 66
     1
 10
0.0
 20
0.0
 30
0.0
  0
VERTEX
  5
440
330
43F
100
AcDbEntity
  8
COTAS
370
     0
100
AcDbVertex
100
AcDb2dVertex
 10
115.1692735388834
 20
155.0356002842403
 30
0.0
  0
VERTEX
  5
441
330
43F
100
AcDbEntity
  8
COTAS
370
     0
100
AcDbVertex
100
AcDb2dVertex
 10
115.1692735388834
 20
154.2030924110289
 30
0.0
  0
VERTEX
  5
442
330
43F
100
AcDbEntity
  8
COTAS
370
     0
100
AcDbVertex
100
AcDb2dVertex
 10
117.6673139231815
 20
154.6192602201907
 30
0.0
  0
VERTEX
  5
443
330
43F
100
AcDbEntity
  8
COTAS
370
     0
100
AcDbVertex
100
AcDb2dVertex
 10
115.1692735388834
 20
155.0356002842403
 30
0.0
  0
SEQEND
  5
444
330
43F
100
AcDbEntity
  8
COTAS
370
     0
  0
HATCH
  5
445
330
43B
100
AcDbEntity
  8
COTAS
 62
     3
100
AcDbHatch
 10
0.0
 20
0.0
 30
0.0
210
0.0
220
0.0
230
1.0
  2
SOLID
 70
     1
 71
     0
 91
        1
 92
        1
 93
        3
 72
     1
 10
115.1692735388834
 20
155.0356002842403
 11
115.1692735388834
 21
154.2030924110289
 72
     1
 10
115.1692735388834
 20
154.2030924110289
 11
117.6673139231815
 21
154.6192602201907
 72
     1
 10
117.6673139231815
 20
154.6192602201907
 11
115.1692735388834
 21
155.0356002842403
 97
        0
 75
     2
 76
     1
 98
        0
  0
ENDBLK
  5
43E
330
43B
100
AcDbEntity
  8
0
100
AcDbBlockEnd
  0
BLOCK
  5
448
330
446
100
AcDbEntity
  8
0
100
AcDbBlockBegin
  2
block 138
 70
     0
 71
     0
 10
0.0
 20
0.0
 30
0.0
  3
block 138
  1

  0
MTEXT
  5
44A
330
446
100
AcDbEntity
  8
COTAS
 62
     6
100
AcDbMText
 10
80.79064301218376
 20
153.6203541252696
 30
0.0
 40
1.998306857433339
 41
0.0
 71
     7
 72
     1
  1
\fMyriad Pro|b0|i0|c0|p34;\W1;680
 73
     1
 44
1.0
  0
ENDBLK
  5
449
330
446
100
AcDbEntity
  8
0
100
AcDbBlockEnd
  0
BLOCK
  5
44D
330
44B
100
AcDbEntity
  8
0
100
AcDbBlockBegin
  2
block 139
 70
     0
 71
     0
 10
0.0
 20
0.0
 30
0.0
  3
block 139
  1

  0
POLYLINE
  5
44F
330
44B
100
AcDbEntity
  8
COTAS
370
     0
100
AcDb2dPolyline
 66
     1
 10
0.0
 20
0.0
 30
0.0
  0
VERTEX
  5
450
330
44F
100
AcDbEntity
  8
COTAS
370
     0
100
AcDbVertex
100
AcDb2dVertex
 10
49.7187895684636
 20
173.7647019905111
 30
0.0
  0
VERTEX
  5
451
330
44F
100
AcDbEntity
  8
COTAS
370
     0
100
AcDbVertex
100
AcDb2dVertex
 10
49.7187895684636
 20
173.7647019905111
 30
0.0
  0
SEQEND
  5
452
330
44F
100
AcDbEntity
  8
COTAS
370
     0
  0
ENDBLK
  5
44E
330
44B
100
AcDbEntity
  8
0
100
AcDbBlockEnd
  0
BLOCK
  5
455
330
453
100
AcDbEntity
  8
0
100
AcDbBlockBegin
  2
block 140
 70
     0
 71
     0
 10
0.0
 20
0.0
 30
0.0
  3
block 140
  1

  0
POLYLINE
  5
457
330
453
100
AcDbEntity
  8
COTAS
370
     0
100
AcDb2dPolyline
 66
     1
 10
0.0
 20
0.0
 30
0.0
  0
VERTEX
  5
458
330
457
100
AcDbEntity
  8
COTAS
370
     0
100
AcDbVertex
100
AcDb2dVertex
 10
117.6673139231815
 20
173.7647019905111
 30
0.0
  0
VERTEX
  5
459
330
457
100
AcDbEntity
  8
COTAS
370
     0
100
AcDbVertex
100
AcDb2dVertex
 10
117.6673139231815
 20
173.7647019905111
 30
0.0
  0
SEQEND
  5
45A
330
457
100
AcDbEntity
  8
COTAS
370
     0
  0
ENDBLK
  5
456
330
453
100
AcDbEntity
  8
0
100
AcDbBlockEnd
  0
BLOCK
  5
45D
330
45B
100
AcDbEntity
  8
0
100
AcDbBlockBegin
  2
block 141
 70
     0
 71
     0
 10
0.0
 20
0.0
 30
0.0
  3
block 141
  1

  0
POLYLINE
  5
45F
330
45B
100
AcDbEntity
  8
COTAS
370
     0
100
AcDb2dPolyline
 66
     1
 10
0.0
 20
0.0
 30
0.0
  0
VERTEX
  5
460
330
45F
100
AcDbEntity
  8
COTAS
370
     0
100
AcDbVertex
100
AcDb2dVertex
 10
117.6673139231815
 20
154.6192602201907
 30
0.0
  0
VERTEX
  5
461
330
45F
100
AcDbEntity
  8
COTAS
370
     0
100
AcDbVertex
100
AcDb2dVertex
 10
117.6673139231815
 20
154.6192602201907
 30
0.0
  0
SEQEND
  5
462
330
45F
100
AcDbEntity
  8
COTAS
370
     0
  0
ENDBLK
  5
45E
330
45B
100
AcDbEntity
  8
0
100
AcDbBlockEnd
  0
BLOCK
  5
465
330
463
100
AcDbEntity
  8
0
100
AcDbBlockBegin
  2
block 142
 70
     0
 71
     0
 10
0.0
 20
0.0
 30
0.0
  3
block 142
  1

  0
INSERT
  5
468
330
463
100
AcDbEntity
  8
COTAS
100
AcDbBlockReference
  2
block 143
 10
0.0
 20
0.0
 30
0.0
  0
INSERT
  5
470
330
463
100
AcDbEntity
  8
COTAS
100
AcDbBlockReference
  2
block 144
 10
0.0
 20
0.0
 30
0.0
  0
INSERT
  5
478
330
463
100
AcDbEntity
  8
COTAS
100
AcDbBlockReference
  2
block 145
 10
0.0
 20
0.0
 30
0.0
  0
INSERT
  5
480
330
463
100
AcDbEntity
  8
COTAS
100
AcDbBlockReference
  2
block 146
 10
0.0
 20
0.0
 30
0.0
  0
INSERT
  5
488
330
463
100
AcDbEntity
  8
COTAS
100
AcDbBlockReference
  2
block 147
 10
0.0
 20
0.0
 30
0.0
  0
INSERT
  5
490
330
463
100
AcDbEntity
  8
COTAS
100
AcDbBlockReference
  2
block 148
 10
0.0
 20
0.0
 30
0.0
  0
INSERT
  5
498
330
463
100
AcDbEntity
  8
COTAS
100
AcDbBlockReference
  2
block 149
 10
0.0
 20
0.0
 30
0.0
  0
INSERT
  5
4A3
330
463
100
AcDbEntity
  8
COTAS
100
AcDbBlockReference
  2
block 150
 10
0.0
 20
0.0
 30
0.0
  0
INSERT
  5
4AE
330
463
100
AcDbEntity
  8
COTAS
100
AcDbBlockReference
  2
block 151
 10
0.0
 20
0.0
 30
0.0
  0
INSERT
  5
4B3
330
463
100
AcDbEntity
  8
COTAS
100
AcDbBlockReference
  2
block 152
 10
0.0
 20
0.0
 30
0.0
  0
INSERT
  5
4BB
330
463
100
AcDbEntity
  8
COTAS
100
AcDbBlockReference
  2
block 153
 10
0.0
 20
0.0
 30
0.0
  0
INSERT
  5
4C3
330
463
100
AcDbEntity
  8
COTAS
100
AcDbBlockReference
  2
block 154
 10
0.0
 20
0.0
 30
0.0
  0
ENDBLK
  5
466
330
463
100
AcDbEntity
  8
0
100
AcDbBlockEnd
  0
BLOCK
  5
469
330
467
100
AcDbEntity
  8
0
100
AcDbBlockBegin
  2
block 143
 70
     0
 71
     0
 10
0.0
 20
0.0
 30
0.0
  3
block 143
  1

  0
POLYLINE
  5
46B
330
467
100
AcDbEntity
  8
COTAS
 62
     3
370
    25
100
AcDb2dPolyline
 66
     1
 10
0.0
 20
0.0
 30
0.0
  0
VERTEX
  5
46C
330
46B
100
AcDbEntity
  8
COTAS
 62
     3
370
    25
100
AcDbVertex
100
AcDb2dVertex
 10
37.81322073649959
 20
181.2838001021504
 30
0.0
  0
VERTEX
  5
46D
330
46B
100
AcDbEntity
  8
COTAS
 62
     3
370
    25
100
AcDbVertex
100
AcDb2dVertex
 10
27.40506364503364
 20
181.2838001021504
 30
0.0
  0
SEQEND
  5
46E
330
46B
100
AcDbEntity
  8
COTAS
370
    25
  0
ENDBLK
  5
46A
330
467
100
AcDbEntity
  8
0
100
AcDbBlockEnd
  0
BLOCK
  5
471
330
46F
100
AcDbEntity
  8
0
100
AcDbBlockBegin
  2
block 144
 70
     0
 71
     0
 10
0.0
 20
0.0
 30
0.0
  3
block 144
  1

  0
POLYLINE
  5
473
330
46F
100
AcDbEntity
  8
COTAS
 62
     3
370
    25
100
AcDb2dPolyline
 66
     1
 10
0.0
 20
0.0
 30
0.0
  0
VERTEX
  5
474
330
473
100
AcDbEntity
  8
COTAS
 62
     3
370
    25
100
AcDbVertex
100
AcDb2dVertex
 10
37.23496107782572
 20
173.7647019905111
 30
0.0
  0
VERTEX
  5
475
330
473
100
AcDbEntity
  8
COTAS
 62
     3
370
    25
100
AcDbVertex
100
AcDb2dVertex
 10
27.40506364503364
 20
173.7647019905111
 30
0.0
  0
SEQEND
  5
476
330
473
100
AcDbEntity
  8
COTAS
370
    25
  0
ENDBLK
  5
472
330
46F
100
AcDbEntity
  8
0
100
AcDbBlockEnd
  0
BLOCK
  5
479
330
477
100
AcDbEntity
  8
0
100
AcDbBlockBegin
  2
block 145
 70
     0
 71
     0
 10
0.0
 20
0.0
 30
0.0
  3
block 145
  1

  0
POLYLINE
  5
47B
330
477
100
AcDbEntity
  8
COTAS
 62
     3
370
    25
100
AcDb2dPolyline
 66
     1
 10
0.0
 20
0.0
 30
0.0
  0
VERTEX
  5
47C
330
47B
100
AcDbEntity
  8
COTAS
 62
     3
370
    25
100
AcDbVertex
100
AcDb2dVertex
 10
28.40431424973043
 20
183.7816682315605
 30
0.0
  0
VERTEX
  5
47D
330
47B
100
AcDbEntity
  8
COTAS
 62
     3
370
    25
100
AcDbVertex
100
AcDb2dVertex
 10
28.40431424973043
 20
186.2795363609707
 30
0.0
  0
SEQEND
  5
47E
330
47B
100
AcDbEntity
  8
COTAS
370
    25
  0
ENDBLK
  5
47A
330
477
100
AcDbEntity
  8
0
100
AcDbBlockEnd
  0
BLOCK
  5
481
330
47F
100
AcDbEntity
  8
0
100
AcDbBlockBegin
  2
block 146
 70
     0
 71
     0
 10
0.0
 20
0.0
 30
0.0
  3
block 146
  1

  0
POLYLINE
  5
483
330
47F
100
AcDbEntity
  8
COTAS
 62
     3
370
    25
100
AcDb2dPolyline
 66
     1
 10
0.0
 20
0.0
 30
0.0
  0
VERTEX
  5
484
330
483
100
AcDbEntity
  8
COTAS
 62
     3
370
    25
100
AcDbVertex
100
AcDb2dVertex
 10
28.40431424973043
 20
171.266833861101
 30
0.0
  0
VERTEX
  5
485
330
483
100
AcDbEntity
  8
COTAS
 62
     3
370
    25
100
AcDbVertex
100
AcDb2dVertex
 10
28.40431424973043
 20
168.7689657316909
 30
0.0
  0
SEQEND
  5
486
330
483
100
AcDbEntity
  8
COTAS
370
    25
  0
ENDBLK
  5
482
330
47F
100
AcDbEntity
  8
0
100
AcDbBlockEnd
  0
BLOCK
  5
489
330
487
100
AcDbEntity
  8
0
100
AcDbBlockBegin
  2
block 147
 70
     0
 71
     0
 10
0.0
 20
0.0
 30
0.0
  3
block 147
  1

  0
POLYLINE
  5
48B
330
487
100
AcDbEntity
  8
COTAS
 62
     3
370
    25
100
AcDb2dPolyline
 66
     1
 10
0.0
 20
0.0
 30
0.0
  0
VERTEX
  5
48C
330
48B
100
AcDbEntity
  8
COTAS
 62
     3
370
    25
100
AcDbVertex
100
AcDb2dVertex
 10
28.40431424973043
 20
181.2838001021504
 30
0.0
  0
VERTEX
  5
48D
330
48B
100
AcDbEntity
  8
COTAS
 62
     3
370
    25
100
AcDbVertex
100
AcDb2dVertex
 10
28.40431424973043
 20
180.0222053031848
 30
0.0
  0
SEQEND
  5
48E
330
48B
100
AcDbEntity
  8
COTAS
370
    25
  0
ENDBLK
  5
48A
330
487
100
AcDbEntity
  8
0
100
AcDbBlockEnd
  0
BLOCK
  5
491
330
48F
100
AcDbEntity
  8
0
100
AcDbBlockBegin
  2
block 148
 70
     0
 71
     0
 10
0.0
 20
0.0
 30
0.0
  3
block 148
  1

  0
POLYLINE
  5
493
330
48F
100
AcDbEntity
  8
COTAS
 62
     3
370
    25
100
AcDb2dPolyline
 66
     1
 10
0.0
 20
0.0
 30
0.0
  0
VERTEX
  5
494
330
493
100
AcDbEntity
  8
COTAS
 62
     3
370
    25
100
AcDbVertex
100
AcDb2dVertex
 10
28.40431424973043
 20
173.7647019905111
 30
0.0
  0
VERTEX
  5
495
330
493
100
AcDbEntity
  8
COTAS
 62
     3
370
    25
100
AcDbVertex
100
AcDb2dVertex
 10
28.40431424973043
 20
175.0262967894767
 30
0.0
  0
SEQEND
  5
496
330
493
100
AcDbEntity
  8
COTAS
370
    25
  0
ENDBLK
  5
492
330
48F
100
AcDbEntity
  8
0
100
AcDbBlockEnd
  0
BLOCK
  5
499
330
497
100
AcDbEntity
  8
0
100
AcDbBlockBegin
  2
block 149
 70
     0
 71
     0
 10
0.0
 20
0.0
 30
0.0
  3
block 149
  1

  0
POLYLINE
  5
49B
330
497
100
AcDbEntity
  8
COTAS
370
     0
100
AcDb2dPolyline
 66
     1
 10
0.0
 20
0.0
 30
0.0
  0
VERTEX
  5
49C
330
49B
100
AcDbEntity
  8
COTAS
370
     0
100
AcDbVertex
100
AcDb2dVertex
 10
27.98797418568076
 20
183.7816682315605
 30
0.0
  0
VERTEX
  5
49D
330
49B
100
AcDbEntity
  8
COTAS
370
     0
100
AcDbVertex
100
AcDb2dVertex
 10
28.8206543137801
 20
183.7816682315605
 30
0.0
  0
VERTEX
  5
49E
330
49B
100
AcDbEntity
  8
COTAS
370
     0
100
AcDbVertex
100
AcDb2dVertex
 10
28.40431424973043
 20
181.2838001021504
 30
0.0
  0
VERTEX
  5
49F
330
49B
100
AcDbEntity
  8
COTAS
370
     0
100
AcDbVertex
100
AcDb2dVertex
 10
27.98797418568076
 20
183.7816682315605
 30
0.0
  0
SEQEND
  5
4A0
330
49B
100
AcDbEntity
  8
COTAS
370
     0
  0
HATCH
  5
4A1
330
497
100
AcDbEntity
  8
COTAS
 62
     3
100
AcDbHatch
 10
0.0
 20
0.0
 30
0.0
210
0.0
220
0.0
230
1.0
  2
SOLID
 70
     1
 71
     0
 91
        1
 92
        1
 93
        3
 72
     1
 10
27.98797418568076
 20
183.7816682315605
 11
28.8206543137801
 21
183.7816682315605
 72
     1
 10
28.8206543137801
 20
183.7816682315605
 11
28.40431424973043
 21
181.2838001021504
 72
     1
 10
28.40431424973043
 20
181.2838001021504
 11
27.98797418568076
 21
183.7816682315605
 97
        0
 75
     2
 76
     1
 98
        0
  0
ENDBLK
  5
49A
330
497
100
AcDbEntity
  8
0
100
AcDbBlockEnd
  0
BLOCK
  5
4A4
330
4A2
100
AcDbEntity
  8
0
100
AcDbBlockBegin
  2
block 150
 70
     0
 71
     0
 10
0.0
 20
0.0
 30
0.0
  3
block 150
  1

  0
POLYLINE
  5
4A6
330
4A2
100
AcDbEntity
  8
COTAS
370
     0
100
AcDb2dPolyline
 66
     1
 10
0.0
 20
0.0
 30
0.0
  0
VERTEX
  5
4A7
330
4A6
100
AcDbEntity
  8
COTAS
370
     0
100
AcDbVertex
100
AcDb2dVertex
 10
27.98797418568076
 20
171.266833861101
 30
0.0
  0
VERTEX
  5
4A8
330
4A6
100
AcDbEntity
  8
COTAS
370
     0
100
AcDbVertex
100
AcDb2dVertex
 10
28.8206543137801
 20
171.266833861101
 30
0.0
  0
VERTEX
  5
4A9
330
4A6
100
AcDbEntity
  8
COTAS
370
     0
100
AcDbVertex
100
AcDb2dVertex
 10
28.40431424973043
 20
173.7647019905111
 30
0.0
  0
VERTEX
  5
4AA
330
4A6
100
AcDbEntity
  8
COTAS
370
     0
100
AcDbVertex
100
AcDb2dVertex
 10
27.98797418568076
 20
171.266833861101
 30
0.0
  0
SEQEND
  5
4AB
330
4A6
100
AcDbEntity
  8
COTAS
370
     0
  0
HATCH
  5
4AC
330
4A2
100
AcDbEntity
  8
COTAS
 62
     3
100
AcDbHatch
 10
0.0
 20
0.0
 30
0.0
210
0.0
220
0.0
230
1.0
  2
SOLID
 70
     1
 71
     0
 91
        1
 92
        1
 93
        3
 72
     1
 10
27.98797418568076
 20
171.266833861101
 11
28.8206543137801
 21
171.266833861101
 72
     1
 10
28.8206543137801
 20
171.266833861101
 11
28.40431424973043
 21
173.7647019905111
 72
     1
 10
28.40431424973043
 20
173.7647019905111
 11
27.98797418568076
 21
171.266833861101
 97
        0
 75
     2
 76
     1
 98
        0
  0
ENDBLK
  5
4A5
330
4A2
100
AcDbEntity
  8
0
100
AcDbBlockEnd
  0
BLOCK
  5
4AF
330
4AD
100
AcDbEntity
  8
0
100
AcDbBlockBegin
  2
block 151
 70
     0
 71
     0
 10
0.0
 20
0.0
 30
0.0
  3
block 151
  1

  0
MTEXT
  5
4B1
330
4AD
100
AcDbEntity
  8
COTAS
 62
     6
100
AcDbMText
 10
26.50106999334449
 20
176.5250865690779
 30
0.0
 40
1.998306857433339
 41
0.0
 71
     7
 72
     1
  1
\fMyriad Pro|b0|i0|c0|p34;\W1;75
 73
     1
 44
1.0
  0
ENDBLK
  5
4B0
330
4AD
100
AcDbEntity
  8
0
100
AcDbBlockEnd
  0
BLOCK
  5
4B4
330
4B2
100
AcDbEntity
  8
0
100
AcDbBlockBegin
  2
block 152
 70
     0
 71
     0
 10
0.0
 20
0.0
 30
0.0
  3
block 152
  1

  0
POLYLINE
  5
4B6
330
4B2
100
AcDbEntity
  8
COTAS
370
     0
100
AcDb2dPolyline
 66
     1
 10
0.0
 20
0.0
 30
0.0
  0
VERTEX
  5
4B7
330
4B6
100
AcDbEntity
  8
COTAS
370
     0
100
AcDbVertex
100
AcDb2dVertex
 10
39.31201051610083
 20
181.2838001021504
 30
0.0
  0
VERTEX
  5
4B8
330
4B6
100
AcDbEntity
  8
COTAS
370
     0
100
AcDbVertex
100
AcDb2dVertex
 10
39.31201051610083
 20
181.2838001021504
 30
0.0
  0
SEQEND
  5
4B9
330
4B6
100
AcDbEntity
  8
COTAS
370
     0
  0
ENDBLK
  5
4B5
330
4B2
100
AcDbEntity
  8
0
100
AcDbBlockEnd
  0
BLOCK
  5
4BC
330
4BA
100
AcDbEntity
  8
0
100
AcDbBlockBegin
  2
block 153
 70
     0
 71
     0
 10
0.0
 20
0.0
 30
0.0
  3
block 153
  1

  0
POLYLINE
  5
4BE
330
4BA
100
AcDbEntity
  8
COTAS
370
     0
100
AcDb2dPolyline
 66
     1
 10
0.0
 20
0.0
 30
0.0
  0
VERTEX
  5
4BF
330
4BE
100
AcDbEntity
  8
COTAS
370
     0
100
AcDbVertex
100
AcDb2dVertex
 10
38.73357860253906
 20
173.7647019905111
 30
0.0
  0
VERTEX
  5
4C0
330
4BE
100
AcDbEntity
  8
COTAS
370
     0
100
AcDbVertex
100
AcDb2dVertex
 10
38.73357860253906
 20
173.7647019905111
 30
0.0
  0
SEQEND
  5
4C1
330
4BE
100
AcDbEntity
  8
COTAS
370
     0
  0
ENDBLK
  5
4BD
330
4BA
100
AcDbEntity
  8
0
100
AcDbBlockEnd
  0
BLOCK
  5
4C4
330
4C2
100
AcDbEntity
  8
0
100
AcDbBlockBegin
  2
block 154
 70
     0
 71
     0
 10
0.0
 20
0.0
 30
0.0
  3
block 154
  1

  0
POLYLINE
  5
4C6
330
4C2
100
AcDbEntity
  8
COTAS
370
     0
100
AcDb2dPolyline
 66
     1
 10
0.0
 20
0.0
 30
0.0
  0
VERTEX
  5
4C7
330
4C6
100
AcDbEntity
  8
COTAS
370
     0
100
AcDbVertex
100
AcDb2dVertex
 10
28.40431424973043
 20
173.7647019905111
 30
0.0
  0
VERTEX
  5
4C8
330
4C6
100
AcDbEntity
  8
COTAS
370
     0
100
AcDbVertex
100
AcDb2dVertex
 10
28.40431424973043
 20
173.7647019905111
 30
0.0
  0
SEQEND
  5
4C9
330
4C6
100
AcDbEntity
  8
COTAS
370
     0
  0
ENDBLK
  5
4C5
330
4C2
100
AcDbEntity
  8
0
100
AcDbBlockEnd
  0
BLOCK
  5
4CC
330
4CA
100
AcDbEntity
  8
0
100
AcDbBlockBegin
  2
block 155
 70
     0
 71
     0
 10
0.0
 20
0.0
 30
0.0
  3
block 155
  1

  0
INSERT
  5
4CF
330
4CA
100
AcDbEntity
  8
COTAS
100
AcDbBlockReference
  2
block 156
 10
0.0
 20
0.0
 30
0.0
  0
INSERT
  5
4D7
330
4CA
100
AcDbEntity
  8
COTAS
100
AcDbBlockReference
  2
block 157
 10
0.0
 20
0.0
 30
0.0
  0
INSERT
  5
4DF
330
4CA
100
AcDbEntity
  8
COTAS
100
AcDbBlockReference
  2
block 158
 10
0.0
 20
0.0
 30
0.0
  0
INSERT
  5
4E7
330
4CA
100
AcDbEntity
  8
COTAS
100
AcDbBlockReference
  2
block 159
 10
0.0
 20
0.0
 30
0.0
  0
INSERT
  5
4EF
330
4CA
100
AcDbEntity
  8
COTAS
100
AcDbBlockReference
  2
block 160
 10
0.0
 20
0.0
 30
0.0
  0
INSERT
  5
4FA
330
4CA
100
AcDbEntity
  8
COTAS
100
AcDbBlockReference
  2
block 161
 10
0.0
 20
0.0
 30
0.0
  0
INSERT
  5
505
330
4CA
100
AcDbEntity
  8
COTAS
100
AcDbBlockReference
  2
block 162
 10
0.0
 20
0.0
 30
0.0
  0
INSERT
  5
50A
330
4CA
100
AcDbEntity
  8
COTAS
100
AcDbBlockReference
  2
block 163
 10
0.0
 20
0.0
 30
0.0
  0
INSERT
  5
512
330
4CA
100
AcDbEntity
  8
COTAS
100
AcDbBlockReference
  2
block 164
 10
0.0
 20
0.0
 30
0.0
  0
INSERT
  5
51A
330
4CA
100
AcDbEntity
  8
COTAS
100
AcDbBlockReference
  2
block 165
 10
0.0
 20
0.0
 30
0.0
  0
ENDBLK
  5
4CD
330
4CA
100
AcDbEntity
  8
0
100
AcDbBlockEnd
  0
BLOCK
  5
4D0
330
4CE
100
AcDbEntity
  8
0
100
AcDbBlockBegin
  2
block 156
 70
     0
 71
     0
 10
0.0
 20
0.0
 30
0.0
  3
block 156
  1

  0
POLYLINE
  5
4D2
330
4CE
100
AcDbEntity
  8
COTAS
 62
     3
370
    25
100
AcDb2dPolyline
 66
     1
 10
0.0
 20
0.0
 30
0.0
  0
VERTEX
  5
4D3
330
4D2
100
AcDbEntity
  8
COTAS
 62
     3
370
    25
100
AcDbVertex
100
AcDb2dVertex
 10
160.4144314137459
 20
172.2659122109099
 30
0.0
  0
VERTEX
  5
4D4
330
4D2
100
AcDbEntity
  8
COTAS
 62
     3
370
    25
100
AcDbVertex
100
AcDb2dVertex
 10
160.4144314137459
 20
155.786631595476
 30
0.0
  0
SEQEND
  5
4D5
330
4D2
100
AcDbEntity
  8
COTAS
370
    25
  0
ENDBLK
  5
4D1
330
4CE
100
AcDbEntity
  8
0
100
AcDbBlockEnd
  0
BLOCK
  5
4D8
330
4D6
100
AcDbEntity
  8
0
100
AcDbBlockBegin
  2
block 157
 70
     0
 71
     0
 10
0.0
 20
0.0
 30
0.0
  3
block 157
  1

  0
POLYLINE
  5
4DA
330
4D6
100
AcDbEntity
  8
COTAS
 62
     3
370
    25
100
AcDb2dPolyline
 66
     1
 10
0.0
 20
0.0
 30
0.0
  0
VERTEX
  5
4DB
330
4DA
100
AcDbEntity
  8
COTAS
 62
     3
370
    25
100
AcDbVertex
100
AcDb2dVertex
 10
195.7969634271156
 20
172.0814272259711
 30
0.0
  0
VERTEX
  5
4DC
330
4DA
100
AcDbEntity
  8
COTAS
 62
     3
370
    25
100
AcDbVertex
100
AcDb2dVertex
 10
195.7969634271156
 20
155.786631595476
 30
0.0
  0
SEQEND
  5
4DD
330
4DA
100
AcDbEntity
  8
COTAS
370
    25
  0
ENDBLK
  5
4D9
330
4D6
100
AcDbEntity
  8
0
100
AcDbBlockEnd
  0
BLOCK
  5
4E0
330
4DE
100
AcDbEntity
  8
0
100
AcDbBlockBegin
  2
block 158
 70
     0
 71
     0
 10
0.0
 20
0.0
 30
0.0
  3
block 158
  1

  0
POLYLINE
  5
4E2
330
4DE
100
AcDbEntity
  8
COTAS
 62
     3
370
    25
100
AcDb2dPolyline
 66
     1
 10
0.0
 20
0.0
 30
0.0
  0
VERTEX
  5
4E3
330
4E2
100
AcDbEntity
  8
COTAS
 62
     3
370
    25
100
AcDbVertex
100
AcDb2dVertex
 10
162.9121272882681
 20
156.7858822001728
 30
0.0
  0
VERTEX
  5
4E4
330
4E2
100
AcDbEntity
  8
COTAS
 62
     3
370
    25
100
AcDbVertex
100
AcDb2dVertex
 10
173.9901836387697
 20
156.7858822001728
 30
0.0
  0
SEQEND
  5
4E5
330
4E2
100
AcDbEntity
  8
COTAS
370
    25
  0
ENDBLK
  5
4E1
330
4DE
100
AcDbEntity
  8
0
100
AcDbBlockEnd
  0
BLOCK
  5
4E8
330
4E6
100
AcDbEntity
  8
0
100
AcDbBlockBegin
  2
block 159
 70
     0
 71
     0
 10
0.0
 20
0.0
 30
0.0
  3
block 159
  1

  0
POLYLINE
  5
4EA
330
4E6
100
AcDbEntity
  8
COTAS
 62
     3
370
    25
100
AcDb2dPolyline
 66
     1
 10
0.0
 20
0.0
 30
0.0
  0
VERTEX
  5
4EB
330
4EA
100
AcDbEntity
  8
COTAS
 62
     3
370
    25
100
AcDbVertex
100
AcDb2dVertex
 10
193.2992675525934
 20
156.7858822001728
 30
0.0
  0
VERTEX
  5
4EC
330
4EA
100
AcDbEntity
  8
COTAS
 62
     3
370
    25
100
AcDbVertex
100
AcDb2dVertex
 10
182.2212112020918
 20
156.7858822001728
 30
0.0
  0
SEQEND
  5
4ED
330
4EA
100
AcDbEntity
  8
COTAS
370
    25
  0
ENDBLK
  5
4E9
330
4E6
100
AcDbEntity
  8
0
100
AcDbBlockEnd
  0
BLOCK
  5
4F0
330
4EE
100
AcDbEntity
  8
0
100
AcDbBlockBegin
  2
block 160
 70
     0
 71
     0
 10
0.0
 20
0.0
 30
0.0
  3
block 160
  1

  0
POLYLINE
  5
4F2
330
4EE
100
AcDbEntity
  8
COTAS
370
     0
100
AcDb2dPolyline
 66
     1
 10
0.0
 20
0.0
 30
0.0
  0
VERTEX
  5
4F3
330
4F2
100
AcDbEntity
  8
COTAS
370
     0
100
AcDbVertex
100
AcDb2dVertex
 10
162.9121272882681
 20
157.2022222642224
 30
0.0
  0
VERTEX
  5
4F4
330
4F2
100
AcDbEntity
  8
COTAS
370
     0
100
AcDbVertex
100
AcDb2dVertex
 10
162.9121272882681
 20
156.3695421361231
 30
0.0
  0
VERTEX
  5
4F5
330
4F2
100
AcDbEntity
  8
COTAS
370
     0
100
AcDbVertex
100
AcDb2dVertex
 10
160.4144314137459
 20
156.7858822001728
 30
0.0
  0
VERTEX
  5
4F6
330
4F2
100
AcDbEntity
  8
COTAS
370
     0
100
AcDbVertex
100
AcDb2dVertex
 10
162.9121272882681
 20
157.2022222642224
 30
0.0
  0
SEQEND
  5
4F7
330
4F2
100
AcDbEntity
  8
COTAS
370
     0
  0
HATCH
  5
4F8
330
4EE
100
AcDbEntity
  8
COTAS
 62
     3
100
AcDbHatch
 10
0.0
 20
0.0
 30
0.0
210
0.0
220
0.0
230
1.0
  2
SOLID
 70
     1
 71
     0
 91
        1
 92
        1
 93
        3
 72
     1
 10
162.9121272882681
 20
157.2022222642224
 11
162.9121272882681
 21
156.3695421361231
 72
     1
 10
162.9121272882681
 20
156.3695421361231
 11
160.4144314137459
 21
156.7858822001728
 72
     1
 10
160.4144314137459
 20
156.7858822001728
 11
162.9121272882681
 21
157.2022222642224
 97
        0
 75
     2
 76
     1
 98
        0
  0
ENDBLK
  5
4F1
330
4EE
100
AcDbEntity
  8
0
100
AcDbBlockEnd
  0
BLOCK
  5
4FB
330
4F9
100
AcDbEntity
  8
0
100
AcDbBlockBegin
  2
block 161
 70
     0
 71
     0
 10
0.0
 20
0.0
 30
0.0
  3
block 161
  1

  0
POLYLINE
  5
4FD
330
4F9
100
AcDbEntity
  8
COTAS
370
     0
100
AcDb2dPolyline
 66
     1
 10
0.0
 20
0.0
 30
0.0
  0
VERTEX
  5
4FE
330
4FD
100
AcDbEntity
  8
COTAS
370
     0
100
AcDbVertex
100
AcDb2dVertex
 10
193.2992675525934
 20
157.2022222642224
 30
0.0
  0
VERTEX
  5
4FF
330
4FD
100
AcDbEntity
  8
COTAS
370
     0
100
AcDbVertex
100
AcDb2dVertex
 10
193.2992675525934
 20
156.3695421361231
 30
0.0
  0
VERTEX
  5
500
330
4FD
100
AcDbEntity
  8
COTAS
370
     0
100
AcDbVertex
100
AcDb2dVertex
 10
195.7969634271156
 20
156.7858822001728
 30
0.0
  0
VERTEX
  5
501
330
4FD
100
AcDbEntity
  8
COTAS
370
     0
100
AcDbVertex
100
AcDb2dVertex
 10
193.2992675525934
 20
157.2022222642224
 30
0.0
  0
SEQEND
  5
502
330
4FD
100
AcDbEntity
  8
COTAS
370
     0
  0
HATCH
  5
503
330
4F9
100
AcDbEntity
  8
COTAS
 62
     3
100
AcDbHatch
 10
0.0
 20
0.0
 30
0.0
210
0.0
220
0.0
230
1.0
  2
SOLID
 70
     1
 71
     0
 91
        1
 92
        1
 93
        3
 72
     1
 10
193.2992675525934
 20
157.2022222642224
 11
193.2992675525934
 21
156.3695421361231
 72
     1
 10
193.2992675525934
 20
156.3695421361231
 11
195.7969634271156
 21
156.7858822001728
 72
     1
 10
195.7969634271156
 20
156.7858822001728
 11
193.2992675525934
 21
157.2022222642224
 97
        0
 75
     2
 76
     1
 98
        0
  0
ENDBLK
  5
4FC
330
4F9
100
AcDbEntity
  8
0
100
AcDbBlockEnd
  0
BLOCK
  5
506
330
504
100
AcDbEntity
  8
0
100
AcDbBlockBegin
  2
block 162
 70
     0
 71
     0
 10
0.0
 20
0.0
 30
0.0
  3
block 162
  1

  0
MTEXT
  5
508
330
504
100
AcDbEntity
  8
COTAS
 62
     6
100
AcDbMText
 10
175.203202559348
 20
155.786631595476
 30
0.0
 40
1.998306857433339
 41
0.0
 71
     7
 72
     1
  1
\fMyriad Pro|b0|i0|c0|p34;\W1;354
 73
     1
 44
1.0
  0
ENDBLK
  5
507
330
504
100
AcDbEntity
  8
0
100
AcDbBlockEnd
  0
BLOCK
  5
50B
330
509
100
AcDbEntity
  8
0
100
AcDbBlockBegin
  2
block 163
 70
     0
 71
     0
 10
0.0
 20
0.0
 30
0.0
  3
block 163
  1

  0
POLYLINE
  5
50D
330
509
100
AcDbEntity
  8
COTAS
370
     0
100
AcDb2dPolyline
 66
     1
 10
0.0
 20
0.0
 30
0.0
  0
VERTEX
  5
50E
330
50D
100
AcDbEntity
  8
COTAS
370
     0
100
AcDbVertex
100
AcDb2dVertex
 10
160.4144314137459
 20
173.7647019905111
 30
0.0
  0
VERTEX
  5
50F
330
50D
100
AcDbEntity
  8
COTAS
370
     0
100
AcDbVertex
100
AcDb2dVertex
 10
160.4144314137459
 20
173.7647019905111
 30
0.0
  0
SEQEND
  5
510
330
50D
100
AcDbEntity
  8
COTAS
370
     0
  0
ENDBLK
  5
50C
330
509
100
AcDbEntity
  8
0
100
AcDbBlockEnd
  0
BLOCK
  5
513
330
511
100
AcDbEntity
  8
0
100
AcDbBlockBegin
  2
block 164
 70
     0
 71
     0
 10
0.0
 20
0.0
 30
0.0
  3
block 164
  1

  0
POLYLINE
  5
515
330
511
100
AcDbEntity
  8
COTAS
370
     0
100
AcDb2dPolyline
 66
     1
 10
0.0
 20
0.0
 30
0.0
  0
VERTEX
  5
516
330
515
100
AcDbEntity
  8
COTAS
370
     0
100
AcDbVertex
100
AcDb2dVertex
 10
195.7969634271156
 20
173.5802170055723
 30
0.0
  0
VERTEX
  5
517
330
515
100
AcDbEntity
  8
COTAS
370
     0
100
AcDbVertex
100
AcDb2dVertex
 10
195.7969634271156
 20
173.5802170055723
 30
0.0
  0
SEQEND
  5
518
330
515
100
AcDbEntity
  8
COTAS
370
     0
  0
ENDBLK
  5
514
330
511
100
AcDbEntity
  8
0
100
AcDbBlockEnd
  0
BLOCK
  5
51B
330
519
100
AcDbEntity
  8
0
100
AcDbBlockBegin
  2
block 165
 70
     0
 71
     0
 10
0.0
 20
0.0
 30
0.0
  3
block 165
  1

  0
POLYLINE
  5
51D
330
519
100
AcDbEntity
  8
COTAS
370
     0
100
AcDb2dPolyline
 66
     1
 10
0.0
 20
0.0
 30
0.0
  0
VERTEX
  5
51E
330
51D
100
AcDbEntity
  8
COTAS
370
     0
100
AcDbVertex
100
AcDb2dVertex
 10
195.7969634271156
 20
156.7858822001728
 30
0.0
  0
VERTEX
  5
51F
330
51D
100
AcDbEntity
  8
COTAS
370
     0
100
AcDbVertex
100
AcDb2dVertex
 10
195.7969634271156
 20
156.7858822001728
 30
0.0
  0
SEQEND
  5
520
330
51D
100
AcDbEntity
  8
COTAS
370
     0
  0
ENDBLK
  5
51C
330
519
100
AcDbEntity
  8
0
100
AcDbBlockEnd
  0
BLOCK
  5
523
330
521
100
AcDbEntity
  8
0
100
AcDbBlockBegin
  2
block 166
 70
     0
 71
     0
 10
0.0
 20
0.0
 30
0.0
  3
block 166
  1

  0
INSERT
  5
526
330
521
100
AcDbEntity
  8
COTAS
100
AcDbBlockReference
  2
block 167
 10
0.0
 20
0.0
 30
0.0
  0
INSERT
  5
52E
330
521
100
AcDbEntity
  8
COTAS
100
AcDbBlockReference
  2
block 168
 10
0.0
 20
0.0
 30
0.0
  0
INSERT
  5
536
330
521
100
AcDbEntity
  8
COTAS
100
AcDbBlockReference
  2
block 169
 10
0.0
 20
0.0
 30
0.0
  0
INSERT
  5
53E
330
521
100
AcDbEntity
  8
COTAS
100
AcDbBlockReference
  2
block 170
 10
0.0
 20
0.0
 30
0.0
  0
INSERT
  5
546
330
521
100
AcDbEntity
  8
COTAS
100
AcDbBlockReference
  2
block 171
 10
0.0
 20
0.0
 30
0.0
  0
INSERT
  5
551
330
521
100
AcDbEntity
  8
COTAS
100
AcDbBlockReference
  2
block 172
 10
0.0
 20
0.0
 30
0.0
  0
INSERT
  5
55C
330
521
100
AcDbEntity
  8
COTAS
100
AcDbBlockReference
  2
block 173
 10
0.0
 20
0.0
 30
0.0
  0
INSERT
  5
561
330
521
100
AcDbEntity
  8
COTAS
100
AcDbBlockReference
  2
block 174
 10
0.0
 20
0.0
 30
0.0
  0
INSERT
  5
569
330
521
100
AcDbEntity
  8
COTAS
100
AcDbBlockReference
  2
block 175
 10
0.0
 20
0.0
 30
0.0
  0
INSERT
  5
571
330
521
100
AcDbEntity
  8
COTAS
100
AcDbBlockReference
  2
block 176
 10
0.0
 20
0.0
 30
0.0
  0
ENDBLK
  5
524
330
521
100
AcDbEntity
  8
0
100
AcDbBlockEnd
  0
BLOCK
  5
527
330
525
100
AcDbEntity
  8
0
100
AcDbBlockBegin
  2
block 167
 70
     0
 71
     0
 10
0.0
 20
0.0
 30
0.0
  3
block 167
  1

  0
POLYLINE
  5
529
330
525
100
AcDbEntity
  8
COTAS
 62
     3
370
    25
100
AcDb2dPolyline
 66
     1
 10
0.0
 20
0.0
 30
0.0
  0
VERTEX
  5
52A
330
529
100
AcDbEntity
  8
COTAS
 62
     3
370
    25
100
AcDbVertex
100
AcDb2dVertex
 10
158.3391045243498
 20
178.7604382493314
 30
0.0
  0
VERTEX
  5
52B
330
529
100
AcDbEntity
  8
COTAS
 62
     3
370
    25
100
AcDbVertex
100
AcDb2dVertex
 10
158.3391045243498
 20
192.2028651911221
 30
0.0
  0
SEQEND
  5
52C
330
529
100
AcDbEntity
  8
COTAS
370
    25
  0
ENDBLK
  5
528
330
525
100
AcDbEntity
  8
0
100
AcDbBlockEnd
  0
BLOCK
  5
52F
330
52D
100
AcDbEntity
  8
0
100
AcDbBlockBegin
  2
block 168
 70
     0
 71
     0
 10
0.0
 20
0.0
 30
0.0
  3
block 168
  1

  0
POLYLINE
  5
531
330
52D
100
AcDbEntity
  8
COTAS
 62
     3
370
    25
100
AcDb2dPolyline
 66
     1
 10
0.0
 20
0.0
 30
0.0
  0
VERTEX
  5
532
330
531
100
AcDbEntity
  8
COTAS
 62
     3
370
    25
100
AcDbVertex
100
AcDb2dVertex
 10
178.3220495596308
 20
189.2998535653757
 30
0.0
  0
VERTEX
  5
533
330
531
100
AcDbEntity
  8
COTAS
 62
     3
370
    25
100
AcDbVertex
100
AcDb2dVertex
 10
178.3220495596308
 20
192.2028651911221
 30
0.0
  0
SEQEND
  5
534
330
531
100
AcDbEntity
  8
COTAS
370
    25
  0
ENDBLK
  5
530
330
52D
100
AcDbEntity
  8
0
100
AcDbBlockEnd
  0
BLOCK
  5
537
330
535
100
AcDbEntity
  8
0
100
AcDbBlockBegin
  2
block 169
 70
     0
 71
     0
 10
0.0
 20
0.0
 30
0.0
  3
block 169
  1

  0
POLYLINE
  5
539
330
535
100
AcDbEntity
  8
COTAS
 62
     3
370
    25
100
AcDb2dPolyline
 66
     1
 10
0.0
 20
0.0
 30
0.0
  0
VERTEX
  5
53A
330
539
100
AcDbEntity
  8
COTAS
 62
     3
370
    25
100
AcDbVertex
100
AcDb2dVertex
 10
160.836800398872
 20
191.2037868413132
 30
0.0
  0
VERTEX
  5
53B
330
539
100
AcDbEntity
  8
COTAS
 62
     3
370
    25
100
AcDbVertex
100
AcDb2dVertex
 10
164.2626056093891
 20
191.2037868413132
 30
0.0
  0
SEQEND
  5
53C
330
539
100
AcDbEntity
  8
COTAS
370
    25
  0
ENDBLK
  5
538
330
535
100
AcDbEntity
  8
0
100
AcDbBlockEnd
  0
BLOCK
  5
53F
330
53D
100
AcDbEntity
  8
0
100
AcDbBlockBegin
  2
block 170
 70
     0
 71
     0
 10
0.0
 20
0.0
 30
0.0
  3
block 170
  1

  0
POLYLINE
  5
541
330
53D
100
AcDbEntity
  8
COTAS
 62
     3
370
    25
100
AcDb2dPolyline
 66
     1
 10
0.0
 20
0.0
 30
0.0
  0
VERTEX
  5
542
330
541
100
AcDbEntity
  8
COTAS
 62
     3
370
    25
100
AcDbVertex
100
AcDb2dVertex
 10
175.8240091753327
 20
191.2037868413132
 30
0.0
  0
VERTEX
  5
543
330
541
100
AcDbEntity
  8
COTAS
 62
     3
370
    25
100
AcDbVertex
100
AcDb2dVertex
 10
172.3985484745914
 20
191.2037868413132
 30
0.0
  0
SEQEND
  5
544
330
541
100
AcDbEntity
  8
COTAS
370
    25
  0
ENDBLK
  5
540
330
53D
100
AcDbEntity
  8
0
100
AcDbBlockEnd
  0
BLOCK
  5
547
330
545
100
AcDbEntity
  8
0
100
AcDbBlockBegin
  2
block 171
 70
     0
 71
     0
 10
0.0
 20
0.0
 30
0.0
  3
block 171
  1

  0
POLYLINE
  5
549
330
545
100
AcDbEntity
  8
COTAS
370
     0
100
AcDb2dPolyline
 66
     1
 10
0.0
 20
0.0
 30
0.0
  0
VERTEX
  5
54A
330
549
100
AcDbEntity
  8
COTAS
370
     0
100
AcDbVertex
100
AcDb2dVertex
 10
160.836800398872
 20
191.6201269053629
 30
0.0
  0
VERTEX
  5
54B
330
549
100
AcDbEntity
  8
COTAS
370
     0
100
AcDbVertex
100
AcDb2dVertex
 10
160.836800398872
 20
190.7874467772635
 30
0.0
  0
VERTEX
  5
54C
330
549
100
AcDbEntity
  8
COTAS
370
     0
100
AcDbVertex
100
AcDb2dVertex
 10
158.3391045243498
 20
191.2037868413132
 30
0.0
  0
VERTEX
  5
54D
330
549
100
AcDbEntity
  8
COTAS
370
     0
100
AcDbVertex
100
AcDb2dVertex
 10
160.836800398872
 20
191.6201269053629
 30
0.0
  0
SEQEND
  5
54E
330
549
100
AcDbEntity
  8
COTAS
370
     0
  0
HATCH
  5
54F
330
545
100
AcDbEntity
  8
COTAS
 62
     3
100
AcDbHatch
 10
0.0
 20
0.0
 30
0.0
210
0.0
220
0.0
230
1.0
  2
SOLID
 70
     1
 71
     0
 91
        1
 92
        1
 93
        3
 72
     1
 10
160.836800398872
 20
191.6201269053629
 11
160.836800398872
 21
190.7874467772635
 72
     1
 10
160.836800398872
 20
190.7874467772635
 11
158.3391045243498
 21
191.2037868413132
 72
     1
 10
158.3391045243498
 20
191.2037868413132
 11
160.836800398872
 21
191.6201269053629
 97
        0
 75
     2
 76
     1
 98
        0
  0
ENDBLK
  5
548
330
545
100
AcDbEntity
  8
0
100
AcDbBlockEnd
  0
BLOCK
  5
552
330
550
100
AcDbEntity
  8
0
100
AcDbBlockBegin
  2
block 172
 70
     0
 71
     0
 10
0.0
 20
0.0
 30
0.0
  3
block 172
  1

  0
POLYLINE
  5
554
330
550
100
AcDbEntity
  8
COTAS
370
     0
100
AcDb2dPolyline
 66
     1
 10
0.0
 20
0.0
 30
0.0
  0
VERTEX
  5
555
330
554
100
AcDbEntity
  8
COTAS
370
     0
100
AcDbVertex
100
AcDb2dVertex
 10
175.8240091753327
 20
191.6201269053629
 30
0.0
  0
VERTEX
  5
556
330
554
100
AcDbEntity
  8
COTAS
370
     0
100
AcDbVertex
100
AcDb2dVertex
 10
175.8240091753327
 20
190.7874467772635
 30
0.0
  0
VERTEX
  5
557
330
554
100
AcDbEntity
  8
COTAS
370
     0
100
AcDbVertex
100
AcDb2dVertex
 10
178.3220495596308
 20
191.2037868413132
 30
0.0
  0
VERTEX
  5
558
330
554
100
AcDbEntity
  8
COTAS
370
     0
100
AcDbVertex
100
AcDb2dVertex
 10
175.8240091753327
 20
191.6201269053629
 30
0.0
  0
SEQEND
  5
559
330
554
100
AcDbEntity
  8
COTAS
370
     0
  0
HATCH
  5
55A
330
550
100
AcDbEntity
  8
COTAS
 62
     3
100
AcDbHatch
 10
0.0
 20
0.0
 30
0.0
210
0.0
220
0.0
230
1.0
  2
SOLID
 70
     1
 71
     0
 91
        1
 92
        1
 93
        3
 72
     1
 10
175.8240091753327
 20
191.6201269053629
 11
175.8240091753327
 21
190.7874467772635
 72
     1
 10
175.8240091753327
 20
190.7874467772635
 11
178.3220495596308
 21
191.2037868413132
 72
     1
 10
178.3220495596308
 20
191.2037868413132
 11
175.8240091753327
 21
191.6201269053629
 97
        0
 75
     2
 76
     1
 98
        0
  0
ENDBLK
  5
553
330
550
100
AcDbEntity
  8
0
100
AcDbBlockEnd
  0
BLOCK
  5
55D
330
55B
100
AcDbEntity
  8
0
100
AcDbBlockBegin
  2
block 173
 70
     0
 71
     0
 10
0.0
 20
0.0
 30
0.0
  3
block 173
  1

  0
MTEXT
  5
55F
330
55B
100
AcDbEntity
  8
COTAS
 62
     6
100
AcDbMText
 10
165.4756245299674
 20
190.2045362366164
 30
0.0
 40
1.998306857433339
 41
0.0
 71
     7
 72
     1
  1
\fMyriad Pro|b0|i0|c0|p34;\W1;200
 73
     1
 44
1.0
  0
ENDBLK
  5
55E
330
55B
100
AcDbEntity
  8
0
100
AcDbBlockEnd
  0
BLOCK
  5
562
330
560
100
AcDbEntity
  8
0
100
AcDbBlockBegin
  2
block 174
 70
     0
 71
     0
 10
0.0
 20
0.0
 30
0.0
  3
block 174
  1

  0
POLYLINE
  5
564
330
560
100
AcDbEntity
  8
COTAS
370
     0
100
AcDb2dPolyline
 66
     1
 10
0.0
 20
0.0
 30
0.0
  0
VERTEX
  5
565
330
564
100
AcDbEntity
  8
COTAS
370
     0
100
AcDbVertex
100
AcDb2dVertex
 10
158.3391045243498
 20
177.2616484697301
 30
0.0
  0
VERTEX
  5
566
330
564
100
AcDbEntity
  8
COTAS
370
     0
100
AcDbVertex
100
AcDb2dVertex
 10
158.3391045243498
 20
177.2616484697301
 30
0.0
  0
SEQEND
  5
567
330
564
100
AcDbEntity
  8
COTAS
370
     0
  0
ENDBLK
  5
563
330
560
100
AcDbEntity
  8
0
100
AcDbBlockEnd
  0
BLOCK
  5
56A
330
568
100
AcDbEntity
  8
0
100
AcDbBlockBegin
  2
block 175
 70
     0
 71
     0
 10
0.0
 20
0.0
 30
0.0
  3
block 175
  1

  0
POLYLINE
  5
56C
330
568
100
AcDbEntity
  8
COTAS
370
     0
100
AcDb2dPolyline
 66
     1
 10
0.0
 20
0.0
 30
0.0
  0
VERTEX
  5
56D
330
56C
100
AcDbEntity
  8
COTAS
370
     0
100
AcDbVertex
100
AcDb2dVertex
 10
178.3220495596308
 20
187.8012360406623
 30
0.0
  0
VERTEX
  5
56E
330
56C
100
AcDbEntity
  8
COTAS
370
     0
100
AcDbVertex
100
AcDb2dVertex
 10
178.3220495596308
 20
187.8012360406623
 30
0.0
  0
SEQEND
  5
56F
330
56C
100
AcDbEntity
  8
COTAS
370
     0
  0
ENDBLK
  5
56B
330
568
100
AcDbEntity
  8
0
100
AcDbBlockEnd
  0
BLOCK
  5
572
330
570
100
AcDbEntity
  8
0
100
AcDbBlockBegin
  2
block 176
 70
     0
 71
     0
 10
0.0
 20
0.0
 30
0.0
  3
block 176
  1

  0
POLYLINE
  5
574
330
570
100
AcDbEntity
  8
COTAS
370
     0
100
AcDb2dPolyline
 66
     1
 10
0.0
 20
0.0
 30
0.0
  0
VERTEX
  5
575
330
574
100
AcDbEntity
  8
COTAS
370
     0
100
AcDbVertex
100
AcDb2dVertex
 10
178.3220495596308
 20
191.2037868413132
 30
0.0
  0
VERTEX
  5
576
330
574
100
AcDbEntity
  8
COTAS
370
     0
100
AcDbVertex
100
AcDb2dVertex
 10
178.3220495596308
 20
191.2037868413132
 30
0.0
  0
SEQEND
  5
577
330
574
100
AcDbEntity
  8
COTAS
370
     0
  0
ENDBLK
  5
573
330
570
100
AcDbEntity
  8
0
100
AcDbBlockEnd
  0
BLOCK
  5
57A
330
578
100
AcDbEntity
  8
0
100
AcDbBlockBegin
  2
block 177
 70
     0
 71
     0
 10
0.0
 20
0.0
 30
0.0
  3
block 177
  1

  0
INSERT
  5
57D
330
578
100
AcDbEntity
  8
COTAS
100
AcDbBlockReference
  2
block 178
 10
0.0
 20
0.0
 30
0.0
  0
INSERT
  5
585
330
578
100
AcDbEntity
  8
COTAS
100
AcDbBlockReference
  2
block 179
 10
0.0
 20
0.0
 30
0.0
  0
INSERT
  5
58D
330
578
100
AcDbEntity
  8
COTAS
100
AcDbBlockReference
  2
block 180
 10
0.0
 20
0.0
 30
0.0
  0
INSERT
  5
595
330
578
100
AcDbEntity
  8
COTAS
100
AcDbBlockReference
  2
block 181
 10
0.0
 20
0.0
 30
0.0
  0
INSERT
  5
59D
330
578
100
AcDbEntity
  8
COTAS
100
AcDbBlockReference
  2
block 182
 10
0.0
 20
0.0
 30
0.0
  0
INSERT
  5
5A5
330
578
100
AcDbEntity
  8
COTAS
100
AcDbBlockReference
  2
block 183
 10
0.0
 20
0.0
 30
0.0
  0
INSERT
  5
5B0
330
578
100
AcDbEntity
  8
COTAS
100
AcDbBlockReference
  2
block 184
 10
0.0
 20
0.0
 30
0.0
  0
INSERT
  5
5BB
330
578
100
AcDbEntity
  8
COTAS
100
AcDbBlockReference
  2
block 185
 10
0.0
 20
0.0
 30
0.0
  0
INSERT
  5
5C0
330
578
100
AcDbEntity
  8
COTAS
100
AcDbBlockReference
  2
block 186
 10
0.0
 20
0.0
 30
0.0
  0
INSERT
  5
5C8
330
578
100
AcDbEntity
  8
COTAS
100
AcDbBlockReference
  2
block 187
 10
0.0
 20
0.0
 30
0.0
  0
INSERT
  5
5D0
330
578
100
AcDbEntity
  8
COTAS
100
AcDbBlockReference
  2
block 188
 10
0.0
 20
0.0
 30
0.0
  0
ENDBLK
  5
57B
330
578
100
AcDbEntity
  8
0
100
AcDbBlockEnd
  0
BLOCK
  5
57E
330
57C
100
AcDbEntity
  8
0
100
AcDbBlockBegin
  2
block 178
 70
     0
 71
     0
 10
0.0
 20
0.0
 30
0.0
  3
block 178
  1

  0
POLYLINE
  5
580
330
57C
100
AcDbEntity
  8
COTAS
 62
     3
370
    25
100
AcDb2dPolyline
 66
     1
 10
0.0
 20
0.0
 30
0.0
  0
VERTEX
  5
581
330
580
100
AcDbEntity
  8
COTAS
 62
     3
370
    25
100
AcDbVertex
100
AcDb2dVertex
 10
157.1736279528313
 20
177.7327655881314
 30
0.0
  0
VERTEX
  5
582
330
580
100
AcDbEntity
  8
COTAS
 62
     3
370
    25
100
AcDbVertex
100
AcDb2dVertex
 10
152.6898332208442
 20
177.7327655881314
 30
0.0
  0
SEQEND
  5
583
330
580
100
AcDbEntity
  8
COTAS
370
    25
  0
ENDBLK
  5
57F
330
57C
100
AcDbEntity
  8
0
100
AcDbBlockEnd
  0
BLOCK
  5
586
330
584
100
AcDbEntity
  8
0
100
AcDbBlockBegin
  2
block 179
 70
     0
 71
     0
 10
0.0
 20
0.0
 30
0.0
  3
block 179
  1

  0
POLYLINE
  5
588
330
584
100
AcDbEntity
  8
COTAS
 62
     3
370
    25
100
AcDb2dPolyline
 66
     1
 10
0.0
 20
0.0
 30
0.0
  0
VERTEX
  5
589
330
588
100
AcDbEntity
  8
COTAS
 62
     3
370
    25
100
AcDbVertex
100
AcDb2dVertex
 10
156.8401424898607
 20
173.7647019905111
 30
0.0
  0
VERTEX
  5
58A
330
588
100
AcDbEntity
  8
COTAS
 62
     3
370
    25
100
AcDbVertex
100
AcDb2dVertex
 10
152.6898332208442
 20
173.7647019905111
 30
0.0
  0
SEQEND
  5
58B
330
588
100
AcDbEntity
  8
COTAS
370
    25
  0
ENDBLK
  5
587
330
584
100
AcDbEntity
  8
0
100
AcDbBlockEnd
  0
BLOCK
  5
58E
330
58C
100
AcDbEntity
  8
0
100
AcDbBlockBegin
  2
block 180
 70
     0
 71
     0
 10
0.0
 20
0.0
 30
0.0
  3
block 180
  1

  0
POLYLINE
  5
590
330
58C
100
AcDbEntity
  8
COTAS
 62
     3
370
    25
100
AcDb2dPolyline
 66
     1
 10
0.0
 20
0.0
 30
0.0
  0
VERTEX
  5
591
330
590
100
AcDbEntity
  8
COTAS
 62
     3
370
    25
100
AcDbVertex
100
AcDb2dVertex
 10
153.6889115706531
 20
180.2306337175415
 30
0.0
  0
VERTEX
  5
592
330
590
100
AcDbEntity
  8
COTAS
 62
     3
370
    25
100
AcDbVertex
100
AcDb2dVertex
 10
153.6889115706531
 20
182.7285018469516
 30
0.0
  0
SEQEND
  5
593
330
590
100
AcDbEntity
  8
COTAS
370
    25
  0
ENDBLK
  5
58F
330
58C
100
AcDbEntity
  8
0
100
AcDbBlockEnd
  0
BLOCK
  5
596
330
594
100
AcDbEntity
  8
0
100
AcDbBlockBegin
  2
block 181
 70
     0
 71
     0
 10
0.0
 20
0.0
 30
0.0
  3
block 181
  1

  0
POLYLINE
  5
598
330
594
100
AcDbEntity
  8
COTAS
 62
     3
370
    25
100
AcDb2dPolyline
 66
     1
 10
0.0
 20
0.0
 30
0.0
  0
VERTEX
  5
599
330
598
100
AcDbEntity
  8
COTAS
 62
     3
370
    25
100
AcDbVertex
100
AcDb2dVertex
 10
153.6889115706531
 20
171.266833861101
 30
0.0
  0
VERTEX
  5
59A
330
598
100
AcDbEntity
  8
COTAS
 62
     3
370
    25
100
AcDbVertex
100
AcDb2dVertex
 10
153.6889115706531
 20
168.7689657316909
 30
0.0
  0
SEQEND
  5
59B
330
598
100
AcDbEntity
  8
COTAS
370
    25
  0
ENDBLK
  5
597
330
594
100
AcDbEntity
  8
0
100
AcDbBlockEnd
  0
BLOCK
  5
59E
330
59C
100
AcDbEntity
  8
0
100
AcDbBlockBegin
  2
block 182
 70
     0
 71
     0
 10
0.0
 20
0.0
 30
0.0
  3
block 182
  1

  0
POLYLINE
  5
5A0
330
59C
100
AcDbEntity
  8
COTAS
 62
     3
370
    25
100
AcDb2dPolyline
 66
     1
 10
0.0
 20
0.0
 30
0.0
  0
VERTEX
  5
5A1
330
5A0
100
AcDbEntity
  8
COTAS
 62
     3
370
    25
100
AcDbVertex
100
AcDb2dVertex
 10
153.6889115706531
 20
177.7327655881314
 30
0.0
  0
VERTEX
  5
5A2
330
5A0
100
AcDbEntity
  8
COTAS
 62
     3
370
    25
100
AcDbVertex
100
AcDb2dVertex
 10
153.6889115706531
 20
173.7647019905111
 30
0.0
  0
SEQEND
  5
5A3
330
5A0
100
AcDbEntity
  8
COTAS
370
    25
  0
ENDBLK
  5
59F
330
59C
100
AcDbEntity
  8
0
100
AcDbBlockEnd
  0
BLOCK
  5
5A6
330
5A4
100
AcDbEntity
  8
0
100
AcDbBlockBegin
  2
block 183
 70
     0
 71
     0
 10
0.0
 20
0.0
 30
0.0
  3
block 183
  1

  0
POLYLINE
  5
5A8
330
5A4
100
AcDbEntity
  8
COTAS
370
     0
100
AcDb2dPolyline
 66
     1
 10
0.0
 20
0.0
 30
0.0
  0
VERTEX
  5
5A9
330
5A8
100
AcDbEntity
  8
COTAS
370
     0
100
AcDbVertex
100
AcDb2dVertex
 10
153.2727437614913
 20
180.2306337175415
 30
0.0
  0
VERTEX
  5
5AA
330
5A8
100
AcDbEntity
  8
COTAS
370
     0
100
AcDbVertex
100
AcDb2dVertex
 10
154.1054238895907
 20
180.2306337175415
 30
0.0
  0
VERTEX
  5
5AB
330
5A8
100
AcDbEntity
  8
COTAS
370
     0
100
AcDbVertex
100
AcDb2dVertex
 10
153.6889115706531
 20
177.7327655881314
 30
0.0
  0
VERTEX
  5
5AC
330
5A8
100
AcDbEntity
  8
COTAS
370
     0
100
AcDbVertex
100
AcDb2dVertex
 10
153.2727437614913
 20
180.2306337175415
 30
0.0
  0
SEQEND
  5
5AD
330
5A8
100
AcDbEntity
  8
COTAS
370
     0
  0
HATCH
  5
5AE
330
5A4
100
AcDbEntity
  8
COTAS
 62
     3
100
AcDbHatch
 10
0.0
 20
0.0
 30
0.0
210
0.0
220
0.0
230
1.0
  2
SOLID
 70
     1
 71
     0
 91
        1
 92
        1
 93
        3
 72
     1
 10
153.2727437614913
 20
180.2306337175415
 11
154.1054238895907
 21
180.2306337175415
 72
     1
 10
154.1054238895907
 20
180.2306337175415
 11
153.6889115706531
 21
177.7327655881314
 72
     1
 10
153.6889115706531
 20
177.7327655881314
 11
153.2727437614913
 21
180.2306337175415
 97
        0
 75
     2
 76
     1
 98
        0
  0
ENDBLK
  5
5A7
330
5A4
100
AcDbEntity
  8
0
100
AcDbBlockEnd
  0
BLOCK
  5
5B1
330
5AF
100
AcDbEntity
  8
0
100
AcDbBlockBegin
  2
block 184
 70
     0
 71
     0
 10
0.0
 20
0.0
 30
0.0
  3
block 184
  1

  0
POLYLINE
  5
5B3
330
5AF
100
AcDbEntity
  8
COTAS
370
     0
100
AcDb2dPolyline
 66
     1
 10
0.0
 20
0.0
 30
0.0
  0
VERTEX
  5
5B4
330
5B3
100
AcDbEntity
  8
COTAS
370
     0
100
AcDbVertex
100
AcDb2dVertex
 10
153.2727437614913
 20
171.266833861101
 30
0.0
  0
VERTEX
  5
5B5
330
5B3
100
AcDbEntity
  8
COTAS
370
     0
100
AcDbVertex
100
AcDb2dVertex
 10
154.1054238895907
 20
171.266833861101
 30
0.0
  0
VERTEX
  5
5B6
330
5B3
100
AcDbEntity
  8
COTAS
370
     0
100
AcDbVertex
100
AcDb2dVertex
 10
153.6889115706531
 20
173.7647019905111
 30
0.0
  0
VERTEX
  5
5B7
330
5B3
100
AcDbEntity
  8
COTAS
370
     0
100
AcDbVertex
100
AcDb2dVertex
 10
153.2727437614913
 20
171.266833861101
 30
0.0
  0
SEQEND
  5
5B8
330
5B3
100
AcDbEntity
  8
COTAS
370
     0
  0
HATCH
  5
5B9
330
5AF
100
AcDbEntity
  8
COTAS
 62
     3
100
AcDbHatch
 10
0.0
 20
0.0
 30
0.0
210
0.0
220
0.0
230
1.0
  2
SOLID
 70
     1
 71
     0
 91
        1
 92
        1
 93
        3
 72
     1
 10
153.2727437614913
 20
171.266833861101
 11
154.1054238895907
 21
171.266833861101
 72
     1
 10
154.1054238895907
 20
171.266833861101
 11
153.6889115706531
 21
173.7647019905111
 72
     1
 10
153.6889115706531
 20
173.7647019905111
 11
153.2727437614913
 21
171.266833861101
 97
        0
 75
     2
 76
     1
 98
        0
  0
ENDBLK
  5
5B2
330
5AF
100
AcDbEntity
  8
0
100
AcDbBlockEnd
  0
BLOCK
  5
5BC
330
5BA
100
AcDbEntity
  8
0
100
AcDbBlockBegin
  2
block 185
 70
     0
 71
     0
 10
0.0
 20
0.0
 30
0.0
  3
block 185
  1

  0
MTEXT
  5
5BE
330
5BA
100
AcDbEntity
  8
COTAS
 62
     6
100
AcDbMText
 10
151.7858395691551
 20
174.7494831846245
 30
0.0
 40
1.998306857433339
 41
0.0
 71
     7
 72
     1
  1
\fMyriad Pro|b0|i0|c0|p34;\W1;40
 73
     1
 44
1.0
  0
ENDBLK
  5
5BD
330
5BA
100
AcDbEntity
  8
0
100
AcDbBlockEnd
  0
BLOCK
  5
5C1
330
5BF
100
AcDbEntity
  8
0
100
AcDbBlockBegin
  2
block 186
 70
     0
 71
     0
 10
0.0
 20
0.0
 30
0.0
  3
block 186
  1

  0
POLYLINE
  5
5C3
330
5BF
100
AcDbEntity
  8
COTAS
370
     0
100
AcDb2dPolyline
 66
     1
 10
0.0
 20
0.0
 30
0.0
  0
VERTEX
  5
5C4
330
5C3
100
AcDbEntity
  8
COTAS
370
     0
100
AcDbVertex
100
AcDb2dVertex
 10
158.6722454775447
 20
177.7327655881314
 30
0.0
  0
VERTEX
  5
5C5
330
5C3
100
AcDbEntity
  8
COTAS
370
     0
100
AcDbVertex
100
AcDb2dVertex
 10
158.6722454775447
 20
177.7327655881314
 30
0.0
  0
SEQEND
  5
5C6
330
5C3
100
AcDbEntity
  8
COTAS
370
     0
  0
ENDBLK
  5
5C2
330
5BF
100
AcDbEntity
  8
0
100
AcDbBlockEnd
  0
BLOCK
  5
5C9
330
5C7
100
AcDbEntity
  8
0
100
AcDbBlockBegin
  2
block 187
 70
     0
 71
     0
 10
0.0
 20
0.0
 30
0.0
  3
block 187
  1

  0
POLYLINE
  5
5CB
330
5C7
100
AcDbEntity
  8
COTAS
370
     0
100
AcDb2dPolyline
 66
     1
 10
0.0
 20
0.0
 30
0.0
  0
VERTEX
  5
5CC
330
5CB
100
AcDbEntity
  8
COTAS
370
     0
100
AcDbVertex
100
AcDb2dVertex
 10
158.3391045243498
 20
173.7647019905111
 30
0.0
  0
VERTEX
  5
5CD
330
5CB
100
AcDbEntity
  8
COTAS
370
     0
100
AcDbVertex
100
AcDb2dVertex
 10
158.3391045243498
 20
173.7647019905111
 30
0.0
  0
SEQEND
  5
5CE
330
5CB
100
AcDbEntity
  8
COTAS
370
     0
  0
ENDBLK
  5
5CA
330
5C7
100
AcDbEntity
  8
0
100
AcDbBlockEnd
  0
BLOCK
  5
5D1
330
5CF
100
AcDbEntity
  8
0
100
AcDbBlockBegin
  2
block 188
 70
     0
 71
     0
 10
0.0
 20
0.0
 30
0.0
  3
block 188
  1

  0
POLYLINE
  5
5D3
330
5CF
100
AcDbEntity
  8
COTAS
370
     0
100
AcDb2dPolyline
 66
     1
 10
0.0
 20
0.0
 30
0.0
  0
VERTEX
  5
5D4
330
5D3
100
AcDbEntity
  8
COTAS
370
     0
100
AcDbVertex
100
AcDb2dVertex
 10
153.6889115706531
 20
173.7647019905111
 30
0.0
  0
VERTEX
  5
5D5
330
5D3
100
AcDbEntity
  8
COTAS
370
     0
100
AcDbVertex
100
AcDb2dVertex
 10
153.6889115706531
 20
173.7647019905111
 30
0.0
  0
SEQEND
  5
5D6
330
5D3
100
AcDbEntity
  8
COTAS
370
     0
  0
ENDBLK
  5
5D2
330
5CF
100
AcDbEntity
  8
0
100
AcDbBlockEnd
  0
BLOCK
  5
5D9
330
5D7
100
AcDbEntity
  8
0
100
AcDbBlockBegin
  2
block 189
 70
     0
 71
     0
 10
0.0
 20
0.0
 30
0.0
  3
block 189
  1

  0
INSERT
  5
5DC
330
5D7
100
AcDbEntity
  8
COTAS
100
AcDbBlockReference
  2
block 190
 10
0.0
 20
0.0
 30
0.0
  0
INSERT
  5
5E4
330
5D7
100
AcDbEntity
  8
COTAS
100
AcDbBlockReference
  2
block 191
 10
0.0
 20
0.0
 30
0.0
  0
INSERT
  5
5EC
330
5D7
100
AcDbEntity
  8
COTAS
100
AcDbBlockReference
  2
block 192
 10
0.0
 20
0.0
 30
0.0
  0
INSERT
  5
5F4
330
5D7
100
AcDbEntity
  8
COTAS
100
AcDbBlockReference
  2
block 193
 10
0.0
 20
0.0
 30
0.0
  0
INSERT
  5
5FC
330
5D7
100
AcDbEntity
  8
COTAS
100
AcDbBlockReference
  2
block 194
 10
0.0
 20
0.0
 30
0.0
  0
INSERT
  5
607
330
5D7
100
AcDbEntity
  8
COTAS
100
AcDbBlockReference
  2
block 195
 10
0.0
 20
0.0
 30
0.0
  0
INSERT
  5
612
330
5D7
100
AcDbEntity
  8
COTAS
100
AcDbBlockReference
  2
block 196
 10
0.0
 20
0.0
 30
0.0
  0
INSERT
  5
617
330
5D7
100
AcDbEntity
  8
COTAS
100
AcDbBlockReference
  2
block 197
 10
0.0
 20
0.0
 30
0.0
  0
INSERT
  5
61F
330
5D7
100
AcDbEntity
  8
COTAS
100
AcDbBlockReference
  2
block 198
 10
0.0
 20
0.0
 30
0.0
  0
INSERT
  5
627
330
5D7
100
AcDbEntity
  8
COTAS
100
AcDbBlockReference
  2
block 199
 10
0.0
 20
0.0
 30
0.0
  0
ENDBLK
  5
5DA
330
5D7
100
AcDbEntity
  8
0
100
AcDbBlockEnd
  0
BLOCK
  5
5DD
330
5DB
100
AcDbEntity
  8
0
100
AcDbBlockBegin
  2
block 190
 70
     0
 71
     0
 10
0.0
 20
0.0
 30
0.0
  3
block 190
  1

  0
POLYLINE
  5
5DF
330
5DB
100
AcDbEntity
  8
COTAS
 62
     3
370
    25
100
AcDb2dPolyline
 66
     1
 10
0.0
 20
0.0
 30
0.0
  0
VERTEX
  5
5E0
330
5DF
100
AcDbEntity
  8
COTAS
 62
     3
370
    25
100
AcDbVertex
100
AcDb2dVertex
 10
157.1736279528313
 20
177.7327655881314
 30
0.0
  0
VERTEX
  5
5E1
330
5DF
100
AcDbEntity
  8
COTAS
 62
     3
370
    25
100
AcDbVertex
100
AcDb2dVertex
 10
141.7909219537566
 20
177.7327655881314
 30
0.0
  0
SEQEND
  5
5E2
330
5DF
100
AcDbEntity
  8
COTAS
370
    25
  0
ENDBLK
  5
5DE
330
5DB
100
AcDbEntity
  8
0
100
AcDbBlockEnd
  0
BLOCK
  5
5E5
330
5E3
100
AcDbEntity
  8
0
100
AcDbBlockBegin
  2
block 191
 70
     0
 71
     0
 10
0.0
 20
0.0
 30
0.0
  3
block 191
  1

  0
POLYLINE
  5
5E7
330
5E3
100
AcDbEntity
  8
COTAS
 62
     3
370
    25
100
AcDb2dPolyline
 66
     1
 10
0.0
 20
0.0
 30
0.0
  0
VERTEX
  5
5E8
330
5E7
100
AcDbEntity
  8
COTAS
 62
     3
370
    25
100
AcDbVertex
100
AcDb2dVertex
 10
174.5252073205812
 20
166.7706367771852
 30
0.0
  0
VERTEX
  5
5E9
330
5E7
100
AcDbEntity
  8
COTAS
 62
     3
370
    25
100
AcDbVertex
100
AcDb2dVertex
 10
141.7909219537566
 20
166.7706367771852
 30
0.0
  0
SEQEND
  5
5EA
330
5E7
100
AcDbEntity
  8
COTAS
370
    25
  0
ENDBLK
  5
5E6
330
5E3
100
AcDbEntity
  8
0
100
AcDbBlockEnd
  0
BLOCK
  5
5ED
330
5EB
100
AcDbEntity
  8
0
100
AcDbBlockBegin
  2
block 192
 70
     0
 71
     0
 10
0.0
 20
0.0
 30
0.0
  3
block 192
  1

  0
POLYLINE
  5
5EF
330
5EB
100
AcDbEntity
  8
COTAS
 62
     3
370
    25
100
AcDb2dPolyline
 66
     1
 10
0.0
 20
0.0
 30
0.0
  0
VERTEX
  5
5F0
330
5EF
100
AcDbEntity
  8
COTAS
 62
     3
370
    25
100
AcDbVertex
100
AcDb2dVertex
 10
142.7900003035655
 20
175.2348974587213
 30
0.0
  0
VERTEX
  5
5F1
330
5EF
100
AcDbEntity
  8
COTAS
 62
     3
370
    25
100
AcDbVertex
100
AcDb2dVertex
 10
142.7900003035655
 20
174.9031345446296
 30
0.0
  0
SEQEND
  5
5F2
330
5EF
100
AcDbEntity
  8
COTAS
370
    25
  0
ENDBLK
  5
5EE
330
5EB
100
AcDbEntity
  8
0
100
AcDbBlockEnd
  0
BLOCK
  5
5F5
330
5F3
100
AcDbEntity
  8
0
100
AcDbBlockBegin
  2
block 193
 70
     0
 71
     0
 10
0.0
 20
0.0
 30
0.0
  3
block 193
  1

  0
POLYLINE
  5
5F7
330
5F3
100
AcDbEntity
  8
COTAS
 62
     3
370
    25
100
AcDb2dPolyline
 66
     1
 10
0.0
 20
0.0
 30
0.0
  0
VERTEX
  5
5F8
330
5F7
100
AcDbEntity
  8
COTAS
 62
     3
370
    25
100
AcDbVertex
100
AcDb2dVertex
 10
142.7900003035655
 20
169.2685049065953
 30
0.0
  0
VERTEX
  5
5F9
330
5F7
100
AcDbEntity
  8
COTAS
 62
     3
370
    25
100
AcDbVertex
100
AcDb2dVertex
 10
142.7900003035655
 20
169.9072260309214
 30
0.0
  0
SEQEND
  5
5FA
330
5F7
100
AcDbEntity
  8
COTAS
370
    25
  0
ENDBLK
  5
5F6
330
5F3
100
AcDbEntity
  8
0
100
AcDbBlockEnd
  0
BLOCK
  5
5FD
330
5FB
100
AcDbEntity
  8
0
100
AcDbBlockBegin
  2
block 194
 70
     0
 71
     0
 10
0.0
 20
0.0
 30
0.0
  3
block 194
  1

  0
POLYLINE
  5
5FF
330
5FB
100
AcDbEntity
  8
COTAS
370
     0
100
AcDb2dPolyline
 66
     1
 10
0.0
 20
0.0
 30
0.0
  0
VERTEX
  5
600
330
5FF
100
AcDbEntity
  8
COTAS
370
     0
100
AcDbVertex
100
AcDb2dVertex
 10
142.3734879846279
 20
175.2348974587213
 30
0.0
  0
VERTEX
  5
601
330
5FF
100
AcDbEntity
  8
COTAS
370
     0
100
AcDbVertex
100
AcDb2dVertex
 10
143.2061681127273
 20
175.2348974587213
 30
0.0
  0
VERTEX
  5
602
330
5FF
100
AcDbEntity
  8
COTAS
370
     0
100
AcDbVertex
100
AcDb2dVertex
 10
142.7900003035655
 20
177.7327655881314
 30
0.0
  0
VERTEX
  5
603
330
5FF
100
AcDbEntity
  8
COTAS
370
     0
100
AcDbVertex
100
AcDb2dVertex
 10
142.3734879846279
 20
175.2348974587213
 30
0.0
  0
SEQEND
  5
604
330
5FF
100
AcDbEntity
  8
COTAS
370
     0
  0
HATCH
  5
605
330
5FB
100
AcDbEntity
  8
COTAS
 62
     3
100
AcDbHatch
 10
0.0
 20
0.0
 30
0.0
210
0.0
220
0.0
230
1.0
  2
SOLID
 70
     1
 71
     0
 91
        1
 92
        1
 93
        3
 72
     1
 10
142.3734879846279
 20
175.2348974587213
 11
143.2061681127273
 21
175.2348974587213
 72
     1
 10
143.2061681127273
 20
175.2348974587213
 11
142.7900003035655
 21
177.7327655881314
 72
     1
 10
142.7900003035655
 20
177.7327655881314
 11
142.3734879846279
 21
175.2348974587213
 97
        0
 75
     2
 76
     1
 98
        0
  0
ENDBLK
  5
5FE
330
5FB
100
AcDbEntity
  8
0
100
AcDbBlockEnd
  0
BLOCK
  5
608
330
606
100
AcDbEntity
  8
0
100
AcDbBlockBegin
  2
block 195
 70
     0
 71
     0
 10
0.0
 20
0.0
 30
0.0
  3
block 195
  1

  0
POLYLINE
  5
60A
330
606
100
AcDbEntity
  8
COTAS
370
     0
100
AcDb2dPolyline
 66
     1
 10
0.0
 20
0.0
 30
0.0
  0
VERTEX
  5
60B
330
60A
100
AcDbEntity
  8
COTAS
370
     0
100
AcDbVertex
100
AcDb2dVertex
 10
142.3734879846279
 20
169.2685049065953
 30
0.0
  0
VERTEX
  5
60C
330
60A
100
AcDbEntity
  8
COTAS
370
     0
100
AcDbVertex
100
AcDb2dVertex
 10
143.2061681127273
 20
169.2685049065953
 30
0.0
  0
VERTEX
  5
60D
330
60A
100
AcDbEntity
  8
COTAS
370
     0
100
AcDbVertex
100
AcDb2dVertex
 10
142.7900003035655
 20
166.7706367771852
 30
0.0
  0
VERTEX
  5
60E
330
60A
100
AcDbEntity
  8
COTAS
370
     0
100
AcDbVertex
100
AcDb2dVertex
 10
142.3734879846279
 20
169.2685049065953
 30
0.0
  0
SEQEND
  5
60F
330
60A
100
AcDbEntity
  8
COTAS
370
     0
  0
HATCH
  5
610
330
606
100
AcDbEntity
  8
COTAS
 62
     3
100
AcDbHatch
 10
0.0
 20
0.0
 30
0.0
210
0.0
220
0.0
230
1.0
  2
SOLID
 70
     1
 71
     0
 91
        1
 92
        1
 93
        3
 72
     1
 10
142.3734879846279
 20
169.2685049065953
 11
143.2061681127273
 21
169.2685049065953
 72
     1
 10
143.2061681127273
 20
169.2685049065953
 11
142.7900003035655
 21
166.7706367771852
 72
     1
 10
142.7900003035655
 20
166.7706367771852
 11
142.3734879846279
 21
169.2685049065953
 97
        0
 75
     2
 76
     1
 98
        0
  0
ENDBLK
  5
609
330
606
100
AcDbEntity
  8
0
100
AcDbBlockEnd
  0
BLOCK
  5
613
330
611
100
AcDbEntity
  8
0
100
AcDbBlockBegin
  2
block 196
 70
     0
 71
     0
 10
0.0
 20
0.0
 30
0.0
  3
block 196
  1

  0
MTEXT
  5
615
330
611
100
AcDbEntity
  8
COTAS
 62
     6
100
AcDbMText
 10
139.792420744363
 20
171.4060158105227
 30
0.0
 40
1.998306857433339
 41
0.0
 71
     7
 72
     1
  1
\fMyriad Pro|b0|i0|c0|p34;\W1;110
 73
     1
 44
1.0
  0
ENDBLK
  5
614
330
611
100
AcDbEntity
  8
0
100
AcDbBlockEnd
  0
BLOCK
  5
618
330
616
100
AcDbEntity
  8
0
100
AcDbBlockBegin
  2
block 197
 70
     0
 71
     0
 10
0.0
 20
0.0
 30
0.0
  3
block 197
  1

  0
POLYLINE
  5
61A
330
616
100
AcDbEntity
  8
COTAS
370
     0
100
AcDb2dPolyline
 66
     1
 10
0.0
 20
0.0
 30
0.0
  0
VERTEX
  5
61B
330
61A
100
AcDbEntity
  8
COTAS
370
     0
100
AcDbVertex
100
AcDb2dVertex
 10
158.6722454775447
 20
177.7327655881314
 30
0.0
  0
VERTEX
  5
61C
330
61A
100
AcDbEntity
  8
COTAS
370
     0
100
AcDbVertex
100
AcDb2dVertex
 10
158.6722454775447
 20
177.7327655881314
 30
0.0
  0
SEQEND
  5
61D
330
61A
100
AcDbEntity
  8
COTAS
370
     0
  0
ENDBLK
  5
619
330
616
100
AcDbEntity
  8
0
100
AcDbBlockEnd
  0
BLOCK
  5
620
330
61E
100
AcDbEntity
  8
0
100
AcDbBlockBegin
  2
block 198
 70
     0
 71
     0
 10
0.0
 20
0.0
 30
0.0
  3
block 198
  1

  0
POLYLINE
  5
622
330
61E
100
AcDbEntity
  8
COTAS
370
     0
100
AcDb2dPolyline
 66
     1
 10
0.0
 20
0.0
 30
0.0
  0
VERTEX
  5
623
330
622
100
AcDbEntity
  8
COTAS
370
     0
100
AcDbVertex
100
AcDb2dVertex
 10
176.0238248452945
 20
166.7706367771852
 30
0.0
  0
VERTEX
  5
624
330
622
100
AcDbEntity
  8
COTAS
370
     0
100
AcDbVertex
100
AcDb2dVertex
 10
176.0238248452945
 20
166.7706367771852
 30
0.0
  0
SEQEND
  5
625
330
622
100
AcDbEntity
  8
COTAS
370
     0
  0
ENDBLK
  5
621
330
61E
100
AcDbEntity
  8
0
100
AcDbBlockEnd
  0
BLOCK
  5
628
330
626
100
AcDbEntity
  8
0
100
AcDbBlockBegin
  2
block 199
 70
     0
 71
     0
 10
0.0
 20
0.0
 30
0.0
  3
block 199
  1

  0
POLYLINE
  5
62A
330
626
100
AcDbEntity
  8
COTAS
370
     0
100
AcDb2dPolyline
 66
     1
 10
0.0
 20
0.0
 30
0.0
  0
VERTEX
  5
62B
330
62A
100
AcDbEntity
  8
COTAS
370
     0
100
AcDbVertex
100
AcDb2dVertex
 10
142.7900003035655
 20
166.7706367771852
 30
0.0
  0
VERTEX
  5
62C
330
62A
100
AcDbEntity
  8
COTAS
370
     0
100
AcDbVertex
100
AcDb2dVertex
 10
142.7900003035655
 20
166.7706367771852
 30
0.0
  0
SEQEND
  5
62D
330
62A
100
AcDbEntity
  8
COTAS
370
     0
  0
ENDBLK
  5
629
330
626
100
AcDbEntity
  8
0
100
AcDbBlockEnd
  0
BLOCK
  5
630
330
62E
100
AcDbEntity
  8
0
100
AcDbBlockBegin
  2
block 200
 70
     0
 71
     0
 10
0.0
 20
0.0
 30
0.0
  3
block 200
  1

  0
INSERT
  5
633
330
62E
100
AcDbEntity
  8
COTAS
100
AcDbBlockReference
  2
block 201
 10
0.0
 20
0.0
 30
0.0
  0
INSERT
  5
63B
330
62E
100
AcDbEntity
  8
COTAS
100
AcDbBlockReference
  2
block 202
 10
0.0
 20
0.0
 30
0.0
  0
INSERT
  5
643
330
62E
100
AcDbEntity
  8
COTAS
100
AcDbBlockReference
  2
block 203
 10
0.0
 20
0.0
 30
0.0
  0
INSERT
  5
64B
330
62E
100
AcDbEntity
  8
COTAS
100
AcDbBlockReference
  2
block 204
 10
0.0
 20
0.0
 30
0.0
  0
INSERT
  5
653
330
62E
100
AcDbEntity
  8
COTAS
100
AcDbBlockReference
  2
block 205
 10
0.0
 20
0.0
 30
0.0
  0
INSERT
  5
65E
330
62E
100
AcDbEntity
  8
COTAS
100
AcDbBlockReference
  2
block 206
 10
0.0
 20
0.0
 30
0.0
  0
INSERT
  5
669
330
62E
100
AcDbEntity
  8
COTAS
100
AcDbBlockReference
  2
block 207
 10
0.0
 20
0.0
 30
0.0
  0
INSERT
  5
66E
330
62E
100
AcDbEntity
  8
COTAS
100
AcDbBlockReference
  2
block 208
 10
0.0
 20
0.0
 30
0.0
  0
INSERT
  5
676
330
62E
100
AcDbEntity
  8
COTAS
100
AcDbBlockReference
  2
block 209
 10
0.0
 20
0.0
 30
0.0
  0
INSERT
  5
67E
330
62E
100
AcDbEntity
  8
COTAS
100
AcDbBlockReference
  2
block 210
 10
0.0
 20
0.0
 30
0.0
  0
ENDBLK
  5
631
330
62E
100
AcDbEntity
  8
0
100
AcDbBlockEnd
  0
BLOCK
  5
634
330
632
100
AcDbEntity
  8
0
100
AcDbBlockBegin
  2
block 201
 70
     0
 71
     0
 10
0.0
 20
0.0
 30
0.0
  3
block 201
  1

  0
POLYLINE
  5
636
330
632
100
AcDbEntity
  8
COTAS
 62
     3
370
    25
100
AcDb2dPolyline
 66
     1
 10
0.0
 20
0.0
 30
0.0
  0
VERTEX
  5
637
330
636
100
AcDbEntity
  8
COTAS
 62
     3
370
    25
100
AcDbVertex
100
AcDb2dVertex
 10
37.81322073649959
 20
181.2838001021504
 30
0.0
  0
VERTEX
  5
638
330
636
100
AcDbEntity
  8
COTAS
 62
     3
370
    25
100
AcDbVertex
100
AcDb2dVertex
 10
20.74413938490261
 20
181.2838001021504
 30
0.0
  0
SEQEND
  5
639
330
636
100
AcDbEntity
  8
COTAS
370
    25
  0
ENDBLK
  5
635
330
632
100
AcDbEntity
  8
0
100
AcDbBlockEnd
  0
BLOCK
  5
63C
330
63A
100
AcDbEntity
  8
0
100
AcDbBlockBegin
  2
block 202
 70
     0
 71
     0
 10
0.0
 20
0.0
 30
0.0
  3
block 202
  1

  0
POLYLINE
  5
63E
330
63A
100
AcDbEntity
  8
COTAS
 62
     3
370
    25
100
AcDb2dPolyline
 66
     1
 10
0.0
 20
0.0
 30
0.0
  0
VERTEX
  5
63F
330
63E
100
AcDbEntity
  8
COTAS
 62
     3
370
    25
100
AcDbVertex
100
AcDb2dVertex
 10
86.29332540608807
 20
166.7706367771852
 30
0.0
  0
VERTEX
  5
640
330
63E
100
AcDbEntity
  8
COTAS
 62
     3
370
    25
100
AcDbVertex
100
AcDb2dVertex
 10
20.74413938490261
 20
166.7706367771852
 30
0.0
  0
SEQEND
  5
641
330
63E
100
AcDbEntity
  8
COTAS
370
    25
  0
ENDBLK
  5
63D
330
63A
100
AcDbEntity
  8
0
100
AcDbBlockEnd
  0
BLOCK
  5
644
330
642
100
AcDbEntity
  8
0
100
AcDbBlockBegin
  2
block 203
 70
     0
 71
     0
 10
0.0
 20
0.0
 30
0.0
  3
block 203
  1

  0
POLYLINE
  5
646
330
642
100
AcDbEntity
  8
COTAS
 62
     3
370
    25
100
AcDb2dPolyline
 66
     1
 10
0.0
 20
0.0
 30
0.0
  0
VERTEX
  5
647
330
646
100
AcDbEntity
  8
COTAS
 62
     3
370
    25
100
AcDbVertex
100
AcDb2dVertex
 10
21.7432177347115
 20
178.7859319727403
 30
0.0
  0
VERTEX
  5
648
330
646
100
AcDbEntity
  8
COTAS
 62
     3
370
    25
100
AcDbVertex
100
AcDb2dVertex
 10
21.7432177347115
 20
176.5250865690779
 30
0.0
  0
SEQEND
  5
649
330
646
100
AcDbEntity
  8
COTAS
370
    25
  0
ENDBLK
  5
645
330
642
100
AcDbEntity
  8
0
100
AcDbBlockEnd
  0
BLOCK
  5
64C
330
64A
100
AcDbEntity
  8
0
100
AcDbBlockBegin
  2
block 204
 70
     0
 71
     0
 10
0.0
 20
0.0
 30
0.0
  3
block 204
  1

  0
POLYLINE
  5
64E
330
64A
100
AcDbEntity
  8
COTAS
 62
     3
370
    25
100
AcDb2dPolyline
 66
     1
 10
0.0
 20
0.0
 30
0.0
  0
VERTEX
  5
64F
330
64E
100
AcDbEntity
  8
COTAS
 62
     3
370
    25
100
AcDbVertex
100
AcDb2dVertex
 10
21.7432177347115
 20
169.2685049065953
 30
0.0
  0
VERTEX
  5
650
330
64E
100
AcDbEntity
  8
COTAS
 62
     3
370
    25
100
AcDbVertex
100
AcDb2dVertex
 10
21.7432177347115
 20
171.5293503102577
 30
0.0
  0
SEQEND
  5
651
330
64E
100
AcDbEntity
  8
COTAS
370
    25
  0
ENDBLK
  5
64D
330
64A
100
AcDbEntity
  8
0
100
AcDbBlockEnd
  0
BLOCK
  5
654
330
652
100
AcDbEntity
  8
0
100
AcDbBlockBegin
  2
block 205
 70
     0
 71
     0
 10
0.0
 20
0.0
 30
0.0
  3
block 205
  1

  0
POLYLINE
  5
656
330
652
100
AcDbEntity
  8
COTAS
370
     0
100
AcDb2dPolyline
 66
     1
 10
0.0
 20
0.0
 30
0.0
  0
VERTEX
  5
657
330
656
100
AcDbEntity
  8
COTAS
370
     0
100
AcDbVertex
100
AcDb2dVertex
 10
21.32704992554973
 20
178.7859319727403
 30
0.0
  0
VERTEX
  5
658
330
656
100
AcDbEntity
  8
COTAS
370
     0
100
AcDbVertex
100
AcDb2dVertex
 10
22.15955779876117
 20
178.7859319727403
 30
0.0
  0
VERTEX
  5
659
330
656
100
AcDbEntity
  8
COTAS
370
     0
100
AcDbVertex
100
AcDb2dVertex
 10
21.7432177347115
 20
181.2838001021504
 30
0.0
  0
VERTEX
  5
65A
330
656
100
AcDbEntity
  8
COTAS
370
     0
100
AcDbVertex
100
AcDb2dVertex
 10
21.32704992554973
 20
178.7859319727403
 30
0.0
  0
SEQEND
  5
65B
330
656
100
AcDbEntity
  8
COTAS
370
     0
  0
HATCH
  5
65C
330
652
100
AcDbEntity
  8
COTAS
 62
     3
100
AcDbHatch
 10
0.0
 20
0.0
 30
0.0
210
0.0
220
0.0
230
1.0
  2
SOLID
 70
     1
 71
     0
 91
        1
 92
        1
 93
        3
 72
     1
 10
21.32704992554973
 20
178.7859319727403
 11
22.15955779876117
 21
178.7859319727403
 72
     1
 10
22.15955779876117
 20
178.7859319727403
 11
21.7432177347115
 21
181.2838001021504
 72
     1
 10
21.7432177347115
 20
181.2838001021504
 11
21.32704992554973
 21
178.7859319727403
 97
        0
 75
     2
 76
     1
 98
        0
  0
ENDBLK
  5
655
330
652
100
AcDbEntity
  8
0
100
AcDbBlockEnd
  0
BLOCK
  5
65F
330
65D
100
AcDbEntity
  8
0
100
AcDbBlockBegin
  2
block 206
 70
     0
 71
     0
 10
0.0
 20
0.0
 30
0.0
  3
block 206
  1

  0
POLYLINE
  5
661
330
65D
100
AcDbEntity
  8
COTAS
370
     0
100
AcDb2dPolyline
 66
     1
 10
0.0
 20
0.0
 30
0.0
  0
VERTEX
  5
662
330
661
100
AcDbEntity
  8
COTAS
370
     0
100
AcDbVertex
100
AcDb2dVertex
 10
21.32704992554973
 20
169.2685049065953
 30
0.0
  0
VERTEX
  5
663
330
661
100
AcDbEntity
  8
COTAS
370
     0
100
AcDbVertex
100
AcDb2dVertex
 10
22.15955779876117
 20
169.2685049065953
 30
0.0
  0
VERTEX
  5
664
330
661
100
AcDbEntity
  8
COTAS
370
     0
100
AcDbVertex
100
AcDb2dVertex
 10
21.7432177347115
 20
166.7706367771852
 30
0.0
  0
VERTEX
  5
665
330
661
100
AcDbEntity
  8
COTAS
370
     0
100
AcDbVertex
100
AcDb2dVertex
 10
21.32704992554973
 20
169.2685049065953
 30
0.0
  0
SEQEND
  5
666
330
661
100
AcDbEntity
  8
COTAS
370
     0
  0
HATCH
  5
667
330
65D
100
AcDbEntity
  8
COTAS
 62
     3
100
AcDbHatch
 10
0.0
 20
0.0
 30
0.0
210
0.0
220
0.0
230
1.0
  2
SOLID
 70
     1
 71
     0
 91
        1
 92
        1
 93
        3
 72
     1
 10
21.32704992554973
 20
169.2685049065953
 11
22.15955779876117
 21
169.2685049065953
 72
     1
 10
22.15955779876117
 20
169.2685049065953
 11
21.7432177347115
 21
166.7706367771852
 72
     1
 10
21.7432177347115
 20
166.7706367771852
 11
21.32704992554973
 21
169.2685049065953
 97
        0
 75
     2
 76
     1
 98
        0
  0
ENDBLK
  5
660
330
65D
100
AcDbEntity
  8
0
100
AcDbBlockEnd
  0
BLOCK
  5
66A
330
668
100
AcDbEntity
  8
0
100
AcDbBlockBegin
  2
block 207
 70
     0
 71
     0
 10
0.0
 20
0.0
 30
0.0
  3
block 207
  1

  0
MTEXT
  5
66C
330
668
100
AcDbEntity
  8
COTAS
 62
     6
100
AcDbMText
 10
18.74581043039694
 20
173.027967834971
 30
0.0
 40
1.998306857433339
 41
0.0
 71
     7
 72
     1
  1
\fMyriad Pro|b0|i0|c0|p34;\W1;145
 73
     1
 44
1.0
  0
ENDBLK
  5
66B
330
668
100
AcDbEntity
  8
0
100
AcDbBlockEnd
  0
BLOCK
  5
66F
330
66D
100
AcDbEntity
  8
0
100
AcDbBlockBegin
  2
block 208
 70
     0
 71
     0
 10
0.0
 20
0.0
 30
0.0
  3
block 208
  1

  0
POLYLINE
  5
671
330
66D
100
AcDbEntity
  8
COTAS
370
     0
100
AcDb2dPolyline
 66
     1
 10
0.0
 20
0.0
 30
0.0
  0
VERTEX
  5
672
330
671
100
AcDbEntity
  8
COTAS
370
     0
100
AcDbVertex
100
AcDb2dVertex
 10
39.31201051610083
 20
181.2838001021504
 30
0.0
  0
VERTEX
  5
673
330
671
100
AcDbEntity
  8
COTAS
370
     0
100
AcDbVertex
100
AcDb2dVertex
 10
39.31201051610083
 20
181.2838001021504
 30
0.0
  0
SEQEND
  5
674
330
671
100
AcDbEntity
  8
COTAS
370
     0
  0
ENDBLK
  5
670
330
66D
100
AcDbEntity
  8
0
100
AcDbBlockEnd
  0
BLOCK
  5
677
330
675
100
AcDbEntity
  8
0
100
AcDbBlockBegin
  2
block 209
 70
     0
 71
     0
 10
0.0
 20
0.0
 30
0.0
  3
block 209
  1

  0
POLYLINE
  5
679
330
675
100
AcDbEntity
  8
COTAS
370
     0
100
AcDb2dPolyline
 66
     1
 10
0.0
 20
0.0
 30
0.0
  0
VERTEX
  5
67A
330
679
100
AcDbEntity
  8
COTAS
370
     0
100
AcDbVertex
100
AcDb2dVertex
 10
87.7921151856893
 20
166.7706367771852
 30
0.0
  0
VERTEX
  5
67B
330
679
100
AcDbEntity
  8
COTAS
370
     0
100
AcDbVertex
100
AcDb2dVertex
 10
87.7921151856893
 20
166.7706367771852
 30
0.0
  0
SEQEND
  5
67C
330
679
100
AcDbEntity
  8
COTAS
370
     0
  0
ENDBLK
  5
678
330
675
100
AcDbEntity
  8
0
100
AcDbBlockEnd
  0
BLOCK
  5
67F
330
67D
100
AcDbEntity
  8
0
100
AcDbBlockBegin
  2
block 210
 70
     0
 71
     0
 10
0.0
 20
0.0
 30
0.0
  3
block 210
  1

  0
POLYLINE
  5
681
330
67D
100
AcDbEntity
  8
COTAS
370
     0
100
AcDb2dPolyline
 66
     1
 10
0.0
 20
0.0
 30
0.0
  0
VERTEX
  5
682
330
681
100
AcDbEntity
  8
COTAS
370
     0
100
AcDbVertex
100
AcDb2dVertex
 10
21.7432177347115
 20
166.7706367771852
 30
0.0
  0
VERTEX
  5
683
330
681
100
AcDbEntity
  8
COTAS
370
     0
100
AcDbVertex
100
AcDb2dVertex
 10
21.7432177347115
 20
166.7706367771852
 30
0.0
  0
SEQEND
  5
684
330
681
100
AcDbEntity
  8
COTAS
370
     0
  0
ENDBLK
  5
680
330
67D
100
AcDbEntity
  8
0
100
AcDbBlockEnd
  0
ENDSEC
  0
SECTION
  2
ENTITIES
  0
INSERT
  5
3D
330
1F
100
AcDbEntity
  8
CAJETIN
100
AcDbBlockReference
  2
block 2
 10
0.0
 20
0.0
 30
0.0
  0
INSERT
  5
41
330
1F
100
AcDbEntity
  8
CAJETIN
100
AcDbBlockReference
  2
block 3
 10
0.0
 20
0.0
 30
0.0
  0
INSERT
  5
45
330
1F
100
AcDbEntity
  8
CAJETIN
100
AcDbBlockReference
  2
block 4
 10
0.0
 20
0.0
 30
0.0
  0
INSERT
  5
49
330
1F
100
AcDbEntity
  8
CAJETIN
100
AcDbBlockReference
  2
block 5
 10
0.0
 20
0.0
 30
0.0
  0
INSERT
  5
4D
330
1F
100
AcDbEntity
  8
CAJETIN
100
AcDbBlockReference
  2
block 6
 10
0.0
 20
0.0
 30
0.0
  0
INSERT
  5
52
330
1F
100
AcDbEntity
  8
CAJETIN
100
AcDbBlockReference
  2
block 7
 10
0.0
 20
0.0
 30
0.0
  0
INSERT
  5
57
330
1F
100
AcDbEntity
  8
CAJETIN
100
AcDbBlockReference
  2
block 8
 10
0.0
 20
0.0
 30
0.0
  0
INSERT
  5
5C
330
1F
100
AcDbEntity
  8
CAJETIN
100
AcDbBlockReference
  2
block 9
 10
0.0
 20
0.0
 30
0.0
  0
INSERT
  5
61
330
1F
100
AcDbEntity
  8
CAJETIN
100
AcDbBlockReference
  2
block 10
 10
0.0
 20
0.0
 30
0.0
  0
INSERT
  5
66
330
1F
100
AcDbEntity
  8
CAJETIN
100
AcDbBlockReference
  2
block 11
 10
0.0
 20
0.0
 30
0.0
  0
INSERT
  5
6B
330
1F
100
AcDbEntity
  8
CAJETIN
100
AcDbBlockReference
  2
block 12
 10
0.0
 20
0.0
 30
0.0
  0
INSERT
  5
70
330
1F
100
AcDbEntity
  8
CAJETIN
100
AcDbBlockReference
  2
block 13
 10
0.0
 20
0.0
 30
0.0
  0
INSERT
  5
75
330
1F
100
AcDbEntity
  8
CAJETIN
100
AcDbBlockReference
  2
block 14
 10
0.0
 20
0.0
 30
0.0
  0
INSERT
  5
7A
330
1F
100
AcDbEntity
  8
CAJETIN
100
AcDbBlockReference
  2
block 15
 10
0.0
 20
0.0
 30
0.0
  0
INSERT
  5
7E
330
1F
100
AcDbEntity
  8
CAJETIN
100
AcDbBlockReference
  2
block 16
 10
0.0
 20
0.0
 30
0.0
  0
INSERT
  5
82
330
1F
100
AcDbEntity
  8
CAJETIN
100
AcDbBlockReference
  2
block 17
 10
0.0
 20
0.0
 30
0.0
  0
INSERT
  5
87
330
1F
100
AcDbEntity
  8
CAJETIN
100
AcDbBlockReference
  2
block 18
 10
0.0
 20
0.0
 30
0.0
  0
INSERT
  5
8C
330
1F
100
AcDbEntity
  8
CAJETIN
100
AcDbBlockReference
  2
block 19
 10
0.0
 20
0.0
 30
0.0
  0
INSERT
  5
91
330
1F
100
AcDbEntity
  8
CAJETIN
100
AcDbBlockReference
  2
block 20
 10
0.0
 20
0.0
 30
0.0
  0
INSERT
  5
96
330
1F
100
AcDbEntity
  8
CAJETIN
100
AcDbBlockReference
  2
block 21
 10
0.0
 20
0.0
 30
0.0
  0
INSERT
  5
9B
330
1F
100
AcDbEntity
  8
CAJETIN
100
AcDbBlockReference
  2
block 22
 10
0.0
 20
0.0
 30
0.0
  0
INSERT
  5
A0
330
1F
100
AcDbEntity
  8
CAJETIN
100
AcDbBlockReference
  2
block 23
 10
0.0
 20
0.0
 30
0.0
  0
INSERT
  5
A5
330
1F
100
AcDbEntity
  8
CAJETIN
100
AcDbBlockReference
  2
block 24
 10
0.0
 20
0.0
 30
0.0
  0
INSERT
  5
AA
330
1F
100
AcDbEntity
  8
CAJETIN
100
AcDbBlockReference
  2
block 25
 10
0.0
 20
0.0
 30
0.0
  0
INSERT
  5
AF
330
1F
100
AcDbEntity
  8
CAJETIN
100
AcDbBlockReference
  2
block 26
 10
0.0
 20
0.0
 30
0.0
  0
INSERT
  5
B3
330
1F
100
AcDbEntity
  8
CAJETIN
100
AcDbBlockReference
  2
block 27
 10
0.0
 20
0.0
 30
0.0
  0
INSERT
  5
B7
330
1F
100
AcDbEntity
  8
CAJETIN
100
AcDbBlockReference
  2
block 28
 10
0.0
 20
0.0
 30
0.0
  0
INSERT
  5
BB
330
1F
100
AcDbEntity
  8
CAJETIN
100
AcDbBlockReference
  2
block 29
 10
0.0
 20
0.0
 30
0.0
  0
INSERT
  5
C0
330
1F
100
AcDbEntity
  8
0
100
AcDbBlockReference
  2
block 30
 10
0.0
 20
0.0
 30
0.0
  0
INSERT
  5
C8
330
1F
100
AcDbEntity
  8
0
100
AcDbBlockReference
  2
block 31
 10
0.0
 20
0.0
 30
0.0
  0
INSERT
  5
D0
330
1F
100
AcDbEntity
  8
0
100
AcDbBlockReference
  2
block 32
 10
0.0
 20
0.0
 30
0.0
  0
INSERT
  5
D8
330
1F
100
AcDbEntity
  8
0
100
AcDbBlockReference
  2
block 33
 10
0.0
 20
0.0
 30
0.0
  0
INSERT
  5
E0
330
1F
100
AcDbEntity
  8
0
100
AcDbBlockReference
  2
block 34
 10
0.0
 20
0.0
 30
0.0
  0
INSERT
  5
E8
330
1F
100
AcDbEntity
  8
0
100
AcDbBlockReference
  2
block 35
 10
0.0
 20
0.0
 30
0.0
  0
INSERT
  5
F0
330
1F
100
AcDbEntity
  8
0
100
AcDbBlockReference
  2
block 36
 10
0.0
 20
0.0
 30
0.0
  0
INSERT
  5
F8
330
1F
100
AcDbEntity
  8
0
100
AcDbBlockReference
  2
block 37
 10
0.0
 20
0.0
 30
0.0
  0
INSERT
  5
100
330
1F
100
AcDbEntity
  8
0
100
AcDbBlockReference
  2
block 38
 10
0.0
 20
0.0
 30
0.0
  0
INSERT
  5
108
330
1F
100
AcDbEntity
  8
0
100
AcDbBlockReference
  2
block 39
 10
0.0
 20
0.0
 30
0.0
  0
INSERT
  5
110
330
1F
100
AcDbEntity
  8
0
100
AcDbBlockReference
  2
block 40
 10
0.0
 20
0.0
 30
0.0
  0
INSERT
  5
118
330
1F
100
AcDbEntity
  8
0
100
AcDbBlockReference
  2
block 41
 10
0.0
 20
0.0
 30
0.0
  0
INSERT
  5
120
330
1F
100
AcDbEntity
  8
0
100
AcDbBlockReference
  2
block 42
 10
0.0
 20
0.0
 30
0.0
  0
INSERT
  5
128
330
1F
100
AcDbEntity
  8
0
100
AcDbBlockReference
  2
block 43
 10
0.0
 20
0.0
 30
0.0
  0
INSERT
  5
130
330
1F
100
AcDbEntity
  8
0
100
AcDbBlockReference
  2
block 44
 10
0.0
 20
0.0
 30
0.0
  0
INSERT
  5
138
330
1F
100
AcDbEntity
  8
0
100
AcDbBlockReference
  2
block 45
 10
0.0
 20
0.0
 30
0.0
  0
INSERT
  5
140
330
1F
100
AcDbEntity
  8
0
100
AcDbBlockReference
  2
block 46
 10
0.0
 20
0.0
 30
0.0
  0
INSERT
  5
148
330
1F
100
AcDbEntity
  8
0
100
AcDbBlockReference
  2
block 47
 10
0.0
 20
0.0
 30
0.0
  0
INSERT
  5
150
330
1F
100
AcDbEntity
  8
0
100
AcDbBlockReference
  2
block 48
 10
0.0
 20
0.0
 30
0.0
  0
INSERT
  5
158
330
1F
100
AcDbEntity
  8
0
100
AcDbBlockReference
  2
block 49
 10
0.0
 20
0.0
 30
0.0
  0
INSERT
  5
160
330
1F
100
AcDbEntity
  8
0
100
AcDbBlockReference
  2
block 50
 10
0.0
 20
0.0
 30
0.0
  0
INSERT
  5
168
330
1F
100
AcDbEntity
  8
0
100
AcDbBlockReference
  2
block 51
 10
0.0
 20
0.0
 30
0.0
  0
INSERT
  5
170
330
1F
100
AcDbEntity
  8
0
100
AcDbBlockReference
  2
block 52
 10
0.0
 20
0.0
 30
0.0
  0
INSERT
  5
178
330
1F
100
AcDbEntity
  8
0
100
AcDbBlockReference
  2
block 53
 10
0.0
 20
0.0
 30
0.0
  0
INSERT
  5
180
330
1F
100
AcDbEntity
  8
0
100
AcDbBlockReference
  2
block 54
 10
0.0
 20
0.0
 30
0.0
  0
INSERT
  5
1B9
330
1F
100
AcDbEntity
  8
0
100
AcDbBlockReference
  2
block 55
 10
0.0
 20
0.0
 30
0.0
  0
INSERT
  5
1D8
330
1F
100
AcDbEntity
  8
0
100
AcDbBlockReference
  2
block 56
 10
0.0
 20
0.0
 30
0.0
  0
INSERT
  5
1F7
330
1F
100
AcDbEntity
  8
0
100
AcDbBlockReference
  2
block 57
 10
0.0
 20
0.0
 30
0.0
  0
INSERT
  5
1FF
330
1F
100
AcDbEntity
  8
0
100
AcDbBlockReference
  2
block 58
 10
0.0
 20
0.0
 30
0.0
  0
INSERT
  5
207
330
1F
100
AcDbEntity
  8
0
100
AcDbBlockReference
  2
block 59
 10
0.0
 20
0.0
 30
0.0
  0
INSERT
  5
23D
330
1F
100
AcDbEntity
  8
0
100
AcDbBlockReference
  2
block 60
 10
0.0
 20
0.0
 30
0.0
  0
INSERT
  5
245
330
1F
100
AcDbEntity
  8
0
100
AcDbBlockReference
  2
block 61
 10
0.0
 20
0.0
 30
0.0
  0
INSERT
  5
24D
330
1F
100
AcDbEntity
  8
0
100
AcDbBlockReference
  2
block 62
 10
0.0
 20
0.0
 30
0.0
  0
INSERT
  5
255
330
1F
100
AcDbEntity
  8
0
100
AcDbBlockReference
  2
block 63
 10
0.0
 20
0.0
 30
0.0
  0
INSERT
  5
25D
330
1F
100
AcDbEntity
  8
0
100
AcDbBlockReference
  2
block 64
 10
0.0
 20
0.0
 30
0.0
  0
INSERT
  5
265
330
1F
100
AcDbEntity
  8
0
100
AcDbBlockReference
  2
block 65
 10
0.0
 20
0.0
 30
0.0
  0
INSERT
  5
26D
330
1F
100
AcDbEntity
  8
0
100
AcDbBlockReference
  2
block 66
 10
0.0
 20
0.0
 30
0.0
  0
INSERT
  5
272
330
1F
100
AcDbEntity
  8
0
100
AcDbBlockReference
  2
block 67
 10
0.0
 20
0.0
 30
0.0
  0
INSERT
  5
277
330
1F
100
AcDbEntity
  8
0
100
AcDbBlockReference
  2
block 68
 10
0.0
 20
0.0
 30
0.0
  0
INSERT
  5
27C
330
1F
100
AcDbEntity
  8
0
100
AcDbBlockReference
  2
block 69
 10
0.0
 20
0.0
 30
0.0
  0
INSERT
  5
281
330
1F
100
AcDbEntity
  8
0
100
AcDbBlockReference
  2
block 70
 10
0.0
 20
0.0
 30
0.0
  0
INSERT
  5
286
330
1F
100
AcDbEntity
  8
0
100
AcDbBlockReference
  2
block 71
 10
0.0
 20
0.0
 30
0.0
  0
INSERT
  5
28B
330
1F
100
AcDbEntity
  8
0
100
AcDbBlockReference
  2
block 72
 10
0.0
 20
0.0
 30
0.0
  0
INSERT
  5
290
330
1F
100
AcDbEntity
  8
0
100
AcDbBlockReference
  2
block 73
 10
0.0
 20
0.0
 30
0.0
  0
INSERT
  5
295
330
1F
100
AcDbEntity
  8
0
100
AcDbBlockReference
  2
block 74
 10
0.0
 20
0.0
 30
0.0
  0
INSERT
  5
29A
330
1F
100
AcDbEntity
  8
0
100
AcDbBlockReference
  2
block 75
 10
0.0
 20
0.0
 30
0.0
  0
INSERT
  5
29F
330
1F
100
AcDbEntity
  8
0
100
AcDbBlockReference
  2
block 76
 10
0.0
 20
0.0
 30
0.0
  0
INSERT
  5
2A4
330
1F
100
AcDbEntity
  8
0
100
AcDbBlockReference
  2
block 77
 10
0.0
 20
0.0
 30
0.0
  0
INSERT
  5
2A9
330
1F
100
AcDbEntity
  8
0
100
AcDbBlockReference
  2
block 78
 10
0.0
 20
0.0
 30
0.0
  0
INSERT
  5
2AE
330
1F
100
AcDbEntity
  8
0
100
AcDbBlockReference
  2
block 79
 10
0.0
 20
0.0
 30
0.0
  0
INSERT
  5
2B3
330
1F
100
AcDbEntity
  8
0
100
AcDbBlockReference
  2
block 80
 10
0.0
 20
0.0
 30
0.0
  0
INSERT
  5
2B8
330
1F
100
AcDbEntity
  8
0
100
AcDbBlockReference
  2
block 81
 10
0.0
 20
0.0
 30
0.0
  0
INSERT
  5
2BD
330
1F
100
AcDbEntity
  8
0
100
AcDbBlockReference
  2
block 82
 10
0.0
 20
0.0
 30
0.0
  0
INSERT
  5
2C2
330
1F
100
AcDbEntity
  8
0
100
AcDbBlockReference
  2
block 83
 10
0.0
 20
0.0
 30
0.0
  0
INSERT
  5
2C7
330
1F
100
AcDbEntity
  8
0
100
AcDbBlockReference
  2
block 84
 10
0.0
 20
0.0
 30
0.0
  0
INSERT
  5
2CC
330
1F
100
AcDbEntity
  8
0
100
AcDbBlockReference
  2
block 85
 10
0.0
 20
0.0
 30
0.0
  0
INSERT
  5
2D1
330
1F
100
AcDbEntity
  8
0
100
AcDbBlockReference
  2
block 86
 10
0.0
 20
0.0
 30
0.0
  0
INSERT
  5
2D6
330
1F
100
AcDbEntity
  8
0
100
AcDbBlockReference
  2
block 87
 10
0.0
 20
0.0
 30
0.0
  0
INSERT
  5
2DB
330
1F
100
AcDbEntity
  8
0
100
AcDbBlockReference
  2
block 88
 10
0.0
 20
0.0
 30
0.0
  0
INSERT
  5
2E0
330
1F
100
AcDbEntity
  8
0
100
AcDbBlockReference
  2
block 89
 10
0.0
 20
0.0
 30
0.0
  0
INSERT
  5
2E5
330
1F
100
AcDbEntity
  8
0
100
AcDbBlockReference
  2
block 90
 10
0.0
 20
0.0
 30
0.0
  0
INSERT
  5
2ED
330
1F
100
AcDbEntity
  8
0
100
AcDbBlockReference
  2
block 91
 10
0.0
 20
0.0
 30
0.0
  0
INSERT
  5
2F2
330
1F
100
AcDbEntity
  8
0
100
AcDbBlockReference
  2
block 92
 10
0.0
 20
0.0
 30
0.0
  0
INSERT
  5
2F7
330
1F
100
AcDbEntity
  8
0
100
AcDbBlockReference
  2
block 93
 10
0.0
 20
0.0
 30
0.0
  0
INSERT
  5
2FF
330
1F
100
AcDbEntity
  8
0
100
AcDbBlockReference
  2
block 94
 10
0.0
 20
0.0
 30
0.0
  0
INSERT
  5
304
330
1F
100
AcDbEntity
  8
0
100
AcDbBlockReference
  2
block 95
 10
0.0
 20
0.0
 30
0.0
  0
INSERT
  5
309
330
1F
100
AcDbEntity
  8
0
100
AcDbBlockReference
  2
block 96
 10
0.0
 20
0.0
 30
0.0
  0
INSERT
  5
30E
330
1F
100
AcDbEntity
  8
0
100
AcDbBlockReference
  2
block 97
 10
0.0
 20
0.0
 30
0.0
  0
INSERT
  5
313
330
1F
100
AcDbEntity
  8
0
100
AcDbBlockReference
  2
block 98
 10
0.0
 20
0.0
 30
0.0
  0
INSERT
  5
318
330
1F
100
AcDbEntity
  8
0
100
AcDbBlockReference
  2
block 99
 10
0.0
 20
0.0
 30
0.0
  0
INSERT
  5
31D
330
1F
100
AcDbEntity
  8
0
100
AcDbBlockReference
  2
block 100
 10
0.0
 20
0.0
 30
0.0
  0
INSERT
  5
322
330
1F
100
AcDbEntity
  8
0
100
AcDbBlockReference
  2
block 101
 10
0.0
 20
0.0
 30
0.0
  0
INSERT
  5
327
330
1F
100
AcDbEntity
  8
0
100
AcDbBlockReference
  2
block 102
 10
0.0
 20
0.0
 30
0.0
  0
INSERT
  5
32C
330
1F
100
AcDbEntity
  8
0
100
AcDbBlockReference
  2
block 103
 10
0.0
 20
0.0
 30
0.0
  0
INSERT
  5
332
330
1F
100
AcDbEntity
  8
SOMBREA
100
AcDbBlockReference
  2
block 104
 10
0.0
 20
0.0
 30
0.0
  0
INSERT
  5
33A
330
1F
100
AcDbEntity
  8
EJES
100
AcDbBlockReference
  2
block 105
 10
0.0
 20
0.0
 30
0.0
  0
INSERT
  5
343
330
1F
100
AcDbEntity
  8
EJES
100
AcDbBlockReference
  2
block 106
 10
0.0
 20
0.0
 30
0.0
  0
INSERT
  5
34C
330
1F
100
AcDbEntity
  8
EJES
100
AcDbBlockReference
  2
block 107
 10
0.0
 20
0.0
 30
0.0
  0
INSERT
  5
355
330
1F
100
AcDbEntity
  8
EJES
100
AcDbBlockReference
  2
block 108
 10
0.0
 20
0.0
 30
0.0
  0
INSERT
  5
35F
330
1F
100
AcDbEntity
  8
COTAS
100
AcDbBlockReference
  2
block 109
 10
0.0
 20
0.0
 30
0.0
  0
INSERT
  5
3B6
330
1F
100
AcDbEntity
  8
COTAS
100
AcDbBlockReference
  2
block 120
 10
0.0
 20
0.0
 30
0.0
  0
INSERT
  5
40D
330
1F
100
AcDbEntity
  8
COTAS
100
AcDbBlockReference
  2
block 131
 10
0.0
 20
0.0
 30
0.0
  0
INSERT
  5
464
330
1F
100
AcDbEntity
  8
COTAS
100
AcDbBlockReference
  2
block 142
 10
0.0
 20
0.0
 30
0.0
  0
INSERT
  5
4CB
330
1F
100
AcDbEntity
  8
COTAS
100
AcDbBlockReference
  2
block 155
 10
0.0
 20
0.0
 30
0.0
  0
INSERT
  5
522
330
1F
100
AcDbEntity
  8
COTAS
100
AcDbBlockReference
  2
block 166
 10
0.0
 20
0.0
 30
0.0
  0
INSERT
  5
579
330
1F
100
AcDbEntity
  8
COTAS
100
AcDbBlockReference
  2
block 177
 10
0.0
 20
0.0
 30
0.0
  0
INSERT
  5
5D8
330
1F
100
AcDbEntity
  8
COTAS
100
AcDbBlockReference
  2
block 189
 10
0.0
 20
0.0
 30
0.0
  0
INSERT
  5
62F
330
1F
100
AcDbEntity
  8
COTAS
100
AcDbBlockReference
  2
block 200
 10
0.0
 20
0.0
 30
0.0
  0
ENDSEC
  0
SECTION
  2
OBJECTS
  0
DICTIONARY
  5
C
330
0
100
AcDbDictionary
281
     1
  3
ACAD_GROUP
350
D
  3
ACAD_LAYOUT
350
1A
  3
ACAD_MLINESTYLE
350
17
  3
ACAD_PLOTSETTINGS
350
19
  3
ACAD_PLOTSTYLENAME
350
E
  3
ACAD_TABLESTYLE
350
685
  3
ACAD_VISUALSTYLE
350
2A
  0
DICTIONARY
  5
D
102
{ACAD_REACTORS
330
C
102
}
330
C
100
AcDbDictionary
281
     1
  0
DICTIONARY
  5
1A
102
{ACAD_REACTORS
330
C
102
}
330
C
100
AcDbDictionary
281
     1
  3
Layout1
350
1E
  3
Layout2
350
26
  3
Model
350
22
  0
DICTIONARY
  5
17
102
{ACAD_REACTORS
330
C
102
}
330
C
100
AcDbDictionary
281
     1
  3
Standard
350
18
  0
DICTIONARY
  5
19
102
{ACAD_REACTORS
330
C
102
}
330
C
100
AcDbDictionary
281
     1
  0
ACDBDICTIONARYWDFLT
  5
E
102
{ACAD_REACTORS
330
C
102
}
330
C
100
AcDbDictionary
281
     1
  3
Normal
350
F
100
AcDbDictionaryWithDefault
340
F
  0
DICTIONARY
  5
685
102
{ACAD_REACTORS
330
C
102
}
330
C
100
AcDbDictionary
281
     1
  0
DICTIONARY
  5
2A
102
{ACAD_REACTORS
330
C
102
}
330
C
100
AcDbDictionary
281
     1
  3
2dWireframe
350
2F
  3
3D Hidden
350
31
  3
3dWireframe
350
30
  3
Basic
350
32
  3
Brighten
350
36
  3
ColorChange
350
3A
  3
Conceptual
350
34
  3
Dim
350
35
  3
Facepattern
350
39
  3
Flat
350
2B
  3
FlatWithEdges
350
2C
  3
Gouraud
350
2D
  3
GouraudWithEdges
350
2E
  3
Linepattern
350
38
  3
Realistic
350
33
  3
Thicken
350
37
  0
LAYOUT
  5
1E
102
{ACAD_REACTORS
330
1A
102
}
330
1A
100
AcDbPlotSettings
  1

  2
none_device
  4

  6

 40
0.0
 41
0.0
 42
0.0
 43
0.0
 44
0.0
 45
0.0
 46
0.0
 47
0.0
 48
0.0
 49
0.0
140
0.0
141
0.0
142
1.0
143
1.0
 70
   688
 72
     0
 73
     0
 74
     5
  7

 75
    16
147
1.0
148
0.0
149
0.0
100
AcDbLayout
  1
Layout1
 70
     1
 71
     1
 10
0.0
 20
0.0
 11
12.0
 21
9.0
 12
0.0
 22
0.0
 32
0.0
 14
1.000000000000000E+20
 24
1.000000000000000E+20
 34
1.000000000000000E+20
 15
-1.000000000000000E+20
 25
-1.000000000000000E+20
 35
-1.000000000000000E+20
146
0.0
 13
0.0
 23
0.0
 33
0.0
 16
1.0
 26
0.0
 36
0.0
 17
0.0
 27
1.0
 37
0.0
 76
     0
330
1B
  0
LAYOUT
  5
26
102
{ACAD_REACTORS
330
1A
102
}
330
1A
100
AcDbPlotSettings
  1

  2
none_device
  4

  6

 40
0.0
 41
0.0
 42
0.0
 43
0.0
 44
0.0
 45
0.0
 46
0.0
 47
0.0
 48
0.0
 49
0.0
140
0.0
141
0.0
142
1.0
143
1.0
 70
   688
 72
     0
 73
     0
 74
     5
  7

 75
    16
147
1.0
148
0.0
149
0.0
100
AcDbLayout
  1
Layout2
 70
     1
 71
     2
 10
0.0
 20
0.0
 11
0.0
 21
0.0
 12
0.0
 22
0.0
 32
0.0
 14
0.0
 24
0.0
 34
0.0
 15
0.0
 25
0.0
 35
0.0
146
0.0
 13
0.0
 23
0.0
 33
0.0
 16
1.0
 26
0.0
 36
0.0
 17
0.0
 27
1.0
 37
0.0
 76
     0
330
23
  0
LAYOUT
  5
22
102
{ACAD_REACTORS
330
1A
102
}
330
1A
100
AcDbPlotSettings
  1

  2
none_device
  4

  6

 40
0.0
 41
0.0
 42
0.0
 43
0.0
 44
0.0
 45
0.0
 46
0.0
 47
0.0
 48
0.0
 49
0.0
140
0.0
141
0.0
142
1.0
143
1.0
 70
  1712
 72
     0
 73
     0
 74
     0
  7

 75
     0
147
1.0
148
0.0
149
0.0
100
AcDbLayout
  1
Model
 70
     1
 71
     0
 10
0.0
 20
0.0
 11
12.0
 21
9.0
 12
0.0
 22
0.0
 32
0.0
 14
1.000000000000000E+20
 24
1.000000000000000E+20
 34
1.000000000000000E+20
 15
-1.000000000000000E+20
 25
-1.000000000000000E+20
 35
-1.000000000000000E+20
146
0.0
 13
0.0
 23
0.0
 33
0.0
 16
1.0
 26
0.0
 36
0.0
 17
0.0
 27
1.0
 37
0.0
 76
     0
330
1F
331
29
  0
MLINESTYLE
  5
18
102
{ACAD_REACTORS
330
17
102
}
330
17
100
AcDbMlineStyle
  2
Standard
 70
     0
  3

 62
   256
 51
90.0
 52
90.0
 71
     2
 49
0.5
 62
   256
  6
BYLAYER
 49
-0.5
 62
   256
  6
BYLAYER
  0
ACDBPLACEHOLDER
  5
F
102
{ACAD_REACTORS
330
E
102
}
330
E
  0
VISUALSTYLE
  5
2F
102
{ACAD_REACTORS
330
2A
102
}
330
2A
100
AcDbVisualStyle
  2
2dWireframe
 70
     4
 71
     0
 72
     2
 73
     0
 90
        0
 40
-0.6
 41
-30.0
 62
     5
 63
     7
 74
     1
 91
        4
 64
     7
 65
   257
 75
     1
175
     1
 42
1.0
 92
        0
 66
   257
 43
1.0
 76
     1
 77
     6
 78
     2
 67
     7
 79
     5
170
     0
171
     0
290
     0
174
     0
 93
        1
 44
0.0
173
     0
291
     0
 45
0.0
1001
ACAD
1000
AcDbSavedByObjectVersion
1070
     0
  0
VISUALSTYLE
  5
31
102
{ACAD_REACTORS
330
2A
102
}
330
2A
100
AcDbVisualStyle
  2
3D Hidden
 70
     6
 71
     1
 72
     2
 73
     2
 90
        0
 40
-0.6
 41
-30.0
 62
     5
 63
     7
 74
     2
 91
        2
 64
     7
 65
   257
 75
     2
175
     1
 42
40.0
 92
        0
 66
   257
 43
1.0
 76
     1
 77
     6
 78
     2
 67
     7
 79
     3
170
     0
171
     0
290
     0
174
     0
 93
        1
 44
0.0
173
     0
291
     0
 45
0.0
1001
ACAD
1000
AcDbSavedByObjectVersion
1070
     0
  0
VISUALSTYLE
  5
30
102
{ACAD_REACTORS
330
2A
102
}
330
2A
100
AcDbVisualStyle
  2
3dWireframe
 70
     5
 71
     0
 72
     2
 73
     0
 90
        0
 40
-0.6
 41
-30.0
 62
     5
 63
     7
 74
     1
 91
        4
 64
     7
 65
   257
 75
     1
175
     1
 42
1.0
 92
        0
 66
   257
 43
1.0
 76
     1
 77
     6
 78
     2
 67
     7
 79
     5
170
     0
171
     0
290
     0
174
     0
 93
        1
 44
0.0
173
     0
291
     0
 45
0.0
1001
ACAD
1000
AcDbSavedByObjectVersion
1070
     0
  0
VISUALSTYLE
  5
32
102
{ACAD_REACTORS
330
2A
102
}
330
2A
100
AcDbVisualStyle
  2
Basic
 70
     7
 71
     1
 72
     0
 73
     1
 90
        0
 40
-0.6
 41
-30.0
 62
     5
 63
     7
 74
     0
 91
        4
 64
     7
 65
   257
 75
     1
175
     1
 42
1.0
 92
        8
 66
     7
 43
1.0
 76
     1
 77
     6
 78
     2
 67
     7
 79
     5
170
     0
171
     0
290
     0
174
     0
 93
        1
 44
0.0
173
     0
291
     1
 45
0.0
1001
ACAD
1000
AcDbSavedByObjectVersion
1070
     0
  0
VISUALSTYLE
  5
36
102
{ACAD_REACTORS
330
2A
102
}
330
2A
100
AcDbVisualStyle
  2
Brighten
 70
    12
 71
     2
 72
     2
 73
     0
 90
        0
 40
-0.6
 41
-30.0
 62
     5
 63
     7
 74
     1
 91
        4
 64
     7
 65
   257
 75
     1
175
     1
 42
1.0
 92
        8
 66
     7
 43
1.0
 76
     1
 77
     6
 78
     2
 67
     7
 79
     5
170
     0
171
     0
290
     0
174
     0
 93
        1
 44
50.0
173
     0
291
     1
 45
0.0
1001
ACAD
1000
AcDbSavedByObjectVersion
1070
     0
  0
VISUALSTYLE
  5
3A
102
{ACAD_REACTORS
330
2A
102
}
330
2A
100
AcDbVisualStyle
  2
ColorChange
 70
    16
 71
     2
 72
     2
 73
     3
 90
        0
 40
-0.6
 41
-30.0
 62
     5
 63
     8
 74
     1
 91
        4
 64
     7
 65
   257
 75
     1
175
     1
 42
1.0
 92
        8
 66
     8
 43
1.0
 76
     1
 77
     6
 78
     2
 67
     7
 79
     5
170
     0
171
     0
290
     0
174
     0
 93
        1
 44
0.0
173
     0
291
     1
 45
0.0
1001
ACAD
1000
AcDbSavedByObjectVersion
1070
     0
  0
VISUALSTYLE
  5
34
102
{ACAD_REACTORS
330
2A
102
}
330
2A
100
AcDbVisualStyle
  2
Conceptual
 70
     9
 71
     3
 72
     2
 73
     0
 90
        0
 40
-0.6
 41
-30.0
 62
     5
 63
     7
 74
     2
 91
        2
 64
     7
 65
   257
 75
     1
175
     1
 42
40.0
 92
        8
 66
     7
 43
1.0
 76
     1
 77
     6
 78
     2
 67
     7
 79
     3
170
     0
171
     0
290
     0
174
     0
 93
        1
 44
0.0
173
     0
291
     0
 45
0.0
1001
ACAD
1000
AcDbSavedByObjectVersion
1070
     0
  0
VISUALSTYLE
  5
35
102
{ACAD_REACTORS
330
2A
102
}
330
2A
100
AcDbVisualStyle
  2
Dim
 70
    11
 71
     2
 72
     2
 73
     0
 90
        0
 40
-0.6
 41
-30.0
 62
     5
 63
     7
 74
     1
 91
        4
 64
     7
 65
   257
 75
     1
175
     1
 42
1.0
 92
        8
 66
     7
 43
1.0
 76
     1
 77
     6
 78
     2
 67
     7
 79
     5
170
     0
171
     0
290
     0
174
     0
 93
        1
 44
-50.0
173
     0
291
     1
 45
0.0
1001
ACAD
1000
AcDbSavedByObjectVersion
1070
     0
  0
VISUALSTYLE
  5
39
102
{ACAD_REACTORS
330
2A
102
}
330
2A
100
AcDbVisualStyle
  2
Facepattern
 70
    15
 71
     2
 72
     2
 73
     0
 90
        0
 40
-0.6
 41
-30.0
 62
     5
 63
     7
 74
     1
 91
        4
 64
     7
 65
   257
 75
     1
175
     1
 42
1.0
 92
        8
 66
     7
 43
1.0
 76
     1
 77
     6
 78
     2
 67
     7
 79
     5
170
     0
171
     0
290
     0
174
     0
 93
        1
 44
0.0
173
     0
291
     1
 45
0.0
1001
ACAD
1000
AcDbSavedByObjectVersion
1070
     0
  0
VISUALSTYLE
  5
2B
102
{ACAD_REACTORS
330
2A
102
}
330
2A
100
AcDbVisualStyle
  2
Flat
 70
     0
 71
     2
 72
     1
 73
     1
 90
        2
 40
-0.6
 41
30.0
 62
     5
 63
     7
 74
     0
 91
        4
 64
     7
 65
   257
 75
     1
175
     1
 42
1.0
 92
        8
 66
     7
 43
1.0
 76
     1
 77
     6
 78
     2
 67
     7
 79
     5
170
     0
171
     0
290
     0
174
     0
 93
       13
 44
0.0
173
     0
291
     1
 45
0.0
1001
ACAD
1000
AcDbSavedByObjectVersion
1070
     0
  0
VISUALSTYLE
  5
2C
102
{ACAD_REACTORS
330
2A
102
}
330
2A
100
AcDbVisualStyle
  2
FlatWithEdges
 70
     1
 71
     2
 72
     1
 73
     1
 90
        2
 40
-0.6
 41
30.0
 62
     5
 63
     7
 74
     1
 91
        4
 64
     7
 65
   257
 75
     1
175
     1
 42
1.0
 92
        0
 66
   257
 43
1.0
 76
     1
 77
     6
 78
     2
 67
     7
 79
     5
170
     0
171
     0
290
     0
174
     0
 93
       13
 44
0.0
173
     0
291
     1
 45
0.0
1001
ACAD
1000
AcDbSavedByObjectVersion
1070
     0
  0
VISUALSTYLE
  5
2D
102
{ACAD_REACTORS
330
2A
102
}
330
2A
100
AcDbVisualStyle
  2
Gouraud
 70
     2
 71
     2
 72
     2
 73
     1
 90
        2
 40
-0.6
 41
30.0
 62
     5
 63
     7
 74
     0
 91
        4
 64
     7
 65
   257
 75
     1
175
     1
 42
1.0
 92
        0
 66
     7
 43
1.0
 76
     1
 77
     6
 78
     2
 67
     7
 79
     5
170
     0
171
     0
290
     0
174
     0
 93
       13
 44
0.0
173
     0
291
     1
 45
0.0
1001
ACAD
1000
AcDbSavedByObjectVersion
1070
     0
  0
VISUALSTYLE
  5
2E
102
{ACAD_REACTORS
330
2A
102
}
330
2A
100
AcDbVisualStyle
  2
GouraudWithEdges
 70
     3
 71
     2
 72
     2
 73
     1
 90
        2
 40
-0.6
 41
30.0
 62
     5
 63
     7
 74
     1
 91
        4
 64
     7
 65
   257
 75
     1
175
     1
 42
1.0
 92
        0
 66
   257
 43
1.0
 76
     1
 77
     6
 78
     2
 67
     7
 79
     5
170
     0
171
     0
290
     0
174
     0
 93
       13
 44
0.0
173
     0
291
     1
 45
0.0
1001
ACAD
1000
AcDbSavedByObjectVersion
1070
     0
  0
VISUALSTYLE
  5
38
102
{ACAD_REACTORS
330
2A
102
}
330
2A
100
AcDbVisualStyle
  2
Linepattern
 70
    14
 71
     2
 72
     2
 73
     0
 90
        0
 40
-0.6
 41
-30.0
 62
     5
 63
     7
 74
     1
 91
        4
 64
     7
 65
   257
 75
     7
175
     7
 42
1.0
 92
        8
 66
     7
 43
1.0
 76
     1
 77
     6
 78
     2
 67
     7
 79
     5
170
     0
171
     0
290
     0
174
     0
 93
        1
 44
0.0
173
     0
291
     1
 45
0.0
1001
ACAD
1000
AcDbSavedByObjectVersion
1070
     0
  0
VISUALSTYLE
  5
33
102
{ACAD_REACTORS
330
2A
102
}
330
2A
100
AcDbVisualStyle
  2
Realistic
 70
     8
 71
     2
 72
     2
 73
     0
 90
        0
 40
-0.6
 41
-30.0
 62
     5
 63
     7
 74
     1
 91
        0
 64
     7
 65
   257
 75
     1
175
     1
 42
1.0
 92
        8
 66
     8
 43
1.0
 76
     1
 77
     6
 78
     2
 67
     7
 79
     5
170
     0
171
     0
290
     0
174
     0
 93
       13
 44
0.0
173
     0
291
     0
 45
0.0
1001
ACAD
1000
AcDbSavedByObjectVersion
1070
     0
  0
VISUALSTYLE
  5
37
102
{ACAD_REACTORS
330
2A
102
}
330
2A
100
AcDbVisualStyle
  2
Thicken
 70
    13
 71
     2
 72
     2
 73
     0
 90
        0
 40
-0.6
 41
-30.0
 62
     5
 63
     7
 74
     1
 91
        4
 64
     7
 65
   257
 75
     1
175
     1
 42
1.0
 92
       12
 66
     7
 43
1.0
 76
     1
 77
     6
 78
     2
 67
     7
 79
     5
170
     0
171
     0
290
     0
174
     0
 93
        1
 44
0.0
173
     0
291
     1
 45
0.0
1001
ACAD
1000
AcDbSavedByObjectVersion
1070
     0
  0
ENDSEC
  0
EOF
