  0
SECTION
  2
HEADER
  9
$ACADVER
  1
AC1018
  9
$ACADMAINTVER
 70
     0
  9
$DWGCODEPAGE
  3
ASCII
  9
$INSBASE
 10
0.0
 20
0.0
 30
0.0
  9
$EXTMIN
 10
1.000000000000000E+20
 20
1.000000000000000E+20
 30
1.000000000000000E+20
  9
$EXTMAX
 10
-1.000000000000000E+20
 20
-1.000000000000000E+20
 30
-1.000000000000000E+20
  9
$LIMMIN
 10
0.0
 20
0.0
  9
$LIMMAX
 10
12.0
 20
9.0
  9
$ORTHOMODE
 70
     0
  9
$REGENMODE
 70
     1
  9
$FILLMODE
 70
     1
  9
$QTEXTMODE
 70
     0
  9
$MIRRTEXT
 70
     1
  9
$LTSCALE
 40
1.0
  9
$ATTMODE
 70
     1
  9
$TEXTSIZE
 40
0.2
  9
$TRACEWID
 40
0.05
  9
$TEXTSTYLE
  7
Standard
  9
$CLAYER
  8
0
  9
$CELTYPE
  6
ByLayer
  9
$CECOLOR
 62
   256
  9
$CELTSCALE
 40
1.0
  9
$DISPSILH
 70
     0
  9
$DIMSCALE
 40
1.0
  9
$DIMASZ
 40
0.18
  9
$DIMEXO
 40
0.0625
  9
$DIMDLI
 40
0.38
  9
$DIMRND
 40
0.0
  9
$DIMDLE
 40
0.0
  9
$DIMEXE
 40
0.18
  9
$DIMTP
 40
0.0
  9
$DIMTM
 40
0.0
  9
$DIMTXT
 40
0.18
  9
$DIMCEN
 40
0.09
  9
$DIMTSZ
 40
0.0
  9
$DIMTOL
 70
     0
  9
$DIMLIM
 70
     0
  9
$DIMTIH
 70
     1
  9
$DIMTOH
 70
     1
  9
$DIMSE1
 70
     0
  9
$DIMSE2
 70
     0
  9
$DIMTAD
 70
     0
  9
$DIMZIN
 70
     0
  9
$DIMBLK
  1

  9
$DIMASO
 70
     1
  9
$DIMSHO
 70
     1
  9
$DIMPOST
  1

  9
$DIMAPOST
  1

  9
$DIMALT
 70
     0
  9
$DIMALTD
 70
     2
  9
$DIMALTF
 40
25.4
  9
$DIMLFAC
 40
1.0
  9
$DIMTOFL
 70
     0
  9
$DIMTVP
 40
0.0
  9
$DIMTIX
 70
     0
  9
$DIMSOXD
 70
     0
  9
$DIMSAH
 70
     0
  9
$DIMBLK1
  1

  9
$DIMBLK2
  1

  9
$DIMSTYLE
  2
Standard
  9
$DIMCLRD
 70
     0
  9
$DIMCLRE
 70
     0
  9
$DIMCLRT
 70
     0
  9
$DIMTFAC
 40
1.0
  9
$DIMGAP
 40
0.09
  9
$DIMJUST
 70
     0
  9
$DIMSD1
 70
     0
  9
$DIMSD2
 70
     0
  9
$DIMTOLJ
 70
     1
  9
$DIMTZIN
 70
     0
  9
$DIMALTZ
 70
     0
  9
$DIMALTTZ
 70
     0
  9
$DIMUPT
 70
     0
  9
$DIMDEC
 70
     4
  9
$DIMTDEC
 70
     4
  9
$DIMALTU
 70
     2
  9
$DIMALTTD
 70
     2
  9
$DIMTXSTY
  7
Standard
  9
$DIMAUNIT
 70
     0
  9
$DIMADEC
 70
     0
  9
$DIMALTRND
 40
0.0
  9
$DIMAZIN
 70
     0
  9
$DIMDSEP
 70
    46
  9
$DIMATFIT
 70
     3
  9
$DIMFRAC
 70
     0
  9
$DIMLDRBLK
  1

  9
$DIMLUNIT
 70
     2
  9
$DIMLWD
 70
    -2
  9
$DIMLWE
 70
    -2
  9
$DIMTMOVE
 70
     0
  9
$LUNITS
 70
     2
  9
$LUPREC
 70
     4
  9
$SKETCHINC
 40
0.1
  9
$FILLETRAD
 40
0.5
  9
$AUNITS
 70
     0
  9
$AUPREC
 70
     0
  9
$MENU
  1
.
  9
$ELEVATION
 40
0.0
  9
$PELEVATION
 40
0.0
  9
$THICKNESS
 40
0.0
  9
$LIMCHECK
 70
     0
  9
$CHAMFERA
 40
0.5
  9
$CHAMFERB
 40
0.5
  9
$CHAMFERC
 40
1.0
  9
$CHAMFERD
 40
0.0
  9
$SKPOLY
 70
     0
  9
$TDCREATE
 40
2456432.043529178
  9
$TDUCREATE
 40
2456431.960195845
  9
$TDUPDATE
 40
2456432.04352919
  9
$TDUUPDATE
 40
2456431.960195857
  9
$TDINDWG
 40
0.0000000116
  9
$TDUSRTIMER
 40
0.0000000116
  9
$USRTIMER
 70
     1
  9
$ANGBASE
 50
0.0
  9
$ANGDIR
 70
     0
  9
$PDMODE
 70
     0
  9
$PDSIZE
 40
0.0
  9
$PLINEWID
 40
0.0
  9
$SPLFRAME
 70
     0
  9
$SPLINETYPE
 70
     6
  9
$SPLINESEGS
 70
     8
  9
$HANDSEED
  5
759
  9
$SURFTAB1
 70
     6
  9
$SURFTAB2
 70
     6
  9
$SURFTYPE
 70
     6
  9
$SURFU
 70
     6
  9
$SURFV
 70
     6
  9
$UCSBASE
  2

  9
$UCSNAME
  2

  9
$UCSORG
 10
0.0
 20
0.0
 30
0.0
  9
$UCSXDIR
 10
1.0
 20
0.0
 30
0.0
  9
$UCSYDIR
 10
0.0
 20
1.0
 30
0.0
  9
$UCSORTHOREF
  2

  9
$UCSORTHOVIEW
 70
     0
  9
$UCSORGTOP
 10
0.0
 20
0.0
 30
0.0
  9
$UCSORGBOTTOM
 10
0.0
 20
0.0
 30
0.0
  9
$UCSORGLEFT
 10
0.0
 20
0.0
 30
0.0
  9
$UCSORGRIGHT
 10
0.0
 20
0.0
 30
0.0
  9
$UCSORGFRONT
 10
0.0
 20
0.0
 30
0.0
  9
$UCSORGBACK
 10
0.0
 20
0.0
 30
0.0
  9
$PUCSBASE
  2

  9
$PUCSNAME
  2

  9
$PUCSORG
 10
0.0
 20
0.0
 30
0.0
  9
$PUCSXDIR
 10
1.0
 20
0.0
 30
0.0
  9
$PUCSYDIR
 10
0.0
 20
1.0
 30
0.0
  9
$PUCSORTHOREF
  2

  9
$PUCSORTHOVIEW
 70
     0
  9
$PUCSORGTOP
 10
0.0
 20
0.0
 30
0.0
  9
$PUCSORGBOTTOM
 10
0.0
 20
0.0
 30
0.0
  9
$PUCSORGLEFT
 10
0.0
 20
0.0
 30
0.0
  9
$PUCSORGRIGHT
 10
0.0
 20
0.0
 30
0.0
  9
$PUCSORGFRONT
 10
0.0
 20
0.0
 30
0.0
  9
$PUCSORGBACK
 10
0.0
 20
0.0
 30
0.0
  9
$USERI1
 70
     0
  9
$USERI2
 70
     0
  9
$USERI3
 70
     0
  9
$USERI4
 70
     0
  9
$USERI5
 70
     0
  9
$USERR1
 40
0.0
  9
$USERR2
 40
0.0
  9
$USERR3
 40
0.0
  9
$USERR4
 40
0.0
  9
$USERR5
 40
0.0
  9
$WORLDVIEW
 70
     1
  9
$SHADEDGE
 70
     3
  9
$SHADEDIF
 70
    70
  9
$TILEMODE
 70
     1
  9
$MAXACTVP
 70
    64
  9
$PINSBASE
 10
0.0
 20
0.0
 30
0.0
  9
$PLIMCHECK
 70
     0
  9
$PEXTMIN
 10
1.000000000000000E+20
 20
1.000000000000000E+20
 30
1.000000000000000E+20
  9
$PEXTMAX
 10
-1.000000000000000E+20
 20
-1.000000000000000E+20
 30
-1.000000000000000E+20
  9
$PLIMMIN
 10
0.0
 20
0.0
  9
$PLIMMAX
 10
12.0
 20
9.0
  9
$UNITMODE
 70
     0
  9
$VISRETAIN
 70
     1
  9
$PLINEGEN
 70
     0
  9
$PSLTSCALE
 70
     1
  9
$TREEDEPTH
 70
  3020
  9
$CMLSTYLE
  2
Standard
  9
$CMLJUST
 70
     0
  9
$CMLSCALE
 40
1.0
  9
$PROXYGRAPHICS
 70
     1
  9
$MEASUREMENT
 70
     0
  9
$CELWEIGHT
370
    -1
  9
$ENDCAPS
280
     0
  9
$JOINSTYLE
280
     0
  9
$LWDISPLAY
290
     1
  9
$INSUNITS
 70
     1
  9
$HYPERLINKBASE
  1

  9
$STYLESHEET
  1

  9
$XEDIT
290
     1
  9
$CEPSNTYPE
380
     0
  9
$PSTYLEMODE
290
     1
  9
$FINGERPRINTGUID
  2
{DC57E9AC-E950-451D-9182-BC90D3750B90}
  9
$VERSIONGUID
  2
{FAEB1C32-E019-11D5-929B-00C0DF256EC4}
  9
$EXTNAMES
290
     1
  9
$PSVPSCALE
 40
0.0
  9
$OLESTARTUP
290
     0
  9
$SORTENTS
280
   127
  9
$INDEXCTL
280
     0
  9
$HIDETEXT
280
     1
  9
$XCLIPFRAME
290
     0
  9
$HALOGAP
280
     0
  9
$OBSCOLOR
 70
   257
  9
$OBSLTYPE
280
     0
  9
$INTERSECTIONDISPLAY
280
     0
  9
$INTERSECTIONCOLOR
 70
   257
  9
$DIMASSOC
280
     2
  9
$PROJECTNAME
  1

  0
ENDSEC
  0
SECTION
  2
CLASSES
  0
CLASS
  1
ACDBDICTIONARYWDFLT
  2
AcDbDictionaryWithDefault
  3
ObjectDBX Classes
 90
        0
 91
        3
280
     0
281
     0
  0
CLASS
  1
VISUALSTYLE
  2
AcDbVisualStyle
  3
ObjectDBX Classes
 90
     4095
 91
        3
280
     0
281
     0
  0
ENDSEC
  0
SECTION
  2
TABLES
  0
TABLE
  2
VPORT
  5
8
330
0
100
AcDbSymbolTable
 70
     1
  0
VPORT
  5
29
330
8
100
AcDbSymbolTableRecord
100
AcDbViewportTableRecord
  2
*Active
 70
     0
 10
0.0
 20
0.0
 11
1.0
 21
1.0
 12
0.0
 22
0.0
 13
0.0
 23
0.0
 14
0.5
 24
0.5
 15
0.5
 25
0.5
 16
0.0
 26
0.0
 36
1.0
 17
105.0000339769321
 27
148.4997330727233
 37
0.0
 40
297.0001551649982
 41
0.7070705664688927
 42
50.0
 43
0.0
 44
0.0
 50
0.0
 51
0.0
 71
     0
 72
   100
 73
     1
 74
     3
 75
     0
 76
     0
 77
     0
 78
     0
281
     0
 65
     1
110
0.0
120
0.0
130
0.0
111
1.0
121
0.0
131
0.0
112
0.0
122
1.0
132
0.0
 79
     0
146
0.0
  0
ENDTAB
  0
TABLE
  2
LTYPE
  5
5
330
0
100
AcDbSymbolTable
 70
    21
  0
LTYPE
  5
14
330
5
100
AcDbSymbolTableRecord
100
AcDbLinetypeTableRecord
  2
ByBlock
 70
     0
  3

 72
    65
 73
     0
 40
0.0
  0
LTYPE
  5
15
330
5
100
AcDbSymbolTableRecord
100
AcDbLinetypeTableRecord
  2
ByLayer
 70
     0
  3

 72
    65
 73
     0
 40
0.0
  0
LTYPE
  5
16
330
5
100
AcDbSymbolTableRecord
100
AcDbLinetypeTableRecord
  2
Continuous
 70
     0
  3
Solid line
 72
    65
 73
     0
 40
0.0
  0
LTYPE
  5
22B
330
5
100
AcDbSymbolTableRecord
100
AcDbLinetypeTableRecord
  2
AI-Linetype-1
 70
     0
  3
Adobe Illustrator Linetype No. 1
 72
    65
 73
     4
 40
58.40472479608746
 49
36.50292625094609
 74
     0
 49
-7.300599515047121
 74
     0
 49
7.300599515047121
 74
     0
 49
-7.300599515047121
 74
     0
  0
LTYPE
  5
234
330
5
100
AcDbSymbolTableRecord
100
AcDbLinetypeTableRecord
  2
AI-Linetype-2
 70
     0
  3
Adobe Illustrator Linetype No. 2
 72
    65
 73
     4
 40
58.40472479608746
 49
36.50292625094609
 74
     0
 49
-7.300599515047121
 74
     0
 49
7.300599515047121
 74
     0
 49
-7.300599515047121
 74
     0
  0
LTYPE
  5
23D
330
5
100
AcDbSymbolTableRecord
100
AcDbLinetypeTableRecord
  2
AI-Linetype-3
 70
     0
  3
Adobe Illustrator Linetype No. 3
 72
    65
 73
     4
 40
58.40472479608746
 49
36.50292625094609
 74
     0
 49
-7.300599515047121
 74
     0
 49
7.300599515047121
 74
     0
 49
-7.300599515047121
 74
     0
  0
LTYPE
  5
246
330
5
100
AcDbSymbolTableRecord
100
AcDbLinetypeTableRecord
  2
AI-Linetype-4
 70
     0
  3
Adobe Illustrator Linetype No. 4
 72
    65
 73
     4
 40
58.40472479608746
 49
36.50292625094609
 74
     0
 49
-7.300599515047121
 74
     0
 49
7.300599515047121
 74
     0
 49
-7.300599515047121
 74
     0
  0
LTYPE
  5
24F
330
5
100
AcDbSymbolTableRecord
100
AcDbLinetypeTableRecord
  2
AI-Linetype-5
 70
     0
  3
Adobe Illustrator Linetype No. 5
 72
    65
 73
     4
 40
58.40472479608746
 49
36.50292625094609
 74
     0
 49
-7.300599515047121
 74
     0
 49
7.300599515047121
 74
     0
 49
-7.300599515047121
 74
     0
  0
LTYPE
  5
258
330
5
100
AcDbSymbolTableRecord
100
AcDbLinetypeTableRecord
  2
AI-Linetype-6
 70
     0
  3
Adobe Illustrator Linetype No. 6
 72
    65
 73
     4
 40
58.40472479608746
 49
36.50292625094609
 74
     0
 49
-7.300599515047121
 74
     0
 49
7.300599515047121
 74
     0
 49
-7.300599515047121
 74
     0
  0
LTYPE
  5
25E
330
5
100
AcDbSymbolTableRecord
100
AcDbLinetypeTableRecord
  2
AI-Linetype-7
 70
     0
  3
Adobe Illustrator Linetype No. 7
 72
    65
 73
     6
 40
2.116668062491661
 49
0.3527780104152769
 74
     0
 49
-0.3527780104152769
 74
     0
 49
0.3527780104152769
 74
     0
 49
-0.3527780104152769
 74
     0
 49
0.3527780104152769
 74
     0
 49
-0.3527780104152769
 74
     0
  0
LTYPE
  5
264
330
5
100
AcDbSymbolTableRecord
100
AcDbLinetypeTableRecord
  2
AI-Linetype-8
 70
     0
  3
Adobe Illustrator Linetype No. 8
 72
    65
 73
     6
 40
2.116668062491661
 49
0.3527780104152769
 74
     0
 49
-0.3527780104152769
 74
     0
 49
0.3527780104152769
 74
     0
 49
-0.3527780104152769
 74
     0
 49
0.3527780104152769
 74
     0
 49
-0.3527780104152769
 74
     0
  0
LTYPE
  5
26D
330
5
100
AcDbSymbolTableRecord
100
AcDbLinetypeTableRecord
  2
AI-Linetype-9
 70
     0
  3
Adobe Illustrator Linetype No. 9
 72
    65
 73
     6
 40
2.116668062491661
 49
0.3527780104152769
 74
     0
 49
-0.3527780104152769
 74
     0
 49
0.3527780104152769
 74
     0
 49
-0.3527780104152769
 74
     0
 49
0.3527780104152769
 74
     0
 49
-0.3527780104152769
 74
     0
  0
LTYPE
  5
276
330
5
100
AcDbSymbolTableRecord
100
AcDbLinetypeTableRecord
  2
AI-Linetype-10
 70
     0
  3
Adobe Illustrator Linetype No. 10
 72
    65
 73
     6
 40
2.116668062491661
 49
0.3527780104152769
 74
     0
 49
-0.3527780104152769
 74
     0
 49
0.3527780104152769
 74
     0
 49
-0.3527780104152769
 74
     0
 49
0.3527780104152769
 74
     0
 49
-0.3527780104152769
 74
     0
  0
LTYPE
  5
27F
330
5
100
AcDbSymbolTableRecord
100
AcDbLinetypeTableRecord
  2
AI-Linetype-11
 70
     0
  3
Adobe Illustrator Linetype No. 11
 72
    65
 73
     4
 40
58.40472479608746
 49
36.50292625094609
 74
     0
 49
-7.300599515047121
 74
     0
 49
7.300599515047121
 74
     0
 49
-7.300599515047121
 74
     0
  0
LTYPE
  5
288
330
5
100
AcDbSymbolTableRecord
100
AcDbLinetypeTableRecord
  2
AI-Linetype-12
 70
     0
  3
Adobe Illustrator Linetype No. 12
 72
    65
 73
     4
 40
58.40472479608746
 49
36.50292625094609
 74
     0
 49
-7.300599515047121
 74
     0
 49
7.300599515047121
 74
     0
 49
-7.300599515047121
 74
     0
  0
LTYPE
  5
28E
330
5
100
AcDbSymbolTableRecord
100
AcDbLinetypeTableRecord
  2
AI-Linetype-13
 70
     0
  3
Adobe Illustrator Linetype No. 13
 72
    65
 73
     6
 40
2.116668062491661
 49
0.3527780104152769
 74
     0
 49
-0.3527780104152769
 74
     0
 49
0.3527780104152769
 74
     0
 49
-0.3527780104152769
 74
     0
 49
0.3527780104152769
 74
     0
 49
-0.3527780104152769
 74
     0
  0
LTYPE
  5
294
330
5
100
AcDbSymbolTableRecord
100
AcDbLinetypeTableRecord
  2
AI-Linetype-14
 70
     0
  3
Adobe Illustrator Linetype No. 14
 72
    65
 73
     6
 40
2.116668062491661
 49
0.3527780104152769
 74
     0
 49
-0.3527780104152769
 74
     0
 49
0.3527780104152769
 74
     0
 49
-0.3527780104152769
 74
     0
 49
0.3527780104152769
 74
     0
 49
-0.3527780104152769
 74
     0
  0
LTYPE
  5
29D
330
5
100
AcDbSymbolTableRecord
100
AcDbLinetypeTableRecord
  2
AI-Linetype-15
 70
     0
  3
Adobe Illustrator Linetype No. 15
 72
    65
 73
     6
 40
2.116668062491661
 49
0.3527780104152769
 74
     0
 49
-0.3527780104152769
 74
     0
 49
0.3527780104152769
 74
     0
 49
-0.3527780104152769
 74
     0
 49
0.3527780104152769
 74
     0
 49
-0.3527780104152769
 74
     0
  0
LTYPE
  5
2A6
330
5
100
AcDbSymbolTableRecord
100
AcDbLinetypeTableRecord
  2
AI-Linetype-16
 70
     0
  3
Adobe Illustrator Linetype No. 16
 72
    65
 73
     6
 40
2.116668062491661
 49
0.3527780104152769
 74
     0
 49
-0.3527780104152769
 74
     0
 49
0.3527780104152769
 74
     0
 49
-0.3527780104152769
 74
     0
 49
0.3527780104152769
 74
     0
 49
-0.3527780104152769
 74
     0
  0
LTYPE
  5
59E
330
5
100
AcDbSymbolTableRecord
100
AcDbLinetypeTableRecord
  2
AI-Linetype-17
 70
     0
  3
Adobe Illustrator Linetype No. 17
 72
    65
 73
     4
 40
58.40472479608746
 49
36.50292625094609
 74
     0
 49
-7.300599515047121
 74
     0
 49
7.300599515047121
 74
     0
 49
-7.300599515047121
 74
     0
  0
LTYPE
  5
5A7
330
5
100
AcDbSymbolTableRecord
100
AcDbLinetypeTableRecord
  2
AI-Linetype-18
 70
     0
  3
Adobe Illustrator Linetype No. 18
 72
    65
 73
     4
 40
58.40472479608746
 49
36.50292625094609
 74
     0
 49
-7.300599515047121
 74
     0
 49
7.300599515047121
 74
     0
 49
-7.300599515047121
 74
     0
  0
LTYPE
  5
5B0
330
5
100
AcDbSymbolTableRecord
100
AcDbLinetypeTableRecord
  2
AI-Linetype-19
 70
     0
  3
Adobe Illustrator Linetype No. 19
 72
    65
 73
     4
 40
58.40472479608746
 49
36.50292625094609
 74
     0
 49
-7.300599515047121
 74
     0
 49
7.300599515047121
 74
     0
 49
-7.300599515047121
 74
     0
  0
LTYPE
  5
5B9
330
5
100
AcDbSymbolTableRecord
100
AcDbLinetypeTableRecord
  2
AI-Linetype-20
 70
     0
  3
Adobe Illustrator Linetype No. 20
 72
    65
 73
     4
 40
58.40472479608746
 49
36.50292625094609
 74
     0
 49
-7.300599515047121
 74
     0
 49
7.300599515047121
 74
     0
 49
-7.300599515047121
 74
     0
  0
ENDTAB
  0
TABLE
  2
LAYER
  5
2
330
0
100
AcDbSymbolTable
 70
     2
  0
LAYER
  5
10
330
2
100
AcDbSymbolTableRecord
100
AcDbLayerTableRecord
  2
0
 70
     0
 62
     7
  6
Continuous
370
    -3
390
F
  0
LAYER
  5
3B
330
2
100
AcDbSymbolTableRecord
100
AcDbLayerTableRecord
  2
Capa 1
 70
     0
 62
     7
  6
Continuous
370
    -3
390
F
  0
ENDTAB
  0
TABLE
  2
STYLE
  5
3
330
0
100
AcDbSymbolTable
 70
     1
  0
STYLE
  5
11
330
3
100
AcDbSymbolTableRecord
100
AcDbTextStyleTableRecord
  2
Standard
 70
     0
 40
0.0
 41
1.0
 50
0.0
 71
     0
 42
0.2
  3
txt
  4

  0
ENDTAB
  0
TABLE
  2
VIEW
  5
6
330
0
100
AcDbSymbolTable
 70
     0
  0
ENDTAB
  0
TABLE
  2
UCS
  5
7
330
0
100
AcDbSymbolTable
 70
     0
  0
ENDTAB
  0
TABLE
  2
APPID
  5
9
330
0
100
AcDbSymbolTable
 70
     1
  0
APPID
  5
12
330
9
100
AcDbSymbolTableRecord
100
AcDbRegAppTableRecord
  2
ACAD
 70
     0
  0
ENDTAB
  0
TABLE
  2
DIMSTYLE
  5
A
330
0
100
AcDbSymbolTable
 70
     1
100
AcDbDimStyleTable
  0
DIMSTYLE
105
27
330
A
100
AcDbSymbolTableRecord
100
AcDbDimStyleTableRecord
  2
Standard
 70
     0
340
11
  0
ENDTAB
  0
TABLE
  2
BLOCK_RECORD
  5
1
330
0
100
AcDbSymbolTable
 70
   196
  0
BLOCK_RECORD
  5
1F
330
1
100
AcDbSymbolTableRecord
100
AcDbBlockTableRecord
  2
*Model_Space
340
22
  0
BLOCK_RECORD
  5
1B
330
1
100
AcDbSymbolTableRecord
100
AcDbBlockTableRecord
  2
*Paper_Space
340
1E
  0
BLOCK_RECORD
  5
23
330
1
100
AcDbSymbolTableRecord
100
AcDbBlockTableRecord
  2
*Paper_Space0
340
26
  0
BLOCK_RECORD
  5
3C
330
1
100
AcDbSymbolTableRecord
100
AcDbBlockTableRecord
  2
block 2
340
0
102
{BLKREFS
331
3D
102
}
  0
BLOCK_RECORD
  5
40
330
1
100
AcDbSymbolTableRecord
100
AcDbBlockTableRecord
  2
block 3
340
0
102
{BLKREFS
331
41
102
}
  0
BLOCK_RECORD
  5
48
330
1
100
AcDbSymbolTableRecord
100
AcDbBlockTableRecord
  2
block 4
340
0
102
{BLKREFS
331
49
102
}
  0
BLOCK_RECORD
  5
7F
330
1
100
AcDbSymbolTableRecord
100
AcDbBlockTableRecord
  2
block 5
340
0
102
{BLKREFS
331
80
102
}
  0
BLOCK_RECORD
  5
84
330
1
100
AcDbSymbolTableRecord
100
AcDbBlockTableRecord
  2
block 6
340
0
102
{BLKREFS
331
85
102
}
  0
BLOCK_RECORD
  5
8C
330
1
100
AcDbSymbolTableRecord
100
AcDbBlockTableRecord
  2
block 7
340
0
102
{BLKREFS
331
8D
102
}
  0
BLOCK_RECORD
  5
94
330
1
100
AcDbSymbolTableRecord
100
AcDbBlockTableRecord
  2
block 8
340
0
102
{BLKREFS
331
95
102
}
  0
BLOCK_RECORD
  5
99
330
1
100
AcDbSymbolTableRecord
100
AcDbBlockTableRecord
  2
block 9
340
0
102
{BLKREFS
331
9A
102
}
  0
BLOCK_RECORD
  5
9E
330
1
100
AcDbSymbolTableRecord
100
AcDbBlockTableRecord
  2
block 10
340
0
102
{BLKREFS
331
9F
102
}
  0
BLOCK_RECORD
  5
D2
330
1
100
AcDbSymbolTableRecord
100
AcDbBlockTableRecord
  2
block 11
340
0
102
{BLKREFS
331
D3
102
}
  0
BLOCK_RECORD
  5
106
330
1
100
AcDbSymbolTableRecord
100
AcDbBlockTableRecord
  2
block 12
340
0
102
{BLKREFS
331
107
102
}
  0
BLOCK_RECORD
  5
10B
330
1
100
AcDbSymbolTableRecord
100
AcDbBlockTableRecord
  2
block 13
340
0
102
{BLKREFS
331
10C
102
}
  0
BLOCK_RECORD
  5
110
330
1
100
AcDbSymbolTableRecord
100
AcDbBlockTableRecord
  2
block 14
340
0
102
{BLKREFS
331
111
102
}
  0
BLOCK_RECORD
  5
115
330
1
100
AcDbSymbolTableRecord
100
AcDbBlockTableRecord
  2
block 15
340
0
102
{BLKREFS
331
116
102
}
  0
BLOCK_RECORD
  5
11D
330
1
100
AcDbSymbolTableRecord
100
AcDbBlockTableRecord
  2
block 16
340
0
102
{BLKREFS
331
11E
102
}
  0
BLOCK_RECORD
  5
125
330
1
100
AcDbSymbolTableRecord
100
AcDbBlockTableRecord
  2
block 17
340
0
102
{BLKREFS
331
126
102
}
  0
BLOCK_RECORD
  5
12A
330
1
100
AcDbSymbolTableRecord
100
AcDbBlockTableRecord
  2
block 18
340
0
102
{BLKREFS
331
12B
102
}
  0
BLOCK_RECORD
  5
132
330
1
100
AcDbSymbolTableRecord
100
AcDbBlockTableRecord
  2
block 19
340
0
102
{BLKREFS
331
133
102
}
  0
BLOCK_RECORD
  5
137
330
1
100
AcDbSymbolTableRecord
100
AcDbBlockTableRecord
  2
block 20
340
0
102
{BLKREFS
331
138
102
}
  0
BLOCK_RECORD
  5
13F
330
1
100
AcDbSymbolTableRecord
100
AcDbBlockTableRecord
  2
block 21
340
0
102
{BLKREFS
331
140
102
}
  0
BLOCK_RECORD
  5
144
330
1
100
AcDbSymbolTableRecord
100
AcDbBlockTableRecord
  2
block 22
340
0
102
{BLKREFS
331
145
102
}
  0
BLOCK_RECORD
  5
149
330
1
100
AcDbSymbolTableRecord
100
AcDbBlockTableRecord
  2
block 23
340
0
102
{BLKREFS
331
14A
102
}
  0
BLOCK_RECORD
  5
151
330
1
100
AcDbSymbolTableRecord
100
AcDbBlockTableRecord
  2
block 24
340
0
102
{BLKREFS
331
152
102
}
  0
BLOCK_RECORD
  5
156
330
1
100
AcDbSymbolTableRecord
100
AcDbBlockTableRecord
  2
block 25
340
0
102
{BLKREFS
331
157
102
}
  0
BLOCK_RECORD
  5
15B
330
1
100
AcDbSymbolTableRecord
100
AcDbBlockTableRecord
  2
block 26
340
0
102
{BLKREFS
331
15C
102
}
  0
BLOCK_RECORD
  5
160
330
1
100
AcDbSymbolTableRecord
100
AcDbBlockTableRecord
  2
block 27
340
0
102
{BLKREFS
331
161
102
}
  0
BLOCK_RECORD
  5
168
330
1
100
AcDbSymbolTableRecord
100
AcDbBlockTableRecord
  2
block 28
340
0
102
{BLKREFS
331
169
102
}
  0
BLOCK_RECORD
  5
16D
330
1
100
AcDbSymbolTableRecord
100
AcDbBlockTableRecord
  2
block 29
340
0
102
{BLKREFS
331
16E
102
}
  0
BLOCK_RECORD
  5
172
330
1
100
AcDbSymbolTableRecord
100
AcDbBlockTableRecord
  2
block 30
340
0
102
{BLKREFS
331
173
102
}
  0
BLOCK_RECORD
  5
1A6
330
1
100
AcDbSymbolTableRecord
100
AcDbBlockTableRecord
  2
block 31
340
0
102
{BLKREFS
331
1A7
102
}
  0
BLOCK_RECORD
  5
1AB
330
1
100
AcDbSymbolTableRecord
100
AcDbBlockTableRecord
  2
block 32
340
0
102
{BLKREFS
331
1AC
102
}
  0
BLOCK_RECORD
  5
1B3
330
1
100
AcDbSymbolTableRecord
100
AcDbBlockTableRecord
  2
block 33
340
0
102
{BLKREFS
331
1B4
102
}
  0
BLOCK_RECORD
  5
1E7
330
1
100
AcDbSymbolTableRecord
100
AcDbBlockTableRecord
  2
block 34
340
0
102
{BLKREFS
331
1E8
102
}
  0
BLOCK_RECORD
  5
1EC
330
1
100
AcDbSymbolTableRecord
100
AcDbBlockTableRecord
  2
block 35
340
0
102
{BLKREFS
331
1ED
102
}
  0
BLOCK_RECORD
  5
1F1
330
1
100
AcDbSymbolTableRecord
100
AcDbBlockTableRecord
  2
block 36
340
0
102
{BLKREFS
331
1F2
102
}
  0
BLOCK_RECORD
  5
1F9
330
1
100
AcDbSymbolTableRecord
100
AcDbBlockTableRecord
  2
block 37
340
0
102
{BLKREFS
331
1FA
102
}
  0
BLOCK_RECORD
  5
201
330
1
100
AcDbSymbolTableRecord
100
AcDbBlockTableRecord
  2
block 38
340
0
102
{BLKREFS
331
202
102
}
  0
BLOCK_RECORD
  5
209
330
1
100
AcDbSymbolTableRecord
100
AcDbBlockTableRecord
  2
block 39
340
0
102
{BLKREFS
331
20A
102
}
  0
BLOCK_RECORD
  5
20E
330
1
100
AcDbSymbolTableRecord
100
AcDbBlockTableRecord
  2
block 40
340
0
102
{BLKREFS
331
20F
102
}
  0
BLOCK_RECORD
  5
213
330
1
100
AcDbSymbolTableRecord
100
AcDbBlockTableRecord
  2
block 41
340
0
102
{BLKREFS
331
214
102
}
  0
BLOCK_RECORD
  5
21B
330
1
100
AcDbSymbolTableRecord
100
AcDbBlockTableRecord
  2
block 42
340
0
102
{BLKREFS
331
21C
102
}
  0
BLOCK_RECORD
  5
223
330
1
100
AcDbSymbolTableRecord
100
AcDbBlockTableRecord
  2
block 43
340
0
102
{BLKREFS
331
224
102
}
  0
BLOCK_RECORD
  5
22C
330
1
100
AcDbSymbolTableRecord
100
AcDbBlockTableRecord
  2
block 44
340
0
102
{BLKREFS
331
22D
102
}
  0
BLOCK_RECORD
  5
235
330
1
100
AcDbSymbolTableRecord
100
AcDbBlockTableRecord
  2
block 45
340
0
102
{BLKREFS
331
236
102
}
  0
BLOCK_RECORD
  5
23E
330
1
100
AcDbSymbolTableRecord
100
AcDbBlockTableRecord
  2
block 46
340
0
102
{BLKREFS
331
23F
102
}
  0
BLOCK_RECORD
  5
247
330
1
100
AcDbSymbolTableRecord
100
AcDbBlockTableRecord
  2
block 47
340
0
102
{BLKREFS
331
248
102
}
  0
BLOCK_RECORD
  5
250
330
1
100
AcDbSymbolTableRecord
100
AcDbBlockTableRecord
  2
block 48
340
0
102
{BLKREFS
331
251
102
}
  0
BLOCK_RECORD
  5
259
330
1
100
AcDbSymbolTableRecord
100
AcDbBlockTableRecord
  2
block 49
340
0
102
{BLKREFS
331
25A
102
}
  0
BLOCK_RECORD
  5
25F
330
1
100
AcDbSymbolTableRecord
100
AcDbBlockTableRecord
  2
block 50
340
0
102
{BLKREFS
331
260
102
}
  0
BLOCK_RECORD
  5
265
330
1
100
AcDbSymbolTableRecord
100
AcDbBlockTableRecord
  2
block 51
340
0
102
{BLKREFS
331
266
102
}
  0
BLOCK_RECORD
  5
26E
330
1
100
AcDbSymbolTableRecord
100
AcDbBlockTableRecord
  2
block 52
340
0
102
{BLKREFS
331
26F
102
}
  0
BLOCK_RECORD
  5
277
330
1
100
AcDbSymbolTableRecord
100
AcDbBlockTableRecord
  2
block 53
340
0
102
{BLKREFS
331
278
102
}
  0
BLOCK_RECORD
  5
280
330
1
100
AcDbSymbolTableRecord
100
AcDbBlockTableRecord
  2
block 54
340
0
102
{BLKREFS
331
281
102
}
  0
BLOCK_RECORD
  5
289
330
1
100
AcDbSymbolTableRecord
100
AcDbBlockTableRecord
  2
block 55
340
0
102
{BLKREFS
331
28A
102
}
  0
BLOCK_RECORD
  5
28F
330
1
100
AcDbSymbolTableRecord
100
AcDbBlockTableRecord
  2
block 56
340
0
102
{BLKREFS
331
290
102
}
  0
BLOCK_RECORD
  5
295
330
1
100
AcDbSymbolTableRecord
100
AcDbBlockTableRecord
  2
block 57
340
0
102
{BLKREFS
331
296
102
}
  0
BLOCK_RECORD
  5
29E
330
1
100
AcDbSymbolTableRecord
100
AcDbBlockTableRecord
  2
block 58
340
0
102
{BLKREFS
331
29F
102
}
  0
BLOCK_RECORD
  5
2A7
330
1
100
AcDbSymbolTableRecord
100
AcDbBlockTableRecord
  2
block 59
340
0
102
{BLKREFS
331
2A8
102
}
  0
BLOCK_RECORD
  5
2AB
330
1
100
AcDbSymbolTableRecord
100
AcDbBlockTableRecord
  2
block 60
340
0
102
{BLKREFS
331
2AC
102
}
  0
BLOCK_RECORD
  5
2AF
330
1
100
AcDbSymbolTableRecord
100
AcDbBlockTableRecord
  2
block 61
340
0
102
{BLKREFS
331
2B0
102
}
  0
BLOCK_RECORD
  5
2B7
330
1
100
AcDbSymbolTableRecord
100
AcDbBlockTableRecord
  2
block 62
340
0
102
{BLKREFS
331
2B8
102
}
  0
BLOCK_RECORD
  5
2BF
330
1
100
AcDbSymbolTableRecord
100
AcDbBlockTableRecord
  2
block 63
340
0
102
{BLKREFS
331
2C0
102
}
  0
BLOCK_RECORD
  5
2C7
330
1
100
AcDbSymbolTableRecord
100
AcDbBlockTableRecord
  2
block 64
340
0
102
{BLKREFS
331
2C8
102
}
  0
BLOCK_RECORD
  5
2CF
330
1
100
AcDbSymbolTableRecord
100
AcDbBlockTableRecord
  2
block 65
340
0
102
{BLKREFS
331
2D0
102
}
  0
BLOCK_RECORD
  5
2DA
330
1
100
AcDbSymbolTableRecord
100
AcDbBlockTableRecord
  2
block 66
340
0
102
{BLKREFS
331
2DB
102
}
  0
BLOCK_RECORD
  5
2E5
330
1
100
AcDbSymbolTableRecord
100
AcDbBlockTableRecord
  2
block 67
340
0
102
{BLKREFS
331
2E6
102
}
  0
BLOCK_RECORD
  5
2EA
330
1
100
AcDbSymbolTableRecord
100
AcDbBlockTableRecord
  2
block 68
340
0
102
{BLKREFS
331
2EB
102
}
  0
BLOCK_RECORD
  5
2F2
330
1
100
AcDbSymbolTableRecord
100
AcDbBlockTableRecord
  2
block 69
340
0
102
{BLKREFS
331
2F3
102
}
  0
BLOCK_RECORD
  5
2FA
330
1
100
AcDbSymbolTableRecord
100
AcDbBlockTableRecord
  2
block 70
340
0
102
{BLKREFS
331
2FB
102
}
  0
BLOCK_RECORD
  5
302
330
1
100
AcDbSymbolTableRecord
100
AcDbBlockTableRecord
  2
block 71
340
0
102
{BLKREFS
331
303
102
}
  0
BLOCK_RECORD
  5
306
330
1
100
AcDbSymbolTableRecord
100
AcDbBlockTableRecord
  2
block 72
340
0
102
{BLKREFS
331
307
102
}
  0
BLOCK_RECORD
  5
30A
330
1
100
AcDbSymbolTableRecord
100
AcDbBlockTableRecord
  2
block 73
340
0
102
{BLKREFS
331
30B
102
}
  0
BLOCK_RECORD
  5
312
330
1
100
AcDbSymbolTableRecord
100
AcDbBlockTableRecord
  2
block 74
340
0
102
{BLKREFS
331
313
102
}
  0
BLOCK_RECORD
  5
31A
330
1
100
AcDbSymbolTableRecord
100
AcDbBlockTableRecord
  2
block 75
340
0
102
{BLKREFS
331
31B
102
}
  0
BLOCK_RECORD
  5
322
330
1
100
AcDbSymbolTableRecord
100
AcDbBlockTableRecord
  2
block 76
340
0
102
{BLKREFS
331
323
102
}
  0
BLOCK_RECORD
  5
32A
330
1
100
AcDbSymbolTableRecord
100
AcDbBlockTableRecord
  2
block 77
340
0
102
{BLKREFS
331
32B
102
}
  0
BLOCK_RECORD
  5
335
330
1
100
AcDbSymbolTableRecord
100
AcDbBlockTableRecord
  2
block 78
340
0
102
{BLKREFS
331
336
102
}
  0
BLOCK_RECORD
  5
340
330
1
100
AcDbSymbolTableRecord
100
AcDbBlockTableRecord
  2
block 79
340
0
102
{BLKREFS
331
341
102
}
  0
BLOCK_RECORD
  5
345
330
1
100
AcDbSymbolTableRecord
100
AcDbBlockTableRecord
  2
block 80
340
0
102
{BLKREFS
331
346
102
}
  0
BLOCK_RECORD
  5
34D
330
1
100
AcDbSymbolTableRecord
100
AcDbBlockTableRecord
  2
block 81
340
0
102
{BLKREFS
331
34E
102
}
  0
BLOCK_RECORD
  5
355
330
1
100
AcDbSymbolTableRecord
100
AcDbBlockTableRecord
  2
block 82
340
0
102
{BLKREFS
331
356
102
}
  0
BLOCK_RECORD
  5
35D
330
1
100
AcDbSymbolTableRecord
100
AcDbBlockTableRecord
  2
block 83
340
0
102
{BLKREFS
331
35E
102
}
  0
BLOCK_RECORD
  5
365
330
1
100
AcDbSymbolTableRecord
100
AcDbBlockTableRecord
  2
block 84
340
0
102
{BLKREFS
331
366
102
}
  0
BLOCK_RECORD
  5
369
330
1
100
AcDbSymbolTableRecord
100
AcDbBlockTableRecord
  2
block 85
340
0
102
{BLKREFS
331
36A
102
}
  0
BLOCK_RECORD
  5
36D
330
1
100
AcDbSymbolTableRecord
100
AcDbBlockTableRecord
  2
block 86
340
0
102
{BLKREFS
331
36E
102
}
  0
BLOCK_RECORD
  5
375
330
1
100
AcDbSymbolTableRecord
100
AcDbBlockTableRecord
  2
block 87
340
0
102
{BLKREFS
331
376
102
}
  0
BLOCK_RECORD
  5
37D
330
1
100
AcDbSymbolTableRecord
100
AcDbBlockTableRecord
  2
block 88
340
0
102
{BLKREFS
331
37E
102
}
  0
BLOCK_RECORD
  5
385
330
1
100
AcDbSymbolTableRecord
100
AcDbBlockTableRecord
  2
block 89
340
0
102
{BLKREFS
331
386
102
}
  0
BLOCK_RECORD
  5
38D
330
1
100
AcDbSymbolTableRecord
100
AcDbBlockTableRecord
  2
block 90
340
0
102
{BLKREFS
331
38E
102
}
  0
BLOCK_RECORD
  5
398
330
1
100
AcDbSymbolTableRecord
100
AcDbBlockTableRecord
  2
block 91
340
0
102
{BLKREFS
331
399
102
}
  0
BLOCK_RECORD
  5
3A3
330
1
100
AcDbSymbolTableRecord
100
AcDbBlockTableRecord
  2
block 92
340
0
102
{BLKREFS
331
3A4
102
}
  0
BLOCK_RECORD
  5
3A8
330
1
100
AcDbSymbolTableRecord
100
AcDbBlockTableRecord
  2
block 93
340
0
102
{BLKREFS
331
3A9
102
}
  0
BLOCK_RECORD
  5
3B0
330
1
100
AcDbSymbolTableRecord
100
AcDbBlockTableRecord
  2
block 94
340
0
102
{BLKREFS
331
3B1
102
}
  0
BLOCK_RECORD
  5
3B8
330
1
100
AcDbSymbolTableRecord
100
AcDbBlockTableRecord
  2
block 95
340
0
102
{BLKREFS
331
3B9
102
}
  0
BLOCK_RECORD
  5
3C0
330
1
100
AcDbSymbolTableRecord
100
AcDbBlockTableRecord
  2
block 96
340
0
102
{BLKREFS
331
3C1
102
}
  0
BLOCK_RECORD
  5
3C4
330
1
100
AcDbSymbolTableRecord
100
AcDbBlockTableRecord
  2
block 97
340
0
102
{BLKREFS
331
3C5
102
}
  0
BLOCK_RECORD
  5
3C8
330
1
100
AcDbSymbolTableRecord
100
AcDbBlockTableRecord
  2
block 98
340
0
102
{BLKREFS
331
3C9
102
}
  0
BLOCK_RECORD
  5
3D0
330
1
100
AcDbSymbolTableRecord
100
AcDbBlockTableRecord
  2
block 99
340
0
102
{BLKREFS
331
3D1
102
}
  0
BLOCK_RECORD
  5
3D8
330
1
100
AcDbSymbolTableRecord
100
AcDbBlockTableRecord
  2
block 100
340
0
102
{BLKREFS
331
3D9
102
}
  0
BLOCK_RECORD
  5
3E0
330
1
100
AcDbSymbolTableRecord
100
AcDbBlockTableRecord
  2
block 101
340
0
102
{BLKREFS
331
3E1
102
}
  0
BLOCK_RECORD
  5
3E8
330
1
100
AcDbSymbolTableRecord
100
AcDbBlockTableRecord
  2
block 102
340
0
102
{BLKREFS
331
3E9
102
}
  0
BLOCK_RECORD
  5
3F3
330
1
100
AcDbSymbolTableRecord
100
AcDbBlockTableRecord
  2
block 103
340
0
102
{BLKREFS
331
3F4
102
}
  0
BLOCK_RECORD
  5
3FE
330
1
100
AcDbSymbolTableRecord
100
AcDbBlockTableRecord
  2
block 104
340
0
102
{BLKREFS
331
3FF
102
}
  0
BLOCK_RECORD
  5
403
330
1
100
AcDbSymbolTableRecord
100
AcDbBlockTableRecord
  2
block 105
340
0
102
{BLKREFS
331
404
102
}
  0
BLOCK_RECORD
  5
40B
330
1
100
AcDbSymbolTableRecord
100
AcDbBlockTableRecord
  2
block 106
340
0
102
{BLKREFS
331
40C
102
}
  0
BLOCK_RECORD
  5
413
330
1
100
AcDbSymbolTableRecord
100
AcDbBlockTableRecord
  2
block 107
340
0
102
{BLKREFS
331
414
102
}
  0
BLOCK_RECORD
  5
41B
330
1
100
AcDbSymbolTableRecord
100
AcDbBlockTableRecord
  2
block 108
340
0
102
{BLKREFS
331
41C
102
}
  0
BLOCK_RECORD
  5
41F
330
1
100
AcDbSymbolTableRecord
100
AcDbBlockTableRecord
  2
block 109
340
0
102
{BLKREFS
331
420
102
}
  0
BLOCK_RECORD
  5
423
330
1
100
AcDbSymbolTableRecord
100
AcDbBlockTableRecord
  2
block 110
340
0
102
{BLKREFS
331
424
102
}
  0
BLOCK_RECORD
  5
42B
330
1
100
AcDbSymbolTableRecord
100
AcDbBlockTableRecord
  2
block 111
340
0
102
{BLKREFS
331
42C
102
}
  0
BLOCK_RECORD
  5
433
330
1
100
AcDbSymbolTableRecord
100
AcDbBlockTableRecord
  2
block 112
340
0
102
{BLKREFS
331
434
102
}
  0
BLOCK_RECORD
  5
43B
330
1
100
AcDbSymbolTableRecord
100
AcDbBlockTableRecord
  2
block 113
340
0
102
{BLKREFS
331
43C
102
}
  0
BLOCK_RECORD
  5
443
330
1
100
AcDbSymbolTableRecord
100
AcDbBlockTableRecord
  2
block 114
340
0
102
{BLKREFS
331
444
102
}
  0
BLOCK_RECORD
  5
44E
330
1
100
AcDbSymbolTableRecord
100
AcDbBlockTableRecord
  2
block 115
340
0
102
{BLKREFS
331
44F
102
}
  0
BLOCK_RECORD
  5
459
330
1
100
AcDbSymbolTableRecord
100
AcDbBlockTableRecord
  2
block 116
340
0
102
{BLKREFS
331
45A
102
}
  0
BLOCK_RECORD
  5
45E
330
1
100
AcDbSymbolTableRecord
100
AcDbBlockTableRecord
  2
block 117
340
0
102
{BLKREFS
331
45F
102
}
  0
BLOCK_RECORD
  5
466
330
1
100
AcDbSymbolTableRecord
100
AcDbBlockTableRecord
  2
block 118
340
0
102
{BLKREFS
331
467
102
}
  0
BLOCK_RECORD
  5
46E
330
1
100
AcDbSymbolTableRecord
100
AcDbBlockTableRecord
  2
block 119
340
0
102
{BLKREFS
331
46F
102
}
  0
BLOCK_RECORD
  5
476
330
1
100
AcDbSymbolTableRecord
100
AcDbBlockTableRecord
  2
block 120
340
0
102
{BLKREFS
331
477
102
}
  0
BLOCK_RECORD
  5
47A
330
1
100
AcDbSymbolTableRecord
100
AcDbBlockTableRecord
  2
block 121
340
0
102
{BLKREFS
331
47B
102
}
  0
BLOCK_RECORD
  5
47E
330
1
100
AcDbSymbolTableRecord
100
AcDbBlockTableRecord
  2
block 122
340
0
102
{BLKREFS
331
47F
102
}
  0
BLOCK_RECORD
  5
486
330
1
100
AcDbSymbolTableRecord
100
AcDbBlockTableRecord
  2
block 123
340
0
102
{BLKREFS
331
487
102
}
  0
BLOCK_RECORD
  5
48E
330
1
100
AcDbSymbolTableRecord
100
AcDbBlockTableRecord
  2
block 124
340
0
102
{BLKREFS
331
48F
102
}
  0
BLOCK_RECORD
  5
496
330
1
100
AcDbSymbolTableRecord
100
AcDbBlockTableRecord
  2
block 125
340
0
102
{BLKREFS
331
497
102
}
  0
BLOCK_RECORD
  5
49E
330
1
100
AcDbSymbolTableRecord
100
AcDbBlockTableRecord
  2
block 126
340
0
102
{BLKREFS
331
49F
102
}
  0
BLOCK_RECORD
  5
4A9
330
1
100
AcDbSymbolTableRecord
100
AcDbBlockTableRecord
  2
block 127
340
0
102
{BLKREFS
331
4AA
102
}
  0
BLOCK_RECORD
  5
4B4
330
1
100
AcDbSymbolTableRecord
100
AcDbBlockTableRecord
  2
block 128
340
0
102
{BLKREFS
331
4B5
102
}
  0
BLOCK_RECORD
  5
4B9
330
1
100
AcDbSymbolTableRecord
100
AcDbBlockTableRecord
  2
block 129
340
0
102
{BLKREFS
331
4BA
102
}
  0
BLOCK_RECORD
  5
4C1
330
1
100
AcDbSymbolTableRecord
100
AcDbBlockTableRecord
  2
block 130
340
0
102
{BLKREFS
331
4C2
102
}
  0
BLOCK_RECORD
  5
4C9
330
1
100
AcDbSymbolTableRecord
100
AcDbBlockTableRecord
  2
block 131
340
0
102
{BLKREFS
331
4CA
102
}
  0
BLOCK_RECORD
  5
4D1
330
1
100
AcDbSymbolTableRecord
100
AcDbBlockTableRecord
  2
block 132
340
0
102
{BLKREFS
331
4D2
102
}
  0
BLOCK_RECORD
  5
4D6
330
1
100
AcDbSymbolTableRecord
100
AcDbBlockTableRecord
  2
block 133
340
0
102
{BLKREFS
331
4D7
102
}
  0
BLOCK_RECORD
  5
4DB
330
1
100
AcDbSymbolTableRecord
100
AcDbBlockTableRecord
  2
block 134
340
0
102
{BLKREFS
331
4DC
102
}
  0
BLOCK_RECORD
  5
4E0
330
1
100
AcDbSymbolTableRecord
100
AcDbBlockTableRecord
  2
block 135
340
0
102
{BLKREFS
331
4E1
102
}
  0
BLOCK_RECORD
  5
4E5
330
1
100
AcDbSymbolTableRecord
100
AcDbBlockTableRecord
  2
block 136
340
0
102
{BLKREFS
331
4E6
102
}
  0
BLOCK_RECORD
  5
4ED
330
1
100
AcDbSymbolTableRecord
100
AcDbBlockTableRecord
  2
block 137
340
0
102
{BLKREFS
331
4EE
102
}
  0
BLOCK_RECORD
  5
4F2
330
1
100
AcDbSymbolTableRecord
100
AcDbBlockTableRecord
  2
block 138
340
0
102
{BLKREFS
331
4F3
102
}
  0
BLOCK_RECORD
  5
4FA
330
1
100
AcDbSymbolTableRecord
100
AcDbBlockTableRecord
  2
block 139
340
0
102
{BLKREFS
331
4FB
102
}
  0
BLOCK_RECORD
  5
4FF
330
1
100
AcDbSymbolTableRecord
100
AcDbBlockTableRecord
  2
block 140
340
0
102
{BLKREFS
331
500
102
}
  0
BLOCK_RECORD
  5
504
330
1
100
AcDbSymbolTableRecord
100
AcDbBlockTableRecord
  2
block 141
340
0
102
{BLKREFS
331
505
102
}
  0
BLOCK_RECORD
  5
50C
330
1
100
AcDbSymbolTableRecord
100
AcDbBlockTableRecord
  2
block 142
340
0
102
{BLKREFS
331
50D
102
}
  0
BLOCK_RECORD
  5
511
330
1
100
AcDbSymbolTableRecord
100
AcDbBlockTableRecord
  2
block 143
340
0
102
{BLKREFS
331
512
102
}
  0
BLOCK_RECORD
  5
516
330
1
100
AcDbSymbolTableRecord
100
AcDbBlockTableRecord
  2
block 144
340
0
102
{BLKREFS
331
517
102
}
  0
BLOCK_RECORD
  5
54E
330
1
100
AcDbSymbolTableRecord
100
AcDbBlockTableRecord
  2
block 145
340
0
102
{BLKREFS
331
54F
102
}
  0
BLOCK_RECORD
  5
553
330
1
100
AcDbSymbolTableRecord
100
AcDbBlockTableRecord
  2
block 146
340
0
102
{BLKREFS
331
554
102
}
  0
BLOCK_RECORD
  5
587
330
1
100
AcDbSymbolTableRecord
100
AcDbBlockTableRecord
  2
block 147
340
0
102
{BLKREFS
331
588
102
}
  0
BLOCK_RECORD
  5
58C
330
1
100
AcDbSymbolTableRecord
100
AcDbBlockTableRecord
  2
block 148
340
0
102
{BLKREFS
331
58D
102
}
  0
BLOCK_RECORD
  5
591
330
1
100
AcDbSymbolTableRecord
100
AcDbBlockTableRecord
  2
block 149
340
0
102
{BLKREFS
331
592
102
}
  0
BLOCK_RECORD
  5
596
330
1
100
AcDbSymbolTableRecord
100
AcDbBlockTableRecord
  2
block 150
340
0
102
{BLKREFS
331
597
102
}
  0
BLOCK_RECORD
  5
59F
330
1
100
AcDbSymbolTableRecord
100
AcDbBlockTableRecord
  2
block 151
340
0
102
{BLKREFS
331
5A0
102
}
  0
BLOCK_RECORD
  5
5A8
330
1
100
AcDbSymbolTableRecord
100
AcDbBlockTableRecord
  2
block 152
340
0
102
{BLKREFS
331
5A9
102
}
  0
BLOCK_RECORD
  5
5B1
330
1
100
AcDbSymbolTableRecord
100
AcDbBlockTableRecord
  2
block 153
340
0
102
{BLKREFS
331
5B2
102
}
  0
BLOCK_RECORD
  5
5BA
330
1
100
AcDbSymbolTableRecord
100
AcDbBlockTableRecord
  2
block 154
340
0
102
{BLKREFS
331
5BB
102
}
  0
BLOCK_RECORD
  5
5BE
330
1
100
AcDbSymbolTableRecord
100
AcDbBlockTableRecord
  2
block 155
340
0
102
{BLKREFS
331
5BF
102
}
  0
BLOCK_RECORD
  5
5C2
330
1
100
AcDbSymbolTableRecord
100
AcDbBlockTableRecord
  2
block 156
340
0
102
{BLKREFS
331
5C3
102
}
  0
BLOCK_RECORD
  5
5CA
330
1
100
AcDbSymbolTableRecord
100
AcDbBlockTableRecord
  2
block 157
340
0
102
{BLKREFS
331
5CB
102
}
  0
BLOCK_RECORD
  5
5D2
330
1
100
AcDbSymbolTableRecord
100
AcDbBlockTableRecord
  2
block 158
340
0
102
{BLKREFS
331
5D3
102
}
  0
BLOCK_RECORD
  5
5DA
330
1
100
AcDbSymbolTableRecord
100
AcDbBlockTableRecord
  2
block 159
340
0
102
{BLKREFS
331
5DB
102
}
  0
BLOCK_RECORD
  5
5E2
330
1
100
AcDbSymbolTableRecord
100
AcDbBlockTableRecord
  2
block 160
340
0
102
{BLKREFS
331
5E3
102
}
  0
BLOCK_RECORD
  5
5ED
330
1
100
AcDbSymbolTableRecord
100
AcDbBlockTableRecord
  2
block 161
340
0
102
{BLKREFS
331
5EE
102
}
  0
BLOCK_RECORD
  5
5F8
330
1
100
AcDbSymbolTableRecord
100
AcDbBlockTableRecord
  2
block 162
340
0
102
{BLKREFS
331
5F9
102
}
  0
BLOCK_RECORD
  5
5FD
330
1
100
AcDbSymbolTableRecord
100
AcDbBlockTableRecord
  2
block 163
340
0
102
{BLKREFS
331
5FE
102
}
  0
BLOCK_RECORD
  5
605
330
1
100
AcDbSymbolTableRecord
100
AcDbBlockTableRecord
  2
block 164
340
0
102
{BLKREFS
331
606
102
}
  0
BLOCK_RECORD
  5
60D
330
1
100
AcDbSymbolTableRecord
100
AcDbBlockTableRecord
  2
block 165
340
0
102
{BLKREFS
331
60E
102
}
  0
BLOCK_RECORD
  5
615
330
1
100
AcDbSymbolTableRecord
100
AcDbBlockTableRecord
  2
block 166
340
0
102
{BLKREFS
331
616
102
}
  0
BLOCK_RECORD
  5
619
330
1
100
AcDbSymbolTableRecord
100
AcDbBlockTableRecord
  2
block 167
340
0
102
{BLKREFS
331
61A
102
}
  0
BLOCK_RECORD
  5
61D
330
1
100
AcDbSymbolTableRecord
100
AcDbBlockTableRecord
  2
block 168
340
0
102
{BLKREFS
331
61E
102
}
  0
BLOCK_RECORD
  5
625
330
1
100
AcDbSymbolTableRecord
100
AcDbBlockTableRecord
  2
block 169
340
0
102
{BLKREFS
331
626
102
}
  0
BLOCK_RECORD
  5
62D
330
1
100
AcDbSymbolTableRecord
100
AcDbBlockTableRecord
  2
block 170
340
0
102
{BLKREFS
331
62E
102
}
  0
BLOCK_RECORD
  5
635
330
1
100
AcDbSymbolTableRecord
100
AcDbBlockTableRecord
  2
block 171
340
0
102
{BLKREFS
331
636
102
}
  0
BLOCK_RECORD
  5
63D
330
1
100
AcDbSymbolTableRecord
100
AcDbBlockTableRecord
  2
block 172
340
0
102
{BLKREFS
331
63E
102
}
  0
BLOCK_RECORD
  5
648
330
1
100
AcDbSymbolTableRecord
100
AcDbBlockTableRecord
  2
block 173
340
0
102
{BLKREFS
331
649
102
}
  0
BLOCK_RECORD
  5
653
330
1
100
AcDbSymbolTableRecord
100
AcDbBlockTableRecord
  2
block 174
340
0
102
{BLKREFS
331
654
102
}
  0
BLOCK_RECORD
  5
658
330
1
100
AcDbSymbolTableRecord
100
AcDbBlockTableRecord
  2
block 175
340
0
102
{BLKREFS
331
659
102
}
  0
BLOCK_RECORD
  5
660
330
1
100
AcDbSymbolTableRecord
100
AcDbBlockTableRecord
  2
block 176
340
0
102
{BLKREFS
331
661
102
}
  0
BLOCK_RECORD
  5
668
330
1
100
AcDbSymbolTableRecord
100
AcDbBlockTableRecord
  2
block 177
340
0
102
{BLKREFS
331
669
102
}
  0
BLOCK_RECORD
  5
670
330
1
100
AcDbSymbolTableRecord
100
AcDbBlockTableRecord
  2
block 178
340
0
102
{BLKREFS
331
671
102
}
  0
BLOCK_RECORD
  5
6A8
330
1
100
AcDbSymbolTableRecord
100
AcDbBlockTableRecord
  2
block 179
340
0
102
{BLKREFS
331
6A9
102
}
  0
BLOCK_RECORD
  5
6DC
330
1
100
AcDbSymbolTableRecord
100
AcDbBlockTableRecord
  2
block 180
340
0
102
{BLKREFS
331
6DD
102
}
  0
BLOCK_RECORD
  5
6E1
330
1
100
AcDbSymbolTableRecord
100
AcDbBlockTableRecord
  2
block 181
340
0
102
{BLKREFS
331
6E2
102
}
  0
BLOCK_RECORD
  5
6E6
330
1
100
AcDbSymbolTableRecord
100
AcDbBlockTableRecord
  2
block 182
340
0
102
{BLKREFS
331
6E7
102
}
  0
BLOCK_RECORD
  5
6EB
330
1
100
AcDbSymbolTableRecord
100
AcDbBlockTableRecord
  2
block 183
340
0
102
{BLKREFS
331
6EC
102
}
  0
BLOCK_RECORD
  5
6F0
330
1
100
AcDbSymbolTableRecord
100
AcDbBlockTableRecord
  2
block 184
340
0
102
{BLKREFS
331
6F1
102
}
  0
BLOCK_RECORD
  5
6F5
330
1
100
AcDbSymbolTableRecord
100
AcDbBlockTableRecord
  2
block 185
340
0
102
{BLKREFS
331
6F6
102
}
  0
BLOCK_RECORD
  5
6F9
330
1
100
AcDbSymbolTableRecord
100
AcDbBlockTableRecord
  2
block 186
340
0
102
{BLKREFS
331
6FA
102
}
  0
BLOCK_RECORD
  5
6FD
330
1
100
AcDbSymbolTableRecord
100
AcDbBlockTableRecord
  2
block 187
340
0
102
{BLKREFS
331
6FE
102
}
  0
BLOCK_RECORD
  5
705
330
1
100
AcDbSymbolTableRecord
100
AcDbBlockTableRecord
  2
block 188
340
0
102
{BLKREFS
331
706
102
}
  0
BLOCK_RECORD
  5
70D
330
1
100
AcDbSymbolTableRecord
100
AcDbBlockTableRecord
  2
block 189
340
0
102
{BLKREFS
331
70E
102
}
  0
BLOCK_RECORD
  5
715
330
1
100
AcDbSymbolTableRecord
100
AcDbBlockTableRecord
  2
block 190
340
0
102
{BLKREFS
331
716
102
}
  0
BLOCK_RECORD
  5
71D
330
1
100
AcDbSymbolTableRecord
100
AcDbBlockTableRecord
  2
block 191
340
0
102
{BLKREFS
331
71E
102
}
  0
BLOCK_RECORD
  5
728
330
1
100
AcDbSymbolTableRecord
100
AcDbBlockTableRecord
  2
block 192
340
0
102
{BLKREFS
331
729
102
}
  0
BLOCK_RECORD
  5
733
330
1
100
AcDbSymbolTableRecord
100
AcDbBlockTableRecord
  2
block 193
340
0
102
{BLKREFS
331
734
102
}
  0
BLOCK_RECORD
  5
738
330
1
100
AcDbSymbolTableRecord
100
AcDbBlockTableRecord
  2
block 194
340
0
102
{BLKREFS
331
739
102
}
  0
BLOCK_RECORD
  5
740
330
1
100
AcDbSymbolTableRecord
100
AcDbBlockTableRecord
  2
block 195
340
0
102
{BLKREFS
331
741
102
}
  0
BLOCK_RECORD
  5
748
330
1
100
AcDbSymbolTableRecord
100
AcDbBlockTableRecord
  2
block 196
340
0
102
{BLKREFS
331
749
102
}
  0
ENDTAB
  0
ENDSEC
  0
SECTION
  2
BLOCKS
  0
BLOCK
  5
20
330
1F
100
AcDbEntity
  8
0
100
AcDbBlockBegin
  2
*Model_Space
 70
     0
 71
     0
 10
0.0
 20
0.0
 30
0.0
  3
*Model_Space
  1

  0
ENDBLK
  5
21
330
1F
100
AcDbEntity
  8
0
100
AcDbBlockEnd
  0
BLOCK
  5
1C
330
1B
100
AcDbEntity
 67
     1
  8
0
100
AcDbBlockBegin
  2
*Paper_Space
 70
     0
 71
     0
 10
0.0
 20
0.0
 30
0.0
  3
*Paper_Space
  1

  0
ENDBLK
  5
1D
330
1B
100
AcDbEntity
 67
     1
  8
0
100
AcDbBlockEnd
  0
BLOCK
  5
24
330
23
100
AcDbEntity
  8
0
100
AcDbBlockBegin
  2
*Paper_Space0
 70
     0
 71
     0
 10
0.0
 20
0.0
 30
0.0
  3
*Paper_Space0
  1

  0
ENDBLK
  5
25
330
23
100
AcDbEntity
  8
0
100
AcDbBlockEnd
  0
BLOCK
  5
3E
330
3C
100
AcDbEntity
  8
0
100
AcDbBlockBegin
  2
block 2
 70
     0
 71
     0
 10
0.0
 20
0.0
 30
0.0
  3
block 2
  1

  0
INSERT
  5
41
330
3C
100
AcDbEntity
  8
Capa 1
100
AcDbBlockReference
  2
block 3
 10
0.0
 20
0.0
 30
0.0
  0
INSERT
  5
49
330
3C
100
AcDbEntity
  8
Capa 1
100
AcDbBlockReference
  2
block 4
 10
0.0
 20
0.0
 30
0.0
  0
INSERT
  5
80
330
3C
100
AcDbEntity
  8
Capa 1
100
AcDbBlockReference
  2
block 5
 10
0.0
 20
0.0
 30
0.0
  0
INSERT
  5
85
330
3C
100
AcDbEntity
  8
Capa 1
100
AcDbBlockReference
  2
block 6
 10
0.0
 20
0.0
 30
0.0
  0
INSERT
  5
8D
330
3C
100
AcDbEntity
  8
Capa 1
100
AcDbBlockReference
  2
block 7
 10
0.0
 20
0.0
 30
0.0
  0
INSERT
  5
95
330
3C
100
AcDbEntity
  8
Capa 1
100
AcDbBlockReference
  2
block 8
 10
0.0
 20
0.0
 30
0.0
  0
INSERT
  5
9A
330
3C
100
AcDbEntity
  8
Capa 1
100
AcDbBlockReference
  2
block 9
 10
0.0
 20
0.0
 30
0.0
  0
INSERT
  5
9F
330
3C
100
AcDbEntity
  8
Capa 1
100
AcDbBlockReference
  2
block 10
 10
0.0
 20
0.0
 30
0.0
  0
INSERT
  5
D3
330
3C
100
AcDbEntity
  8
Capa 1
100
AcDbBlockReference
  2
block 11
 10
0.0
 20
0.0
 30
0.0
  0
INSERT
  5
107
330
3C
100
AcDbEntity
  8
Capa 1
100
AcDbBlockReference
  2
block 12
 10
0.0
 20
0.0
 30
0.0
  0
INSERT
  5
10C
330
3C
100
AcDbEntity
  8
Capa 1
100
AcDbBlockReference
  2
block 13
 10
0.0
 20
0.0
 30
0.0
  0
INSERT
  5
111
330
3C
100
AcDbEntity
  8
Capa 1
100
AcDbBlockReference
  2
block 14
 10
0.0
 20
0.0
 30
0.0
  0
INSERT
  5
116
330
3C
100
AcDbEntity
  8
Capa 1
100
AcDbBlockReference
  2
block 15
 10
0.0
 20
0.0
 30
0.0
  0
INSERT
  5
11E
330
3C
100
AcDbEntity
  8
Capa 1
100
AcDbBlockReference
  2
block 16
 10
0.0
 20
0.0
 30
0.0
  0
INSERT
  5
126
330
3C
100
AcDbEntity
  8
Capa 1
100
AcDbBlockReference
  2
block 17
 10
0.0
 20
0.0
 30
0.0
  0
INSERT
  5
12B
330
3C
100
AcDbEntity
  8
Capa 1
100
AcDbBlockReference
  2
block 18
 10
0.0
 20
0.0
 30
0.0
  0
INSERT
  5
133
330
3C
100
AcDbEntity
  8
Capa 1
100
AcDbBlockReference
  2
block 19
 10
0.0
 20
0.0
 30
0.0
  0
INSERT
  5
138
330
3C
100
AcDbEntity
  8
Capa 1
100
AcDbBlockReference
  2
block 20
 10
0.0
 20
0.0
 30
0.0
  0
INSERT
  5
140
330
3C
100
AcDbEntity
  8
Capa 1
100
AcDbBlockReference
  2
block 21
 10
0.0
 20
0.0
 30
0.0
  0
INSERT
  5
145
330
3C
100
AcDbEntity
  8
Capa 1
100
AcDbBlockReference
  2
block 22
 10
0.0
 20
0.0
 30
0.0
  0
INSERT
  5
14A
330
3C
100
AcDbEntity
  8
Capa 1
100
AcDbBlockReference
  2
block 23
 10
0.0
 20
0.0
 30
0.0
  0
INSERT
  5
152
330
3C
100
AcDbEntity
  8
Capa 1
100
AcDbBlockReference
  2
block 24
 10
0.0
 20
0.0
 30
0.0
  0
INSERT
  5
157
330
3C
100
AcDbEntity
  8
Capa 1
100
AcDbBlockReference
  2
block 25
 10
0.0
 20
0.0
 30
0.0
  0
INSERT
  5
15C
330
3C
100
AcDbEntity
  8
Capa 1
100
AcDbBlockReference
  2
block 26
 10
0.0
 20
0.0
 30
0.0
  0
INSERT
  5
161
330
3C
100
AcDbEntity
  8
Capa 1
100
AcDbBlockReference
  2
block 27
 10
0.0
 20
0.0
 30
0.0
  0
INSERT
  5
169
330
3C
100
AcDbEntity
  8
Capa 1
100
AcDbBlockReference
  2
block 28
 10
0.0
 20
0.0
 30
0.0
  0
INSERT
  5
16E
330
3C
100
AcDbEntity
  8
Capa 1
100
AcDbBlockReference
  2
block 29
 10
0.0
 20
0.0
 30
0.0
  0
INSERT
  5
173
330
3C
100
AcDbEntity
  8
Capa 1
100
AcDbBlockReference
  2
block 30
 10
0.0
 20
0.0
 30
0.0
  0
INSERT
  5
1A7
330
3C
100
AcDbEntity
  8
Capa 1
100
AcDbBlockReference
  2
block 31
 10
0.0
 20
0.0
 30
0.0
  0
INSERT
  5
1AC
330
3C
100
AcDbEntity
  8
Capa 1
100
AcDbBlockReference
  2
block 32
 10
0.0
 20
0.0
 30
0.0
  0
INSERT
  5
1B4
330
3C
100
AcDbEntity
  8
Capa 1
100
AcDbBlockReference
  2
block 33
 10
0.0
 20
0.0
 30
0.0
  0
INSERT
  5
1E8
330
3C
100
AcDbEntity
  8
Capa 1
100
AcDbBlockReference
  2
block 34
 10
0.0
 20
0.0
 30
0.0
  0
INSERT
  5
1ED
330
3C
100
AcDbEntity
  8
Capa 1
100
AcDbBlockReference
  2
block 35
 10
0.0
 20
0.0
 30
0.0
  0
INSERT
  5
1F2
330
3C
100
AcDbEntity
  8
Capa 1
100
AcDbBlockReference
  2
block 36
 10
0.0
 20
0.0
 30
0.0
  0
INSERT
  5
1FA
330
3C
100
AcDbEntity
  8
Capa 1
100
AcDbBlockReference
  2
block 37
 10
0.0
 20
0.0
 30
0.0
  0
INSERT
  5
202
330
3C
100
AcDbEntity
  8
Capa 1
100
AcDbBlockReference
  2
block 38
 10
0.0
 20
0.0
 30
0.0
  0
INSERT
  5
20A
330
3C
100
AcDbEntity
  8
Capa 1
100
AcDbBlockReference
  2
block 39
 10
0.0
 20
0.0
 30
0.0
  0
INSERT
  5
20F
330
3C
100
AcDbEntity
  8
Capa 1
100
AcDbBlockReference
  2
block 40
 10
0.0
 20
0.0
 30
0.0
  0
INSERT
  5
214
330
3C
100
AcDbEntity
  8
Capa 1
100
AcDbBlockReference
  2
block 41
 10
0.0
 20
0.0
 30
0.0
  0
INSERT
  5
21C
330
3C
100
AcDbEntity
  8
Capa 1
100
AcDbBlockReference
  2
block 42
 10
0.0
 20
0.0
 30
0.0
  0
INSERT
  5
224
330
3C
100
AcDbEntity
  8
Capa 1
100
AcDbBlockReference
  2
block 43
 10
0.0
 20
0.0
 30
0.0
  0
INSERT
  5
22D
330
3C
100
AcDbEntity
  8
Capa 1
100
AcDbBlockReference
  2
block 44
 10
0.0
 20
0.0
 30
0.0
  0
INSERT
  5
236
330
3C
100
AcDbEntity
  8
Capa 1
100
AcDbBlockReference
  2
block 45
 10
0.0
 20
0.0
 30
0.0
  0
INSERT
  5
23F
330
3C
100
AcDbEntity
  8
Capa 1
100
AcDbBlockReference
  2
block 46
 10
0.0
 20
0.0
 30
0.0
  0
INSERT
  5
248
330
3C
100
AcDbEntity
  8
Capa 1
100
AcDbBlockReference
  2
block 47
 10
0.0
 20
0.0
 30
0.0
  0
INSERT
  5
251
330
3C
100
AcDbEntity
  8
Capa 1
100
AcDbBlockReference
  2
block 48
 10
0.0
 20
0.0
 30
0.0
  0
INSERT
  5
25A
330
3C
100
AcDbEntity
  8
Capa 1
100
AcDbBlockReference
  2
block 49
 10
0.0
 20
0.0
 30
0.0
  0
INSERT
  5
260
330
3C
100
AcDbEntity
  8
Capa 1
100
AcDbBlockReference
  2
block 50
 10
0.0
 20
0.0
 30
0.0
  0
INSERT
  5
266
330
3C
100
AcDbEntity
  8
Capa 1
100
AcDbBlockReference
  2
block 51
 10
0.0
 20
0.0
 30
0.0
  0
INSERT
  5
26F
330
3C
100
AcDbEntity
  8
Capa 1
100
AcDbBlockReference
  2
block 52
 10
0.0
 20
0.0
 30
0.0
  0
INSERT
  5
278
330
3C
100
AcDbEntity
  8
Capa 1
100
AcDbBlockReference
  2
block 53
 10
0.0
 20
0.0
 30
0.0
  0
INSERT
  5
281
330
3C
100
AcDbEntity
  8
Capa 1
100
AcDbBlockReference
  2
block 54
 10
0.0
 20
0.0
 30
0.0
  0
INSERT
  5
28A
330
3C
100
AcDbEntity
  8
Capa 1
100
AcDbBlockReference
  2
block 55
 10
0.0
 20
0.0
 30
0.0
  0
INSERT
  5
290
330
3C
100
AcDbEntity
  8
Capa 1
100
AcDbBlockReference
  2
block 56
 10
0.0
 20
0.0
 30
0.0
  0
INSERT
  5
296
330
3C
100
AcDbEntity
  8
Capa 1
100
AcDbBlockReference
  2
block 57
 10
0.0
 20
0.0
 30
0.0
  0
INSERT
  5
29F
330
3C
100
AcDbEntity
  8
Capa 1
100
AcDbBlockReference
  2
block 58
 10
0.0
 20
0.0
 30
0.0
  0
INSERT
  5
2A8
330
3C
100
AcDbEntity
  8
Capa 1
100
AcDbBlockReference
  2
block 59
 10
0.0
 20
0.0
 30
0.0
  0
INSERT
  5
303
330
3C
100
AcDbEntity
  8
Capa 1
100
AcDbBlockReference
  2
block 71
 10
0.0
 20
0.0
 30
0.0
  0
INSERT
  5
35E
330
3C
100
AcDbEntity
  8
Capa 1
100
AcDbBlockReference
  2
block 83
 10
0.0
 20
0.0
 30
0.0
  0
INSERT
  5
366
330
3C
100
AcDbEntity
  8
Capa 1
100
AcDbBlockReference
  2
block 84
 10
0.0
 20
0.0
 30
0.0
  0
INSERT
  5
3C1
330
3C
100
AcDbEntity
  8
Capa 1
100
AcDbBlockReference
  2
block 96
 10
0.0
 20
0.0
 30
0.0
  0
INSERT
  5
41C
330
3C
100
AcDbEntity
  8
Capa 1
100
AcDbBlockReference
  2
block 108
 10
0.0
 20
0.0
 30
0.0
  0
INSERT
  5
477
330
3C
100
AcDbEntity
  8
Capa 1
100
AcDbBlockReference
  2
block 120
 10
0.0
 20
0.0
 30
0.0
  0
INSERT
  5
4D2
330
3C
100
AcDbEntity
  8
Capa 1
100
AcDbBlockReference
  2
block 132
 10
0.0
 20
0.0
 30
0.0
  0
INSERT
  5
4D7
330
3C
100
AcDbEntity
  8
Capa 1
100
AcDbBlockReference
  2
block 133
 10
0.0
 20
0.0
 30
0.0
  0
INSERT
  5
4DC
330
3C
100
AcDbEntity
  8
Capa 1
100
AcDbBlockReference
  2
block 134
 10
0.0
 20
0.0
 30
0.0
  0
INSERT
  5
4E1
330
3C
100
AcDbEntity
  8
Capa 1
100
AcDbBlockReference
  2
block 135
 10
0.0
 20
0.0
 30
0.0
  0
INSERT
  5
4E6
330
3C
100
AcDbEntity
  8
Capa 1
100
AcDbBlockReference
  2
block 136
 10
0.0
 20
0.0
 30
0.0
  0
INSERT
  5
4EE
330
3C
100
AcDbEntity
  8
Capa 1
100
AcDbBlockReference
  2
block 137
 10
0.0
 20
0.0
 30
0.0
  0
INSERT
  5
4F3
330
3C
100
AcDbEntity
  8
Capa 1
100
AcDbBlockReference
  2
block 138
 10
0.0
 20
0.0
 30
0.0
  0
INSERT
  5
4FB
330
3C
100
AcDbEntity
  8
Capa 1
100
AcDbBlockReference
  2
block 139
 10
0.0
 20
0.0
 30
0.0
  0
INSERT
  5
500
330
3C
100
AcDbEntity
  8
Capa 1
100
AcDbBlockReference
  2
block 140
 10
0.0
 20
0.0
 30
0.0
  0
INSERT
  5
505
330
3C
100
AcDbEntity
  8
Capa 1
100
AcDbBlockReference
  2
block 141
 10
0.0
 20
0.0
 30
0.0
  0
INSERT
  5
50D
330
3C
100
AcDbEntity
  8
Capa 1
100
AcDbBlockReference
  2
block 142
 10
0.0
 20
0.0
 30
0.0
  0
INSERT
  5
512
330
3C
100
AcDbEntity
  8
Capa 1
100
AcDbBlockReference
  2
block 143
 10
0.0
 20
0.0
 30
0.0
  0
INSERT
  5
517
330
3C
100
AcDbEntity
  8
Capa 1
100
AcDbBlockReference
  2
block 144
 10
0.0
 20
0.0
 30
0.0
  0
INSERT
  5
54F
330
3C
100
AcDbEntity
  8
Capa 1
100
AcDbBlockReference
  2
block 145
 10
0.0
 20
0.0
 30
0.0
  0
INSERT
  5
554
330
3C
100
AcDbEntity
  8
Capa 1
100
AcDbBlockReference
  2
block 146
 10
0.0
 20
0.0
 30
0.0
  0
INSERT
  5
588
330
3C
100
AcDbEntity
  8
Capa 1
100
AcDbBlockReference
  2
block 147
 10
0.0
 20
0.0
 30
0.0
  0
INSERT
  5
58D
330
3C
100
AcDbEntity
  8
Capa 1
100
AcDbBlockReference
  2
block 148
 10
0.0
 20
0.0
 30
0.0
  0
INSERT
  5
592
330
3C
100
AcDbEntity
  8
Capa 1
100
AcDbBlockReference
  2
block 149
 10
0.0
 20
0.0
 30
0.0
  0
INSERT
  5
597
330
3C
100
AcDbEntity
  8
Capa 1
100
AcDbBlockReference
  2
block 150
 10
0.0
 20
0.0
 30
0.0
  0
INSERT
  5
5A0
330
3C
100
AcDbEntity
  8
Capa 1
100
AcDbBlockReference
  2
block 151
 10
0.0
 20
0.0
 30
0.0
  0
INSERT
  5
5A9
330
3C
100
AcDbEntity
  8
Capa 1
100
AcDbBlockReference
  2
block 152
 10
0.0
 20
0.0
 30
0.0
  0
INSERT
  5
5B2
330
3C
100
AcDbEntity
  8
Capa 1
100
AcDbBlockReference
  2
block 153
 10
0.0
 20
0.0
 30
0.0
  0
INSERT
  5
5BB
330
3C
100
AcDbEntity
  8
Capa 1
100
AcDbBlockReference
  2
block 154
 10
0.0
 20
0.0
 30
0.0
  0
INSERT
  5
616
330
3C
100
AcDbEntity
  8
Capa 1
100
AcDbBlockReference
  2
block 166
 10
0.0
 20
0.0
 30
0.0
  0
INSERT
  5
671
330
3C
100
AcDbEntity
  8
Capa 1
100
AcDbBlockReference
  2
block 178
 10
0.0
 20
0.0
 30
0.0
  0
INSERT
  5
6A9
330
3C
100
AcDbEntity
  8
Capa 1
100
AcDbBlockReference
  2
block 179
 10
0.0
 20
0.0
 30
0.0
  0
INSERT
  5
6DD
330
3C
100
AcDbEntity
  8
Capa 1
100
AcDbBlockReference
  2
block 180
 10
0.0
 20
0.0
 30
0.0
  0
INSERT
  5
6E2
330
3C
100
AcDbEntity
  8
Capa 1
100
AcDbBlockReference
  2
block 181
 10
0.0
 20
0.0
 30
0.0
  0
INSERT
  5
6E7
330
3C
100
AcDbEntity
  8
Capa 1
100
AcDbBlockReference
  2
block 182
 10
0.0
 20
0.0
 30
0.0
  0
INSERT
  5
6EC
330
3C
100
AcDbEntity
  8
Capa 1
100
AcDbBlockReference
  2
block 183
 10
0.0
 20
0.0
 30
0.0
  0
INSERT
  5
6F1
330
3C
100
AcDbEntity
  8
Capa 1
100
AcDbBlockReference
  2
block 184
 10
0.0
 20
0.0
 30
0.0
  0
INSERT
  5
6F6
330
3C
100
AcDbEntity
  8
Capa 1
100
AcDbBlockReference
  2
block 185
 10
0.0
 20
0.0
 30
0.0
  0
ENDBLK
  5
3F
330
3C
100
AcDbEntity
  8
0
100
AcDbBlockEnd
  0
BLOCK
  5
42
330
40
100
AcDbEntity
  8
0
100
AcDbBlockBegin
  2
block 3
 70
     0
 71
     0
 10
0.0
 20
0.0
 30
0.0
  3
block 3
  1

  0
POLYLINE
  5
44
330
40
100
AcDbEntity
  8
Capa 1
 62
     7
420
 16777215
370
     9
100
AcDb2dPolyline
 66
     1
 10
0.0
 20
0.0
 30
0.0
  0
VERTEX
  5
45
330
44
100
AcDbEntity
  8
Capa 1
 62
     7
420
 16777215
370
     9
100
AcDbVertex
100
AcDb2dVertex
 10
74.25425903600305
 20
169.5572040987125
 30
0.0
  0
VERTEX
  5
46
330
44
100
AcDbEntity
  8
Capa 1
 62
     7
420
 16777215
370
     9
100
AcDbVertex
100
AcDb2dVertex
 10
129.8057713635837
 20
169.5572040987125
 30
0.0
  0
SEQEND
  5
47
330
44
100
AcDbEntity
  8
Capa 1
370
     9
  0
ENDBLK
  5
43
330
40
100
AcDbEntity
  8
0
100
AcDbBlockEnd
  0
BLOCK
  5
4A
330
48
100
AcDbEntity
  8
0
100
AcDbBlockBegin
  2
block 4
 70
     0
 71
     0
 10
0.0
 20
0.0
 30
0.0
  3
block 4
  1

  0
POLYLINE
  5
4C
330
48
100
AcDbEntity
  8
Capa 1
370
     0
100
AcDb2dPolyline
 66
     1
 10
0.0
 20
0.0
 30
0.0
  0
VERTEX
  5
4D
330
4C
100
AcDbEntity
  8
Capa 1
370
     0
100
AcDbVertex
100
AcDb2dVertex
 10
128.7226326284805
 20
169.5572040987125
 30
0.0
  0
VERTEX
  5
4E
330
4C
100
AcDbEntity
  8
Capa 1
370
     0
100
AcDbVertex
100
AcDb2dVertex
 10
73.16836422269353
 20
169.5572040987125
 30
0.0
  0
VERTEX
  5
4F
330
4C
100
AcDbEntity
  8
Capa 1
370
     0
100
AcDbVertex
100
AcDb2dVertex
 10
73.16836422269353
 20
163.7143183012095
 30
0.0
  0
VERTEX
  5
50
330
4C
100
AcDbEntity
  8
Capa 1
370
     0
100
AcDbVertex
100
AcDb2dVertex
 10
128.7226326284805
 20
163.7143183012095
 30
0.0
  0
VERTEX
  5
51
330
4C
100
AcDbEntity
  8
Capa 1
370
     0
100
AcDbVertex
100
AcDb2dVertex
 10
128.7226326284805
 20
169.5572040987125
 30
0.0
  0
SEQEND
  5
52
330
4C
100
AcDbEntity
  8
Capa 1
370
     0
  0
POLYLINE
  5
53
330
48
100
AcDbEntity
  8
Capa 1
 62
     7
420
 16777215
370
     9
100
AcDb2dPolyline
 66
     1
 10
0.0
 20
0.0
 30
0.0
  0
VERTEX
  5
54
330
53
100
AcDbEntity
  8
Capa 1
 62
     7
420
 16777215
370
     9
100
AcDbVertex
100
AcDb2dVertex
 10
72.6750262237534
 20
164.210412378356
 30
0.0
  0
VERTEX
  5
55
330
53
100
AcDbEntity
  8
Capa 1
 62
     7
420
 16777215
370
     9
100
AcDbVertex
100
AcDb2dVertex
 10
78.02181794410996
 20
169.5572040987125
 30
0.0
  0
SEQEND
  5
56
330
53
100
AcDbEntity
  8
Capa 1
370
     9
  0
POLYLINE
  5
57
330
48
100
AcDbEntity
  8
Capa 1
 62
     7
420
 16777215
370
     9
100
AcDb2dPolyline
 66
     1
 10
0.0
 20
0.0
 30
0.0
  0
VERTEX
  5
58
330
57
100
AcDbEntity
  8
Capa 1
 62
     7
420
 16777215
370
     9
100
AcDbVertex
100
AcDb2dVertex
 10
77.34382270534309
 20
163.7143183012095
 30
0.0
  0
VERTEX
  5
59
330
57
100
AcDbEntity
  8
Capa 1
 62
     7
420
 16777215
370
     9
100
AcDbVertex
100
AcDb2dVertex
 10
83.18670850284612
 20
169.5572040987125
 30
0.0
  0
SEQEND
  5
5A
330
57
100
AcDbEntity
  8
Capa 1
370
     9
  0
POLYLINE
  5
5B
330
48
100
AcDbEntity
  8
Capa 1
 62
     7
420
 16777215
370
     9
100
AcDb2dPolyline
 66
     1
 10
0.0
 20
0.0
 30
0.0
  0
VERTEX
  5
5C
330
5B
100
AcDbEntity
  8
Capa 1
 62
     7
420
 16777215
370
     9
100
AcDbVertex
100
AcDb2dVertex
 10
82.50871326407925
 20
163.7143183012095
 30
0.0
  0
VERTEX
  5
5D
330
5B
100
AcDbEntity
  8
Capa 1
 62
     7
420
 16777215
370
     9
100
AcDbVertex
100
AcDb2dVertex
 10
88.3488429833759
 20
169.5572040987125
 30
0.0
  0
SEQEND
  5
5E
330
5B
100
AcDbEntity
  8
Capa 1
370
     9
  0
POLYLINE
  5
5F
330
48
100
AcDbEntity
  8
Capa 1
 62
     7
420
 16777215
370
     9
100
AcDb2dPolyline
 66
     1
 10
0.0
 20
0.0
 30
0.0
  0
VERTEX
  5
60
330
5F
100
AcDbEntity
  8
Capa 1
 62
     7
420
 16777215
370
     9
100
AcDbVertex
100
AcDb2dVertex
 10
87.66809166640267
 20
163.7143183012095
 30
0.0
  0
VERTEX
  5
61
330
5F
100
AcDbEntity
  8
Capa 1
 62
     7
420
 16777215
370
     9
100
AcDbVertex
100
AcDb2dVertex
 10
93.5109774639057
 20
169.5572040987125
 30
0.0
  0
SEQEND
  5
62
330
5F
100
AcDbEntity
  8
Capa 1
370
     9
  0
POLYLINE
  5
63
330
48
100
AcDbEntity
  8
Capa 1
 62
     7
420
 16777215
370
     9
100
AcDb2dPolyline
 66
     1
 10
0.0
 20
0.0
 30
0.0
  0
VERTEX
  5
64
330
63
100
AcDbEntity
  8
Capa 1
 62
     7
420
 16777215
370
     9
100
AcDbVertex
100
AcDb2dVertex
 10
92.83298222513885
 20
163.7143183012095
 30
0.0
  0
VERTEX
  5
65
330
63
100
AcDbEntity
  8
Capa 1
 62
     7
420
 16777215
370
     9
100
AcDbVertex
100
AcDb2dVertex
 10
98.67311194443549
 20
169.5572040987125
 30
0.0
  0
SEQEND
  5
66
330
63
100
AcDbEntity
  8
Capa 1
370
     9
  0
POLYLINE
  5
67
330
48
100
AcDbEntity
  8
Capa 1
 62
     7
420
 16777215
370
     9
100
AcDb2dPolyline
 66
     1
 10
0.0
 20
0.0
 30
0.0
  0
VERTEX
  5
68
330
67
100
AcDbEntity
  8
Capa 1
 62
     7
420
 16777215
370
     9
100
AcDbVertex
100
AcDb2dVertex
 10
97.99511670566864
 20
163.7143183012095
 30
0.0
  0
VERTEX
  5
69
330
67
100
AcDbEntity
  8
Capa 1
 62
     7
420
 16777215
370
     9
100
AcDbVertex
100
AcDb2dVertex
 10
103.8380025031717
 20
169.5572040987125
 30
0.0
  0
SEQEND
  5
6A
330
67
100
AcDbEntity
  8
Capa 1
370
     9
  0
POLYLINE
  5
6B
330
48
100
AcDbEntity
  8
Capa 1
 62
     7
420
 16777215
370
     9
100
AcDb2dPolyline
 66
     1
 10
0.0
 20
0.0
 30
0.0
  0
VERTEX
  5
6C
330
6B
100
AcDbEntity
  8
Capa 1
 62
     7
420
 16777215
370
     9
100
AcDbVertex
100
AcDb2dVertex
 10
103.1572511861984
 20
163.7143183012095
 30
0.0
  0
VERTEX
  5
6D
330
6B
100
AcDbEntity
  8
Capa 1
 62
     7
420
 16777215
370
     9
100
AcDbVertex
100
AcDb2dVertex
 10
108.9973809054951
 20
169.5572040987125
 30
0.0
  0
SEQEND
  5
6E
330
6B
100
AcDbEntity
  8
Capa 1
370
     9
  0
POLYLINE
  5
6F
330
48
100
AcDbEntity
  8
Capa 1
 62
     7
420
 16777215
370
     9
100
AcDb2dPolyline
 66
     1
 10
0.0
 20
0.0
 30
0.0
  0
VERTEX
  5
70
330
6F
100
AcDbEntity
  8
Capa 1
 62
     7
420
 16777215
370
     9
100
AcDbVertex
100
AcDb2dVertex
 10
108.3193856667282
 20
163.7143183012095
 30
0.0
  0
VERTEX
  5
71
330
6F
100
AcDbEntity
  8
Capa 1
 62
     7
420
 16777215
370
     9
100
AcDbVertex
100
AcDb2dVertex
 10
114.1595153860249
 20
169.5572040987125
 30
0.0
  0
SEQEND
  5
72
330
6F
100
AcDbEntity
  8
Capa 1
370
     9
  0
POLYLINE
  5
73
330
48
100
AcDbEntity
  8
Capa 1
 62
     7
420
 16777215
370
     9
100
AcDb2dPolyline
 66
     1
 10
0.0
 20
0.0
 30
0.0
  0
VERTEX
  5
74
330
73
100
AcDbEntity
  8
Capa 1
 62
     7
420
 16777215
370
     9
100
AcDbVertex
100
AcDb2dVertex
 10
113.4842762254644
 20
163.7143183012095
 30
0.0
  0
VERTEX
  5
75
330
73
100
AcDbEntity
  8
Capa 1
 62
     7
420
 16777215
370
     9
100
AcDbVertex
100
AcDb2dVertex
 10
119.324405944761
 20
169.5572040987125
 30
0.0
  0
SEQEND
  5
76
330
73
100
AcDbEntity
  8
Capa 1
370
     9
  0
POLYLINE
  5
77
330
48
100
AcDbEntity
  8
Capa 1
 62
     7
420
 16777215
370
     9
100
AcDb2dPolyline
 66
     1
 10
0.0
 20
0.0
 30
0.0
  0
VERTEX
  5
78
330
77
100
AcDbEntity
  8
Capa 1
 62
     7
420
 16777215
370
     9
100
AcDbVertex
100
AcDb2dVertex
 10
118.6436546277878
 20
163.7143183012095
 30
0.0
  0
VERTEX
  5
79
330
77
100
AcDbEntity
  8
Capa 1
 62
     7
420
 16777215
370
     9
100
AcDbVertex
100
AcDb2dVertex
 10
124.4837843470845
 20
169.5572040987125
 30
0.0
  0
SEQEND
  5
7A
330
77
100
AcDbEntity
  8
Capa 1
370
     9
  0
POLYLINE
  5
7B
330
48
100
AcDbEntity
  8
Capa 1
 62
     7
420
 16777215
370
     9
100
AcDb2dPolyline
 66
     1
 10
0.0
 20
0.0
 30
0.0
  0
VERTEX
  5
7C
330
7B
100
AcDbEntity
  8
Capa 1
 62
     7
420
 16777215
370
     9
100
AcDbVertex
100
AcDb2dVertex
 10
123.8057891083176
 20
163.7143183012095
 30
0.0
  0
VERTEX
  5
7D
330
7B
100
AcDbEntity
  8
Capa 1
 62
     7
420
 16777215
370
     9
100
AcDbVertex
100
AcDb2dVertex
 10
129.1856537671506
 20
169.0941829600425
 30
0.0
  0
SEQEND
  5
7E
330
7B
100
AcDbEntity
  8
Capa 1
370
     9
  0
ENDBLK
  5
4B
330
48
100
AcDbEntity
  8
0
100
AcDbBlockEnd
  0
BLOCK
  5
81
330
7F
100
AcDbEntity
  8
0
100
AcDbBlockBegin
  2
block 5
 70
     0
 71
     0
 10
0.0
 20
0.0
 30
0.0
  3
block 5
  1

  0
SPLINE
  5
83
330
7F
100
AcDbEntity
  8
Capa 1
 62
     7
420
 16777215
370
     9
100
AcDbSpline
210
0.0
220
0.0
230
1.0
 70
    11
 71
     3
 72
    23
 73
    19
 74
     0
 42
0.0000000001
 43
0.0000000001
 40
0.0
 40
0.0
 40
0.0
 40
0.0
 40
1.0
 40
1.0
 40
1.0
 40
2.0
 40
2.0
 40
2.0
 40
3.0
 40
3.0
 40
3.0
 40
4.0
 40
4.0
 40
4.0
 40
5.0
 40
5.0
 40
5.0
 40
6.0
 40
6.0
 40
6.0
 40
6.0
 10
157.8295745659472
 20
114.206713225309
 30
0.0
 10
157.8295745659472
 20
115.6894833003357
 30
0.0
 10
156.6251683897638
 20
116.8911333983127
 30
0.0
 10
155.1423983147371
 20
116.8911333983127
 30
0.0
 10
153.6596282397104
 20
116.8911333983127
 30
0.0
 10
152.4579781417334
 20
115.6894833003357
 30
0.0
 10
152.4579781417334
 20
114.206713225309
 30
0.0
 10
152.4579781417334
 20
112.7211870720759
 30
0.0
 10
153.6596282397104
 20
111.5167808958925
 30
0.0
 10
155.1423983147371
 20
111.5167808958925
 30
0.0
 10
156.6251683897638
 20
111.5167808958925
 30
0.0
 10
157.8295745659472
 20
112.7211870720759
 30
0.0
 10
157.8295745659472
 20
114.206713225309
 30
0.0
 10
157.8295745659472
 20
114.206713225309
 30
0.0
 10
157.8295745659472
 20
114.206713225309
 30
0.0
 10
157.8295745659472
 20
114.206713225309
 30
0.0
 10
157.8295745659472
 20
114.206713225309
 30
0.0
 10
157.8295745659472
 20
114.206713225309
 30
0.0
 10
157.8295745659472
 20
114.206713225309
 30
0.0
  0
ENDBLK
  5
82
330
7F
100
AcDbEntity
  8
0
100
AcDbBlockEnd
  0
BLOCK
  5
86
330
84
100
AcDbEntity
  8
0
100
AcDbBlockBegin
  2
block 6
 70
     0
 71
     0
 10
0.0
 20
0.0
 30
0.0
  3
block 6
  1

  0
POLYLINE
  5
88
330
84
100
AcDbEntity
  8
Capa 1
 62
     7
420
 16777215
370
     9
100
AcDb2dPolyline
 66
     1
 10
0.0
 20
0.0
 30
0.0
  0
VERTEX
  5
89
330
88
100
AcDbEntity
  8
Capa 1
 62
     7
420
 16777215
370
     9
100
AcDbVertex
100
AcDb2dVertex
 10
190.1859327087234
 20
138.2672759669134
 30
0.0
  0
VERTEX
  5
8A
330
88
100
AcDbEntity
  8
Capa 1
 62
     7
420
 16777215
370
     9
100
AcDbVertex
100
AcDb2dVertex
 10
190.1859327087234
 20
114.206713225309
 30
0.0
  0
SEQEND
  5
8B
330
88
100
AcDbEntity
  8
Capa 1
370
     9
  0
ENDBLK
  5
87
330
84
100
AcDbEntity
  8
0
100
AcDbBlockEnd
  0
BLOCK
  5
8E
330
8C
100
AcDbEntity
  8
0
100
AcDbBlockBegin
  2
block 7
 70
     0
 71
     0
 10
0.0
 20
0.0
 30
0.0
  3
block 7
  1

  0
POLYLINE
  5
90
330
8C
100
AcDbEntity
  8
Capa 1
 62
     7
420
 16777215
370
     9
100
AcDb2dPolyline
 66
     1
 10
0.0
 20
0.0
 30
0.0
  0
VERTEX
  5
91
330
90
100
AcDbEntity
  8
Capa 1
 62
     7
420
 16777215
370
     9
100
AcDbVertex
100
AcDb2dVertex
 10
188.6066998964738
 20
120.9205197360247
 30
0.0
  0
VERTEX
  5
92
330
90
100
AcDbEntity
  8
Capa 1
 62
     7
420
 16777215
370
     9
100
AcDbVertex
100
AcDb2dVertex
 10
188.6066998964738
 20
114.206713225309
 30
0.0
  0
SEQEND
  5
93
330
90
100
AcDbEntity
  8
Capa 1
370
     9
  0
ENDBLK
  5
8F
330
8C
100
AcDbEntity
  8
0
100
AcDbBlockEnd
  0
BLOCK
  5
96
330
94
100
AcDbEntity
  8
0
100
AcDbBlockBegin
  2
block 8
 70
     0
 71
     0
 10
0.0
 20
0.0
 30
0.0
  3
block 8
  1

  0
SPLINE
  5
98
330
94
100
AcDbEntity
  8
Capa 1
 62
     7
420
 16777215
370
     9
100
AcDbSpline
210
0.0
220
0.0
230
1.0
 70
     8
 71
     3
 72
    11
 73
     7
 74
     0
 42
0.0000000001
 43
0.0000000001
 40
0.0
 40
0.0
 40
0.0
 40
0.0
 40
1.0
 40
1.0
 40
1.0
 40
2.0
 40
2.0
 40
2.0
 40
2.0
 10
188.6066998964738
 20
120.9205197360247
 30
0.0
 10
188.6066998964738
 20
123.5029650153928
 30
0.0
 10
186.5175926160458
 20
125.5920722958207
 30
0.0
 10
183.9351473366777
 20
125.5920722958207
 30
0.0
 10
183.9351473366777
 20
125.5920722958207
 30
0.0
 10
183.9351473366777
 20
125.5920722958207
 30
0.0
 10
183.9351473366777
 20
125.5920722958207
 30
0.0
  0
ENDBLK
  5
97
330
94
100
AcDbEntity
  8
0
100
AcDbBlockEnd
  0
BLOCK
  5
9B
330
99
100
AcDbEntity
  8
0
100
AcDbBlockBegin
  2
block 9
 70
     0
 71
     0
 10
0.0
 20
0.0
 30
0.0
  3
block 9
  1

  0
SPLINE
  5
9D
330
99
100
AcDbEntity
  8
Capa 1
 62
     7
420
 16777215
370
     9
100
AcDbSpline
210
0.0
220
0.0
230
1.0
 70
     8
 71
     3
 72
    11
 73
     7
 74
     0
 42
0.0000000001
 43
0.0000000001
 40
0.0
 40
0.0
 40
0.0
 40
0.0
 40
1.0
 40
1.0
 40
1.0
 40
2.0
 40
2.0
 40
2.0
 40
2.0
 10
190.1859327087234
 20
138.2672759669134
 30
0.0
 10
190.1859327087234
 20
138.5263473183121
 30
0.0
 10
189.9792268432457
 20
138.7358092619962
 30
0.0
 10
189.720155491847
 20
138.7358092619962
 30
0.0
 10
189.720155491847
 20
138.7358092619962
 30
0.0
 10
189.720155491847
 20
138.7358092619962
 30
0.0
 10
189.720155491847
 20
138.7358092619962
 30
0.0
  0
ENDBLK
  5
9C
330
99
100
AcDbEntity
  8
0
100
AcDbBlockEnd
  0
BLOCK
  5
A0
330
9E
100
AcDbEntity
  8
0
100
AcDbBlockBegin
  2
block 10
 70
     0
 71
     0
 10
0.0
 20
0.0
 30
0.0
  3
block 10
  1

  0
POLYLINE
  5
A2
330
9E
100
AcDbEntity
  8
Capa 1
 62
     7
420
 16777215
370
     9
100
AcDb2dPolyline
 66
     1
 10
0.0
 20
0.0
 30
0.0
  0
VERTEX
  5
A3
330
A2
100
AcDbEntity
  8
Capa 1
 62
     7
420
 16777215
370
     9
100
AcDbVertex
100
AcDb2dVertex
 10
155.1423983147371
 20
86.17188571011992
 30
0.0
  0
VERTEX
  5
A4
330
A2
100
AcDbEntity
  8
Capa 1
 62
     7
420
 16777215
370
     9
100
AcDbVertex
100
AcDb2dVertex
 10
157.8709157390428
 20
86.17188571011992
 30
0.0
  0
VERTEX
  5
A5
330
A2
100
AcDbEntity
  8
Capa 1
 62
     7
420
 16777215
370
     9
100
AcDbVertex
100
AcDb2dVertex
 10
160.8254315762707
 20
86.18015394473903
 30
0.0
  0
VERTEX
  5
A6
330
A2
100
AcDbEntity
  8
Capa 1
 62
     7
420
 16777215
370
     9
100
AcDbVertex
100
AcDb2dVertex
 10
163.6421435031802
 20
86.1911782575645
 30
0.0
  0
VERTEX
  5
A7
330
A2
100
AcDbEntity
  8
Capa 1
 62
     7
420
 16777215
370
     9
100
AcDbVertex
100
AcDb2dVertex
 10
166.3155393633585
 20
86.20495864859635
 30
0.0
  0
VERTEX
  5
A8
330
A2
100
AcDbEntity
  8
Capa 1
 62
     7
420
 16777215
370
     9
100
AcDbVertex
100
AcDb2dVertex
 10
168.8538873914246
 20
86.22425119604094
 30
0.0
  0
VERTEX
  5
A9
330
A2
100
AcDbEntity
  8
Capa 1
 62
     7
420
 16777215
370
     9
100
AcDbVertex
100
AcDb2dVertex
 10
171.2654558219978
 20
86.24354374348552
 30
0.0
  0
VERTEX
  5
AA
330
A2
100
AcDbEntity
  8
Capa 1
 62
     7
420
 16777215
370
     9
100
AcDbVertex
100
AcDb2dVertex
 10
173.5585128896971
 20
86.26834844734285
 30
0.0
  0
VERTEX
  5
AB
330
A2
100
AcDbEntity
  8
Capa 1
 62
     7
420
 16777215
370
     9
100
AcDbVertex
100
AcDb2dVertex
 10
175.7909362368563
 20
86.2903970729938
 30
0.0
  0
VERTEX
  5
AC
330
A2
100
AcDbEntity
  8
Capa 1
 62
     7
420
 16777215
370
     9
100
AcDbVertex
100
AcDb2dVertex
 10
177.9351650814117
 20
86.3179578550575
 30
0.0
  0
VERTEX
  5
AD
330
A2
100
AcDbEntity
  8
Capa 1
 62
     7
420
 16777215
370
     9
100
AcDbVertex
100
AcDb2dVertex
 10
180.0077358926014
 20
86.34551863712119
 30
0.0
  0
VERTEX
  5
AE
330
A2
100
AcDbEntity
  8
Capa 1
 62
     7
420
 16777215
370
     9
100
AcDbVertex
100
AcDb2dVertex
 10
180.9585828737988
 20
86.35929902815303
 30
0.0
  0
VERTEX
  5
AF
330
A2
100
AcDbEntity
  8
Capa 1
 62
     7
420
 16777215
370
     9
100
AcDbVertex
100
AcDb2dVertex
 10
181.892893385758
 20
86.37307941918488
 30
0.0
  0
VERTEX
  5
B0
330
A2
100
AcDbEntity
  8
Capa 1
 62
     7
420
 16777215
370
     9
100
AcDbVertex
100
AcDb2dVertex
 10
182.8079113502727
 20
86.3896158884231
 30
0.0
  0
VERTEX
  5
B1
330
A2
100
AcDbEntity
  8
Capa 1
 62
     7
420
 16777215
370
     9
100
AcDbVertex
100
AcDb2dVertex
 10
183.7119050019618
 20
86.41442059228042
 30
0.0
  0
VERTEX
  5
B2
330
A2
100
AcDbEntity
  8
Capa 1
 62
     7
420
 16777215
370
     9
100
AcDbVertex
100
AcDb2dVertex
 10
184.5773135587618
 20
86.53568803336067
 30
0.0
  0
VERTEX
  5
B3
330
A2
100
AcDbEntity
  8
Capa 1
 62
     7
420
 16777215
370
     9
100
AcDbVertex
100
AcDb2dVertex
 10
185.4537464283872
 20
86.77546683731481
 30
0.0
  0
VERTEX
  5
B4
330
A2
100
AcDbEntity
  8
Capa 1
 62
     7
420
 16777215
370
     9
100
AcDbVertex
100
AcDb2dVertex
 10
186.2337165607898
 20
87.09792798746003
 30
0.0
  0
VERTEX
  5
B5
330
A2
100
AcDbEntity
  8
Capa 1
 62
     7
420
 16777215
370
     9
100
AcDbVertex
100
AcDb2dVertex
 10
186.8841510174929
 20
87.45621815428804
 30
0.0
  0
VERTEX
  5
B6
330
A2
100
AcDbEntity
  8
Capa 1
 62
     7
420
 16777215
370
     9
100
AcDbVertex
100
AcDb2dVertex
 10
187.294806670242
 20
87.73182597492497
 30
0.0
  0
VERTEX
  5
B7
330
A2
100
AcDbEntity
  8
Capa 1
 62
     7
420
 16777215
370
     9
100
AcDbVertex
100
AcDb2dVertex
 10
187.6365603678318
 20
87.9991655609428
 30
0.0
  0
VERTEX
  5
B8
330
A2
100
AcDbEntity
  8
Capa 1
 62
     7
420
 16777215
370
     9
100
AcDbVertex
100
AcDb2dVertex
 10
187.9231925012942
 20
88.24721259951603
 30
0.0
  0
VERTEX
  5
B9
330
A2
100
AcDbEntity
  8
Capa 1
 62
     7
420
 16777215
370
     9
100
AcDbVertex
100
AcDb2dVertex
 10
188.1822638526929
 20
88.50077179450201
 30
0.0
  0
VERTEX
  5
BA
330
A2
100
AcDbEntity
  8
Capa 1
 62
     7
420
 16777215
370
     9
100
AcDbVertex
100
AcDb2dVertex
 10
188.496456768219
 20
88.84528157029818
 30
0.0
  0
VERTEX
  5
BB
330
A2
100
AcDbEntity
  8
Capa 1
 62
     7
420
 16777215
370
     9
100
AcDbVertex
100
AcDb2dVertex
 10
188.8437226222215
 20
89.28349800511091
 30
0.0
  0
VERTEX
  5
BC
330
A2
100
AcDbEntity
  8
Capa 1
 62
     7
420
 16777215
370
     9
100
AcDbVertex
100
AcDb2dVertex
 10
189.1413790685094
 20
89.72171443992364
 30
0.0
  0
VERTEX
  5
BD
330
A2
100
AcDbEntity
  8
Capa 1
 62
     7
420
 16777215
370
     9
100
AcDbVertex
100
AcDb2dVertex
 10
189.3646214032254
 20
90.11858970164083
 30
0.0
  0
VERTEX
  5
BE
330
A2
100
AcDbEntity
  8
Capa 1
 62
     7
420
 16777215
370
     9
100
AcDbVertex
100
AcDb2dVertex
 10
189.5327421738139
 20
90.45483124281789
 30
0.0
  0
VERTEX
  5
BF
330
A2
100
AcDbEntity
  8
Capa 1
 62
     7
420
 16777215
370
     9
100
AcDbVertex
100
AcDb2dVertex
 10
189.6622778495132
 20
90.74421945448667
 30
0.0
  0
VERTEX
  5
C0
330
A2
100
AcDbEntity
  8
Capa 1
 62
     7
420
 16777215
370
     9
100
AcDbVertex
100
AcDb2dVertex
 10
189.8000817598317
 20
91.10526569952106
 30
0.0
  0
VERTEX
  5
C1
330
A2
100
AcDbEntity
  8
Capa 1
 62
     7
420
 16777215
370
     9
100
AcDbVertex
100
AcDb2dVertex
 10
189.9433978265629
 20
91.57655507281021
 30
0.0
  0
VERTEX
  5
C2
330
A2
100
AcDbEntity
  8
Capa 1
 62
     7
420
 16777215
370
     9
100
AcDbVertex
100
AcDb2dVertex
 10
190.0756895804686
 20
92.16084365256052
 30
0.0
  0
VERTEX
  5
C3
330
A2
100
AcDbEntity
  8
Capa 1
 62
     7
420
 16777215
370
     9
100
AcDbVertex
100
AcDb2dVertex
 10
190.1638840830725
 20
92.8636435951847
 30
0.0
  0
VERTEX
  5
C4
330
A2
100
AcDbEntity
  8
Capa 1
 62
     7
420
 16777215
370
     9
100
AcDbVertex
100
AcDb2dVertex
 10
190.1859327087234
 20
93.68495490068277
 30
0.0
  0
VERTEX
  5
C5
330
A2
100
AcDbEntity
  8
Capa 1
 62
     7
420
 16777215
370
     9
100
AcDbVertex
100
AcDb2dVertex
 10
190.1859327087234
 20
94.61926541264198
 30
0.0
  0
VERTEX
  5
C6
330
A2
100
AcDbEntity
  8
Capa 1
 62
     7
420
 16777215
370
     9
100
AcDbVertex
100
AcDb2dVertex
 10
190.1859327087234
 20
95.65830689644322
 30
0.0
  0
VERTEX
  5
C7
330
A2
100
AcDbEntity
  8
Capa 1
 62
     7
420
 16777215
370
     9
100
AcDbVertex
100
AcDb2dVertex
 10
190.1859327087234
 20
96.80483543029287
 30
0.0
  0
VERTEX
  5
C8
330
A2
100
AcDbEntity
  8
Capa 1
 62
     7
420
 16777215
370
     9
100
AcDbVertex
100
AcDb2dVertex
 10
190.1859327087234
 20
98.0616070923973
 30
0.0
  0
VERTEX
  5
C9
330
A2
100
AcDbEntity
  8
Capa 1
 62
     7
420
 16777215
370
     9
100
AcDbVertex
100
AcDb2dVertex
 10
190.1859327087234
 20
99.42310972634375
 30
0.0
  0
VERTEX
  5
CA
330
A2
100
AcDbEntity
  8
Capa 1
 62
     7
420
 16777215
370
     9
100
AcDbVertex
100
AcDb2dVertex
 10
190.1859327087234
 20
101.1153417450545
 30
0.0
  0
VERTEX
  5
CB
330
A2
100
AcDbEntity
  8
Capa 1
 62
     7
420
 16777215
370
     9
100
AcDbVertex
100
AcDb2dVertex
 10
190.1859327087234
 20
102.9426215958774
 30
0.0
  0
VERTEX
  5
CC
330
A2
100
AcDbEntity
  8
Capa 1
 62
     7
420
 16777215
370
     9
100
AcDbVertex
100
AcDb2dVertex
 10
190.1859327087234
 20
104.9159735916379
 30
0.0
  0
VERTEX
  5
CD
330
A2
100
AcDbEntity
  8
Capa 1
 62
     7
420
 16777215
370
     9
100
AcDbVertex
100
AcDb2dVertex
 10
190.1859327087234
 20
107.0243734195104
 30
0.0
  0
VERTEX
  5
CE
330
A2
100
AcDbEntity
  8
Capa 1
 62
     7
420
 16777215
370
     9
100
AcDbVertex
100
AcDb2dVertex
 10
190.1859327087234
 20
109.2788453923205
 30
0.0
  0
VERTEX
  5
CF
330
A2
100
AcDbEntity
  8
Capa 1
 62
     7
420
 16777215
370
     9
100
AcDbVertex
100
AcDb2dVertex
 10
190.1859327087234
 20
111.6711212754492
 30
0.0
  0
VERTEX
  5
D0
330
A2
100
AcDbEntity
  8
Capa 1
 62
     7
420
 16777215
370
     9
100
AcDbVertex
100
AcDb2dVertex
 10
190.1859327087234
 20
114.206713225309
 30
0.0
  0
SEQEND
  5
D1
330
A2
100
AcDbEntity
  8
Capa 1
370
     9
  0
ENDBLK
  5
A1
330
9E
100
AcDbEntity
  8
0
100
AcDbBlockEnd
  0
BLOCK
  5
D4
330
D2
100
AcDbEntity
  8
0
100
AcDbBlockBegin
  2
block 11
 70
     0
 71
     0
 10
0.0
 20
0.0
 30
0.0
  3
block 11
  1

  0
POLYLINE
  5
D6
330
D2
100
AcDbEntity
  8
Capa 1
 62
     7
420
 16777215
370
     9
100
AcDb2dPolyline
 66
     1
 10
0.0
 20
0.0
 30
0.0
  0
VERTEX
  5
D7
330
D6
100
AcDbEntity
  8
Capa 1
 62
     7
420
 16777215
370
     9
100
AcDbVertex
100
AcDb2dVertex
 10
155.1423983147371
 20
87.74836244416319
 30
0.0
  0
VERTEX
  5
D8
330
D6
100
AcDbEntity
  8
Capa 1
 62
     7
420
 16777215
370
     9
100
AcDbVertex
100
AcDb2dVertex
 10
157.8654035826301
 20
87.75111852236955
 30
0.0
  0
VERTEX
  5
D9
330
D6
100
AcDbEntity
  8
Capa 1
 62
     7
420
 16777215
370
     9
100
AcDbVertex
100
AcDb2dVertex
 10
160.819919419858
 20
87.7566306787823
 30
0.0
  0
VERTEX
  5
DA
330
D6
100
AcDbEntity
  8
Capa 1
 62
     7
420
 16777215
370
     9
100
AcDbVertex
100
AcDb2dVertex
 10
163.6338752685611
 20
87.76765499160777
 30
0.0
  0
VERTEX
  5
DB
330
D6
100
AcDbEntity
  8
Capa 1
 62
     7
420
 16777215
370
     9
100
AcDbVertex
100
AcDb2dVertex
 10
166.3072711287394
 20
87.78419146084599
 30
0.0
  0
VERTEX
  5
DC
330
D6
100
AcDbEntity
  8
Capa 1
 62
     7
420
 16777215
370
     9
100
AcDbVertex
100
AcDb2dVertex
 10
168.8428630785992
 20
87.80072793008421
 30
0.0
  0
VERTEX
  5
DD
330
D6
100
AcDbEntity
  8
Capa 1
 62
     7
420
 16777215
370
     9
100
AcDbVertex
100
AcDb2dVertex
 10
171.251675430966
 20
87.82002047752879
 30
0.0
  0
VERTEX
  5
DE
330
D6
100
AcDbEntity
  8
Capa 1
 62
     7
420
 16777215
370
     9
100
AcDbVertex
100
AcDb2dVertex
 10
173.5419764204589
 20
87.84482518138611
 30
0.0
  0
VERTEX
  5
DF
330
D6
100
AcDbEntity
  8
Capa 1
 62
     7
420
 16777215
370
     9
100
AcDbVertex
100
AcDb2dVertex
 10
175.7716436894117
 20
87.86962988524344
 30
0.0
  0
VERTEX
  5
E0
330
D6
100
AcDbEntity
  8
Capa 1
 62
     7
420
 16777215
370
     9
100
AcDbVertex
100
AcDb2dVertex
 10
177.9131164557607
 20
87.89443458910077
 30
0.0
  0
VERTEX
  5
E1
330
D6
100
AcDbEntity
  8
Capa 1
 62
     7
420
 16777215
370
     9
100
AcDbVertex
100
AcDb2dVertex
 10
179.9856872669505
 20
87.92475144937083
 30
0.0
  0
VERTEX
  5
E2
330
D6
100
AcDbEntity
  8
Capa 1
 62
     7
420
 16777215
370
     9
100
AcDbVertex
100
AcDb2dVertex
 10
180.9337781699415
 20
87.93853184040267
 30
0.0
  0
VERTEX
  5
E3
330
D6
100
AcDbEntity
  8
Capa 1
 62
     7
420
 16777215
370
     9
100
AcDbVertex
100
AcDb2dVertex
 10
181.8680886819007
 20
87.95231223143452
 30
0.0
  0
VERTEX
  5
E4
330
D6
100
AcDbEntity
  8
Capa 1
 62
     7
420
 16777215
370
     9
100
AcDbVertex
100
AcDb2dVertex
 10
182.7748384117962
 20
87.96609262246636
 30
0.0
  0
VERTEX
  5
E5
330
D6
100
AcDbEntity
  8
Capa 1
 62
     7
420
 16777215
370
     9
100
AcDbVertex
100
AcDb2dVertex
 10
183.5768571698497
 20
87.99089732632369
 30
0.0
  0
VERTEX
  5
E6
330
D6
100
AcDbEntity
  8
Capa 1
 62
     7
420
 16777215
370
     9
100
AcDbVertex
100
AcDb2dVertex
 10
184.257608486823
 20
88.08460398534025
 30
0.0
  0
VERTEX
  5
E7
330
D6
100
AcDbEntity
  8
Capa 1
 62
     7
420
 16777215
370
     9
100
AcDbVertex
100
AcDb2dVertex
 10
184.9466280384153
 20
88.27201730337336
 30
0.0
  0
VERTEX
  5
E8
330
D6
100
AcDbEntity
  8
Capa 1
 62
     7
420
 16777215
370
     9
100
AcDbVertex
100
AcDb2dVertex
 10
185.5529652438165
 20
88.52006434194661
 30
0.0
  0
VERTEX
  5
E9
330
D6
100
AcDbEntity
  8
Capa 1
 62
     7
420
 16777215
370
     9
100
AcDbVertex
100
AcDb2dVertex
 10
186.0600836337885
 20
88.80394039720265
 30
0.0
  0
VERTEX
  5
EA
330
D6
100
AcDbEntity
  8
Capa 1
 62
     7
420
 16777215
370
     9
100
AcDbVertex
100
AcDb2dVertex
 10
186.3687643929019
 20
89.01064626268035
 30
0.0
  0
VERTEX
  5
EB
330
D6
100
AcDbEntity
  8
Capa 1
 62
     7
420
 16777215
370
     9
100
AcDbVertex
100
AcDb2dVertex
 10
186.6361039789197
 20
89.21735212815805
 30
0.0
  0
VERTEX
  5
EC
330
D6
100
AcDbEntity
  8
Capa 1
 62
     7
420
 16777215
370
     9
100
AcDbVertex
100
AcDb2dVertex
 10
186.8538341572229
 20
89.40752152439754
 30
0.0
  0
VERTEX
  5
ED
330
D6
100
AcDbEntity
  8
Capa 1
 62
     7
420
 16777215
370
     9
100
AcDbVertex
100
AcDb2dVertex
 10
187.0522717880815
 20
89.6004469988434
 30
0.0
  0
VERTEX
  5
EE
330
D6
100
AcDbEntity
  8
Capa 1
 62
     7
420
 16777215
370
     9
100
AcDbVertex
100
AcDb2dVertex
 10
187.294806670242
 20
89.86503050665485
 30
0.0
  0
VERTEX
  5
EF
330
D6
100
AcDbEntity
  8
Capa 1
 62
     7
420
 16777215
370
     9
100
AcDbVertex
100
AcDb2dVertex
 10
187.5704144908789
 20
90.21229636065739
 30
0.0
  0
VERTEX
  5
F0
330
D6
100
AcDbEntity
  8
Capa 1
 62
     7
420
 16777215
370
     9
100
AcDbVertex
100
AcDb2dVertex
 10
187.8019250602139
 20
90.55680613645356
 30
0.0
  0
VERTEX
  5
F1
330
D6
100
AcDbEntity
  8
Capa 1
 62
     7
420
 16777215
370
     9
100
AcDbVertex
100
AcDb2dVertex
 10
187.9783140654216
 20
90.86273081736056
 30
0.0
  0
VERTEX
  5
F2
330
D6
100
AcDbEntity
  8
Capa 1
 62
     7
420
 16777215
370
     9
100
AcDbVertex
100
AcDb2dVertex
 10
188.1050936629146
 20
91.12180216875927
 30
0.0
  0
VERTEX
  5
F3
330
D6
100
AcDbEntity
  8
Capa 1
 62
     7
420
 16777215
370
     9
100
AcDbVertex
100
AcDb2dVertex
 10
188.2015564001375
 20
91.33953234706244
 30
0.0
  0
VERTEX
  5
F4
330
D6
100
AcDbEntity
  8
Capa 1
 62
     7
420
 16777215
370
     9
100
AcDbVertex
100
AcDb2dVertex
 10
188.3090434501859
 20
91.61789624590575
 30
0.0
  0
VERTEX
  5
F5
330
D6
100
AcDbEntity
  8
Capa 1
 62
     7
420
 16777215
370
     9
100
AcDbVertex
100
AcDb2dVertex
 10
188.4192865784407
 20
91.9816985691465
 30
0.0
  0
VERTEX
  5
F6
330
D6
100
AcDbEntity
  8
Capa 1
 62
     7
420
 16777215
370
     9
100
AcDbVertex
100
AcDb2dVertex
 10
188.5212614720763
 20
92.43645147319745
 30
0.0
  0
VERTEX
  5
F7
330
D6
100
AcDbEntity
  8
Capa 1
 62
     7
420
 16777215
370
     9
100
AcDbVertex
100
AcDb2dVertex
 10
188.5901634272356
 20
92.98491103626495
 30
0.0
  0
VERTEX
  5
F8
330
D6
100
AcDbEntity
  8
Capa 1
 62
     7
420
 16777215
370
     9
100
AcDbVertex
100
AcDb2dVertex
 10
188.6122120528865
 20
93.70700352633372
 30
0.0
  0
VERTEX
  5
F9
330
D6
100
AcDbEntity
  8
Capa 1
 62
     7
420
 16777215
370
     9
100
AcDbVertex
100
AcDb2dVertex
 10
188.6122120528865
 20
94.61926541264198
 30
0.0
  0
VERTEX
  5
FA
330
D6
100
AcDbEntity
  8
Capa 1
 62
     7
420
 16777215
370
     9
100
AcDbVertex
100
AcDb2dVertex
 10
188.6122120528865
 20
95.65830689644322
 30
0.0
  0
VERTEX
  5
FB
330
D6
100
AcDbEntity
  8
Capa 1
 62
     7
420
 16777215
370
     9
100
AcDbVertex
100
AcDb2dVertex
 10
188.6122120528865
 20
96.80483543029287
 30
0.0
  0
VERTEX
  5
FC
330
D6
100
AcDbEntity
  8
Capa 1
 62
     7
420
 16777215
370
     9
100
AcDbVertex
100
AcDb2dVertex
 10
188.6122120528865
 20
98.0616070923973
 30
0.0
  0
VERTEX
  5
FD
330
D6
100
AcDbEntity
  8
Capa 1
 62
     7
420
 16777215
370
     9
100
AcDbVertex
100
AcDb2dVertex
 10
188.6122120528865
 20
99.42310972634375
 30
0.0
  0
VERTEX
  5
FE
330
D6
100
AcDbEntity
  8
Capa 1
 62
     7
420
 16777215
370
     9
100
AcDbVertex
100
AcDb2dVertex
 10
188.6122120528865
 20
101.1153417450545
 30
0.0
  0
VERTEX
  5
FF
330
D6
100
AcDbEntity
  8
Capa 1
 62
     7
420
 16777215
370
     9
100
AcDbVertex
100
AcDb2dVertex
 10
188.6122120528865
 20
102.9426215958774
 30
0.0
  0
VERTEX
  5
100
330
D6
100
AcDbEntity
  8
Capa 1
 62
     7
420
 16777215
370
     9
100
AcDbVertex
100
AcDb2dVertex
 10
188.6122120528865
 20
104.9159735916379
 30
0.0
  0
VERTEX
  5
101
330
D6
100
AcDbEntity
  8
Capa 1
 62
     7
420
 16777215
370
     9
100
AcDbVertex
100
AcDb2dVertex
 10
188.6122120528865
 20
107.0243734195104
 30
0.0
  0
VERTEX
  5
102
330
D6
100
AcDbEntity
  8
Capa 1
 62
     7
420
 16777215
370
     9
100
AcDbVertex
100
AcDb2dVertex
 10
188.6122120528865
 20
109.2788453923205
 30
0.0
  0
VERTEX
  5
103
330
D6
100
AcDbEntity
  8
Capa 1
 62
     7
420
 16777215
370
     9
100
AcDbVertex
100
AcDb2dVertex
 10
188.6066998964738
 20
111.6711212754492
 30
0.0
  0
VERTEX
  5
104
330
D6
100
AcDbEntity
  8
Capa 1
 62
     7
420
 16777215
370
     9
100
AcDbVertex
100
AcDb2dVertex
 10
188.6066998964738
 20
114.206713225309
 30
0.0
  0
SEQEND
  5
105
330
D6
100
AcDbEntity
  8
Capa 1
370
     9
  0
ENDBLK
  5
D5
330
D2
100
AcDbEntity
  8
0
100
AcDbBlockEnd
  0
BLOCK
  5
108
330
106
100
AcDbEntity
  8
0
100
AcDbBlockBegin
  2
block 12
 70
     0
 71
     0
 10
0.0
 20
0.0
 30
0.0
  3
block 12
  1

  0
SPLINE
  5
10A
330
106
100
AcDbEntity
  8
Capa 1
 62
     7
420
 16777215
370
     9
100
AcDbSpline
210
0.0
220
0.0
230
1.0
 70
     8
 71
     3
 72
    14
 73
    10
 74
     0
 42
0.0000000001
 43
0.0000000001
 40
0.0
 40
0.0
 40
0.0
 40
0.0
 40
1.0
 40
1.0
 40
1.0
 40
2.0
 40
2.0
 40
2.0
 40
3.0
 40
3.0
 40
3.0
 40
3.0
 10
155.1423983147371
 20
110.0009378823893
 30
0.0
 10
157.4685283209129
 20
110.0009378823893
 30
0.0
 10
159.3481736576568
 20
111.8833392973396
 30
0.0
 10
159.3481736576568
 20
114.206713225309
 30
0.0
 10
159.3481736576568
 20
116.5273310750719
 30
0.0
 10
157.4685283209129
 20
118.4097324900222
 30
0.0
 10
155.1423983147371
 20
118.4097324900222
 30
0.0
 10
155.1423983147371
 20
118.4097324900222
 30
0.0
 10
155.1423983147371
 20
118.4097324900222
 30
0.0
 10
155.1423983147371
 20
118.4097324900222
 30
0.0
  0
ENDBLK
  5
109
330
106
100
AcDbEntity
  8
0
100
AcDbBlockEnd
  0
BLOCK
  5
10D
330
10B
100
AcDbEntity
  8
0
100
AcDbBlockBegin
  2
block 13
 70
     0
 71
     0
 10
0.0
 20
0.0
 30
0.0
  3
block 13
  1

  0
SPLINE
  5
10F
330
10B
100
AcDbEntity
  8
Capa 1
 62
     7
420
 16777215
370
     9
100
AcDbSpline
210
0.0
220
0.0
230
1.0
 70
     8
 71
     3
 72
     8
 73
     4
 74
     0
 42
0.0000000001
 43
0.0000000001
 40
0.0
 40
0.0
 40
0.0
 40
0.0
 40
1.0
 40
1.0
 40
1.0
 40
1.0
 10
66.99750511863255
 20
267.7893435301289
 30
0.0
 10
67.37508783290515
 20
264.3855869452628
 30
0.0
 10
68.58776224370766
 20
257.9088031602948
 30
0.0
 10
69.47246334795223
 20
254.5987532344452
 30
0.0
  0
ENDBLK
  5
10E
330
10B
100
AcDbEntity
  8
0
100
AcDbBlockEnd
  0
BLOCK
  5
112
330
110
100
AcDbEntity
  8
0
100
AcDbBlockBegin
  2
block 14
 70
     0
 71
     0
 10
0.0
 20
0.0
 30
0.0
  3
block 14
  1

  0
SPLINE
  5
114
330
110
100
AcDbEntity
  8
Capa 1
 62
     7
420
 16777215
370
     9
100
AcDbSpline
210
0.0
220
0.0
230
1.0
 70
     8
 71
     3
 72
    11
 73
     7
 74
     0
 42
0.0000000001
 43
0.0000000001
 40
0.0
 40
0.0
 40
0.0
 40
0.0
 40
1.0
 40
1.0
 40
1.0
 40
2.0
 40
2.0
 40
2.0
 40
2.0
 10
67.91803523955991
 20
268.8449214831684
 30
0.0
 10
67.40264861496884
 20
268.8394093267556
 30
0.0
 10
66.98648080580708
 20
268.4177293611812
 30
0.0
 10
66.98923688401344
 20
267.9023427365901
 30
0.0
 10
66.98923688401344
 20
267.8747819545264
 30
0.0
 10
66.99199296221981
 20
267.819660390399
 30
0.0
 10
66.99750511863255
 20
267.7893435301289
 30
0.0
  0
ENDBLK
  5
113
330
110
100
AcDbEntity
  8
0
100
AcDbBlockEnd
  0
BLOCK
  5
117
330
115
100
AcDbEntity
  8
0
100
AcDbBlockBegin
  2
block 15
 70
     0
 71
     0
 10
0.0
 20
0.0
 30
0.0
  3
block 15
  1

  0
POLYLINE
  5
119
330
115
100
AcDbEntity
  8
Capa 1
 62
     7
420
 16777215
370
     9
100
AcDb2dPolyline
 66
     1
 10
0.0
 20
0.0
 30
0.0
  0
VERTEX
  5
11A
330
119
100
AcDbEntity
  8
Capa 1
 62
     7
420
 16777215
370
     9
100
AcDbVertex
100
AcDb2dVertex
 10
134.1410823822027
 20
254.2432191458236
 30
0.0
  0
VERTEX
  5
11B
330
119
100
AcDbEntity
  8
Capa 1
 62
     7
420
 16777215
370
     9
100
AcDbVertex
100
AcDb2dVertex
 10
69.9244601737968
 20
254.2432191458236
 30
0.0
  0
SEQEND
  5
11C
330
119
100
AcDbEntity
  8
Capa 1
370
     9
  0
ENDBLK
  5
118
330
115
100
AcDbEntity
  8
0
100
AcDbBlockEnd
  0
BLOCK
  5
11F
330
11D
100
AcDbEntity
  8
0
100
AcDbBlockBegin
  2
block 16
 70
     0
 71
     0
 10
0.0
 20
0.0
 30
0.0
  3
block 16
  1

  0
POLYLINE
  5
121
330
11D
100
AcDbEntity
  8
Capa 1
 62
     7
420
 16777215
370
     9
100
AcDb2dPolyline
 66
     1
 10
0.0
 20
0.0
 30
0.0
  0
VERTEX
  5
122
330
121
100
AcDbEntity
  8
Capa 1
 62
     7
420
 16777215
370
     9
100
AcDbVertex
100
AcDb2dVertex
 10
67.91803523955991
 20
268.8449214831684
 30
0.0
  0
VERTEX
  5
123
330
121
100
AcDbEntity
  8
Capa 1
 62
     7
420
 16777215
370
     9
100
AcDbVertex
100
AcDb2dVertex
 10
136.1419951600268
 20
268.8449214831684
 30
0.0
  0
SEQEND
  5
124
330
121
100
AcDbEntity
  8
Capa 1
370
     9
  0
ENDBLK
  5
120
330
11D
100
AcDbEntity
  8
0
100
AcDbBlockEnd
  0
BLOCK
  5
127
330
125
100
AcDbEntity
  8
0
100
AcDbBlockBegin
  2
block 17
 70
     0
 71
     0
 10
0.0
 20
0.0
 30
0.0
  3
block 17
  1

  0
SPLINE
  5
129
330
125
100
AcDbEntity
  8
Capa 1
 62
     7
420
 16777215
370
     9
100
AcDbSpline
210
0.0
220
0.0
230
1.0
 70
     8
 71
     3
 72
     8
 73
     4
 74
     0
 42
0.0000000001
 43
0.0000000001
 40
0.0
 40
0.0
 40
0.0
 40
0.0
 40
1.0
 40
1.0
 40
1.0
 40
1.0
 10
69.47246334795223
 20
254.5987532344452
 30
0.0
 10
69.51656059925413
 20
254.3948034471739
 30
0.0
 10
69.7177543083191
 20
254.2377069894108
 30
0.0
 10
69.9244601737968
 20
254.2432191458236
 30
0.0
  0
ENDBLK
  5
128
330
125
100
AcDbEntity
  8
0
100
AcDbBlockEnd
  0
BLOCK
  5
12C
330
12A
100
AcDbEntity
  8
0
100
AcDbBlockBegin
  2
block 18
 70
     0
 71
     0
 10
0.0
 20
0.0
 30
0.0
  3
block 18
  1

  0
POLYLINE
  5
12E
330
12A
100
AcDbEntity
  8
Capa 1
 62
     7
420
 16777215
370
     9
100
AcDb2dPolyline
 66
     1
 10
0.0
 20
0.0
 30
0.0
  0
VERTEX
  5
12F
330
12E
100
AcDbEntity
  8
Capa 1
 62
     7
420
 16777215
370
     9
100
AcDbVertex
100
AcDb2dVertex
 10
183.9351473366777
 20
125.5920722958207
 30
0.0
  0
VERTEX
  5
130
330
12E
100
AcDbEntity
  8
Capa 1
 62
     7
420
 16777215
370
     9
100
AcDbVertex
100
AcDb2dVertex
 10
126.3524053710029
 20
125.5920722958207
 30
0.0
  0
SEQEND
  5
131
330
12E
100
AcDbEntity
  8
Capa 1
370
     9
  0
ENDBLK
  5
12D
330
12A
100
AcDbEntity
  8
0
100
AcDbBlockEnd
  0
BLOCK
  5
134
330
132
100
AcDbEntity
  8
0
100
AcDbBlockBegin
  2
block 19
 70
     0
 71
     0
 10
0.0
 20
0.0
 30
0.0
  3
block 19
  1

  0
SPLINE
  5
136
330
132
100
AcDbEntity
  8
Capa 1
 62
     7
420
 16777215
370
     9
100
AcDbSpline
210
0.0
220
0.0
230
1.0
 70
    11
 71
     3
 72
    23
 73
    19
 74
     0
 42
0.0000000001
 43
0.0000000001
 40
0.0
 40
0.0
 40
0.0
 40
0.0
 40
1.0
 40
1.0
 40
1.0
 40
2.0
 40
2.0
 40
2.0
 40
3.0
 40
3.0
 40
3.0
 40
4.0
 40
4.0
 40
4.0
 40
5.0
 40
5.0
 40
5.0
 40
6.0
 40
6.0
 40
6.0
 40
6.0
 10
157.1874083438632
 20
131.7271023831989
 30
0.0
 10
157.1874083438632
 20
132.854338369604
 30
0.0
 10
156.2723903793486
 20
133.7693563341186
 30
0.0
 10
155.1423983147371
 20
133.7693563341186
 30
0.0
 10
154.0151623283321
 20
133.7693563341186
 30
0.0
 10
153.0973882856111
 20
132.854338369604
 30
0.0
 10
153.0973882856111
 20
131.7271023831989
 30
0.0
 10
153.0973882856111
 20
130.5971103185875
 30
0.0
 10
154.0151623283321
 20
129.6820923540729
 30
0.0
 10
155.1423983147371
 20
129.6820923540729
 30
0.0
 10
156.2723903793486
 20
129.6820923540729
 30
0.0
 10
157.1874083438632
 20
130.5971103185875
 30
0.0
 10
157.1874083438632
 20
131.7271023831989
 30
0.0
 10
157.1874083438632
 20
131.7271023831989
 30
0.0
 10
157.1874083438632
 20
131.7271023831989
 30
0.0
 10
157.1874083438632
 20
131.7271023831989
 30
0.0
 10
157.1874083438632
 20
131.7271023831989
 30
0.0
 10
157.1874083438632
 20
131.7271023831989
 30
0.0
 10
157.1874083438632
 20
131.7271023831989
 30
0.0
  0
ENDBLK
  5
135
330
132
100
AcDbEntity
  8
0
100
AcDbBlockEnd
  0
BLOCK
  5
139
330
137
100
AcDbEntity
  8
0
100
AcDbBlockBegin
  2
block 20
 70
     0
 71
     0
 10
0.0
 20
0.0
 30
0.0
  3
block 20
  1

  0
POLYLINE
  5
13B
330
137
100
AcDbEntity
  8
Capa 1
 62
     7
420
 16777215
370
     9
100
AcDb2dPolyline
 66
     1
 10
0.0
 20
0.0
 30
0.0
  0
VERTEX
  5
13C
330
13B
100
AcDbEntity
  8
Capa 1
 62
     7
420
 16777215
370
     9
100
AcDbVertex
100
AcDb2dVertex
 10
128.786022427227
 20
121.8382937787457
 30
0.0
  0
VERTEX
  5
13D
330
13B
100
AcDbEntity
  8
Capa 1
 62
     7
420
 16777215
370
     9
100
AcDbVertex
100
AcDb2dVertex
 10
181.4960181240409
 20
121.8382937787457
 30
0.0
  0
SEQEND
  5
13E
330
13B
100
AcDbEntity
  8
Capa 1
370
     9
  0
ENDBLK
  5
13A
330
137
100
AcDbEntity
  8
0
100
AcDbBlockEnd
  0
BLOCK
  5
141
330
13F
100
AcDbEntity
  8
0
100
AcDbBlockBegin
  2
block 21
 70
     0
 71
     0
 10
0.0
 20
0.0
 30
0.0
  3
block 21
  1

  0
SPLINE
  5
143
330
13F
100
AcDbEntity
  8
Capa 1
 62
     7
420
 16777215
370
     9
100
AcDbSpline
210
0.0
220
0.0
230
1.0
 70
     8
 71
     3
 72
    11
 73
     7
 74
     0
 42
0.0000000001
 43
0.0000000001
 40
0.0
 40
0.0
 40
0.0
 40
0.0
 40
1.0
 40
1.0
 40
1.0
 40
2.0
 40
2.0
 40
2.0
 40
2.0
 10
185.2387723282904
 20
118.1010517309088
 30
0.0
 10
185.2387723282904
 20
120.1625982292731
 30
0.0
 10
183.5630767788179
 20
121.8382937787457
 30
0.0
 10
181.4960181240409
 20
121.8382937787457
 30
0.0
 10
181.4960181240409
 20
121.8382937787457
 30
0.0
 10
181.4960181240409
 20
121.8382937787457
 30
0.0
 10
181.4960181240409
 20
121.8382937787457
 30
0.0
  0
ENDBLK
  5
142
330
13F
100
AcDbEntity
  8
0
100
AcDbBlockEnd
  0
BLOCK
  5
146
330
144
100
AcDbEntity
  8
0
100
AcDbBlockBegin
  2
block 22
 70
     0
 71
     0
 10
0.0
 20
0.0
 30
0.0
  3
block 22
  1

  0
SPLINE
  5
148
330
144
100
AcDbEntity
  8
Capa 1
 62
     7
420
 16777215
370
     9
100
AcDbSpline
210
0.0
220
0.0
230
1.0
 70
     8
 71
     3
 72
    62
 73
    58
 74
     0
 42
0.0000000001
 43
0.0000000001
 40
0.0
 40
0.0
 40
0.0
 40
0.0
 40
1.0
 40
1.0
 40
1.0
 40
2.0
 40
2.0
 40
2.0
 40
3.0
 40
3.0
 40
3.0
 40
4.0
 40
4.0
 40
4.0
 40
5.0
 40
5.0
 40
5.0
 40
6.0
 40
6.0
 40
6.0
 40
7.0
 40
7.0
 40
7.0
 40
8.0
 40
8.0
 40
8.0
 40
9.0
 40
9.0
 40
9.0
 40
10.0
 40
10.0
 40
10.0
 40
11.0
 40
11.0
 40
11.0
 40
12.0
 40
12.0
 40
12.0
 40
13.0
 40
13.0
 40
13.0
 40
14.0
 40
14.0
 40
14.0
 40
15.0
 40
15.0
 40
15.0
 40
16.0
 40
16.0
 40
16.0
 40
17.0
 40
17.0
 40
17.0
 40
18.0
 40
18.0
 40
18.0
 40
19.0
 40
19.0
 40
19.0
 40
19.0
 10
155.1423983147371
 20
122.7726042907049
 30
0.0
 10
155.1699590968008
 20
122.7726042907049
 30
0.0
 10
155.1975198788645
 20
122.7726042907049
 30
0.0
 10
155.2250806609282
 20
122.7753603689113
 30
0.0
 10
155.2250806609282
 20
122.7753603689113
 30
0.0
 10
155.2250806609282
 20
122.7753603689113
 30
0.0
 10
155.2250806609282
 20
122.7753603689113
 30
0.0
 10
155.4069818225486
 20
122.7836286035304
 30
0.0
 10
155.5861269059626
 20
122.8194576202132
 30
0.0
 10
155.7487355201384
 20
122.8828474189597
 30
0.0
 10
155.7487355201384
 20
122.8828474189597
 30
0.0
 10
155.7487355201384
 20
122.8828474189597
 30
0.0
 10
155.7487355201384
 20
122.8828474189597
 30
0.0
 10
155.9085880561078
 20
122.9462372177062
 30
0.0
 10
156.0546602010454
 20
123.03443172031
 30
0.0
 10
156.1676594075065
 20
123.1446748485648
 30
0.0
 10
156.1676594075065
 20
123.1446748485648
 30
0.0
 10
156.1676594075065
 20
123.1446748485648
 30
0.0
 10
156.1676594075065
 20
123.1446748485648
 30
0.0
 10
156.2558539101103
 20
123.2273571947558
 30
0.0
 10
156.3192437088568
 20
123.3238199319788
 30
0.0
 10
156.3660970383651
 20
123.4230387474081
 30
0.0
 10
156.3660970383651
 20
123.4230387474081
 30
0.0
 10
156.3660970383651
 20
123.4230387474081
 30
0.0
 10
156.3660970383651
 20
123.4230387474081
 30
0.0
 10
156.410194289667
 20
123.5250136410437
 30
0.0
 10
156.432242915318
 20
123.6352567692985
 30
0.0
 10
156.4267307589053
 20
123.7454998975533
 30
0.0
 10
156.4267307589053
 20
123.7454998975533
 30
0.0
 10
156.4267307589053
 20
123.7454998975533
 30
0.0
 10
156.4267307589053
 20
123.7454998975533
 30
0.0
 10
156.4239746806989
 20
123.8529869476017
 30
0.0
 10
156.3936578204288
 20
123.9632300758565
 30
0.0
 10
156.3412923345078
 20
124.0624488912858
 30
0.0
 10
156.3412923345078
 20
124.0624488912858
 30
0.0
 10
156.3412923345078
 20
124.0624488912858
 30
0.0
 10
156.3412923345078
 20
124.0624488912858
 30
0.0
 10
156.2861707703804
 20
124.1589116285087
 30
0.0
 10
156.2117566588084
 20
124.2498622093189
 30
0.0
 10
156.1208060779983
 20
124.3297884773036
 30
0.0
 10
156.1208060779983
 20
124.3297884773036
 30
0.0
 10
156.1208060779983
 20
124.3297884773036
 30
0.0
 10
156.1208060779983
 20
124.3297884773036
 30
0.0
 10
156.0298554971881
 20
124.4069586670819
 30
0.0
 10
155.9196123689333
 20
124.4758606222412
 30
0.0
 10
155.8038570842658
 20
124.5254700299558
 30
0.0
 10
155.8038570842658
 20
124.5254700299558
 30
0.0
 10
155.8038570842658
 20
124.5254700299558
 30
0.0
 10
155.8038570842658
 20
124.5254700299558
 30
0.0
 10
155.6440045482964
 20
124.5971280633214
 30
0.0
 10
155.4648594648824
 20
124.638469236417
 30
0.0
 10
155.2829583032619
 20
124.6522496274488
 30
0.0
 10
155.2829583032619
 20
124.6522496274488
 30
0.0
 10
155.2829583032619
 20
124.6522496274488
 30
0.0
 10
155.2829583032619
 20
124.6522496274488
 30
0.0
 10
155.23886105196
 20
124.6550057056552
 30
0.0
 10
155.1892516442454
 20
124.6577617838615
 30
0.0
 10
155.1423983147371
 20
124.6577617838615
 30
0.0
  0
ENDBLK
  5
147
330
144
100
AcDbEntity
  8
0
100
AcDbBlockEnd
  0
BLOCK
  5
14B
330
149
100
AcDbEntity
  8
0
100
AcDbBlockBegin
  2
block 23
 70
     0
 71
     0
 10
0.0
 20
0.0
 30
0.0
  3
block 23
  1

  0
POLYLINE
  5
14D
330
149
100
AcDbEntity
  8
Capa 1
 62
     7
420
 16777215
370
     9
100
AcDb2dPolyline
 66
     1
 10
0.0
 20
0.0
 30
0.0
  0
VERTEX
  5
14E
330
14D
100
AcDbEntity
  8
Capa 1
 62
     7
420
 16777215
370
     9
100
AcDbVertex
100
AcDb2dVertex
 10
189.720155491847
 20
138.7358092619962
 30
0.0
  0
VERTEX
  5
14F
330
14D
100
AcDbEntity
  8
Capa 1
 62
     7
420
 16777215
370
     9
100
AcDbVertex
100
AcDb2dVertex
 10
120.5673972158336
 20
138.7358092619962
 30
0.0
  0
SEQEND
  5
150
330
14D
100
AcDbEntity
  8
Capa 1
370
     9
  0
ENDBLK
  5
14C
330
149
100
AcDbEntity
  8
0
100
AcDbBlockEnd
  0
BLOCK
  5
153
330
151
100
AcDbEntity
  8
0
100
AcDbBlockBegin
  2
block 24
 70
     0
 71
     0
 10
0.0
 20
0.0
 30
0.0
  3
block 24
  1

  0
SPLINE
  5
155
330
151
100
AcDbEntity
  8
Capa 1
 62
     7
420
 16777215
370
     9
100
AcDbSpline
210
0.0
220
0.0
230
1.0
 70
     8
 71
     3
 72
     8
 73
     4
 74
     0
 42
0.0000000001
 43
0.0000000001
 40
0.0
 40
0.0
 40
0.0
 40
0.0
 40
1.0
 40
1.0
 40
1.0
 40
1.0
 10
134.5958352862536
 20
254.5987532344452
 30
0.0
 10
135.4777803122918
 20
257.9088031602948
 30
0.0
 10
136.6904547230943
 20
264.3855869452628
 30
0.0
 10
137.0680374373669
 20
267.7893435301289
 30
0.0
  0
ENDBLK
  5
154
330
151
100
AcDbEntity
  8
0
100
AcDbBlockEnd
  0
BLOCK
  5
158
330
156
100
AcDbEntity
  8
0
100
AcDbBlockBegin
  2
block 25
 70
     0
 71
     0
 10
0.0
 20
0.0
 30
0.0
  3
block 25
  1

  0
SPLINE
  5
15A
330
156
100
AcDbEntity
  8
Capa 1
 62
     7
420
 16777215
370
     9
100
AcDbSpline
210
0.0
220
0.0
230
1.0
 70
     8
 71
     3
 72
    11
 73
     7
 74
     0
 42
0.0000000001
 43
0.0000000001
 40
0.0
 40
0.0
 40
0.0
 40
0.0
 40
1.0
 40
1.0
 40
1.0
 40
2.0
 40
2.0
 40
2.0
 40
2.0
 10
137.0680374373669
 20
267.7893435301289
 30
0.0
 10
137.1341833143198
 20
268.3019740765136
 30
0.0
 10
136.7731370692854
 20
268.7705073715964
 30
0.0
 10
136.2577504446943
 20
268.8366532485493
 30
0.0
 10
136.2301896626306
 20
268.8394093267556
 30
0.0
 10
136.1750680985033
 20
268.8449214831684
 30
0.0
 10
136.1475073164396
 20
268.8449214831684
 30
0.0
  0
ENDBLK
  5
159
330
156
100
AcDbEntity
  8
0
100
AcDbBlockEnd
  0
BLOCK
  5
15D
330
15B
100
AcDbEntity
  8
0
100
AcDbBlockBegin
  2
block 26
 70
     0
 71
     0
 10
0.0
 20
0.0
 30
0.0
  3
block 26
  1

  0
SPLINE
  5
15F
330
15B
100
AcDbEntity
  8
Capa 1
 62
     7
420
 16777215
370
     9
100
AcDbSpline
210
0.0
220
0.0
230
1.0
 70
     8
 71
     3
 72
     8
 73
     4
 74
     0
 42
0.0000000001
 43
0.0000000001
 40
0.0
 40
0.0
 40
0.0
 40
0.0
 40
1.0
 40
1.0
 40
1.0
 40
1.0
 10
134.1410823822027
 20
254.2432191458236
 30
0.0
 10
134.3477882476804
 20
254.2377069894108
 30
0.0
 10
134.5489819567453
 20
254.3948034471739
 30
0.0
 10
134.5958352862536
 20
254.5987532344452
 30
0.0
  0
ENDBLK
  5
15E
330
15B
100
AcDbEntity
  8
0
100
AcDbBlockEnd
  0
BLOCK
  5
162
330
160
100
AcDbEntity
  8
0
100
AcDbBlockBegin
  2
block 27
 70
     0
 71
     0
 10
0.0
 20
0.0
 30
0.0
  3
block 27
  1

  0
POLYLINE
  5
164
330
160
100
AcDbEntity
  8
Capa 1
 62
     7
420
 16777215
370
     9
100
AcDb2dPolyline
 66
     1
 10
0.0
 20
0.0
 30
0.0
  0
VERTEX
  5
165
330
164
100
AcDbEntity
  8
Capa 1
 62
     7
420
 16777215
370
     9
100
AcDbVertex
100
AcDb2dVertex
 10
121.6753406547941
 20
120.9205197360247
 30
0.0
  0
VERTEX
  5
166
330
164
100
AcDbEntity
  8
Capa 1
 62
     7
420
 16777215
370
     9
100
AcDbVertex
100
AcDb2dVertex
 10
121.6753406547941
 20
114.206713225309
 30
0.0
  0
SEQEND
  5
167
330
164
100
AcDbEntity
  8
Capa 1
370
     9
  0
ENDBLK
  5
163
330
160
100
AcDbEntity
  8
0
100
AcDbBlockEnd
  0
BLOCK
  5
16A
330
168
100
AcDbEntity
  8
0
100
AcDbBlockBegin
  2
block 28
 70
     0
 71
     0
 10
0.0
 20
0.0
 30
0.0
  3
block 28
  1

  0
SPLINE
  5
16C
330
168
100
AcDbEntity
  8
Capa 1
 62
     7
420
 16777215
370
     9
100
AcDbSpline
210
0.0
220
0.0
230
1.0
 70
     8
 71
     3
 72
    11
 73
     7
 74
     0
 42
0.0000000001
 43
0.0000000001
 40
0.0
 40
0.0
 40
0.0
 40
0.0
 40
1.0
 40
1.0
 40
1.0
 40
2.0
 40
2.0
 40
2.0
 40
2.0
 10
126.3524053710029
 20
125.5920722958207
 30
0.0
 10
123.7699600916348
 20
125.5920722958207
 30
0.0
 10
121.6753406547941
 20
123.5029650153928
 30
0.0
 10
121.6753406547941
 20
120.9205197360247
 30
0.0
 10
121.6753406547941
 20
120.9205197360247
 30
0.0
 10
121.6753406547941
 20
120.9205197360247
 30
0.0
 10
121.6753406547941
 20
120.9205197360247
 30
0.0
  0
ENDBLK
  5
16B
330
168
100
AcDbEntity
  8
0
100
AcDbBlockEnd
  0
BLOCK
  5
16F
330
16D
100
AcDbEntity
  8
0
100
AcDbBlockBegin
  2
block 29
 70
     0
 71
     0
 10
0.0
 20
0.0
 30
0.0
  3
block 29
  1

  0
SPLINE
  5
171
330
16D
100
AcDbEntity
  8
Capa 1
 62
     7
420
 16777215
370
     9
100
AcDbSpline
210
0.0
220
0.0
230
1.0
 70
     8
 71
     3
 72
    11
 73
     7
 74
     0
 42
0.0000000001
 43
0.0000000001
 40
0.0
 40
0.0
 40
0.0
 40
0.0
 40
1.0
 40
1.0
 40
1.0
 40
2.0
 40
2.0
 40
2.0
 40
2.0
 10
120.5673972158336
 20
138.7358092619962
 30
0.0
 10
120.3083258644349
 20
138.7358092619962
 30
0.0
 10
120.1016199989572
 20
138.5263473183121
 30
0.0
 10
120.1016199989572
 20
138.2672759669134
 30
0.0
 10
120.1016199989572
 20
138.2672759669134
 30
0.0
 10
120.1016199989572
 20
138.2672759669134
 30
0.0
 10
120.1016199989572
 20
138.2672759669134
 30
0.0
  0
ENDBLK
  5
170
330
16D
100
AcDbEntity
  8
0
100
AcDbBlockEnd
  0
BLOCK
  5
174
330
172
100
AcDbEntity
  8
0
100
AcDbBlockBegin
  2
block 30
 70
     0
 71
     0
 10
0.0
 20
0.0
 30
0.0
  3
block 30
  1

  0
POLYLINE
  5
176
330
172
100
AcDbEntity
  8
Capa 1
 62
     7
420
 16777215
370
     9
100
AcDb2dPolyline
 66
     1
 10
0.0
 20
0.0
 30
0.0
  0
VERTEX
  5
177
330
176
100
AcDbEntity
  8
Capa 1
 62
     7
420
 16777215
370
     9
100
AcDbVertex
100
AcDb2dVertex
 10
155.1423983147371
 20
87.74836244416319
 30
0.0
  0
VERTEX
  5
178
330
176
100
AcDbEntity
  8
Capa 1
 62
     7
420
 16777215
370
     9
100
AcDbVertex
100
AcDb2dVertex
 10
152.4193930468442
 20
87.75111852236955
 30
0.0
  0
VERTEX
  5
179
330
176
100
AcDbEntity
  8
Capa 1
 62
     7
420
 16777215
370
     9
100
AcDbVertex
100
AcDb2dVertex
 10
149.4676332878226
 20
87.7566306787823
 30
0.0
  0
VERTEX
  5
17A
330
176
100
AcDbEntity
  8
Capa 1
 62
     7
420
 16777215
370
     9
100
AcDbVertex
100
AcDb2dVertex
 10
146.6536774391195
 20
87.76765499160777
 30
0.0
  0
VERTEX
  5
17B
330
176
100
AcDbEntity
  8
Capa 1
 62
     7
420
 16777215
370
     9
100
AcDbVertex
100
AcDb2dVertex
 10
143.9802815789413
 20
87.78419146084599
 30
0.0
  0
VERTEX
  5
17C
330
176
100
AcDbEntity
  8
Capa 1
 62
     7
420
 16777215
370
     9
100
AcDbVertex
100
AcDb2dVertex
 10
141.4446896290814
 20
87.80072793008421
 30
0.0
  0
VERTEX
  5
17D
330
176
100
AcDbEntity
  8
Capa 1
 62
     7
420
 16777215
370
     9
100
AcDbVertex
100
AcDb2dVertex
 10
139.0358772767146
 20
87.82002047752879
 30
0.0
  0
VERTEX
  5
17E
330
176
100
AcDbEntity
  8
Capa 1
 62
     7
420
 16777215
370
     9
100
AcDbVertex
100
AcDb2dVertex
 10
136.7455762872217
 20
87.84482518138611
 30
0.0
  0
VERTEX
  5
17F
330
176
100
AcDbEntity
  8
Capa 1
 62
     7
420
 16777215
370
     9
100
AcDbVertex
100
AcDb2dVertex
 10
134.5159090182689
 20
87.86962988524344
 30
0.0
  0
VERTEX
  5
180
330
176
100
AcDbEntity
  8
Capa 1
 62
     7
420
 16777215
370
     9
100
AcDbVertex
100
AcDb2dVertex
 10
132.3689240955072
 20
87.89443458910077
 30
0.0
  0
VERTEX
  5
181
330
176
100
AcDbEntity
  8
Capa 1
 62
     7
420
 16777215
370
     9
100
AcDbVertex
100
AcDb2dVertex
 10
130.3018654407302
 20
87.92475144937083
 30
0.0
  0
VERTEX
  5
182
330
176
100
AcDbEntity
  8
Capa 1
 62
     7
420
 16777215
370
     9
100
AcDbVertex
100
AcDb2dVertex
 10
129.3510184595328
 20
87.93853184040267
 30
0.0
  0
VERTEX
  5
183
330
176
100
AcDbEntity
  8
Capa 1
 62
     7
420
 16777215
370
     9
100
AcDbVertex
100
AcDb2dVertex
 10
128.4194640257799
 20
87.95231223143452
 30
0.0
  0
VERTEX
  5
184
330
176
100
AcDbEntity
  8
Capa 1
 62
     7
420
 16777215
370
     9
100
AcDbVertex
100
AcDb2dVertex
 10
127.5127142958844
 20
87.96609262246636
 30
0.0
  0
VERTEX
  5
185
330
176
100
AcDbEntity
  8
Capa 1
 62
     7
420
 16777215
370
     9
100
AcDbVertex
100
AcDb2dVertex
 10
126.7106955378309
 20
87.99089732632369
 30
0.0
  0
VERTEX
  5
186
330
176
100
AcDbEntity
  8
Capa 1
 62
     7
420
 16777215
370
     9
100
AcDbVertex
100
AcDb2dVertex
 10
126.0271881426513
 20
88.08460398534025
 30
0.0
  0
VERTEX
  5
187
330
176
100
AcDbEntity
  8
Capa 1
 62
     7
420
 16777215
370
     9
100
AcDbVertex
100
AcDb2dVertex
 10
125.3409246692653
 20
88.27201730337336
 30
0.0
  0
VERTEX
  5
188
330
176
100
AcDbEntity
  8
Capa 1
 62
     7
420
 16777215
370
     9
100
AcDbVertex
100
AcDb2dVertex
 10
124.7345874638641
 20
88.52006434194661
 30
0.0
  0
VERTEX
  5
189
330
176
100
AcDbEntity
  8
Capa 1
 62
     7
420
 16777215
370
     9
100
AcDbVertex
100
AcDb2dVertex
 10
124.2247129956857
 20
88.80394039720265
 30
0.0
  0
VERTEX
  5
18A
330
176
100
AcDbEntity
  8
Capa 1
 62
     7
420
 16777215
370
     9
100
AcDbVertex
100
AcDb2dVertex
 10
123.9160322365724
 20
89.01064626268035
 30
0.0
  0
VERTEX
  5
18B
330
176
100
AcDbEntity
  8
Capa 1
 62
     7
420
 16777215
370
     9
100
AcDbVertex
100
AcDb2dVertex
 10
123.6514487287609
 20
89.21735212815805
 30
0.0
  0
VERTEX
  5
18C
330
176
100
AcDbEntity
  8
Capa 1
 62
     7
420
 16777215
370
     9
100
AcDbVertex
100
AcDb2dVertex
 10
123.4337185504577
 20
89.40752152439754
 30
0.0
  0
VERTEX
  5
18D
330
176
100
AcDbEntity
  8
Capa 1
 62
     7
420
 16777215
370
     9
100
AcDbVertex
100
AcDb2dVertex
 10
123.2325248413928
 20
89.6004469988434
 30
0.0
  0
VERTEX
  5
18E
330
176
100
AcDbEntity
  8
Capa 1
 62
     7
420
 16777215
370
     9
100
AcDbVertex
100
AcDb2dVertex
 10
122.9927460374386
 20
89.86503050665485
 30
0.0
  0
VERTEX
  5
18F
330
176
100
AcDbEntity
  8
Capa 1
 62
     7
420
 16777215
370
     9
100
AcDbVertex
100
AcDb2dVertex
 10
122.7171382168017
 20
90.21229636065739
 30
0.0
  0
VERTEX
  5
190
330
176
100
AcDbEntity
  8
Capa 1
 62
     7
420
 16777215
370
     9
100
AcDbVertex
100
AcDb2dVertex
 10
122.4856276474667
 20
90.55680613645356
 30
0.0
  0
VERTEX
  5
191
330
176
100
AcDbEntity
  8
Capa 1
 62
     7
420
 16777215
370
     9
100
AcDbVertex
100
AcDb2dVertex
 10
122.309238642259
 20
90.86273081736056
 30
0.0
  0
VERTEX
  5
192
330
176
100
AcDbEntity
  8
Capa 1
 62
     7
420
 16777215
370
     9
100
AcDbVertex
100
AcDb2dVertex
 10
122.1797029665597
 20
91.12180216875927
 30
0.0
  0
VERTEX
  5
193
330
176
100
AcDbEntity
  8
Capa 1
 62
     7
420
 16777215
370
     9
100
AcDbVertex
100
AcDb2dVertex
 10
122.0859963075431
 20
91.33953234706244
 30
0.0
  0
VERTEX
  5
194
330
176
100
AcDbEntity
  8
Capa 1
 62
     7
420
 16777215
370
     9
100
AcDbVertex
100
AcDb2dVertex
 10
121.9785092574947
 20
91.61789624590575
 30
0.0
  0
VERTEX
  5
195
330
176
100
AcDbEntity
  8
Capa 1
 62
     7
420
 16777215
370
     9
100
AcDbVertex
100
AcDb2dVertex
 10
121.86826612924
 20
91.9816985691465
 30
0.0
  0
VERTEX
  5
196
330
176
100
AcDbEntity
  8
Capa 1
 62
     7
420
 16777215
370
     9
100
AcDbVertex
100
AcDb2dVertex
 10
121.7662912356043
 20
92.43645147319745
 30
0.0
  0
VERTEX
  5
197
330
176
100
AcDbEntity
  8
Capa 1
 62
     7
420
 16777215
370
     9
100
AcDbVertex
100
AcDb2dVertex
 10
121.6973892804451
 20
92.98491103626495
 30
0.0
  0
VERTEX
  5
198
330
176
100
AcDbEntity
  8
Capa 1
 62
     7
420
 16777215
370
     9
100
AcDbVertex
100
AcDb2dVertex
 10
121.6753406547941
 20
93.70700352633372
 30
0.0
  0
VERTEX
  5
199
330
176
100
AcDbEntity
  8
Capa 1
 62
     7
420
 16777215
370
     9
100
AcDbVertex
100
AcDb2dVertex
 10
121.6753406547941
 20
94.61926541264198
 30
0.0
  0
VERTEX
  5
19A
330
176
100
AcDbEntity
  8
Capa 1
 62
     7
420
 16777215
370
     9
100
AcDbVertex
100
AcDb2dVertex
 10
121.6753406547941
 20
95.65830689644322
 30
0.0
  0
VERTEX
  5
19B
330
176
100
AcDbEntity
  8
Capa 1
 62
     7
420
 16777215
370
     9
100
AcDbVertex
100
AcDb2dVertex
 10
121.6753406547941
 20
96.80483543029287
 30
0.0
  0
VERTEX
  5
19C
330
176
100
AcDbEntity
  8
Capa 1
 62
     7
420
 16777215
370
     9
100
AcDbVertex
100
AcDb2dVertex
 10
121.6753406547941
 20
98.0616070923973
 30
0.0
  0
VERTEX
  5
19D
330
176
100
AcDbEntity
  8
Capa 1
 62
     7
420
 16777215
370
     9
100
AcDbVertex
100
AcDb2dVertex
 10
121.6753406547941
 20
99.42310972634375
 30
0.0
  0
VERTEX
  5
19E
330
176
100
AcDbEntity
  8
Capa 1
 62
     7
420
 16777215
370
     9
100
AcDbVertex
100
AcDb2dVertex
 10
121.6753406547941
 20
101.1153417450545
 30
0.0
  0
VERTEX
  5
19F
330
176
100
AcDbEntity
  8
Capa 1
 62
     7
420
 16777215
370
     9
100
AcDbVertex
100
AcDb2dVertex
 10
121.6753406547941
 20
102.9426215958774
 30
0.0
  0
VERTEX
  5
1A0
330
176
100
AcDbEntity
  8
Capa 1
 62
     7
420
 16777215
370
     9
100
AcDbVertex
100
AcDb2dVertex
 10
121.6753406547941
 20
104.9159735916379
 30
0.0
  0
VERTEX
  5
1A1
330
176
100
AcDbEntity
  8
Capa 1
 62
     7
420
 16777215
370
     9
100
AcDbVertex
100
AcDb2dVertex
 10
121.6753406547941
 20
107.0243734195104
 30
0.0
  0
VERTEX
  5
1A2
330
176
100
AcDbEntity
  8
Capa 1
 62
     7
420
 16777215
370
     9
100
AcDbVertex
100
AcDb2dVertex
 10
121.6753406547941
 20
109.2788453923205
 30
0.0
  0
VERTEX
  5
1A3
330
176
100
AcDbEntity
  8
Capa 1
 62
     7
420
 16777215
370
     9
100
AcDbVertex
100
AcDb2dVertex
 10
121.6753406547941
 20
111.6711212754492
 30
0.0
  0
VERTEX
  5
1A4
330
176
100
AcDbEntity
  8
Capa 1
 62
     7
420
 16777215
370
     9
100
AcDbVertex
100
AcDb2dVertex
 10
121.6753406547941
 20
114.206713225309
 30
0.0
  0
SEQEND
  5
1A5
330
176
100
AcDbEntity
  8
Capa 1
370
     9
  0
ENDBLK
  5
175
330
172
100
AcDbEntity
  8
0
100
AcDbBlockEnd
  0
BLOCK
  5
1A8
330
1A6
100
AcDbEntity
  8
0
100
AcDbBlockBegin
  2
block 31
 70
     0
 71
     0
 10
0.0
 20
0.0
 30
0.0
  3
block 31
  1

  0
SPLINE
  5
1AA
330
1A6
100
AcDbEntity
  8
Capa 1
 62
     7
420
 16777215
370
     9
100
AcDbSpline
210
0.0
220
0.0
230
1.0
 70
     8
 71
     3
 72
    11
 73
     7
 74
     0
 42
0.0000000001
 43
0.0000000001
 40
0.0
 40
0.0
 40
0.0
 40
0.0
 40
1.0
 40
1.0
 40
1.0
 40
2.0
 40
2.0
 40
2.0
 40
2.0
 10
128.786022427227
 20
121.8382937787457
 30
0.0
 10
126.7217198506564
 20
121.8382937787457
 30
0.0
 10
125.0487803793902
 20
120.1625982292731
 30
0.0
 10
125.0487803793902
 20
118.1010517309088
 30
0.0
 10
125.0487803793902
 20
118.1010517309088
 30
0.0
 10
125.0487803793902
 20
118.1010517309088
 30
0.0
 10
125.0487803793902
 20
118.1010517309088
 30
0.0
  0
ENDBLK
  5
1A9
330
1A6
100
AcDbEntity
  8
0
100
AcDbBlockEnd
  0
BLOCK
  5
1AD
330
1AB
100
AcDbEntity
  8
0
100
AcDbBlockBegin
  2
block 32
 70
     0
 71
     0
 10
0.0
 20
0.0
 30
0.0
  3
block 32
  1

  0
POLYLINE
  5
1AF
330
1AB
100
AcDbEntity
  8
Capa 1
 62
     7
420
 16777215
370
     9
100
AcDb2dPolyline
 66
     1
 10
0.0
 20
0.0
 30
0.0
  0
VERTEX
  5
1B0
330
1AF
100
AcDbEntity
  8
Capa 1
 62
     7
420
 16777215
370
     9
100
AcDbVertex
100
AcDb2dVertex
 10
120.1016199989572
 20
138.2672759669134
 30
0.0
  0
VERTEX
  5
1B1
330
1AF
100
AcDbEntity
  8
Capa 1
 62
     7
420
 16777215
370
     9
100
AcDbVertex
100
AcDb2dVertex
 10
120.1016199989572
 20
114.206713225309
 30
0.0
  0
SEQEND
  5
1B2
330
1AF
100
AcDbEntity
  8
Capa 1
370
     9
  0
ENDBLK
  5
1AE
330
1AB
100
AcDbEntity
  8
0
100
AcDbBlockEnd
  0
BLOCK
  5
1B5
330
1B3
100
AcDbEntity
  8
0
100
AcDbBlockBegin
  2
block 33
 70
     0
 71
     0
 10
0.0
 20
0.0
 30
0.0
  3
block 33
  1

  0
POLYLINE
  5
1B7
330
1B3
100
AcDbEntity
  8
Capa 1
 62
     7
420
 16777215
370
     9
100
AcDb2dPolyline
 66
     1
 10
0.0
 20
0.0
 30
0.0
  0
VERTEX
  5
1B8
330
1B7
100
AcDbEntity
  8
Capa 1
 62
     7
420
 16777215
370
     9
100
AcDbVertex
100
AcDb2dVertex
 10
155.1423983147371
 20
86.17188571011992
 30
0.0
  0
VERTEX
  5
1B9
330
1B7
100
AcDbEntity
  8
Capa 1
 62
     7
420
 16777215
370
     9
100
AcDbVertex
100
AcDb2dVertex
 10
152.4166369686378
 20
86.17188571011992
 30
0.0
  0
VERTEX
  5
1BA
330
1B7
100
AcDbEntity
  8
Capa 1
 62
     7
420
 16777215
370
     9
100
AcDbVertex
100
AcDb2dVertex
 10
149.4593650532035
 20
86.18015394473903
 30
0.0
  0
VERTEX
  5
1BB
330
1B7
100
AcDbEntity
  8
Capa 1
 62
     7
420
 16777215
370
     9
100
AcDbVertex
100
AcDb2dVertex
 10
146.6454092045004
 20
86.1911782575645
 30
0.0
  0
VERTEX
  5
1BC
330
1B7
100
AcDbEntity
  8
Capa 1
 62
     7
420
 16777215
370
     9
100
AcDbVertex
100
AcDb2dVertex
 10
143.9692572661158
 20
86.20495864859635
 30
0.0
  0
VERTEX
  5
1BD
330
1B7
100
AcDbEntity
  8
Capa 1
 62
     7
420
 16777215
370
     9
100
AcDbVertex
100
AcDb2dVertex
 10
141.4309092380496
 20
86.22425119604094
 30
0.0
  0
VERTEX
  5
1BE
330
1B7
100
AcDbEntity
  8
Capa 1
 62
     7
420
 16777215
370
     9
100
AcDbVertex
100
AcDb2dVertex
 10
139.0193408074764
 20
86.24354374348552
 30
0.0
  0
VERTEX
  5
1BF
330
1B7
100
AcDbEntity
  8
Capa 1
 62
     7
420
 16777215
370
     9
100
AcDbVertex
100
AcDb2dVertex
 10
136.7262837397771
 20
86.26834844734285
 30
0.0
  0
VERTEX
  5
1C0
330
1B7
100
AcDbEntity
  8
Capa 1
 62
     7
420
 16777215
370
     9
100
AcDbVertex
100
AcDb2dVertex
 10
134.493860392618
 20
86.2903970729938
 30
0.0
  0
VERTEX
  5
1C1
330
1B7
100
AcDbEntity
  8
Capa 1
 62
     7
420
 16777215
370
     9
100
AcDbVertex
100
AcDb2dVertex
 10
132.3523876262689
 20
86.3179578550575
 30
0.0
  0
VERTEX
  5
1C2
330
1B7
100
AcDbEntity
  8
Capa 1
 62
     7
420
 16777215
370
     9
100
AcDbVertex
100
AcDb2dVertex
 10
130.2770607368728
 20
86.34551863712119
 30
0.0
  0
VERTEX
  5
1C3
330
1B7
100
AcDbEntity
  8
Capa 1
 62
     7
420
 16777215
370
     9
100
AcDbVertex
100
AcDb2dVertex
 10
129.3289698338818
 20
86.35929902815303
 30
0.0
  0
VERTEX
  5
1C4
330
1B7
100
AcDbEntity
  8
Capa 1
 62
     7
420
 16777215
370
     9
100
AcDbVertex
100
AcDb2dVertex
 10
128.3946593219226
 20
86.37307941918488
 30
0.0
  0
VERTEX
  5
1C5
330
1B7
100
AcDbEntity
  8
Capa 1
 62
     7
420
 16777215
370
     9
100
AcDbVertex
100
AcDb2dVertex
 10
127.4768852792016
 20
86.3896158884231
 30
0.0
  0
VERTEX
  5
1C6
330
1B7
100
AcDbEntity
  8
Capa 1
 62
     7
420
 16777215
370
     9
100
AcDbVertex
100
AcDb2dVertex
 10
126.5756477057188
 20
86.41442059228042
 30
0.0
  0
VERTEX
  5
1C7
330
1B7
100
AcDbEntity
  8
Capa 1
 62
     7
420
 16777215
370
     9
100
AcDbVertex
100
AcDb2dVertex
 10
125.7102391489188
 20
86.53568803336067
 30
0.0
  0
VERTEX
  5
1C8
330
1B7
100
AcDbEntity
  8
Capa 1
 62
     7
420
 16777215
370
     9
100
AcDbVertex
100
AcDb2dVertex
 10
124.831050201087
 20
86.77546683731481
 30
0.0
  0
VERTEX
  5
1C9
330
1B7
100
AcDbEntity
  8
Capa 1
 62
     7
420
 16777215
370
     9
100
AcDbVertex
100
AcDb2dVertex
 10
124.0538361468908
 20
87.09792798746003
 30
0.0
  0
VERTEX
  5
1CA
330
1B7
100
AcDbEntity
  8
Capa 1
 62
     7
420
 16777215
370
     9
100
AcDbVertex
100
AcDb2dVertex
 10
123.4034016901877
 20
87.45621815428804
 30
0.0
  0
VERTEX
  5
1CB
330
1B7
100
AcDbEntity
  8
Capa 1
 62
     7
420
 16777215
370
     9
100
AcDbVertex
100
AcDb2dVertex
 10
122.9927460374386
 20
87.73182597492497
 30
0.0
  0
VERTEX
  5
1CC
330
1B7
100
AcDbEntity
  8
Capa 1
 62
     7
420
 16777215
370
     9
100
AcDbVertex
100
AcDb2dVertex
 10
122.6482362616425
 20
87.9991655609428
 30
0.0
  0
VERTEX
  5
1CD
330
1B7
100
AcDbEntity
  8
Capa 1
 62
     7
420
 16777215
370
     9
100
AcDbVertex
100
AcDb2dVertex
 10
122.3643602063864
 20
88.24721259951603
 30
0.0
  0
VERTEX
  5
1CE
330
1B7
100
AcDbEntity
  8
Capa 1
 62
     7
420
 16777215
370
     9
100
AcDbVertex
100
AcDb2dVertex
 10
122.1025327767813
 20
88.50077179450201
 30
0.0
  0
VERTEX
  5
1CF
330
1B7
100
AcDbEntity
  8
Capa 1
 62
     7
420
 16777215
370
     9
100
AcDbVertex
100
AcDb2dVertex
 10
121.7883398612552
 20
88.84528157029818
 30
0.0
  0
VERTEX
  5
1D0
330
1B7
100
AcDbEntity
  8
Capa 1
 62
     7
420
 16777215
370
     9
100
AcDbVertex
100
AcDb2dVertex
 10
121.4410740072527
 20
89.28349800511091
 30
0.0
  0
VERTEX
  5
1D1
330
1B7
100
AcDbEntity
  8
Capa 1
 62
     7
420
 16777215
370
     9
100
AcDbVertex
100
AcDb2dVertex
 10
121.1461736391712
 20
89.72171443992364
 30
0.0
  0
VERTEX
  5
1D2
330
1B7
100
AcDbEntity
  8
Capa 1
 62
     7
420
 16777215
370
     9
100
AcDbVertex
100
AcDb2dVertex
 10
120.9174191480425
 20
90.11858970164083
 30
0.0
  0
VERTEX
  5
1D3
330
1B7
100
AcDbEntity
  8
Capa 1
 62
     7
420
 16777215
370
     9
100
AcDbVertex
100
AcDb2dVertex
 10
120.7520544556604
 20
90.45483124281789
 30
0.0
  0
VERTEX
  5
1D4
330
1B7
100
AcDbEntity
  8
Capa 1
 62
     7
420
 16777215
370
     9
100
AcDbVertex
100
AcDb2dVertex
 10
120.6252748581674
 20
90.74421945448667
 30
0.0
  0
VERTEX
  5
1D5
330
1B7
100
AcDbEntity
  8
Capa 1
 62
     7
420
 16777215
370
     9
100
AcDbVertex
100
AcDb2dVertex
 10
120.4874709478489
 20
91.10526569952106
 30
0.0
  0
VERTEX
  5
1D6
330
1B7
100
AcDbEntity
  8
Capa 1
 62
     7
420
 16777215
370
     9
100
AcDbVertex
100
AcDb2dVertex
 10
120.3441548811177
 20
91.57655507281021
 30
0.0
  0
VERTEX
  5
1D7
330
1B7
100
AcDbEntity
  8
Capa 1
 62
     7
420
 16777215
370
     9
100
AcDbVertex
100
AcDb2dVertex
 10
120.211863127212
 20
92.16084365256052
 30
0.0
  0
VERTEX
  5
1D8
330
1B7
100
AcDbEntity
  8
Capa 1
 62
     7
420
 16777215
370
     9
100
AcDbVertex
100
AcDb2dVertex
 10
120.1236686246082
 20
92.8636435951847
 30
0.0
  0
VERTEX
  5
1D9
330
1B7
100
AcDbEntity
  8
Capa 1
 62
     7
420
 16777215
370
     9
100
AcDbVertex
100
AcDb2dVertex
 10
120.1016199989572
 20
93.68495490068277
 30
0.0
  0
VERTEX
  5
1DA
330
1B7
100
AcDbEntity
  8
Capa 1
 62
     7
420
 16777215
370
     9
100
AcDbVertex
100
AcDb2dVertex
 10
120.1016199989572
 20
94.61926541264198
 30
0.0
  0
VERTEX
  5
1DB
330
1B7
100
AcDbEntity
  8
Capa 1
 62
     7
420
 16777215
370
     9
100
AcDbVertex
100
AcDb2dVertex
 10
120.1016199989572
 20
95.65830689644322
 30
0.0
  0
VERTEX
  5
1DC
330
1B7
100
AcDbEntity
  8
Capa 1
 62
     7
420
 16777215
370
     9
100
AcDbVertex
100
AcDb2dVertex
 10
120.1016199989572
 20
96.80483543029287
 30
0.0
  0
VERTEX
  5
1DD
330
1B7
100
AcDbEntity
  8
Capa 1
 62
     7
420
 16777215
370
     9
100
AcDbVertex
100
AcDb2dVertex
 10
120.1016199989572
 20
98.0616070923973
 30
0.0
  0
VERTEX
  5
1DE
330
1B7
100
AcDbEntity
  8
Capa 1
 62
     7
420
 16777215
370
     9
100
AcDbVertex
100
AcDb2dVertex
 10
120.1016199989572
 20
99.42310972634375
 30
0.0
  0
VERTEX
  5
1DF
330
1B7
100
AcDbEntity
  8
Capa 1
 62
     7
420
 16777215
370
     9
100
AcDbVertex
100
AcDb2dVertex
 10
120.1016199989572
 20
101.1153417450545
 30
0.0
  0
VERTEX
  5
1E0
330
1B7
100
AcDbEntity
  8
Capa 1
 62
     7
420
 16777215
370
     9
100
AcDbVertex
100
AcDb2dVertex
 10
120.1016199989572
 20
102.9426215958774
 30
0.0
  0
VERTEX
  5
1E1
330
1B7
100
AcDbEntity
  8
Capa 1
 62
     7
420
 16777215
370
     9
100
AcDbVertex
100
AcDb2dVertex
 10
120.1016199989572
 20
104.9159735916379
 30
0.0
  0
VERTEX
  5
1E2
330
1B7
100
AcDbEntity
  8
Capa 1
 62
     7
420
 16777215
370
     9
100
AcDbVertex
100
AcDb2dVertex
 10
120.1016199989572
 20
107.0243734195104
 30
0.0
  0
VERTEX
  5
1E3
330
1B7
100
AcDbEntity
  8
Capa 1
 62
     7
420
 16777215
370
     9
100
AcDbVertex
100
AcDb2dVertex
 10
120.1016199989572
 20
109.2788453923205
 30
0.0
  0
VERTEX
  5
1E4
330
1B7
100
AcDbEntity
  8
Capa 1
 62
     7
420
 16777215
370
     9
100
AcDbVertex
100
AcDb2dVertex
 10
120.1016199989572
 20
111.6711212754492
 30
0.0
  0
VERTEX
  5
1E5
330
1B7
100
AcDbEntity
  8
Capa 1
 62
     7
420
 16777215
370
     9
100
AcDbVertex
100
AcDb2dVertex
 10
120.1016199989572
 20
114.206713225309
 30
0.0
  0
SEQEND
  5
1E6
330
1B7
100
AcDbEntity
  8
Capa 1
370
     9
  0
ENDBLK
  5
1B6
330
1B3
100
AcDbEntity
  8
0
100
AcDbBlockEnd
  0
BLOCK
  5
1E9
330
1E7
100
AcDbEntity
  8
0
100
AcDbBlockBegin
  2
block 34
 70
     0
 71
     0
 10
0.0
 20
0.0
 30
0.0
  3
block 34
  1

  0
SPLINE
  5
1EB
330
1E7
100
AcDbEntity
  8
Capa 1
 62
     7
420
 16777215
370
     9
100
AcDbSpline
210
0.0
220
0.0
230
1.0
 70
     8
 71
     3
 72
    14
 73
    10
 74
     0
 42
0.0000000001
 43
0.0000000001
 40
0.0
 40
0.0
 40
0.0
 40
0.0
 40
1.0
 40
1.0
 40
1.0
 40
2.0
 40
2.0
 40
2.0
 40
3.0
 40
3.0
 40
3.0
 40
3.0
 10
155.1423983147371
 20
118.4097324900222
 30
0.0
 10
152.8190243867678
 20
118.4097324900222
 30
0.0
 10
150.9393790500239
 20
116.5273310750719
 30
0.0
 10
150.9393790500239
 20
114.206713225309
 30
0.0
 10
150.9393790500239
 20
111.8833392973396
 30
0.0
 10
152.8190243867678
 20
110.0009378823893
 30
0.0
 10
155.1423983147371
 20
110.0009378823893
 30
0.0
 10
155.1423983147371
 20
110.0009378823893
 30
0.0
 10
155.1423983147371
 20
110.0009378823893
 30
0.0
 10
155.1423983147371
 20
110.0009378823893
 30
0.0
  0
ENDBLK
  5
1EA
330
1E7
100
AcDbEntity
  8
0
100
AcDbBlockEnd
  0
BLOCK
  5
1EE
330
1EC
100
AcDbEntity
  8
0
100
AcDbBlockBegin
  2
block 35
 70
     0
 71
     0
 10
0.0
 20
0.0
 30
0.0
  3
block 35
  1

  0
SPLINE
  5
1F0
330
1EC
100
AcDbEntity
  8
Capa 1
 62
     7
420
 16777215
370
     9
100
AcDbSpline
210
0.0
220
0.0
230
1.0
 70
     8
 71
     3
 72
    62
 73
    58
 74
     0
 42
0.0000000001
 43
0.0000000001
 40
0.0
 40
0.0
 40
0.0
 40
0.0
 40
1.0
 40
1.0
 40
1.0
 40
2.0
 40
2.0
 40
2.0
 40
3.0
 40
3.0
 40
3.0
 40
4.0
 40
4.0
 40
4.0
 40
5.0
 40
5.0
 40
5.0
 40
6.0
 40
6.0
 40
6.0
 40
7.0
 40
7.0
 40
7.0
 40
8.0
 40
8.0
 40
8.0
 40
9.0
 40
9.0
 40
9.0
 40
10.0
 40
10.0
 40
10.0
 40
11.0
 40
11.0
 40
11.0
 40
12.0
 40
12.0
 40
12.0
 40
13.0
 40
13.0
 40
13.0
 40
14.0
 40
14.0
 40
14.0
 40
15.0
 40
15.0
 40
15.0
 40
16.0
 40
16.0
 40
16.0
 40
17.0
 40
17.0
 40
17.0
 40
18.0
 40
18.0
 40
18.0
 40
19.0
 40
19.0
 40
19.0
 40
19.0
 10
155.1423983147371
 20
122.7726042907049
 30
0.0
 10
155.1175936108798
 20
122.7726042907049
 30
0.0
 10
155.0900328288161
 20
122.7726042907049
 30
0.0
 10
155.0624720467524
 20
122.7753603689113
 30
0.0
 10
155.0624720467524
 20
122.7753603689113
 30
0.0
 10
155.0624720467524
 20
122.7753603689113
 30
0.0
 10
155.0624720467524
 20
122.7753603689113
 30
0.0
 10
154.880570885132
 20
122.7836286035304
 30
0.0
 10
154.701425801718
 20
122.8194576202132
 30
0.0
 10
154.5388171875422
 20
122.8828474189597
 30
0.0
 10
154.5388171875422
 20
122.8828474189597
 30
0.0
 10
154.5388171875422
 20
122.8828474189597
 30
0.0
 10
154.5388171875422
 20
122.8828474189597
 30
0.0
 10
154.3762085733665
 20
122.9462372177062
 30
0.0
 10
154.2328925066352
 20
123.03443172031
 30
0.0
 10
154.1171372219677
 20
123.1446748485648
 30
0.0
 10
154.1171372219677
 20
123.1446748485648
 30
0.0
 10
154.1171372219677
 20
123.1446748485648
 30
0.0
 10
154.1171372219677
 20
123.1446748485648
 30
0.0
 10
154.0316987975703
 20
123.2273571947558
 30
0.0
 10
153.9627968424111
 20
123.3238199319788
 30
0.0
 10
153.9214556693155
 20
123.4230387474081
 30
0.0
 10
153.9214556693155
 20
123.4230387474081
 30
0.0
 10
153.9214556693155
 20
123.4230387474081
 30
0.0
 10
153.9214556693155
 20
123.4230387474081
 30
0.0
 10
153.8773584180136
 20
123.5250136410437
 30
0.0
 10
153.8525537141563
 20
123.6352567692985
 30
0.0
 10
153.8608219487754
 20
123.7454998975533
 30
0.0
 10
153.8608219487754
 20
123.7454998975533
 30
0.0
 10
153.8608219487754
 20
123.7454998975533
 30
0.0
 10
153.8608219487754
 20
123.7454998975533
 30
0.0
 10
153.8635780269817
 20
123.8529869476017
 30
0.0
 10
153.8938948872518
 20
123.9632300758565
 30
0.0
 10
153.9462603731728
 20
124.0624488912858
 30
0.0
 10
153.9462603731728
 20
124.0624488912858
 30
0.0
 10
153.9462603731728
 20
124.0624488912858
 30
0.0
 10
153.9462603731728
 20
124.0624488912858
 30
0.0
 10
153.9986258590938
 20
124.1589116285087
 30
0.0
 10
154.0730399706658
 20
124.2498622093189
 30
0.0
 10
154.1667466296824
 20
124.3297884773036
 30
0.0
 10
154.1667466296824
 20
124.3297884773036
 30
0.0
 10
154.1667466296824
 20
124.3297884773036
 30
0.0
 10
154.1667466296824
 20
124.3297884773036
 30
0.0
 10
154.2549411322862
 20
124.4069586670819
 30
0.0
 10
154.365184260541
 20
124.4758606222412
 30
0.0
 10
154.4836956234149
 20
124.5254700299558
 30
0.0
 10
154.4836956234149
 20
124.5254700299558
 30
0.0
 10
154.4836956234149
 20
124.5254700299558
 30
0.0
 10
154.4836956234149
 20
124.5254700299558
 30
0.0
 10
154.6407920811779
 20
124.5971280633214
 30
0.0
 10
154.8226932427983
 20
124.638469236417
 30
0.0
 10
155.0045944044187
 20
124.6522496274488
 30
0.0
 10
155.0045944044187
 20
124.6522496274488
 30
0.0
 10
155.0045944044187
 20
124.6522496274488
 30
0.0
 10
155.0045944044187
 20
124.6522496274488
 30
0.0
 10
155.0486916557206
 20
124.6550057056552
 30
0.0
 10
155.0983010634352
 20
124.6577617838615
 30
0.0
 10
155.1423983147371
 20
124.6577617838615
 30
0.0
  0
ENDBLK
  5
1EF
330
1EC
100
AcDbEntity
  8
0
100
AcDbBlockEnd
  0
BLOCK
  5
1F3
330
1F1
100
AcDbEntity
  8
0
100
AcDbBlockBegin
  2
block 36
 70
     0
 71
     0
 10
0.0
 20
0.0
 30
0.0
  3
block 36
  1

  0
POLYLINE
  5
1F5
330
1F1
100
AcDbEntity
  8
Capa 1
 62
     7
420
 16777215
370
     9
100
AcDb2dPolyline
 66
     1
 10
0.0
 20
0.0
 30
0.0
  0
VERTEX
  5
1F6
330
1F5
100
AcDbEntity
  8
Capa 1
 62
     7
420
 16777215
370
     9
100
AcDbVertex
100
AcDb2dVertex
 10
90.93680041915673
 20
254.2432191458236
 30
0.0
  0
VERTEX
  5
1F7
330
1F5
100
AcDbEntity
  8
Capa 1
 62
     7
420
 16777215
370
     9
100
AcDbVertex
100
AcDb2dVertex
 10
90.93128826274399
 20
169.67295938338
 30
0.0
  0
SEQEND
  5
1F8
330
1F5
100
AcDbEntity
  8
Capa 1
370
     9
  0
ENDBLK
  5
1F4
330
1F1
100
AcDbEntity
  8
0
100
AcDbBlockEnd
  0
BLOCK
  5
1FB
330
1F9
100
AcDbEntity
  8
0
100
AcDbBlockBegin
  2
block 37
 70
     0
 71
     0
 10
0.0
 20
0.0
 30
0.0
  3
block 37
  1

  0
POLYLINE
  5
1FD
330
1F9
100
AcDbEntity
  8
Capa 1
 62
     7
420
 16777215
370
     9
100
AcDb2dPolyline
 66
     1
 10
0.0
 20
0.0
 30
0.0
  0
VERTEX
  5
1FE
330
1FD
100
AcDbEntity
  8
Capa 1
 62
     7
420
 16777215
370
     9
100
AcDbVertex
100
AcDb2dVertex
 10
113.1287421368427
 20
254.2432191458236
 30
0.0
  0
VERTEX
  5
1FF
330
1FD
100
AcDbEntity
  8
Capa 1
 62
     7
420
 16777215
370
     9
100
AcDbVertex
100
AcDb2dVertex
 10
113.1259860586364
 20
169.67295938338
 30
0.0
  0
SEQEND
  5
200
330
1FD
100
AcDbEntity
  8
Capa 1
370
     9
  0
ENDBLK
  5
1FC
330
1F9
100
AcDbEntity
  8
0
100
AcDbBlockEnd
  0
BLOCK
  5
203
330
201
100
AcDbEntity
  8
0
100
AcDbBlockBegin
  2
block 38
 70
     0
 71
     0
 10
0.0
 20
0.0
 30
0.0
  3
block 38
  1

  0
POLYLINE
  5
205
330
201
100
AcDbEntity
  8
Capa 1
 62
     7
420
 16777215
370
     9
100
AcDb2dPolyline
 66
     1
 10
0.0
 20
0.0
 30
0.0
  0
VERTEX
  5
206
330
205
100
AcDbEntity
  8
Capa 1
 62
     7
420
 16777215
370
     9
100
AcDbVertex
100
AcDb2dVertex
 10
113.0074746957625
 20
169.5572040987125
 30
0.0
  0
VERTEX
  5
207
330
205
100
AcDbEntity
  8
Capa 1
 62
     7
420
 16777215
370
     9
100
AcDbVertex
100
AcDb2dVertex
 10
91.04979962561787
 20
169.5572040987125
 30
0.0
  0
SEQEND
  5
208
330
205
100
AcDbEntity
  8
Capa 1
370
     9
  0
ENDBLK
  5
204
330
201
100
AcDbEntity
  8
0
100
AcDbBlockEnd
  0
BLOCK
  5
20B
330
209
100
AcDbEntity
  8
0
100
AcDbBlockBegin
  2
block 39
 70
     0
 71
     0
 10
0.0
 20
0.0
 30
0.0
  3
block 39
  1

  0
SPLINE
  5
20D
330
209
100
AcDbEntity
  8
Capa 1
 62
     7
420
 16777215
370
     9
100
AcDbSpline
210
0.0
220
0.0
230
1.0
 70
     8
 71
     3
 72
     8
 73
     4
 74
     0
 42
0.0000000001
 43
0.0000000001
 40
0.0
 40
0.0
 40
0.0
 40
0.0
 40
1.0
 40
1.0
 40
1.0
 40
1.0
 10
90.93128826274399
 20
169.67295938338
 30
0.0
 10
90.93128826274399
 20
169.6068135064272
 30
0.0
 10
90.983653748665
 20
169.5572040987125
 30
0.0
 10
91.04979962561787
 20
169.5572040987125
 30
0.0
  0
ENDBLK
  5
20C
330
209
100
AcDbEntity
  8
0
100
AcDbBlockEnd
  0
BLOCK
  5
210
330
20E
100
AcDbEntity
  8
0
100
AcDbBlockBegin
  2
block 40
 70
     0
 71
     0
 10
0.0
 20
0.0
 30
0.0
  3
block 40
  1

  0
SPLINE
  5
212
330
20E
100
AcDbEntity
  8
Capa 1
 62
     7
420
 16777215
370
     9
100
AcDbSpline
210
0.0
220
0.0
230
1.0
 70
     8
 71
     3
 72
     8
 73
     4
 74
     0
 42
0.0000000001
 43
0.0000000001
 40
0.0
 40
0.0
 40
0.0
 40
0.0
 40
1.0
 40
1.0
 40
1.0
 40
1.0
 10
113.0074746957625
 20
169.5572040987125
 30
0.0
 10
113.0736205727154
 20
169.5572040987125
 30
0.0
 10
113.1259860586364
 20
169.6068135064272
 30
0.0
 10
113.1259860586364
 20
169.67295938338
 30
0.0
  0
ENDBLK
  5
211
330
20E
100
AcDbEntity
  8
0
100
AcDbBlockEnd
  0
BLOCK
  5
215
330
213
100
AcDbEntity
  8
0
100
AcDbBlockBegin
  2
block 41
 70
     0
 71
     0
 10
0.0
 20
0.0
 30
0.0
  3
block 41
  1

  0
POLYLINE
  5
217
330
213
100
AcDbEntity
  8
Capa 1
 62
     7
420
 16777215
370
     9
100
AcDb2dPolyline
 66
     1
 10
0.0
 20
0.0
 30
0.0
  0
VERTEX
  5
218
330
217
100
AcDbEntity
  8
Capa 1
 62
     7
420
 16777215
370
     9
100
AcDbVertex
100
AcDb2dVertex
 10
111.0864881859231
 20
254.2432191458236
 30
0.0
  0
VERTEX
  5
219
330
217
100
AcDbEntity
  8
Capa 1
 62
     7
420
 16777215
370
     9
100
AcDbVertex
100
AcDb2dVertex
 10
111.0837321077167
 20
169.67295938338
 30
0.0
  0
SEQEND
  5
21A
330
217
100
AcDbEntity
  8
Capa 1
370
     9
  0
ENDBLK
  5
216
330
213
100
AcDbEntity
  8
0
100
AcDbBlockEnd
  0
BLOCK
  5
21D
330
21B
100
AcDbEntity
  8
0
100
AcDbBlockBegin
  2
block 42
 70
     0
 71
     0
 10
0.0
 20
0.0
 30
0.0
  3
block 42
  1

  0
POLYLINE
  5
21F
330
21B
100
AcDbEntity
  8
Capa 1
 62
     7
420
 16777215
370
     9
100
AcDb2dPolyline
 66
     1
 10
0.0
 20
0.0
 30
0.0
  0
VERTEX
  5
220
330
21F
100
AcDbEntity
  8
Capa 1
 62
     7
420
 16777215
370
     9
100
AcDbVertex
100
AcDb2dVertex
 10
92.98181044828279
 20
254.2432191458236
 30
0.0
  0
VERTEX
  5
221
330
21F
100
AcDbEntity
  8
Capa 1
 62
     7
420
 16777215
370
     9
100
AcDbVertex
100
AcDb2dVertex
 10
92.97905437007641
 20
169.67295938338
 30
0.0
  0
SEQEND
  5
222
330
21F
100
AcDbEntity
  8
Capa 1
370
     9
  0
ENDBLK
  5
21E
330
21B
100
AcDbEntity
  8
0
100
AcDbBlockEnd
  0
BLOCK
  5
225
330
223
100
AcDbEntity
  8
0
100
AcDbBlockBegin
  2
block 43
 70
     0
 71
     0
 10
0.0
 20
0.0
 30
0.0
  3
block 43
  1

  0
POLYLINE
  5
227
330
223
100
AcDbEntity
  8
Capa 1
  6
AI-Linetype-1
 62
     7
420
 16777215
370
     9
100
AcDb2dPolyline
 66
     1
 10
0.0
 20
0.0
 30
0.0
  0
VERTEX
  5
228
330
227
100
AcDbEntity
  8
Capa 1
  6
AI-Linetype-1
 62
     7
420
 16777215
370
     9
100
AcDbVertex
100
AcDb2dVertex
 10
155.1423983147371
 20
107.1952502683053
 30
0.0
  0
VERTEX
  5
229
330
227
100
AcDbEntity
  8
Capa 1
  6
AI-Linetype-1
 62
     7
420
 16777215
370
     9
100
AcDbVertex
100
AcDb2dVertex
 10
155.1423983147371
 20
121.2154201041062
 30
0.0
  0
SEQEND
  5
22A
330
227
100
AcDbEntity
  8
Capa 1
  6
AI-Linetype-1
370
     9
  0
ENDBLK
  5
226
330
223
100
AcDbEntity
  8
0
100
AcDbBlockEnd
  0
BLOCK
  5
22E
330
22C
100
AcDbEntity
  8
0
100
AcDbBlockBegin
  2
block 44
 70
     0
 71
     0
 10
0.0
 20
0.0
 30
0.0
  3
block 44
  1

  0
POLYLINE
  5
230
330
22C
100
AcDbEntity
  8
Capa 1
  6
AI-Linetype-2
 62
     7
420
 16777215
370
     9
100
AcDb2dPolyline
 66
     1
 10
0.0
 20
0.0
 30
0.0
  0
VERTEX
  5
231
330
230
100
AcDbEntity
  8
Capa 1
  6
AI-Linetype-2
 62
     7
420
 16777215
370
     9
100
AcDbVertex
100
AcDb2dVertex
 10
148.1336914359399
 20
114.206713225309
 30
0.0
  0
VERTEX
  5
232
330
230
100
AcDbEntity
  8
Capa 1
  6
AI-Linetype-2
 62
     7
420
 16777215
370
     9
100
AcDbVertex
100
AcDb2dVertex
 10
162.1538612717408
 20
114.206713225309
 30
0.0
  0
SEQEND
  5
233
330
230
100
AcDbEntity
  8
Capa 1
  6
AI-Linetype-2
370
     9
  0
ENDBLK
  5
22F
330
22C
100
AcDbEntity
  8
0
100
AcDbBlockEnd
  0
BLOCK
  5
237
330
235
100
AcDbEntity
  8
0
100
AcDbBlockBegin
  2
block 45
 70
     0
 71
     0
 10
0.0
 20
0.0
 30
0.0
  3
block 45
  1

  0
POLYLINE
  5
239
330
235
100
AcDbEntity
  8
Capa 1
  6
AI-Linetype-3
 62
     7
420
 16777215
370
     9
100
AcDb2dPolyline
 66
     1
 10
0.0
 20
0.0
 30
0.0
  0
VERTEX
  5
23A
330
239
100
AcDbEntity
  8
Capa 1
  6
AI-Linetype-3
 62
     7
420
 16777215
370
     9
100
AcDbVertex
100
AcDb2dVertex
 10
148.1336914359399
 20
131.7271023831989
 30
0.0
  0
VERTEX
  5
23B
330
239
100
AcDbEntity
  8
Capa 1
  6
AI-Linetype-3
 62
     7
420
 16777215
370
     9
100
AcDbVertex
100
AcDb2dVertex
 10
162.1538612717408
 20
131.7271023831989
 30
0.0
  0
SEQEND
  5
23C
330
239
100
AcDbEntity
  8
Capa 1
  6
AI-Linetype-3
370
     9
  0
ENDBLK
  5
238
330
235
100
AcDbEntity
  8
0
100
AcDbBlockEnd
  0
BLOCK
  5
240
330
23E
100
AcDbEntity
  8
0
100
AcDbBlockBegin
  2
block 46
 70
     0
 71
     0
 10
0.0
 20
0.0
 30
0.0
  3
block 46
  1

  0
POLYLINE
  5
242
330
23E
100
AcDbEntity
  8
Capa 1
  6
AI-Linetype-4
 62
     7
420
 16777215
370
     9
100
AcDb2dPolyline
 66
     1
 10
0.0
 20
0.0
 30
0.0
  0
VERTEX
  5
243
330
242
100
AcDbEntity
  8
Capa 1
  6
AI-Linetype-4
 62
     7
420
 16777215
370
     9
100
AcDbVertex
100
AcDb2dVertex
 10
155.1423983147371
 20
124.7183955044017
 30
0.0
  0
VERTEX
  5
244
330
242
100
AcDbEntity
  8
Capa 1
  6
AI-Linetype-4
 62
     7
420
 16777215
370
     9
100
AcDbVertex
100
AcDb2dVertex
 10
155.1423983147371
 20
138.7358092619962
 30
0.0
  0
SEQEND
  5
245
330
242
100
AcDbEntity
  8
Capa 1
  6
AI-Linetype-4
370
     9
  0
ENDBLK
  5
241
330
23E
100
AcDbEntity
  8
0
100
AcDbBlockEnd
  0
BLOCK
  5
249
330
247
100
AcDbEntity
  8
0
100
AcDbBlockBegin
  2
block 47
 70
     0
 71
     0
 10
0.0
 20
0.0
 30
0.0
  3
block 47
  1

  0
POLYLINE
  5
24B
330
247
100
AcDbEntity
  8
Capa 1
  6
AI-Linetype-5
 62
     7
420
 16777215
370
     9
100
AcDb2dPolyline
 66
     1
 10
0.0
 20
0.0
 30
0.0
  0
VERTEX
  5
24C
330
24B
100
AcDbEntity
  8
Capa 1
  6
AI-Linetype-5
 62
     7
420
 16777215
370
     9
100
AcDbVertex
100
AcDb2dVertex
 10
88.48389081548801
 20
263.9391022758309
 30
0.0
  0
VERTEX
  5
24D
330
24B
100
AcDbEntity
  8
Capa 1
  6
AI-Linetype-5
 62
     7
420
 16777215
370
     9
100
AcDbVertex
100
AcDb2dVertex
 10
82.87802774373274
 20
263.9391022758309
 30
0.0
  0
SEQEND
  5
24E
330
24B
100
AcDbEntity
  8
Capa 1
  6
AI-Linetype-5
370
     9
  0
ENDBLK
  5
24A
330
247
100
AcDbEntity
  8
0
100
AcDbBlockEnd
  0
BLOCK
  5
252
330
250
100
AcDbEntity
  8
0
100
AcDbBlockBegin
  2
block 48
 70
     0
 71
     0
 10
0.0
 20
0.0
 30
0.0
  3
block 48
  1

  0
POLYLINE
  5
254
330
250
100
AcDbEntity
  8
Capa 1
  6
AI-Linetype-6
 62
     7
420
 16777215
370
     9
100
AcDb2dPolyline
 66
     1
 10
0.0
 20
0.0
 30
0.0
  0
VERTEX
  5
255
330
254
100
AcDbEntity
  8
Capa 1
  6
AI-Linetype-6
 62
     7
420
 16777215
370
     9
100
AcDbVertex
100
AcDb2dVertex
 10
85.678203201404
 20
261.1334146617469
 30
0.0
  0
VERTEX
  5
256
330
254
100
AcDbEntity
  8
Capa 1
  6
AI-Linetype-6
 62
     7
420
 16777215
370
     9
100
AcDbVertex
100
AcDb2dVertex
 10
85.678203201404
 20
266.7420338117086
 30
0.0
  0
SEQEND
  5
257
330
254
100
AcDbEntity
  8
Capa 1
  6
AI-Linetype-6
370
     9
  0
ENDBLK
  5
253
330
250
100
AcDbEntity
  8
0
100
AcDbBlockEnd
  0
BLOCK
  5
25B
330
259
100
AcDbEntity
  8
0
100
AcDbBlockBegin
  2
block 49
 70
     0
 71
     0
 10
0.0
 20
0.0
 30
0.0
  3
block 49
  1

  0
SPLINE
  5
25D
330
259
100
AcDbEntity
  8
Capa 1
  6
AI-Linetype-7
 62
     7
420
 16777215
370
     9
100
AcDbSpline
210
0.0
220
0.0
230
1.0
 70
     8
 71
     3
 72
    14
 73
    10
 74
     0
 42
0.0000000001
 43
0.0000000001
 40
0.0
 40
0.0
 40
0.0
 40
0.0
 40
1.0
 40
1.0
 40
1.0
 40
2.0
 40
2.0
 40
2.0
 40
3.0
 40
3.0
 40
3.0
 40
3.0
 10
85.09667069986007
 20
265.1049233571252
 30
0.0
 10
84.45174839956965
 20
265.1049233571252
 30
0.0
 10
83.92809354035947
 20
264.581268497915
 30
0.0
 10
83.92809354035947
 20
263.9391022758309
 30
0.0
 10
83.92809354035947
 20
263.2941799755405
 30
0.0
 10
84.45174839956965
 20
262.7705251163304
 30
0.0
 10
85.09667069986007
 20
262.7705251163304
 30
0.0
 10
85.09667069986007
 20
262.7705251163304
 30
0.0
 10
85.09667069986007
 20
262.7705251163304
 30
0.0
 10
85.09667069986007
 20
262.7705251163304
 30
0.0
  0
ENDBLK
  5
25C
330
259
100
AcDbEntity
  8
0
100
AcDbBlockEnd
  0
BLOCK
  5
261
330
25F
100
AcDbEntity
  8
0
100
AcDbBlockBegin
  2
block 50
 70
     0
 71
     0
 10
0.0
 20
0.0
 30
0.0
  3
block 50
  1

  0
SPLINE
  5
263
330
25F
100
AcDbEntity
  8
Capa 1
  6
AI-Linetype-8
 62
     7
420
 16777215
370
     9
100
AcDbSpline
210
0.0
220
0.0
230
1.0
 70
     8
 71
     3
 72
    14
 73
    10
 74
     0
 42
0.0000000001
 43
0.0000000001
 40
0.0
 40
0.0
 40
0.0
 40
0.0
 40
1.0
 40
1.0
 40
1.0
 40
2.0
 40
2.0
 40
2.0
 40
3.0
 40
3.0
 40
3.0
 40
3.0
 10
86.26249178115431
 20
262.7705251163304
 30
0.0
 10
86.90741408144474
 20
262.7705251163304
 30
0.0
 10
87.43106894065491
 20
263.2941799755405
 30
0.0
 10
87.43106894065491
 20
263.9391022758309
 30
0.0
 10
87.43106894065491
 20
264.581268497915
 30
0.0
 10
86.90741408144474
 20
265.1049233571252
 30
0.0
 10
86.26249178115431
 20
265.1049233571252
 30
0.0
 10
86.26249178115431
 20
265.1049233571252
 30
0.0
 10
86.26249178115431
 20
265.1049233571252
 30
0.0
 10
86.26249178115431
 20
265.1049233571252
 30
0.0
  0
ENDBLK
  5
262
330
25F
100
AcDbEntity
  8
0
100
AcDbBlockEnd
  0
BLOCK
  5
267
330
265
100
AcDbEntity
  8
0
100
AcDbBlockBegin
  2
block 51
 70
     0
 71
     0
 10
0.0
 20
0.0
 30
0.0
  3
block 51
  1

  0
POLYLINE
  5
269
330
265
100
AcDbEntity
  8
Capa 1
  6
AI-Linetype-9
 62
     7
420
 16777215
370
     9
100
AcDb2dPolyline
 66
     1
 10
0.0
 20
0.0
 30
0.0
  0
VERTEX
  5
26A
330
269
100
AcDbEntity
  8
Capa 1
  6
AI-Linetype-9
 62
     7
420
 16777215
370
     9
100
AcDbVertex
100
AcDb2dVertex
 10
85.09667069986007
 20
265.1049233571252
 30
0.0
  0
VERTEX
  5
26B
330
269
100
AcDbEntity
  8
Capa 1
  6
AI-Linetype-9
 62
     7
420
 16777215
370
     9
100
AcDbVertex
100
AcDb2dVertex
 10
86.26249178115431
 20
265.1049233571252
 30
0.0
  0
SEQEND
  5
26C
330
269
100
AcDbEntity
  8
Capa 1
  6
AI-Linetype-9
370
     9
  0
ENDBLK
  5
268
330
265
100
AcDbEntity
  8
0
100
AcDbBlockEnd
  0
BLOCK
  5
270
330
26E
100
AcDbEntity
  8
0
100
AcDbBlockBegin
  2
block 52
 70
     0
 71
     0
 10
0.0
 20
0.0
 30
0.0
  3
block 52
  1

  0
POLYLINE
  5
272
330
26E
100
AcDbEntity
  8
Capa 1
  6
AI-Linetype-10
 62
     7
420
 16777215
370
     9
100
AcDb2dPolyline
 66
     1
 10
0.0
 20
0.0
 30
0.0
  0
VERTEX
  5
273
330
272
100
AcDbEntity
  8
Capa 1
  6
AI-Linetype-10
 62
     7
420
 16777215
370
     9
100
AcDbVertex
100
AcDb2dVertex
 10
86.26249178115431
 20
262.7705251163304
 30
0.0
  0
VERTEX
  5
274
330
272
100
AcDbEntity
  8
Capa 1
  6
AI-Linetype-10
 62
     7
420
 16777215
370
     9
100
AcDbVertex
100
AcDb2dVertex
 10
85.09667069986007
 20
262.7705251163304
 30
0.0
  0
SEQEND
  5
275
330
272
100
AcDbEntity
  8
Capa 1
  6
AI-Linetype-10
370
     9
  0
ENDBLK
  5
271
330
26E
100
AcDbEntity
  8
0
100
AcDbBlockEnd
  0
BLOCK
  5
279
330
277
100
AcDbEntity
  8
0
100
AcDbBlockBegin
  2
block 53
 70
     0
 71
     0
 10
0.0
 20
0.0
 30
0.0
  3
block 53
  1

  0
POLYLINE
  5
27B
330
277
100
AcDbEntity
  8
Capa 1
  6
AI-Linetype-11
 62
     7
420
 16777215
370
     9
100
AcDb2dPolyline
 66
     1
 10
0.0
 20
0.0
 30
0.0
  0
VERTEX
  5
27C
330
27B
100
AcDbEntity
  8
Capa 1
  6
AI-Linetype-11
 62
     7
420
 16777215
370
     9
100
AcDbVertex
100
AcDb2dVertex
 10
115.5761395840987
 20
263.9391022758309
 30
0.0
  0
VERTEX
  5
27D
330
27B
100
AcDbEntity
  8
Capa 1
  6
AI-Linetype-11
 62
     7
420
 16777215
370
     9
100
AcDbVertex
100
AcDb2dVertex
 10
121.182002655854
 20
263.9391022758309
 30
0.0
  0
SEQEND
  5
27E
330
27B
100
AcDbEntity
  8
Capa 1
  6
AI-Linetype-11
370
     9
  0
ENDBLK
  5
27A
330
277
100
AcDbEntity
  8
0
100
AcDbBlockEnd
  0
BLOCK
  5
282
330
280
100
AcDbEntity
  8
0
100
AcDbBlockBegin
  2
block 54
 70
     0
 71
     0
 10
0.0
 20
0.0
 30
0.0
  3
block 54
  1

  0
POLYLINE
  5
284
330
280
100
AcDbEntity
  8
Capa 1
  6
AI-Linetype-12
 62
     7
420
 16777215
370
     9
100
AcDb2dPolyline
 66
     1
 10
0.0
 20
0.0
 30
0.0
  0
VERTEX
  5
285
330
284
100
AcDbEntity
  8
Capa 1
  6
AI-Linetype-12
 62
     7
420
 16777215
370
     9
100
AcDbVertex
100
AcDb2dVertex
 10
118.3790711199764
 20
261.1334146617469
 30
0.0
  0
VERTEX
  5
286
330
284
100
AcDbEntity
  8
Capa 1
  6
AI-Linetype-12
 62
     7
420
 16777215
370
     9
100
AcDbVertex
100
AcDb2dVertex
 10
118.3790711199764
 20
266.7420338117086
 30
0.0
  0
SEQEND
  5
287
330
284
100
AcDbEntity
  8
Capa 1
  6
AI-Linetype-12
370
     9
  0
ENDBLK
  5
283
330
280
100
AcDbEntity
  8
0
100
AcDbBlockEnd
  0
BLOCK
  5
28B
330
289
100
AcDbEntity
  8
0
100
AcDbBlockBegin
  2
block 55
 70
     0
 71
     0
 10
0.0
 20
0.0
 30
0.0
  3
block 55
  1

  0
SPLINE
  5
28D
330
289
100
AcDbEntity
  8
Capa 1
  6
AI-Linetype-13
 62
     7
420
 16777215
370
     9
100
AcDbSpline
210
0.0
220
0.0
230
1.0
 70
     8
 71
     3
 72
    14
 73
    10
 74
     0
 42
0.0000000001
 43
0.0000000001
 40
0.0
 40
0.0
 40
0.0
 40
0.0
 40
1.0
 40
1.0
 40
1.0
 40
2.0
 40
2.0
 40
2.0
 40
3.0
 40
3.0
 40
3.0
 40
3.0
 10
118.966115777933
 20
262.7705251163304
 30
0.0
 10
119.6082820000171
 20
262.7705251163304
 30
0.0
 10
120.1319368592273
 20
263.2941799755405
 30
0.0
 10
120.1319368592273
 20
263.9391022758309
 30
0.0
 10
120.1319368592273
 20
264.581268497915
 30
0.0
 10
119.6082820000171
 20
265.1049233571252
 30
0.0
 10
118.966115777933
 20
265.1049233571252
 30
0.0
 10
118.966115777933
 20
265.1049233571252
 30
0.0
 10
118.966115777933
 20
265.1049233571252
 30
0.0
 10
118.966115777933
 20
265.1049233571252
 30
0.0
  0
ENDBLK
  5
28C
330
289
100
AcDbEntity
  8
0
100
AcDbBlockEnd
  0
BLOCK
  5
291
330
28F
100
AcDbEntity
  8
0
100
AcDbBlockBegin
  2
block 56
 70
     0
 71
     0
 10
0.0
 20
0.0
 30
0.0
  3
block 56
  1

  0
SPLINE
  5
293
330
28F
100
AcDbEntity
  8
Capa 1
  6
AI-Linetype-14
 62
     7
420
 16777215
370
     9
100
AcDbSpline
210
0.0
220
0.0
230
1.0
 70
     8
 71
     3
 72
    14
 73
    10
 74
     0
 42
0.0000000001
 43
0.0000000001
 40
0.0
 40
0.0
 40
0.0
 40
0.0
 40
1.0
 40
1.0
 40
1.0
 40
2.0
 40
2.0
 40
2.0
 40
3.0
 40
3.0
 40
3.0
 40
3.0
 10
117.7975386184324
 20
265.1049233571252
 30
0.0
 10
117.1498602399356
 20
265.1049233571252
 30
0.0
 10
116.6262053807255
 20
264.581268497915
 30
0.0
 10
116.6262053807255
 20
263.9391022758309
 30
0.0
 10
116.6262053807255
 20
263.2941799755405
 30
0.0
 10
117.1498602399356
 20
262.7705251163304
 30
0.0
 10
117.7975386184324
 20
262.7705251163304
 30
0.0
 10
117.7975386184324
 20
262.7705251163304
 30
0.0
 10
117.7975386184324
 20
262.7705251163304
 30
0.0
 10
117.7975386184324
 20
262.7705251163304
 30
0.0
  0
ENDBLK
  5
292
330
28F
100
AcDbEntity
  8
0
100
AcDbBlockEnd
  0
BLOCK
  5
297
330
295
100
AcDbEntity
  8
0
100
AcDbBlockBegin
  2
block 57
 70
     0
 71
     0
 10
0.0
 20
0.0
 30
0.0
  3
block 57
  1

  0
POLYLINE
  5
299
330
295
100
AcDbEntity
  8
Capa 1
  6
AI-Linetype-15
 62
     7
420
 16777215
370
     9
100
AcDb2dPolyline
 66
     1
 10
0.0
 20
0.0
 30
0.0
  0
VERTEX
  5
29A
330
299
100
AcDbEntity
  8
Capa 1
  6
AI-Linetype-15
 62
     7
420
 16777215
370
     9
100
AcDbVertex
100
AcDb2dVertex
 10
118.966115777933
 20
265.1049233571252
 30
0.0
  0
VERTEX
  5
29B
330
299
100
AcDbEntity
  8
Capa 1
  6
AI-Linetype-15
 62
     7
420
 16777215
370
     9
100
AcDbVertex
100
AcDb2dVertex
 10
117.7975386184324
 20
265.1049233571252
 30
0.0
  0
SEQEND
  5
29C
330
299
100
AcDbEntity
  8
Capa 1
  6
AI-Linetype-15
370
     9
  0
ENDBLK
  5
298
330
295
100
AcDbEntity
  8
0
100
AcDbBlockEnd
  0
BLOCK
  5
2A0
330
29E
100
AcDbEntity
  8
0
100
AcDbBlockBegin
  2
block 58
 70
     0
 71
     0
 10
0.0
 20
0.0
 30
0.0
  3
block 58
  1

  0
POLYLINE
  5
2A2
330
29E
100
AcDbEntity
  8
Capa 1
  6
AI-Linetype-16
 62
     7
420
 16777215
370
     9
100
AcDb2dPolyline
 66
     1
 10
0.0
 20
0.0
 30
0.0
  0
VERTEX
  5
2A3
330
2A2
100
AcDbEntity
  8
Capa 1
  6
AI-Linetype-16
 62
     7
420
 16777215
370
     9
100
AcDbVertex
100
AcDb2dVertex
 10
117.7975386184324
 20
262.7705251163304
 30
0.0
  0
VERTEX
  5
2A4
330
2A2
100
AcDbEntity
  8
Capa 1
  6
AI-Linetype-16
 62
     7
420
 16777215
370
     9
100
AcDbVertex
100
AcDb2dVertex
 10
118.966115777933
 20
262.7705251163304
 30
0.0
  0
SEQEND
  5
2A5
330
2A2
100
AcDbEntity
  8
Capa 1
  6
AI-Linetype-16
370
     9
  0
ENDBLK
  5
2A1
330
29E
100
AcDbEntity
  8
0
100
AcDbBlockEnd
  0
BLOCK
  5
2A9
330
2A7
100
AcDbEntity
  8
0
100
AcDbBlockBegin
  2
block 59
 70
     0
 71
     0
 10
0.0
 20
0.0
 30
0.0
  3
block 59
  1

  0
INSERT
  5
2AC
330
2A7
100
AcDbEntity
  8
Capa 1
100
AcDbBlockReference
  2
block 60
 10
0.0
 20
0.0
 30
0.0
  0
ENDBLK
  5
2AA
330
2A7
100
AcDbEntity
  8
0
100
AcDbBlockEnd
  0
BLOCK
  5
2AD
330
2AB
100
AcDbEntity
  8
0
100
AcDbBlockBegin
  2
block 60
 70
     0
 71
     0
 10
0.0
 20
0.0
 30
0.0
  3
block 60
  1

  0
INSERT
  5
2B0
330
2AB
100
AcDbEntity
  8
Capa 1
100
AcDbBlockReference
  2
block 61
 10
0.0
 20
0.0
 30
0.0
  0
INSERT
  5
2B8
330
2AB
100
AcDbEntity
  8
Capa 1
100
AcDbBlockReference
  2
block 62
 10
0.0
 20
0.0
 30
0.0
  0
INSERT
  5
2C0
330
2AB
100
AcDbEntity
  8
Capa 1
100
AcDbBlockReference
  2
block 63
 10
0.0
 20
0.0
 30
0.0
  0
INSERT
  5
2C8
330
2AB
100
AcDbEntity
  8
Capa 1
100
AcDbBlockReference
  2
block 64
 10
0.0
 20
0.0
 30
0.0
  0
INSERT
  5
2D0
330
2AB
100
AcDbEntity
  8
Capa 1
100
AcDbBlockReference
  2
block 65
 10
0.0
 20
0.0
 30
0.0
  0
INSERT
  5
2DB
330
2AB
100
AcDbEntity
  8
Capa 1
100
AcDbBlockReference
  2
block 66
 10
0.0
 20
0.0
 30
0.0
  0
INSERT
  5
2E6
330
2AB
100
AcDbEntity
  8
Capa 1
100
AcDbBlockReference
  2
block 67
 10
0.0
 20
0.0
 30
0.0
  0
INSERT
  5
2EB
330
2AB
100
AcDbEntity
  8
Capa 1
100
AcDbBlockReference
  2
block 68
 10
0.0
 20
0.0
 30
0.0
  0
INSERT
  5
2F3
330
2AB
100
AcDbEntity
  8
Capa 1
100
AcDbBlockReference
  2
block 69
 10
0.0
 20
0.0
 30
0.0
  0
INSERT
  5
2FB
330
2AB
100
AcDbEntity
  8
Capa 1
100
AcDbBlockReference
  2
block 70
 10
0.0
 20
0.0
 30
0.0
  0
ENDBLK
  5
2AE
330
2AB
100
AcDbEntity
  8
0
100
AcDbBlockEnd
  0
BLOCK
  5
2B1
330
2AF
100
AcDbEntity
  8
0
100
AcDbBlockBegin
  2
block 61
 70
     0
 71
     0
 10
0.0
 20
0.0
 30
0.0
  3
block 61
  1

  0
POLYLINE
  5
2B3
330
2AF
100
AcDbEntity
  8
Capa 1
 62
     7
420
 16777215
370
     9
100
AcDb2dPolyline
 66
     1
 10
0.0
 20
0.0
 30
0.0
  0
VERTEX
  5
2B4
330
2B3
100
AcDbEntity
  8
Capa 1
 62
     7
420
 16777215
370
     9
100
AcDbVertex
100
AcDb2dVertex
 10
67.91803523955991
 20
268.8449214831684
 30
0.0
  0
VERTEX
  5
2B5
330
2B3
100
AcDbEntity
  8
Capa 1
 62
     7
420
 16777215
370
     9
100
AcDbVertex
100
AcDb2dVertex
 10
47.70220159584073
 20
268.8449214831684
 30
0.0
  0
SEQEND
  5
2B6
330
2B3
100
AcDbEntity
  8
Capa 1
370
     9
  0
ENDBLK
  5
2B2
330
2AF
100
AcDbEntity
  8
0
100
AcDbBlockEnd
  0
BLOCK
  5
2B9
330
2B7
100
AcDbEntity
  8
0
100
AcDbBlockBegin
  2
block 62
 70
     0
 71
     0
 10
0.0
 20
0.0
 30
0.0
  3
block 62
  1

  0
POLYLINE
  5
2BB
330
2B7
100
AcDbEntity
  8
Capa 1
 62
     7
420
 16777215
370
     9
100
AcDb2dPolyline
 66
     1
 10
0.0
 20
0.0
 30
0.0
  0
VERTEX
  5
2BC
330
2BB
100
AcDbEntity
  8
Capa 1
 62
     7
420
 16777215
370
     9
100
AcDbVertex
100
AcDb2dVertex
 10
74.25425903600305
 20
169.5572040987125
 30
0.0
  0
VERTEX
  5
2BD
330
2BB
100
AcDbEntity
  8
Capa 1
 62
     7
420
 16777215
370
     9
100
AcDbVertex
100
AcDb2dVertex
 10
47.70220159584073
 20
169.5572040987125
 30
0.0
  0
SEQEND
  5
2BE
330
2BB
100
AcDbEntity
  8
Capa 1
370
     9
  0
ENDBLK
  5
2BA
330
2B7
100
AcDbEntity
  8
0
100
AcDbBlockEnd
  0
BLOCK
  5
2C1
330
2BF
100
AcDbEntity
  8
0
100
AcDbBlockBegin
  2
block 63
 70
     0
 71
     0
 10
0.0
 20
0.0
 30
0.0
  3
block 63
  1

  0
POLYLINE
  5
2C3
330
2BF
100
AcDbEntity
  8
Capa 1
 62
     7
420
 16777215
370
     9
100
AcDb2dPolyline
 66
     1
 10
0.0
 20
0.0
 30
0.0
  0
VERTEX
  5
2C4
330
2C3
100
AcDbEntity
  8
Capa 1
 62
     7
420
 16777215
370
     9
100
AcDbVertex
100
AcDb2dVertex
 10
50.0421119930483
 20
265.3391900046666
 30
0.0
  0
VERTEX
  5
2C5
330
2C3
100
AcDbEntity
  8
Capa 1
 62
     7
420
 16777215
370
     9
100
AcDbVertex
100
AcDb2dVertex
 10
50.0421119930483
 20
224.3563070759543
 30
0.0
  0
SEQEND
  5
2C6
330
2C3
100
AcDbEntity
  8
Capa 1
370
     9
  0
ENDBLK
  5
2C2
330
2BF
100
AcDbEntity
  8
0
100
AcDbBlockEnd
  0
BLOCK
  5
2C9
330
2C7
100
AcDbEntity
  8
0
100
AcDbBlockBegin
  2
block 64
 70
     0
 71
     0
 10
0.0
 20
0.0
 30
0.0
  3
block 64
  1

  0
POLYLINE
  5
2CB
330
2C7
100
AcDbEntity
  8
Capa 1
 62
     7
420
 16777215
370
     9
100
AcDb2dPolyline
 66
     1
 10
0.0
 20
0.0
 30
0.0
  0
VERTEX
  5
2CC
330
2CB
100
AcDbEntity
  8
Capa 1
 62
     7
420
 16777215
370
     9
100
AcDbVertex
100
AcDb2dVertex
 10
50.0421119930483
 20
173.060179499008
 30
0.0
  0
VERTEX
  5
2CD
330
2CB
100
AcDbEntity
  8
Capa 1
 62
     7
420
 16777215
370
     9
100
AcDbVertex
100
AcDb2dVertex
 10
50.0421119930483
 20
214.0430624277202
 30
0.0
  0
SEQEND
  5
2CE
330
2CB
100
AcDbEntity
  8
Capa 1
370
     9
  0
ENDBLK
  5
2CA
330
2C7
100
AcDbEntity
  8
0
100
AcDbBlockEnd
  0
BLOCK
  5
2D1
330
2CF
100
AcDbEntity
  8
0
100
AcDbBlockBegin
  2
block 65
 70
     0
 71
     0
 10
0.0
 20
0.0
 30
0.0
  3
block 65
  1

  0
POLYLINE
  5
2D3
330
2CF
100
AcDbEntity
  8
Capa 1
370
     0
100
AcDb2dPolyline
 66
     1
 10
0.0
 20
0.0
 30
0.0
  0
VERTEX
  5
2D4
330
2D3
100
AcDbEntity
  8
Capa 1
370
     0
100
AcDbVertex
100
AcDb2dVertex
 10
49.457823413298
 20
265.3391900046666
 30
0.0
  0
VERTEX
  5
2D5
330
2D3
100
AcDbEntity
  8
Capa 1
370
     0
100
AcDbVertex
100
AcDb2dVertex
 10
50.62364449459223
 20
265.3391900046666
 30
0.0
  0
VERTEX
  5
2D6
330
2D3
100
AcDbEntity
  8
Capa 1
370
     0
100
AcDbVertex
100
AcDb2dVertex
 10
50.0421119930483
 20
268.8449214831684
 30
0.0
  0
VERTEX
  5
2D7
330
2D3
100
AcDbEntity
  8
Capa 1
370
     0
100
AcDbVertex
100
AcDb2dVertex
 10
49.457823413298
 20
265.3391900046666
 30
0.0
  0
SEQEND
  5
2D8
330
2D3
100
AcDbEntity
  8
Capa 1
370
     0
  0
HATCH
  5
2D9
330
2CF
100
AcDbEntity
  8
Capa 1
 62
     7
420
 16777215
100
AcDbHatch
 10
0.0
 20
0.0
 30
0.0
210
0.0
220
0.0
230
1.0
  2
SOLID
 70
     1
 71
     0
 91
        1
 92
        1
 93
        3
 72
     1
 10
49.457823413298
 20
265.3391900046666
 11
50.62364449459223
 21
265.3391900046666
 72
     1
 10
50.62364449459223
 20
265.3391900046666
 11
50.0421119930483
 21
268.8449214831684
 72
     1
 10
50.0421119930483
 20
268.8449214831684
 11
49.457823413298
 21
265.3391900046666
 97
        0
 75
     2
 76
     1
 98
        0
  0
ENDBLK
  5
2D2
330
2CF
100
AcDbEntity
  8
0
100
AcDbBlockEnd
  0
BLOCK
  5
2DC
330
2DA
100
AcDbEntity
  8
0
100
AcDbBlockBegin
  2
block 66
 70
     0
 71
     0
 10
0.0
 20
0.0
 30
0.0
  3
block 66
  1

  0
POLYLINE
  5
2DE
330
2DA
100
AcDbEntity
  8
Capa 1
370
     0
100
AcDb2dPolyline
 66
     1
 10
0.0
 20
0.0
 30
0.0
  0
VERTEX
  5
2DF
330
2DE
100
AcDbEntity
  8
Capa 1
370
     0
100
AcDbVertex
100
AcDb2dVertex
 10
49.457823413298
 20
173.060179499008
 30
0.0
  0
VERTEX
  5
2E0
330
2DE
100
AcDbEntity
  8
Capa 1
370
     0
100
AcDbVertex
100
AcDb2dVertex
 10
50.62364449459223
 20
173.060179499008
 30
0.0
  0
VERTEX
  5
2E1
330
2DE
100
AcDbEntity
  8
Capa 1
370
     0
100
AcDbVertex
100
AcDb2dVertex
 10
50.0421119930483
 20
169.5572040987125
 30
0.0
  0
VERTEX
  5
2E2
330
2DE
100
AcDbEntity
  8
Capa 1
370
     0
100
AcDbVertex
100
AcDb2dVertex
 10
49.457823413298
 20
173.060179499008
 30
0.0
  0
SEQEND
  5
2E3
330
2DE
100
AcDbEntity
  8
Capa 1
370
     0
  0
HATCH
  5
2E4
330
2DA
100
AcDbEntity
  8
Capa 1
 62
     7
420
 16777215
100
AcDbHatch
 10
0.0
 20
0.0
 30
0.0
210
0.0
220
0.0
230
1.0
  2
SOLID
 70
     1
 71
     0
 91
        1
 92
        1
 93
        3
 72
     1
 10
49.457823413298
 20
173.060179499008
 11
50.62364449459223
 21
173.060179499008
 72
     1
 10
50.62364449459223
 20
173.060179499008
 11
50.0421119930483
 21
169.5572040987125
 72
     1
 10
50.0421119930483
 20
169.5572040987125
 11
49.457823413298
 21
173.060179499008
 97
        0
 75
     2
 76
     1
 98
        0
  0
ENDBLK
  5
2DD
330
2DA
100
AcDbEntity
  8
0
100
AcDbBlockEnd
  0
BLOCK
  5
2E7
330
2E5
100
AcDbEntity
  8
0
100
AcDbBlockBegin
  2
block 67
 70
     0
 71
     0
 10
0.0
 20
0.0
 30
0.0
  3
block 67
  1

  0
MTEXT
  5
2E9
330
2E5
100
AcDbEntity
  8
Capa 1
 62
     7
420
 16777215
100
AcDbMText
 10
51.50283344242406
 20
215.0326667586947
 30
0.0
 40
2.920234194277579
 41
0.0
 71
     7
 72
     1
  1
\fArial|b1|i0|c0|p34;\W1;850
 11
-4.371139000186241E-8
 21
0.999999999999999
 31
0.0
 73
     1
 44
1.0
  0
ENDBLK
  5
2E8
330
2E5
100
AcDbEntity
  8
0
100
AcDbBlockEnd
  0
BLOCK
  5
2EC
330
2EA
100
AcDbEntity
  8
0
100
AcDbBlockBegin
  2
block 68
 70
     0
 71
     0
 10
0.0
 20
0.0
 30
0.0
  3
block 68
  1

  0
POLYLINE
  5
2EE
330
2EA
100
AcDbEntity
  8
Capa 1
 62
     7
420
 16777215
370
     9
100
AcDb2dPolyline
 66
     1
 10
0.0
 20
0.0
 30
0.0
  0
VERTEX
  5
2EF
330
2EE
100
AcDbEntity
  8
Capa 1
 62
     7
420
 16777215
370
     9
100
AcDbVertex
100
AcDb2dVertex
 10
67.91803523955991
 20
268.8449214831684
 30
0.0
  0
VERTEX
  5
2F0
330
2EE
100
AcDbEntity
  8
Capa 1
 62
     7
420
 16777215
370
     9
100
AcDbVertex
100
AcDb2dVertex
 10
67.91803523955991
 20
268.8449214831684
 30
0.0
  0
SEQEND
  5
2F1
330
2EE
100
AcDbEntity
  8
Capa 1
370
     9
  0
ENDBLK
  5
2ED
330
2EA
100
AcDbEntity
  8
0
100
AcDbBlockEnd
  0
BLOCK
  5
2F4
330
2F2
100
AcDbEntity
  8
0
100
AcDbBlockBegin
  2
block 69
 70
     0
 71
     0
 10
0.0
 20
0.0
 30
0.0
  3
block 69
  1

  0
POLYLINE
  5
2F6
330
2F2
100
AcDbEntity
  8
Capa 1
 62
     7
420
 16777215
370
     9
100
AcDb2dPolyline
 66
     1
 10
0.0
 20
0.0
 30
0.0
  0
VERTEX
  5
2F7
330
2F6
100
AcDbEntity
  8
Capa 1
 62
     7
420
 16777215
370
     9
100
AcDbVertex
100
AcDb2dVertex
 10
74.25425903600305
 20
169.5572040987125
 30
0.0
  0
VERTEX
  5
2F8
330
2F6
100
AcDbEntity
  8
Capa 1
 62
     7
420
 16777215
370
     9
100
AcDbVertex
100
AcDb2dVertex
 10
74.25425903600305
 20
169.5572040987125
 30
0.0
  0
SEQEND
  5
2F9
330
2F6
100
AcDbEntity
  8
Capa 1
370
     9
  0
ENDBLK
  5
2F5
330
2F2
100
AcDbEntity
  8
0
100
AcDbBlockEnd
  0
BLOCK
  5
2FC
330
2FA
100
AcDbEntity
  8
0
100
AcDbBlockBegin
  2
block 70
 70
     0
 71
     0
 10
0.0
 20
0.0
 30
0.0
  3
block 70
  1

  0
POLYLINE
  5
2FE
330
2FA
100
AcDbEntity
  8
Capa 1
370
     0
100
AcDb2dPolyline
 66
     1
 10
0.0
 20
0.0
 30
0.0
  0
VERTEX
  5
2FF
330
2FE
100
AcDbEntity
  8
Capa 1
370
     0
100
AcDbVertex
100
AcDb2dVertex
 10
50.0421119930483
 20
169.5572040987125
 30
0.0
  0
VERTEX
  5
300
330
2FE
100
AcDbEntity
  8
Capa 1
370
     0
100
AcDbVertex
100
AcDb2dVertex
 10
50.0421119930483
 20
169.5572040987125
 30
0.0
  0
SEQEND
  5
301
330
2FE
100
AcDbEntity
  8
Capa 1
370
     0
  0
ENDBLK
  5
2FD
330
2FA
100
AcDbEntity
  8
0
100
AcDbBlockEnd
  0
BLOCK
  5
304
330
302
100
AcDbEntity
  8
0
100
AcDbBlockBegin
  2
block 71
 70
     0
 71
     0
 10
0.0
 20
0.0
 30
0.0
  3
block 71
  1

  0
INSERT
  5
307
330
302
100
AcDbEntity
  8
Capa 1
100
AcDbBlockReference
  2
block 72
 10
0.0
 20
0.0
 30
0.0
  0
ENDBLK
  5
305
330
302
100
AcDbEntity
  8
0
100
AcDbBlockEnd
  0
BLOCK
  5
308
330
306
100
AcDbEntity
  8
0
100
AcDbBlockBegin
  2
block 72
 70
     0
 71
     0
 10
0.0
 20
0.0
 30
0.0
  3
block 72
  1

  0
INSERT
  5
30B
330
306
100
AcDbEntity
  8
Capa 1
100
AcDbBlockReference
  2
block 73
 10
0.0
 20
0.0
 30
0.0
  0
INSERT
  5
313
330
306
100
AcDbEntity
  8
Capa 1
100
AcDbBlockReference
  2
block 74
 10
0.0
 20
0.0
 30
0.0
  0
INSERT
  5
31B
330
306
100
AcDbEntity
  8
Capa 1
100
AcDbBlockReference
  2
block 75
 10
0.0
 20
0.0
 30
0.0
  0
INSERT
  5
323
330
306
100
AcDbEntity
  8
Capa 1
100
AcDbBlockReference
  2
block 76
 10
0.0
 20
0.0
 30
0.0
  0
INSERT
  5
32B
330
306
100
AcDbEntity
  8
Capa 1
100
AcDbBlockReference
  2
block 77
 10
0.0
 20
0.0
 30
0.0
  0
INSERT
  5
336
330
306
100
AcDbEntity
  8
Capa 1
100
AcDbBlockReference
  2
block 78
 10
0.0
 20
0.0
 30
0.0
  0
INSERT
  5
341
330
306
100
AcDbEntity
  8
Capa 1
100
AcDbBlockReference
  2
block 79
 10
0.0
 20
0.0
 30
0.0
  0
INSERT
  5
346
330
306
100
AcDbEntity
  8
Capa 1
100
AcDbBlockReference
  2
block 80
 10
0.0
 20
0.0
 30
0.0
  0
INSERT
  5
34E
330
306
100
AcDbEntity
  8
Capa 1
100
AcDbBlockReference
  2
block 81
 10
0.0
 20
0.0
 30
0.0
  0
INSERT
  5
356
330
306
100
AcDbEntity
  8
Capa 1
100
AcDbBlockReference
  2
block 82
 10
0.0
 20
0.0
 30
0.0
  0
ENDBLK
  5
309
330
306
100
AcDbEntity
  8
0
100
AcDbBlockEnd
  0
BLOCK
  5
30C
330
30A
100
AcDbEntity
  8
0
100
AcDbBlockBegin
  2
block 73
 70
     0
 71
     0
 10
0.0
 20
0.0
 30
0.0
  3
block 73
  1

  0
POLYLINE
  5
30E
330
30A
100
AcDbEntity
  8
Capa 1
 62
     7
420
 16777215
370
     9
100
AcDb2dPolyline
 66
     1
 10
0.0
 20
0.0
 30
0.0
  0
VERTEX
  5
30F
330
30E
100
AcDbEntity
  8
Capa 1
 62
     7
420
 16777215
370
     9
100
AcDbVertex
100
AcDb2dVertex
 10
82.87802774373274
 20
263.9391022758309
 30
0.0
  0
VERTEX
  5
310
330
30E
100
AcDbEntity
  8
Capa 1
 62
     7
420
 16777215
370
     9
100
AcDbVertex
100
AcDb2dVertex
 10
56.81655222430417
 20
263.9391022758309
 30
0.0
  0
SEQEND
  5
311
330
30E
100
AcDbEntity
  8
Capa 1
370
     9
  0
ENDBLK
  5
30D
330
30A
100
AcDbEntity
  8
0
100
AcDbBlockEnd
  0
BLOCK
  5
314
330
312
100
AcDbEntity
  8
0
100
AcDbBlockBegin
  2
block 74
 70
     0
 71
     0
 10
0.0
 20
0.0
 30
0.0
  3
block 74
  1

  0
POLYLINE
  5
316
330
312
100
AcDbEntity
  8
Capa 1
 62
     7
420
 16777215
370
     9
100
AcDb2dPolyline
 66
     1
 10
0.0
 20
0.0
 30
0.0
  0
VERTEX
  5
317
330
316
100
AcDbEntity
  8
Capa 1
 62
     7
420
 16777215
370
     9
100
AcDbVertex
100
AcDb2dVertex
 10
67.91803523955991
 20
268.8449214831684
 30
0.0
  0
VERTEX
  5
318
330
316
100
AcDbEntity
  8
Capa 1
 62
     7
420
 16777215
370
     9
100
AcDbVertex
100
AcDb2dVertex
 10
56.81655222430417
 20
268.8449214831684
 30
0.0
  0
SEQEND
  5
319
330
316
100
AcDbEntity
  8
Capa 1
370
     9
  0
ENDBLK
  5
315
330
312
100
AcDbEntity
  8
0
100
AcDbBlockEnd
  0
BLOCK
  5
31C
330
31A
100
AcDbEntity
  8
0
100
AcDbBlockBegin
  2
block 75
 70
     0
 71
     0
 10
0.0
 20
0.0
 30
0.0
  3
block 75
  1

  0
POLYLINE
  5
31E
330
31A
100
AcDbEntity
  8
Capa 1
 62
     7
420
 16777215
370
     9
100
AcDb2dPolyline
 66
     1
 10
0.0
 20
0.0
 30
0.0
  0
VERTEX
  5
31F
330
31E
100
AcDbEntity
  8
Capa 1
 62
     7
420
 16777215
370
     9
100
AcDbVertex
100
AcDb2dVertex
 10
59.15095046509901
 20
272.3478968834638
 30
0.0
  0
VERTEX
  5
320
330
31E
100
AcDbEntity
  8
Capa 1
 62
     7
420
 16777215
370
     9
100
AcDbVertex
100
AcDb2dVertex
 10
59.15095046509901
 20
275.8536283619657
 30
0.0
  0
SEQEND
  5
321
330
31E
100
AcDbEntity
  8
Capa 1
370
     9
  0
ENDBLK
  5
31D
330
31A
100
AcDbEntity
  8
0
100
AcDbBlockEnd
  0
BLOCK
  5
324
330
322
100
AcDbEntity
  8
0
100
AcDbBlockBegin
  2
block 76
 70
     0
 71
     0
 10
0.0
 20
0.0
 30
0.0
  3
block 76
  1

  0
POLYLINE
  5
326
330
322
100
AcDbEntity
  8
Capa 1
 62
     7
420
 16777215
370
     9
100
AcDb2dPolyline
 66
     1
 10
0.0
 20
0.0
 30
0.0
  0
VERTEX
  5
327
330
326
100
AcDbEntity
  8
Capa 1
 62
     7
420
 16777215
370
     9
100
AcDbVertex
100
AcDb2dVertex
 10
59.15095046509901
 20
260.4333707973291
 30
0.0
  0
VERTEX
  5
328
330
326
100
AcDbEntity
  8
Capa 1
 62
     7
420
 16777215
370
     9
100
AcDbVertex
100
AcDb2dVertex
 10
59.15095046509901
 20
256.9276393188273
 30
0.0
  0
SEQEND
  5
329
330
326
100
AcDbEntity
  8
Capa 1
370
     9
  0
ENDBLK
  5
325
330
322
100
AcDbEntity
  8
0
100
AcDbBlockEnd
  0
BLOCK
  5
32C
330
32A
100
AcDbEntity
  8
0
100
AcDbBlockBegin
  2
block 77
 70
     0
 71
     0
 10
0.0
 20
0.0
 30
0.0
  3
block 77
  1

  0
POLYLINE
  5
32E
330
32A
100
AcDbEntity
  8
Capa 1
370
     0
100
AcDb2dPolyline
 66
     1
 10
0.0
 20
0.0
 30
0.0
  0
VERTEX
  5
32F
330
32E
100
AcDbEntity
  8
Capa 1
370
     0
100
AcDbVertex
100
AcDb2dVertex
 10
58.56390580714233
 20
272.3478968834638
 30
0.0
  0
VERTEX
  5
330
330
32E
100
AcDbEntity
  8
Capa 1
370
     0
100
AcDbVertex
100
AcDb2dVertex
 10
59.73248296664294
 20
272.3478968834638
 30
0.0
  0
VERTEX
  5
331
330
32E
100
AcDbEntity
  8
Capa 1
370
     0
100
AcDbVertex
100
AcDb2dVertex
 10
59.15095046509901
 20
268.8449214831684
 30
0.0
  0
VERTEX
  5
332
330
32E
100
AcDbEntity
  8
Capa 1
370
     0
100
AcDbVertex
100
AcDb2dVertex
 10
58.56390580714233
 20
272.3478968834638
 30
0.0
  0
SEQEND
  5
333
330
32E
100
AcDbEntity
  8
Capa 1
370
     0
  0
HATCH
  5
334
330
32A
100
AcDbEntity
  8
Capa 1
 62
     7
420
 16777215
100
AcDbHatch
 10
0.0
 20
0.0
 30
0.0
210
0.0
220
0.0
230
1.0
  2
SOLID
 70
     1
 71
     0
 91
        1
 92
        1
 93
        3
 72
     1
 10
58.56390580714233
 20
272.3478968834638
 11
59.73248296664294
 21
272.3478968834638
 72
     1
 10
59.73248296664294
 20
272.3478968834638
 11
59.15095046509901
 21
268.8449214831684
 72
     1
 10
59.15095046509901
 20
268.8449214831684
 11
58.56390580714233
 21
272.3478968834638
 97
        0
 75
     2
 76
     1
 98
        0
  0
ENDBLK
  5
32D
330
32A
100
AcDbEntity
  8
0
100
AcDbBlockEnd
  0
BLOCK
  5
337
330
335
100
AcDbEntity
  8
0
100
AcDbBlockBegin
  2
block 78
 70
     0
 71
     0
 10
0.0
 20
0.0
 30
0.0
  3
block 78
  1

  0
POLYLINE
  5
339
330
335
100
AcDbEntity
  8
Capa 1
370
     0
100
AcDb2dPolyline
 66
     1
 10
0.0
 20
0.0
 30
0.0
  0
VERTEX
  5
33A
330
339
100
AcDbEntity
  8
Capa 1
370
     0
100
AcDbVertex
100
AcDb2dVertex
 10
58.56390580714233
 20
260.4333707973291
 30
0.0
  0
VERTEX
  5
33B
330
339
100
AcDbEntity
  8
Capa 1
370
     0
100
AcDbVertex
100
AcDb2dVertex
 10
59.73248296664294
 20
260.4333707973291
 30
0.0
  0
VERTEX
  5
33C
330
339
100
AcDbEntity
  8
Capa 1
370
     0
100
AcDbVertex
100
AcDb2dVertex
 10
59.15095046509901
 20
263.9391022758309
 30
0.0
  0
VERTEX
  5
33D
330
339
100
AcDbEntity
  8
Capa 1
370
     0
100
AcDbVertex
100
AcDb2dVertex
 10
58.56390580714233
 20
260.4333707973291
 30
0.0
  0
SEQEND
  5
33E
330
339
100
AcDbEntity
  8
Capa 1
370
     0
  0
HATCH
  5
33F
330
335
100
AcDbEntity
  8
Capa 1
 62
     7
420
 16777215
100
AcDbHatch
 10
0.0
 20
0.0
 30
0.0
210
0.0
220
0.0
230
1.0
  2
SOLID
 70
     1
 71
     0
 91
        1
 92
        1
 93
        3
 72
     1
 10
58.56390580714233
 20
260.4333707973291
 11
59.73248296664294
 21
260.4333707973291
 72
     1
 10
59.73248296664294
 20
260.4333707973291
 11
59.15095046509901
 21
263.9391022758309
 72
     1
 10
59.15095046509901
 20
263.9391022758309
 11
58.56390580714233
 21
260.4333707973291
 97
        0
 75
     2
 76
     1
 98
        0
  0
ENDBLK
  5
338
330
335
100
AcDbEntity
  8
0
100
AcDbBlockEnd
  0
BLOCK
  5
342
330
340
100
AcDbEntity
  8
0
100
AcDbBlockBegin
  2
block 79
 70
     0
 71
     0
 10
0.0
 20
0.0
 30
0.0
  3
block 79
  1

  0
MTEXT
  5
344
330
340
100
AcDbEntity
  8
Capa 1
 62
     7
420
 16777215
100
AcDbMText
 10
60.61167191447476
 20
250.6160479713536
 30
0.0
 40
2.920234194277579
 41
0.0
 71
     7
 72
     1
  1
\fArial|b1|i0|c0|p34;\W1;42
 11
-4.371139000186241E-8
 21
0.999999999999999
 31
0.0
 73
     1
 44
1.0
  0
ENDBLK
  5
343
330
340
100
AcDbEntity
  8
0
100
AcDbBlockEnd
  0
BLOCK
  5
347
330
345
100
AcDbEntity
  8
0
100
AcDbBlockBegin
  2
block 80
 70
     0
 71
     0
 10
0.0
 20
0.0
 30
0.0
  3
block 80
  1

  0
POLYLINE
  5
349
330
345
100
AcDbEntity
  8
Capa 1
 62
     7
420
 16777215
370
     9
100
AcDb2dPolyline
 66
     1
 10
0.0
 20
0.0
 30
0.0
  0
VERTEX
  5
34A
330
349
100
AcDbEntity
  8
Capa 1
 62
     7
420
 16777215
370
     9
100
AcDbVertex
100
AcDb2dVertex
 10
82.87802774373274
 20
263.9391022758309
 30
0.0
  0
VERTEX
  5
34B
330
349
100
AcDbEntity
  8
Capa 1
 62
     7
420
 16777215
370
     9
100
AcDbVertex
100
AcDb2dVertex
 10
82.87802774373274
 20
263.9391022758309
 30
0.0
  0
SEQEND
  5
34C
330
349
100
AcDbEntity
  8
Capa 1
370
     9
  0
ENDBLK
  5
348
330
345
100
AcDbEntity
  8
0
100
AcDbBlockEnd
  0
BLOCK
  5
34F
330
34D
100
AcDbEntity
  8
0
100
AcDbBlockBegin
  2
block 81
 70
     0
 71
     0
 10
0.0
 20
0.0
 30
0.0
  3
block 81
  1

  0
POLYLINE
  5
351
330
34D
100
AcDbEntity
  8
Capa 1
 62
     7
420
 16777215
370
     9
100
AcDb2dPolyline
 66
     1
 10
0.0
 20
0.0
 30
0.0
  0
VERTEX
  5
352
330
351
100
AcDbEntity
  8
Capa 1
 62
     7
420
 16777215
370
     9
100
AcDbVertex
100
AcDb2dVertex
 10
67.91803523955991
 20
268.8449214831684
 30
0.0
  0
VERTEX
  5
353
330
351
100
AcDbEntity
  8
Capa 1
 62
     7
420
 16777215
370
     9
100
AcDbVertex
100
AcDb2dVertex
 10
67.91803523955991
 20
268.8449214831684
 30
0.0
  0
SEQEND
  5
354
330
351
100
AcDbEntity
  8
Capa 1
370
     9
  0
ENDBLK
  5
350
330
34D
100
AcDbEntity
  8
0
100
AcDbBlockEnd
  0
BLOCK
  5
357
330
355
100
AcDbEntity
  8
0
100
AcDbBlockBegin
  2
block 82
 70
     0
 71
     0
 10
0.0
 20
0.0
 30
0.0
  3
block 82
  1

  0
POLYLINE
  5
359
330
355
100
AcDbEntity
  8
Capa 1
370
     0
100
AcDb2dPolyline
 66
     1
 10
0.0
 20
0.0
 30
0.0
  0
VERTEX
  5
35A
330
359
100
AcDbEntity
  8
Capa 1
370
     0
100
AcDbVertex
100
AcDb2dVertex
 10
59.15095046509901
 20
268.8449214831684
 30
0.0
  0
VERTEX
  5
35B
330
359
100
AcDbEntity
  8
Capa 1
370
     0
100
AcDbVertex
100
AcDb2dVertex
 10
59.15095046509901
 20
268.8449214831684
 30
0.0
  0
SEQEND
  5
35C
330
359
100
AcDbEntity
  8
Capa 1
370
     0
  0
ENDBLK
  5
358
330
355
100
AcDbEntity
  8
0
100
AcDbBlockEnd
  0
BLOCK
  5
35F
330
35D
100
AcDbEntity
  8
0
100
AcDbBlockBegin
  2
block 83
 70
     0
 71
     0
 10
0.0
 20
0.0
 30
0.0
  3
block 83
  1

  0
POLYLINE
  5
361
330
35D
100
AcDbEntity
  8
Capa 1
 62
     7
420
 16777215
370
     9
100
AcDb2dPolyline
 66
     1
 10
0.0
 20
0.0
 30
0.0
  0
VERTEX
  5
362
330
361
100
AcDbEntity
  8
Capa 1
 62
     7
420
 16777215
370
     9
100
AcDbVertex
100
AcDb2dVertex
 10
59.15095046509901
 20
263.9391022758309
 30
0.0
  0
VERTEX
  5
363
330
361
100
AcDbEntity
  8
Capa 1
 62
     7
420
 16777215
370
     9
100
AcDbVertex
100
AcDb2dVertex
 10
59.15095046509901
 20
268.8449214831684
 30
0.0
  0
SEQEND
  5
364
330
361
100
AcDbEntity
  8
Capa 1
370
     9
  0
ENDBLK
  5
360
330
35D
100
AcDbEntity
  8
0
100
AcDbBlockEnd
  0
BLOCK
  5
367
330
365
100
AcDbEntity
  8
0
100
AcDbBlockBegin
  2
block 84
 70
     0
 71
     0
 10
0.0
 20
0.0
 30
0.0
  3
block 84
  1

  0
INSERT
  5
36A
330
365
100
AcDbEntity
  8
Capa 1
100
AcDbBlockReference
  2
block 85
 10
0.0
 20
0.0
 30
0.0
  0
ENDBLK
  5
368
330
365
100
AcDbEntity
  8
0
100
AcDbBlockEnd
  0
BLOCK
  5
36B
330
369
100
AcDbEntity
  8
0
100
AcDbBlockBegin
  2
block 85
 70
     0
 71
     0
 10
0.0
 20
0.0
 30
0.0
  3
block 85
  1

  0
INSERT
  5
36E
330
369
100
AcDbEntity
  8
Capa 1
100
AcDbBlockReference
  2
block 86
 10
0.0
 20
0.0
 30
0.0
  0
INSERT
  5
376
330
369
100
AcDbEntity
  8
Capa 1
100
AcDbBlockReference
  2
block 87
 10
0.0
 20
0.0
 30
0.0
  0
INSERT
  5
37E
330
369
100
AcDbEntity
  8
Capa 1
100
AcDbBlockReference
  2
block 88
 10
0.0
 20
0.0
 30
0.0
  0
INSERT
  5
386
330
369
100
AcDbEntity
  8
Capa 1
100
AcDbBlockReference
  2
block 89
 10
0.0
 20
0.0
 30
0.0
  0
INSERT
  5
38E
330
369
100
AcDbEntity
  8
Capa 1
100
AcDbBlockReference
  2
block 90
 10
0.0
 20
0.0
 30
0.0
  0
INSERT
  5
399
330
369
100
AcDbEntity
  8
Capa 1
100
AcDbBlockReference
  2
block 91
 10
0.0
 20
0.0
 30
0.0
  0
INSERT
  5
3A4
330
369
100
AcDbEntity
  8
Capa 1
100
AcDbBlockReference
  2
block 92
 10
0.0
 20
0.0
 30
0.0
  0
INSERT
  5
3A9
330
369
100
AcDbEntity
  8
Capa 1
100
AcDbBlockReference
  2
block 93
 10
0.0
 20
0.0
 30
0.0
  0
INSERT
  5
3B1
330
369
100
AcDbEntity
  8
Capa 1
100
AcDbBlockReference
  2
block 94
 10
0.0
 20
0.0
 30
0.0
  0
INSERT
  5
3B9
330
369
100
AcDbEntity
  8
Capa 1
100
AcDbBlockReference
  2
block 95
 10
0.0
 20
0.0
 30
0.0
  0
ENDBLK
  5
36C
330
369
100
AcDbEntity
  8
0
100
AcDbBlockEnd
  0
BLOCK
  5
36F
330
36D
100
AcDbEntity
  8
0
100
AcDbBlockBegin
  2
block 86
 70
     0
 71
     0
 10
0.0
 20
0.0
 30
0.0
  3
block 86
  1

  0
POLYLINE
  5
371
330
36D
100
AcDbEntity
  8
Capa 1
 62
     7
420
 16777215
370
     9
100
AcDb2dPolyline
 66
     1
 10
0.0
 20
0.0
 30
0.0
  0
VERTEX
  5
372
330
371
100
AcDbEntity
  8
Capa 1
 62
     7
420
 16777215
370
     9
100
AcDbVertex
100
AcDb2dVertex
 10
85.678203201404
 20
266.7420338117086
 30
0.0
  0
VERTEX
  5
373
330
371
100
AcDbEntity
  8
Capa 1
 62
     7
420
 16777215
370
     9
100
AcDbVertex
100
AcDb2dVertex
 10
85.678203201404
 20
278.4663905016038
 30
0.0
  0
SEQEND
  5
374
330
371
100
AcDbEntity
  8
Capa 1
370
     9
  0
ENDBLK
  5
370
330
36D
100
AcDbEntity
  8
0
100
AcDbBlockEnd
  0
BLOCK
  5
377
330
375
100
AcDbEntity
  8
0
100
AcDbBlockBegin
  2
block 87
 70
     0
 71
     0
 10
0.0
 20
0.0
 30
0.0
  3
block 87
  1

  0
POLYLINE
  5
379
330
375
100
AcDbEntity
  8
Capa 1
 62
     7
420
 16777215
370
     9
100
AcDb2dPolyline
 66
     1
 10
0.0
 20
0.0
 30
0.0
  0
VERTEX
  5
37A
330
379
100
AcDbEntity
  8
Capa 1
 62
     7
420
 16777215
370
     9
100
AcDbVertex
100
AcDb2dVertex
 10
118.3790711199764
 20
266.7420338117086
 30
0.0
  0
VERTEX
  5
37B
330
379
100
AcDbEntity
  8
Capa 1
 62
     7
420
 16777215
370
     9
100
AcDbVertex
100
AcDb2dVertex
 10
118.3790711199764
 20
278.4663905016038
 30
0.0
  0
SEQEND
  5
37C
330
379
100
AcDbEntity
  8
Capa 1
370
     9
  0
ENDBLK
  5
378
330
375
100
AcDbEntity
  8
0
100
AcDbBlockEnd
  0
BLOCK
  5
37F
330
37D
100
AcDbEntity
  8
0
100
AcDbBlockBegin
  2
block 88
 70
     0
 71
     0
 10
0.0
 20
0.0
 30
0.0
  3
block 88
  1

  0
POLYLINE
  5
381
330
37D
100
AcDbEntity
  8
Capa 1
 62
     7
420
 16777215
370
     9
100
AcDb2dPolyline
 66
     1
 10
0.0
 20
0.0
 30
0.0
  0
VERTEX
  5
382
330
381
100
AcDbEntity
  8
Capa 1
 62
     7
420
 16777215
370
     9
100
AcDbVertex
100
AcDb2dVertex
 10
89.18393467990582
 20
276.1292361826026
 30
0.0
  0
VERTEX
  5
383
330
381
100
AcDbEntity
  8
Capa 1
 62
     7
420
 16777215
370
     9
100
AcDbVertex
100
AcDb2dVertex
 10
96.87339287567632
 20
276.1292361826026
 30
0.0
  0
SEQEND
  5
384
330
381
100
AcDbEntity
  8
Capa 1
370
     9
  0
ENDBLK
  5
380
330
37D
100
AcDbEntity
  8
0
100
AcDbBlockEnd
  0
BLOCK
  5
387
330
385
100
AcDbEntity
  8
0
100
AcDbBlockBegin
  2
block 89
 70
     0
 71
     0
 10
0.0
 20
0.0
 30
0.0
  3
block 89
  1

  0
POLYLINE
  5
389
330
385
100
AcDbEntity
  8
Capa 1
 62
     7
420
 16777215
370
     9
100
AcDb2dPolyline
 66
     1
 10
0.0
 20
0.0
 30
0.0
  0
VERTEX
  5
38A
330
389
100
AcDbEntity
  8
Capa 1
 62
     7
420
 16777215
370
     9
100
AcDbVertex
100
AcDb2dVertex
 10
114.8760957196809
 20
276.1292361826026
 30
0.0
  0
VERTEX
  5
38B
330
389
100
AcDbEntity
  8
Capa 1
 62
     7
420
 16777215
370
     9
100
AcDbVertex
100
AcDb2dVertex
 10
107.1866375239104
 20
276.1292361826026
 30
0.0
  0
SEQEND
  5
38C
330
389
100
AcDbEntity
  8
Capa 1
370
     9
  0
ENDBLK
  5
388
330
385
100
AcDbEntity
  8
0
100
AcDbBlockEnd
  0
BLOCK
  5
38F
330
38D
100
AcDbEntity
  8
0
100
AcDbBlockBegin
  2
block 90
 70
     0
 71
     0
 10
0.0
 20
0.0
 30
0.0
  3
block 90
  1

  0
POLYLINE
  5
391
330
38D
100
AcDbEntity
  8
Capa 1
370
     0
100
AcDb2dPolyline
 66
     1
 10
0.0
 20
0.0
 30
0.0
  0
VERTEX
  5
392
330
391
100
AcDbEntity
  8
Capa 1
370
     0
100
AcDbVertex
100
AcDb2dVertex
 10
89.18393467990582
 20
276.7135247623529
 30
0.0
  0
VERTEX
  5
393
330
391
100
AcDbEntity
  8
Capa 1
370
     0
100
AcDbVertex
100
AcDb2dVertex
 10
89.18393467990582
 20
275.5477036810586
 30
0.0
  0
VERTEX
  5
394
330
391
100
AcDbEntity
  8
Capa 1
370
     0
100
AcDbVertex
100
AcDb2dVertex
 10
85.678203201404
 20
276.1292361826026
 30
0.0
  0
VERTEX
  5
395
330
391
100
AcDbEntity
  8
Capa 1
370
     0
100
AcDbVertex
100
AcDb2dVertex
 10
89.18393467990582
 20
276.7135247623529
 30
0.0
  0
SEQEND
  5
396
330
391
100
AcDbEntity
  8
Capa 1
370
     0
  0
HATCH
  5
397
330
38D
100
AcDbEntity
  8
Capa 1
 62
     7
420
 16777215
100
AcDbHatch
 10
0.0
 20
0.0
 30
0.0
210
0.0
220
0.0
230
1.0
  2
SOLID
 70
     1
 71
     0
 91
        1
 92
        1
 93
        3
 72
     1
 10
89.18393467990582
 20
276.7135247623529
 11
89.18393467990582
 21
275.5477036810586
 72
     1
 10
89.18393467990582
 20
275.5477036810586
 11
85.678203201404
 21
276.1292361826026
 72
     1
 10
85.678203201404
 20
276.1292361826026
 11
89.18393467990582
 21
276.7135247623529
 97
        0
 75
     2
 76
     1
 98
        0
  0
ENDBLK
  5
390
330
38D
100
AcDbEntity
  8
0
100
AcDbBlockEnd
  0
BLOCK
  5
39A
330
398
100
AcDbEntity
  8
0
100
AcDbBlockBegin
  2
block 91
 70
     0
 71
     0
 10
0.0
 20
0.0
 30
0.0
  3
block 91
  1

  0
POLYLINE
  5
39C
330
398
100
AcDbEntity
  8
Capa 1
370
     0
100
AcDb2dPolyline
 66
     1
 10
0.0
 20
0.0
 30
0.0
  0
VERTEX
  5
39D
330
39C
100
AcDbEntity
  8
Capa 1
370
     0
100
AcDbVertex
100
AcDb2dVertex
 10
114.8760957196809
 20
276.7135247623529
 30
0.0
  0
VERTEX
  5
39E
330
39C
100
AcDbEntity
  8
Capa 1
370
     0
100
AcDbVertex
100
AcDb2dVertex
 10
114.8760957196809
 20
275.5477036810586
 30
0.0
  0
VERTEX
  5
39F
330
39C
100
AcDbEntity
  8
Capa 1
370
     0
100
AcDbVertex
100
AcDb2dVertex
 10
118.3790711199764
 20
276.1292361826026
 30
0.0
  0
VERTEX
  5
3A0
330
39C
100
AcDbEntity
  8
Capa 1
370
     0
100
AcDbVertex
100
AcDb2dVertex
 10
114.8760957196809
 20
276.7135247623529
 30
0.0
  0
SEQEND
  5
3A1
330
39C
100
AcDbEntity
  8
Capa 1
370
     0
  0
HATCH
  5
3A2
330
398
100
AcDbEntity
  8
Capa 1
 62
     7
420
 16777215
100
AcDbHatch
 10
0.0
 20
0.0
 30
0.0
210
0.0
220
0.0
230
1.0
  2
SOLID
 70
     1
 71
     0
 91
        1
 92
        1
 93
        3
 72
     1
 10
114.8760957196809
 20
276.7135247623529
 11
114.8760957196809
 21
275.5477036810586
 72
     1
 10
114.8760957196809
 20
275.5477036810586
 11
118.3790711199764
 21
276.1292361826026
 72
     1
 10
118.3790711199764
 20
276.1292361826026
 11
114.8760957196809
 21
276.7135247623529
 97
        0
 75
     2
 76
     1
 98
        0
  0
ENDBLK
  5
39B
330
398
100
AcDbEntity
  8
0
100
AcDbBlockEnd
  0
BLOCK
  5
3A5
330
3A3
100
AcDbEntity
  8
0
100
AcDbBlockBegin
  2
block 92
 70
     0
 71
     0
 10
0.0
 20
0.0
 30
0.0
  3
block 92
  1

  0
MTEXT
  5
3A7
330
3A3
100
AcDbEntity
  8
Capa 1
 62
     7
420
 16777215
100
AcDbMText
 10
98.7979967381616
 20
274.6683424783389
 30
0.0
 40
2.920234194277579
 41
0.0
 71
     7
 72
     1
  1
\fArial|b1|i0|c0|p34;\W1;280
 73
     1
 44
1.0
  0
ENDBLK
  5
3A6
330
3A3
100
AcDbEntity
  8
0
100
AcDbBlockEnd
  0
BLOCK
  5
3AA
330
3A8
100
AcDbEntity
  8
0
100
AcDbBlockBegin
  2
block 93
 70
     0
 71
     0
 10
0.0
 20
0.0
 30
0.0
  3
block 93
  1

  0
POLYLINE
  5
3AC
330
3A8
100
AcDbEntity
  8
Capa 1
 62
     7
420
 16777215
370
     9
100
AcDb2dPolyline
 66
     1
 10
0.0
 20
0.0
 30
0.0
  0
VERTEX
  5
3AD
330
3AC
100
AcDbEntity
  8
Capa 1
 62
     7
420
 16777215
370
     9
100
AcDbVertex
100
AcDb2dVertex
 10
85.678203201404
 20
266.7420338117086
 30
0.0
  0
VERTEX
  5
3AE
330
3AC
100
AcDbEntity
  8
Capa 1
 62
     7
420
 16777215
370
     9
100
AcDbVertex
100
AcDb2dVertex
 10
85.678203201404
 20
266.7420338117086
 30
0.0
  0
SEQEND
  5
3AF
330
3AC
100
AcDbEntity
  8
Capa 1
370
     9
  0
ENDBLK
  5
3AB
330
3A8
100
AcDbEntity
  8
0
100
AcDbBlockEnd
  0
BLOCK
  5
3B2
330
3B0
100
AcDbEntity
  8
0
100
AcDbBlockBegin
  2
block 94
 70
     0
 71
     0
 10
0.0
 20
0.0
 30
0.0
  3
block 94
  1

  0
POLYLINE
  5
3B4
330
3B0
100
AcDbEntity
  8
Capa 1
 62
     7
420
 16777215
370
     9
100
AcDb2dPolyline
 66
     1
 10
0.0
 20
0.0
 30
0.0
  0
VERTEX
  5
3B5
330
3B4
100
AcDbEntity
  8
Capa 1
 62
     7
420
 16777215
370
     9
100
AcDbVertex
100
AcDb2dVertex
 10
118.3790711199764
 20
266.7420338117086
 30
0.0
  0
VERTEX
  5
3B6
330
3B4
100
AcDbEntity
  8
Capa 1
 62
     7
420
 16777215
370
     9
100
AcDbVertex
100
AcDb2dVertex
 10
118.3790711199764
 20
266.7420338117086
 30
0.0
  0
SEQEND
  5
3B7
330
3B4
100
AcDbEntity
  8
Capa 1
370
     9
  0
ENDBLK
  5
3B3
330
3B0
100
AcDbEntity
  8
0
100
AcDbBlockEnd
  0
BLOCK
  5
3BA
330
3B8
100
AcDbEntity
  8
0
100
AcDbBlockBegin
  2
block 95
 70
     0
 71
     0
 10
0.0
 20
0.0
 30
0.0
  3
block 95
  1

  0
POLYLINE
  5
3BC
330
3B8
100
AcDbEntity
  8
Capa 1
370
     0
100
AcDb2dPolyline
 66
     1
 10
0.0
 20
0.0
 30
0.0
  0
VERTEX
  5
3BD
330
3BC
100
AcDbEntity
  8
Capa 1
370
     0
100
AcDbVertex
100
AcDb2dVertex
 10
118.3790711199764
 20
276.1292361826026
 30
0.0
  0
VERTEX
  5
3BE
330
3BC
100
AcDbEntity
  8
Capa 1
370
     0
100
AcDbVertex
100
AcDb2dVertex
 10
118.3790711199764
 20
276.1292361826026
 30
0.0
  0
SEQEND
  5
3BF
330
3BC
100
AcDbEntity
  8
Capa 1
370
     0
  0
ENDBLK
  5
3BB
330
3B8
100
AcDbEntity
  8
0
100
AcDbBlockEnd
  0
BLOCK
  5
3C2
330
3C0
100
AcDbEntity
  8
0
100
AcDbBlockBegin
  2
block 96
 70
     0
 71
     0
 10
0.0
 20
0.0
 30
0.0
  3
block 96
  1

  0
INSERT
  5
3C5
330
3C0
100
AcDbEntity
  8
Capa 1
100
AcDbBlockReference
  2
block 97
 10
0.0
 20
0.0
 30
0.0
  0
ENDBLK
  5
3C3
330
3C0
100
AcDbEntity
  8
0
100
AcDbBlockEnd
  0
BLOCK
  5
3C6
330
3C4
100
AcDbEntity
  8
0
100
AcDbBlockBegin
  2
block 97
 70
     0
 71
     0
 10
0.0
 20
0.0
 30
0.0
  3
block 97
  1

  0
INSERT
  5
3C9
330
3C4
100
AcDbEntity
  8
Capa 1
100
AcDbBlockReference
  2
block 98
 10
0.0
 20
0.0
 30
0.0
  0
INSERT
  5
3D1
330
3C4
100
AcDbEntity
  8
Capa 1
100
AcDbBlockReference
  2
block 99
 10
0.0
 20
0.0
 30
0.0
  0
INSERT
  5
3D9
330
3C4
100
AcDbEntity
  8
Capa 1
100
AcDbBlockReference
  2
block 100
 10
0.0
 20
0.0
 30
0.0
  0
INSERT
  5
3E1
330
3C4
100
AcDbEntity
  8
Capa 1
100
AcDbBlockReference
  2
block 101
 10
0.0
 20
0.0
 30
0.0
  0
INSERT
  5
3E9
330
3C4
100
AcDbEntity
  8
Capa 1
100
AcDbBlockReference
  2
block 102
 10
0.0
 20
0.0
 30
0.0
  0
INSERT
  5
3F4
330
3C4
100
AcDbEntity
  8
Capa 1
100
AcDbBlockReference
  2
block 103
 10
0.0
 20
0.0
 30
0.0
  0
INSERT
  5
3FF
330
3C4
100
AcDbEntity
  8
Capa 1
100
AcDbBlockReference
  2
block 104
 10
0.0
 20
0.0
 30
0.0
  0
INSERT
  5
404
330
3C4
100
AcDbEntity
  8
Capa 1
100
AcDbBlockReference
  2
block 105
 10
0.0
 20
0.0
 30
0.0
  0
INSERT
  5
40C
330
3C4
100
AcDbEntity
  8
Capa 1
100
AcDbBlockReference
  2
block 106
 10
0.0
 20
0.0
 30
0.0
  0
INSERT
  5
414
330
3C4
100
AcDbEntity
  8
Capa 1
100
AcDbBlockReference
  2
block 107
 10
0.0
 20
0.0
 30
0.0
  0
ENDBLK
  5
3C7
330
3C4
100
AcDbEntity
  8
0
100
AcDbBlockEnd
  0
BLOCK
  5
3CA
330
3C8
100
AcDbEntity
  8
0
100
AcDbBlockBegin
  2
block 98
 70
     0
 71
     0
 10
0.0
 20
0.0
 30
0.0
  3
block 98
  1

  0
POLYLINE
  5
3CC
330
3C8
100
AcDbEntity
  8
Capa 1
 62
     7
420
 16777215
370
     9
100
AcDb2dPolyline
 66
     1
 10
0.0
 20
0.0
 30
0.0
  0
VERTEX
  5
3CD
330
3CC
100
AcDbEntity
  8
Capa 1
 62
     7
420
 16777215
370
     9
100
AcDbVertex
100
AcDb2dVertex
 10
189.720155491847
 20
138.7358092619962
 30
0.0
  0
VERTEX
  5
3CE
330
3CC
100
AcDbEntity
  8
Capa 1
 62
     7
420
 16777215
370
     9
100
AcDbVertex
100
AcDb2dVertex
 10
200.5212259826085
 20
138.7358092619962
 30
0.0
  0
SEQEND
  5
3CF
330
3CC
100
AcDbEntity
  8
Capa 1
370
     9
  0
ENDBLK
  5
3CB
330
3C8
100
AcDbEntity
  8
0
100
AcDbBlockEnd
  0
BLOCK
  5
3D2
330
3D0
100
AcDbEntity
  8
0
100
AcDbBlockBegin
  2
block 99
 70
     0
 71
     0
 10
0.0
 20
0.0
 30
0.0
  3
block 99
  1

  0
POLYLINE
  5
3D4
330
3D0
100
AcDbEntity
  8
Capa 1
 62
     7
420
 16777215
370
     9
100
AcDb2dPolyline
 66
     1
 10
0.0
 20
0.0
 30
0.0
  0
VERTEX
  5
3D5
330
3D4
100
AcDbEntity
  8
Capa 1
 62
     7
420
 16777215
370
     9
100
AcDbVertex
100
AcDb2dVertex
 10
162.1538612717408
 20
114.206713225309
 30
0.0
  0
VERTEX
  5
3D6
330
3D4
100
AcDbEntity
  8
Capa 1
 62
     7
420
 16777215
370
     9
100
AcDbVertex
100
AcDb2dVertex
 10
200.5212259826085
 20
114.206713225309
 30
0.0
  0
SEQEND
  5
3D7
330
3D4
100
AcDbEntity
  8
Capa 1
370
     9
  0
ENDBLK
  5
3D3
330
3D0
100
AcDbEntity
  8
0
100
AcDbBlockEnd
  0
BLOCK
  5
3DA
330
3D8
100
AcDbEntity
  8
0
100
AcDbBlockBegin
  2
block 100
 70
     0
 71
     0
 10
0.0
 20
0.0
 30
0.0
  3
block 100
  1

  0
POLYLINE
  5
3DC
330
3D8
100
AcDbEntity
  8
Capa 1
 62
     7
420
 16777215
370
     9
100
AcDb2dPolyline
 66
     1
 10
0.0
 20
0.0
 30
0.0
  0
VERTEX
  5
3DD
330
3DC
100
AcDbEntity
  8
Capa 1
 62
     7
420
 16777215
370
     9
100
AcDbVertex
100
AcDb2dVertex
 10
198.1840716636073
 20
135.2300777834944
 30
0.0
  0
VERTEX
  5
3DE
330
3DC
100
AcDbEntity
  8
Capa 1
 62
     7
420
 16777215
370
     9
100
AcDbVertex
100
AcDb2dVertex
 10
198.1840716636073
 20
131.6251274895633
 30
0.0
  0
SEQEND
  5
3DF
330
3DC
100
AcDbEntity
  8
Capa 1
370
     9
  0
ENDBLK
  5
3DB
330
3D8
100
AcDbEntity
  8
0
100
AcDbBlockEnd
  0
BLOCK
  5
3E2
330
3E0
100
AcDbEntity
  8
0
100
AcDbBlockBegin
  2
block 101
 70
     0
 71
     0
 10
0.0
 20
0.0
 30
0.0
  3
block 101
  1

  0
POLYLINE
  5
3E4
330
3E0
100
AcDbEntity
  8
Capa 1
 62
     7
420
 16777215
370
     9
100
AcDb2dPolyline
 66
     1
 10
0.0
 20
0.0
 30
0.0
  0
VERTEX
  5
3E5
330
3E4
100
AcDbEntity
  8
Capa 1
 62
     7
420
 16777215
370
     9
100
AcDbVertex
100
AcDb2dVertex
 10
198.1840716636073
 20
117.7096886256044
 30
0.0
  0
VERTEX
  5
3E6
330
3E4
100
AcDbEntity
  8
Capa 1
 62
     7
420
 16777215
370
     9
100
AcDbVertex
100
AcDb2dVertex
 10
198.1840716636073
 20
121.3146389195355
 30
0.0
  0
SEQEND
  5
3E7
330
3E4
100
AcDbEntity
  8
Capa 1
370
     9
  0
ENDBLK
  5
3E3
330
3E0
100
AcDbEntity
  8
0
100
AcDbBlockEnd
  0
BLOCK
  5
3EA
330
3E8
100
AcDbEntity
  8
0
100
AcDbBlockBegin
  2
block 102
 70
     0
 71
     0
 10
0.0
 20
0.0
 30
0.0
  3
block 102
  1

  0
POLYLINE
  5
3EC
330
3E8
100
AcDbEntity
  8
Capa 1
370
     0
100
AcDb2dPolyline
 66
     1
 10
0.0
 20
0.0
 30
0.0
  0
VERTEX
  5
3ED
330
3EC
100
AcDbEntity
  8
Capa 1
370
     0
100
AcDbVertex
100
AcDb2dVertex
 10
197.599783083857
 20
135.2300777834944
 30
0.0
  0
VERTEX
  5
3EE
330
3EC
100
AcDbEntity
  8
Capa 1
370
     0
100
AcDbVertex
100
AcDb2dVertex
 10
198.7656041651512
 20
135.2300777834944
 30
0.0
  0
VERTEX
  5
3EF
330
3EC
100
AcDbEntity
  8
Capa 1
370
     0
100
AcDbVertex
100
AcDb2dVertex
 10
198.1840716636073
 20
138.7358092619962
 30
0.0
  0
VERTEX
  5
3F0
330
3EC
100
AcDbEntity
  8
Capa 1
370
     0
100
AcDbVertex
100
AcDb2dVertex
 10
197.599783083857
 20
135.2300777834944
 30
0.0
  0
SEQEND
  5
3F1
330
3EC
100
AcDbEntity
  8
Capa 1
370
     0
  0
HATCH
  5
3F2
330
3E8
100
AcDbEntity
  8
Capa 1
 62
     7
420
 16777215
100
AcDbHatch
 10
0.0
 20
0.0
 30
0.0
210
0.0
220
0.0
230
1.0
  2
SOLID
 70
     1
 71
     0
 91
        1
 92
        1
 93
        3
 72
     1
 10
197.599783083857
 20
135.2300777834944
 11
198.7656041651512
 21
135.2300777834944
 72
     1
 10
198.7656041651512
 20
135.2300777834944
 11
198.1840716636073
 21
138.7358092619962
 72
     1
 10
198.1840716636073
 20
138.7358092619962
 11
197.599783083857
 21
135.2300777834944
 97
        0
 75
     2
 76
     1
 98
        0
  0
ENDBLK
  5
3EB
330
3E8
100
AcDbEntity
  8
0
100
AcDbBlockEnd
  0
BLOCK
  5
3F5
330
3F3
100
AcDbEntity
  8
0
100
AcDbBlockBegin
  2
block 103
 70
     0
 71
     0
 10
0.0
 20
0.0
 30
0.0
  3
block 103
  1

  0
POLYLINE
  5
3F7
330
3F3
100
AcDbEntity
  8
Capa 1
370
     0
100
AcDb2dPolyline
 66
     1
 10
0.0
 20
0.0
 30
0.0
  0
VERTEX
  5
3F8
330
3F7
100
AcDbEntity
  8
Capa 1
370
     0
100
AcDbVertex
100
AcDb2dVertex
 10
197.599783083857
 20
117.7096886256044
 30
0.0
  0
VERTEX
  5
3F9
330
3F7
100
AcDbEntity
  8
Capa 1
370
     0
100
AcDbVertex
100
AcDb2dVertex
 10
198.7656041651512
 20
117.7096886256044
 30
0.0
  0
VERTEX
  5
3FA
330
3F7
100
AcDbEntity
  8
Capa 1
370
     0
100
AcDbVertex
100
AcDb2dVertex
 10
198.1840716636073
 20
114.206713225309
 30
0.0
  0
VERTEX
  5
3FB
330
3F7
100
AcDbEntity
  8
Capa 1
370
     0
100
AcDbVertex
100
AcDb2dVertex
 10
197.599783083857
 20
117.7096886256044
 30
0.0
  0
SEQEND
  5
3FC
330
3F7
100
AcDbEntity
  8
Capa 1
370
     0
  0
HATCH
  5
3FD
330
3F3
100
AcDbEntity
  8
Capa 1
 62
     7
420
 16777215
100
AcDbHatch
 10
0.0
 20
0.0
 30
0.0
210
0.0
220
0.0
230
1.0
  2
SOLID
 70
     1
 71
     0
 91
        1
 92
        1
 93
        3
 72
     1
 10
197.599783083857
 20
117.7096886256044
 11
198.7656041651512
 21
117.7096886256044
 72
     1
 10
198.7656041651512
 20
117.7096886256044
 11
198.1840716636073
 21
114.206713225309
 72
     1
 10
198.1840716636073
 20
114.206713225309
 11
197.599783083857
 21
117.7096886256044
 97
        0
 75
     2
 76
     1
 98
        0
  0
ENDBLK
  5
3F6
330
3F3
100
AcDbEntity
  8
0
100
AcDbBlockEnd
  0
BLOCK
  5
400
330
3FE
100
AcDbEntity
  8
0
100
AcDbBlockBegin
  2
block 104
 70
     0
 71
     0
 10
0.0
 20
0.0
 30
0.0
  3
block 104
  1

  0
MTEXT
  5
402
330
3FE
100
AcDbEntity
  8
Capa 1
 62
     7
420
 16777215
100
AcDbMText
 10
199.644793112983
 20
122.2985588392094
 30
0.0
 40
2.920234194277579
 41
0.0
 71
     7
 72
     1
  1
\fArial|b1|i0|c0|p34;\W1;210
 11
-4.371139000186241E-8
 21
0.999999999999999
 31
0.0
 73
     1
 44
1.0
  0
ENDBLK
  5
401
330
3FE
100
AcDbEntity
  8
0
100
AcDbBlockEnd
  0
BLOCK
  5
405
330
403
100
AcDbEntity
  8
0
100
AcDbBlockBegin
  2
block 105
 70
     0
 71
     0
 10
0.0
 20
0.0
 30
0.0
  3
block 105
  1

  0
POLYLINE
  5
407
330
403
100
AcDbEntity
  8
Capa 1
 62
     7
420
 16777215
370
     9
100
AcDb2dPolyline
 66
     1
 10
0.0
 20
0.0
 30
0.0
  0
VERTEX
  5
408
330
407
100
AcDbEntity
  8
Capa 1
 62
     7
420
 16777215
370
     9
100
AcDbVertex
100
AcDb2dVertex
 10
189.720155491847
 20
138.7358092619962
 30
0.0
  0
VERTEX
  5
409
330
407
100
AcDbEntity
  8
Capa 1
 62
     7
420
 16777215
370
     9
100
AcDbVertex
100
AcDb2dVertex
 10
189.720155491847
 20
138.7358092619962
 30
0.0
  0
SEQEND
  5
40A
330
407
100
AcDbEntity
  8
Capa 1
370
     9
  0
ENDBLK
  5
406
330
403
100
AcDbEntity
  8
0
100
AcDbBlockEnd
  0
BLOCK
  5
40D
330
40B
100
AcDbEntity
  8
0
100
AcDbBlockBegin
  2
block 106
 70
     0
 71
     0
 10
0.0
 20
0.0
 30
0.0
  3
block 106
  1

  0
POLYLINE
  5
40F
330
40B
100
AcDbEntity
  8
Capa 1
 62
     7
420
 16777215
370
     9
100
AcDb2dPolyline
 66
     1
 10
0.0
 20
0.0
 30
0.0
  0
VERTEX
  5
410
330
40F
100
AcDbEntity
  8
Capa 1
 62
     7
420
 16777215
370
     9
100
AcDbVertex
100
AcDb2dVertex
 10
162.1538612717408
 20
114.206713225309
 30
0.0
  0
VERTEX
  5
411
330
40F
100
AcDbEntity
  8
Capa 1
 62
     7
420
 16777215
370
     9
100
AcDbVertex
100
AcDb2dVertex
 10
162.1538612717408
 20
114.206713225309
 30
0.0
  0
SEQEND
  5
412
330
40F
100
AcDbEntity
  8
Capa 1
370
     9
  0
ENDBLK
  5
40E
330
40B
100
AcDbEntity
  8
0
100
AcDbBlockEnd
  0
BLOCK
  5
415
330
413
100
AcDbEntity
  8
0
100
AcDbBlockBegin
  2
block 107
 70
     0
 71
     0
 10
0.0
 20
0.0
 30
0.0
  3
block 107
  1

  0
POLYLINE
  5
417
330
413
100
AcDbEntity
  8
Capa 1
370
     0
100
AcDb2dPolyline
 66
     1
 10
0.0
 20
0.0
 30
0.0
  0
VERTEX
  5
418
330
417
100
AcDbEntity
  8
Capa 1
370
     0
100
AcDbVertex
100
AcDb2dVertex
 10
198.1840716636073
 20
114.206713225309
 30
0.0
  0
VERTEX
  5
419
330
417
100
AcDbEntity
  8
Capa 1
370
     0
100
AcDbVertex
100
AcDb2dVertex
 10
198.1840716636073
 20
114.206713225309
 30
0.0
  0
SEQEND
  5
41A
330
417
100
AcDbEntity
  8
Capa 1
370
     0
  0
ENDBLK
  5
416
330
413
100
AcDbEntity
  8
0
100
AcDbBlockEnd
  0
BLOCK
  5
41D
330
41B
100
AcDbEntity
  8
0
100
AcDbBlockBegin
  2
block 108
 70
     0
 71
     0
 10
0.0
 20
0.0
 30
0.0
  3
block 108
  1

  0
INSERT
  5
420
330
41B
100
AcDbEntity
  8
Capa 1
100
AcDbBlockReference
  2
block 109
 10
0.0
 20
0.0
 30
0.0
  0
ENDBLK
  5
41E
330
41B
100
AcDbEntity
  8
0
100
AcDbBlockEnd
  0
BLOCK
  5
421
330
41F
100
AcDbEntity
  8
0
100
AcDbBlockBegin
  2
block 109
 70
     0
 71
     0
 10
0.0
 20
0.0
 30
0.0
  3
block 109
  1

  0
INSERT
  5
424
330
41F
100
AcDbEntity
  8
Capa 1
100
AcDbBlockReference
  2
block 110
 10
0.0
 20
0.0
 30
0.0
  0
INSERT
  5
42C
330
41F
100
AcDbEntity
  8
Capa 1
100
AcDbBlockReference
  2
block 111
 10
0.0
 20
0.0
 30
0.0
  0
INSERT
  5
434
330
41F
100
AcDbEntity
  8
Capa 1
100
AcDbBlockReference
  2
block 112
 10
0.0
 20
0.0
 30
0.0
  0
INSERT
  5
43C
330
41F
100
AcDbEntity
  8
Capa 1
100
AcDbBlockReference
  2
block 113
 10
0.0
 20
0.0
 30
0.0
  0
INSERT
  5
444
330
41F
100
AcDbEntity
  8
Capa 1
100
AcDbBlockReference
  2
block 114
 10
0.0
 20
0.0
 30
0.0
  0
INSERT
  5
44F
330
41F
100
AcDbEntity
  8
Capa 1
100
AcDbBlockReference
  2
block 115
 10
0.0
 20
0.0
 30
0.0
  0
INSERT
  5
45A
330
41F
100
AcDbEntity
  8
Capa 1
100
AcDbBlockReference
  2
block 116
 10
0.0
 20
0.0
 30
0.0
  0
INSERT
  5
45F
330
41F
100
AcDbEntity
  8
Capa 1
100
AcDbBlockReference
  2
block 117
 10
0.0
 20
0.0
 30
0.0
  0
INSERT
  5
467
330
41F
100
AcDbEntity
  8
Capa 1
100
AcDbBlockReference
  2
block 118
 10
0.0
 20
0.0
 30
0.0
  0
INSERT
  5
46F
330
41F
100
AcDbEntity
  8
Capa 1
100
AcDbBlockReference
  2
block 119
 10
0.0
 20
0.0
 30
0.0
  0
ENDBLK
  5
422
330
41F
100
AcDbEntity
  8
0
100
AcDbBlockEnd
  0
BLOCK
  5
425
330
423
100
AcDbEntity
  8
0
100
AcDbBlockBegin
  2
block 110
 70
     0
 71
     0
 10
0.0
 20
0.0
 30
0.0
  3
block 110
  1

  0
POLYLINE
  5
427
330
423
100
AcDbEntity
  8
Capa 1
 62
     7
420
 16777215
370
     9
100
AcDb2dPolyline
 66
     1
 10
0.0
 20
0.0
 30
0.0
  0
VERTEX
  5
428
330
427
100
AcDbEntity
  8
Capa 1
 62
     7
420
 16777215
370
     9
100
AcDbVertex
100
AcDb2dVertex
 10
120.5673972158336
 20
138.7358092619962
 30
0.0
  0
VERTEX
  5
429
330
427
100
AcDbEntity
  8
Capa 1
 62
     7
420
 16777215
370
     9
100
AcDbVertex
100
AcDb2dVertex
 10
109.7663267250721
 20
138.7358092619962
 30
0.0
  0
SEQEND
  5
42A
330
427
100
AcDbEntity
  8
Capa 1
370
     9
  0
ENDBLK
  5
426
330
423
100
AcDbEntity
  8
0
100
AcDbBlockEnd
  0
BLOCK
  5
42D
330
42B
100
AcDbEntity
  8
0
100
AcDbBlockBegin
  2
block 111
 70
     0
 71
     0
 10
0.0
 20
0.0
 30
0.0
  3
block 111
  1

  0
POLYLINE
  5
42F
330
42B
100
AcDbEntity
  8
Capa 1
 62
     7
420
 16777215
370
     9
100
AcDb2dPolyline
 66
     1
 10
0.0
 20
0.0
 30
0.0
  0
VERTEX
  5
430
330
42F
100
AcDbEntity
  8
Capa 1
 62
     7
420
 16777215
370
     9
100
AcDbVertex
100
AcDb2dVertex
 10
155.1423983147371
 20
86.17188571011992
 30
0.0
  0
VERTEX
  5
431
330
42F
100
AcDbEntity
  8
Capa 1
 62
     7
420
 16777215
370
     9
100
AcDbVertex
100
AcDb2dVertex
 10
109.7663267250721
 20
86.17188571011992
 30
0.0
  0
SEQEND
  5
432
330
42F
100
AcDbEntity
  8
Capa 1
370
     9
  0
ENDBLK
  5
42E
330
42B
100
AcDbEntity
  8
0
100
AcDbBlockEnd
  0
BLOCK
  5
435
330
433
100
AcDbEntity
  8
0
100
AcDbBlockBegin
  2
block 112
 70
     0
 71
     0
 10
0.0
 20
0.0
 30
0.0
  3
block 112
  1

  0
POLYLINE
  5
437
330
433
100
AcDbEntity
  8
Capa 1
 62
     7
420
 16777215
370
     9
100
AcDb2dPolyline
 66
     1
 10
0.0
 20
0.0
 30
0.0
  0
VERTEX
  5
438
330
437
100
AcDbEntity
  8
Capa 1
 62
     7
420
 16777215
370
     9
100
AcDbVertex
100
AcDb2dVertex
 10
112.1034810440733
 20
135.2300777834944
 30
0.0
  0
VERTEX
  5
439
330
437
100
AcDbEntity
  8
Capa 1
 62
     7
420
 16777215
370
     9
100
AcDbVertex
100
AcDb2dVertex
 10
112.1034810440733
 20
117.6077137319687
 30
0.0
  0
SEQEND
  5
43A
330
437
100
AcDbEntity
  8
Capa 1
370
     9
  0
ENDBLK
  5
436
330
433
100
AcDbEntity
  8
0
100
AcDbBlockEnd
  0
BLOCK
  5
43D
330
43B
100
AcDbEntity
  8
0
100
AcDbBlockBegin
  2
block 113
 70
     0
 71
     0
 10
0.0
 20
0.0
 30
0.0
  3
block 113
  1

  0
POLYLINE
  5
43F
330
43B
100
AcDbEntity
  8
Capa 1
 62
     7
420
 16777215
370
     9
100
AcDb2dPolyline
 66
     1
 10
0.0
 20
0.0
 30
0.0
  0
VERTEX
  5
440
330
43F
100
AcDbEntity
  8
Capa 1
 62
     7
420
 16777215
370
     9
100
AcDbVertex
100
AcDb2dVertex
 10
112.1034810440733
 20
89.67761718862174
 30
0.0
  0
VERTEX
  5
441
330
43F
100
AcDbEntity
  8
Capa 1
 62
     7
420
 16777215
370
     9
100
AcDbVertex
100
AcDb2dVertex
 10
112.1034810440733
 20
107.297225161941
 30
0.0
  0
SEQEND
  5
442
330
43F
100
AcDbEntity
  8
Capa 1
370
     9
  0
ENDBLK
  5
43E
330
43B
100
AcDbEntity
  8
0
100
AcDbBlockEnd
  0
BLOCK
  5
445
330
443
100
AcDbEntity
  8
0
100
AcDbBlockBegin
  2
block 114
 70
     0
 71
     0
 10
0.0
 20
0.0
 30
0.0
  3
block 114
  1

  0
POLYLINE
  5
447
330
443
100
AcDbEntity
  8
Capa 1
370
     0
100
AcDb2dPolyline
 66
     1
 10
0.0
 20
0.0
 30
0.0
  0
VERTEX
  5
448
330
447
100
AcDbEntity
  8
Capa 1
370
     0
100
AcDbVertex
100
AcDb2dVertex
 10
111.519192464323
 20
135.2300777834944
 30
0.0
  0
VERTEX
  5
449
330
447
100
AcDbEntity
  8
Capa 1
370
     0
100
AcDbVertex
100
AcDb2dVertex
 10
112.6877696238236
 20
135.2300777834944
 30
0.0
  0
VERTEX
  5
44A
330
447
100
AcDbEntity
  8
Capa 1
370
     0
100
AcDbVertex
100
AcDb2dVertex
 10
112.1034810440733
 20
138.7358092619962
 30
0.0
  0
VERTEX
  5
44B
330
447
100
AcDbEntity
  8
Capa 1
370
     0
100
AcDbVertex
100
AcDb2dVertex
 10
111.519192464323
 20
135.2300777834944
 30
0.0
  0
SEQEND
  5
44C
330
447
100
AcDbEntity
  8
Capa 1
370
     0
  0
HATCH
  5
44D
330
443
100
AcDbEntity
  8
Capa 1
 62
     7
420
 16777215
100
AcDbHatch
 10
0.0
 20
0.0
 30
0.0
210
0.0
220
0.0
230
1.0
  2
SOLID
 70
     1
 71
     0
 91
        1
 92
        1
 93
        3
 72
     1
 10
111.519192464323
 20
135.2300777834944
 11
112.6877696238236
 21
135.2300777834944
 72
     1
 10
112.6877696238236
 20
135.2300777834944
 11
112.1034810440733
 21
138.7358092619962
 72
     1
 10
112.1034810440733
 20
138.7358092619962
 11
111.519192464323
 21
135.2300777834944
 97
        0
 75
     2
 76
     1
 98
        0
  0
ENDBLK
  5
446
330
443
100
AcDbEntity
  8
0
100
AcDbBlockEnd
  0
BLOCK
  5
450
330
44E
100
AcDbEntity
  8
0
100
AcDbBlockBegin
  2
block 115
 70
     0
 71
     0
 10
0.0
 20
0.0
 30
0.0
  3
block 115
  1

  0
POLYLINE
  5
452
330
44E
100
AcDbEntity
  8
Capa 1
370
     0
100
AcDb2dPolyline
 66
     1
 10
0.0
 20
0.0
 30
0.0
  0
VERTEX
  5
453
330
452
100
AcDbEntity
  8
Capa 1
370
     0
100
AcDbVertex
100
AcDb2dVertex
 10
111.519192464323
 20
89.67761718862174
 30
0.0
  0
VERTEX
  5
454
330
452
100
AcDbEntity
  8
Capa 1
370
     0
100
AcDbVertex
100
AcDb2dVertex
 10
112.6877696238236
 20
89.67761718862174
 30
0.0
  0
VERTEX
  5
455
330
452
100
AcDbEntity
  8
Capa 1
370
     0
100
AcDbVertex
100
AcDb2dVertex
 10
112.1034810440733
 20
86.17188571011992
 30
0.0
  0
VERTEX
  5
456
330
452
100
AcDbEntity
  8
Capa 1
370
     0
100
AcDbVertex
100
AcDb2dVertex
 10
111.519192464323
 20
89.67761718862174
 30
0.0
  0
SEQEND
  5
457
330
452
100
AcDbEntity
  8
Capa 1
370
     0
  0
HATCH
  5
458
330
44E
100
AcDbEntity
  8
Capa 1
 62
     7
420
 16777215
100
AcDbHatch
 10
0.0
 20
0.0
 30
0.0
210
0.0
220
0.0
230
1.0
  2
SOLID
 70
     1
 71
     0
 91
        1
 92
        1
 93
        3
 72
     1
 10
111.519192464323
 20
89.67761718862174
 11
112.6877696238236
 21
89.67761718862174
 72
     1
 10
112.6877696238236
 20
89.67761718862174
 11
112.1034810440733
 21
86.17188571011992
 72
     1
 10
112.1034810440733
 20
86.17188571011992
 11
111.519192464323
 21
89.67761718862174
 97
        0
 75
     2
 76
     1
 98
        0
  0
ENDBLK
  5
451
330
44E
100
AcDbEntity
  8
0
100
AcDbBlockEnd
  0
BLOCK
  5
45B
330
459
100
AcDbEntity
  8
0
100
AcDbBlockBegin
  2
block 116
 70
     0
 71
     0
 10
0.0
 20
0.0
 30
0.0
  3
block 116
  1

  0
MTEXT
  5
45D
330
459
100
AcDbEntity
  8
Capa 1
 62
     7
420
 16777215
100
AcDbMText
 10
113.3289023165803
 20
108.2811450816149
 30
0.0
 40
2.920234194277579
 41
0.0
 71
     7
 72
     1
  1
\fArial|b1|i0|c0|p34;\W1;450
 11
-4.371139000186241E-8
 21
0.999999999999999
 31
0.0
 73
     1
 44
1.0
  0
ENDBLK
  5
45C
330
459
100
AcDbEntity
  8
0
100
AcDbBlockEnd
  0
BLOCK
  5
460
330
45E
100
AcDbEntity
  8
0
100
AcDbBlockBegin
  2
block 117
 70
     0
 71
     0
 10
0.0
 20
0.0
 30
0.0
  3
block 117
  1

  0
POLYLINE
  5
462
330
45E
100
AcDbEntity
  8
Capa 1
 62
     7
420
 16777215
370
     9
100
AcDb2dPolyline
 66
     1
 10
0.0
 20
0.0
 30
0.0
  0
VERTEX
  5
463
330
462
100
AcDbEntity
  8
Capa 1
 62
     7
420
 16777215
370
     9
100
AcDbVertex
100
AcDb2dVertex
 10
120.5673972158336
 20
138.7358092619962
 30
0.0
  0
VERTEX
  5
464
330
462
100
AcDbEntity
  8
Capa 1
 62
     7
420
 16777215
370
     9
100
AcDbVertex
100
AcDb2dVertex
 10
120.5673972158336
 20
138.7358092619962
 30
0.0
  0
SEQEND
  5
465
330
462
100
AcDbEntity
  8
Capa 1
370
     9
  0
ENDBLK
  5
461
330
45E
100
AcDbEntity
  8
0
100
AcDbBlockEnd
  0
BLOCK
  5
468
330
466
100
AcDbEntity
  8
0
100
AcDbBlockBegin
  2
block 118
 70
     0
 71
     0
 10
0.0
 20
0.0
 30
0.0
  3
block 118
  1

  0
POLYLINE
  5
46A
330
466
100
AcDbEntity
  8
Capa 1
 62
     7
420
 16777215
370
     9
100
AcDb2dPolyline
 66
     1
 10
0.0
 20
0.0
 30
0.0
  0
VERTEX
  5
46B
330
46A
100
AcDbEntity
  8
Capa 1
 62
     7
420
 16777215
370
     9
100
AcDbVertex
100
AcDb2dVertex
 10
155.1423983147371
 20
86.17188571011992
 30
0.0
  0
VERTEX
  5
46C
330
46A
100
AcDbEntity
  8
Capa 1
 62
     7
420
 16777215
370
     9
100
AcDbVertex
100
AcDb2dVertex
 10
155.1423983147371
 20
86.17188571011992
 30
0.0
  0
SEQEND
  5
46D
330
46A
100
AcDbEntity
  8
Capa 1
370
     9
  0
ENDBLK
  5
469
330
466
100
AcDbEntity
  8
0
100
AcDbBlockEnd
  0
BLOCK
  5
470
330
46E
100
AcDbEntity
  8
0
100
AcDbBlockBegin
  2
block 119
 70
     0
 71
     0
 10
0.0
 20
0.0
 30
0.0
  3
block 119
  1

  0
POLYLINE
  5
472
330
46E
100
AcDbEntity
  8
Capa 1
370
     0
100
AcDb2dPolyline
 66
     1
 10
0.0
 20
0.0
 30
0.0
  0
VERTEX
  5
473
330
472
100
AcDbEntity
  8
Capa 1
370
     0
100
AcDbVertex
100
AcDb2dVertex
 10
112.1034810440733
 20
86.17188571011992
 30
0.0
  0
VERTEX
  5
474
330
472
100
AcDbEntity
  8
Capa 1
370
     0
100
AcDbVertex
100
AcDb2dVertex
 10
112.1034810440733
 20
86.17188571011992
 30
0.0
  0
SEQEND
  5
475
330
472
100
AcDbEntity
  8
Capa 1
370
     0
  0
ENDBLK
  5
471
330
46E
100
AcDbEntity
  8
0
100
AcDbBlockEnd
  0
BLOCK
  5
478
330
476
100
AcDbEntity
  8
0
100
AcDbBlockBegin
  2
block 120
 70
     0
 71
     0
 10
0.0
 20
0.0
 30
0.0
  3
block 120
  1

  0
INSERT
  5
47B
330
476
100
AcDbEntity
  8
Capa 1
100
AcDbBlockReference
  2
block 121
 10
0.0
 20
0.0
 30
0.0
  0
ENDBLK
  5
479
330
476
100
AcDbEntity
  8
0
100
AcDbBlockEnd
  0
BLOCK
  5
47C
330
47A
100
AcDbEntity
  8
0
100
AcDbBlockBegin
  2
block 121
 70
     0
 71
     0
 10
0.0
 20
0.0
 30
0.0
  3
block 121
  1

  0
INSERT
  5
47F
330
47A
100
AcDbEntity
  8
Capa 1
100
AcDbBlockReference
  2
block 122
 10
0.0
 20
0.0
 30
0.0
  0
INSERT
  5
487
330
47A
100
AcDbEntity
  8
Capa 1
100
AcDbBlockReference
  2
block 123
 10
0.0
 20
0.0
 30
0.0
  0
INSERT
  5
48F
330
47A
100
AcDbEntity
  8
Capa 1
100
AcDbBlockReference
  2
block 124
 10
0.0
 20
0.0
 30
0.0
  0
INSERT
  5
497
330
47A
100
AcDbEntity
  8
Capa 1
100
AcDbBlockReference
  2
block 125
 10
0.0
 20
0.0
 30
0.0
  0
INSERT
  5
49F
330
47A
100
AcDbEntity
  8
Capa 1
100
AcDbBlockReference
  2
block 126
 10
0.0
 20
0.0
 30
0.0
  0
INSERT
  5
4AA
330
47A
100
AcDbEntity
  8
Capa 1
100
AcDbBlockReference
  2
block 127
 10
0.0
 20
0.0
 30
0.0
  0
INSERT
  5
4B5
330
47A
100
AcDbEntity
  8
Capa 1
100
AcDbBlockReference
  2
block 128
 10
0.0
 20
0.0
 30
0.0
  0
INSERT
  5
4BA
330
47A
100
AcDbEntity
  8
Capa 1
100
AcDbBlockReference
  2
block 129
 10
0.0
 20
0.0
 30
0.0
  0
INSERT
  5
4C2
330
47A
100
AcDbEntity
  8
Capa 1
100
AcDbBlockReference
  2
block 130
 10
0.0
 20
0.0
 30
0.0
  0
INSERT
  5
4CA
330
47A
100
AcDbEntity
  8
Capa 1
100
AcDbBlockReference
  2
block 131
 10
0.0
 20
0.0
 30
0.0
  0
ENDBLK
  5
47D
330
47A
100
AcDbEntity
  8
0
100
AcDbBlockEnd
  0
BLOCK
  5
480
330
47E
100
AcDbEntity
  8
0
100
AcDbBlockBegin
  2
block 122
 70
     0
 71
     0
 10
0.0
 20
0.0
 30
0.0
  3
block 122
  1

  0
POLYLINE
  5
482
330
47E
100
AcDbEntity
  8
Capa 1
 62
     7
420
 16777215
370
     9
100
AcDb2dPolyline
 66
     1
 10
0.0
 20
0.0
 30
0.0
  0
VERTEX
  5
483
330
482
100
AcDbEntity
  8
Capa 1
 62
     7
420
 16777215
370
     9
100
AcDbVertex
100
AcDb2dVertex
 10
120.1016199989572
 20
138.2672759669134
 30
0.0
  0
VERTEX
  5
484
330
482
100
AcDbEntity
  8
Capa 1
 62
     7
420
 16777215
370
     9
100
AcDbVertex
100
AcDb2dVertex
 10
120.1016199989572
 20
149.0712747907691
 30
0.0
  0
SEQEND
  5
485
330
482
100
AcDbEntity
  8
Capa 1
370
     9
  0
ENDBLK
  5
481
330
47E
100
AcDbEntity
  8
0
100
AcDbBlockEnd
  0
BLOCK
  5
488
330
486
100
AcDbEntity
  8
0
100
AcDbBlockBegin
  2
block 123
 70
     0
 71
     0
 10
0.0
 20
0.0
 30
0.0
  3
block 123
  1

  0
POLYLINE
  5
48A
330
486
100
AcDbEntity
  8
Capa 1
 62
     7
420
 16777215
370
     9
100
AcDb2dPolyline
 66
     1
 10
0.0
 20
0.0
 30
0.0
  0
VERTEX
  5
48B
330
48A
100
AcDbEntity
  8
Capa 1
 62
     7
420
 16777215
370
     9
100
AcDbVertex
100
AcDb2dVertex
 10
190.1859327087234
 20
138.2672759669134
 30
0.0
  0
VERTEX
  5
48C
330
48A
100
AcDbEntity
  8
Capa 1
 62
     7
420
 16777215
370
     9
100
AcDbVertex
100
AcDb2dVertex
 10
190.1859327087234
 20
149.0712747907691
 30
0.0
  0
SEQEND
  5
48D
330
48A
100
AcDbEntity
  8
Capa 1
370
     9
  0
ENDBLK
  5
489
330
486
100
AcDbEntity
  8
0
100
AcDbBlockEnd
  0
BLOCK
  5
490
330
48E
100
AcDbEntity
  8
0
100
AcDbBlockBegin
  2
block 124
 70
     0
 71
     0
 10
0.0
 20
0.0
 30
0.0
  3
block 124
  1

  0
POLYLINE
  5
492
330
48E
100
AcDbEntity
  8
Capa 1
 62
     7
420
 16777215
370
     9
100
AcDb2dPolyline
 66
     1
 10
0.0
 20
0.0
 30
0.0
  0
VERTEX
  5
493
330
492
100
AcDbEntity
  8
Capa 1
 62
     7
420
 16777215
370
     9
100
AcDbVertex
100
AcDb2dVertex
 10
123.6045953992526
 20
146.7311921386737
 30
0.0
  0
VERTEX
  5
494
330
492
100
AcDbEntity
  8
Capa 1
 62
     7
420
 16777215
370
     9
100
AcDbVertex
100
AcDb2dVertex
 10
142.6739005091222
 20
146.7311921386737
 30
0.0
  0
SEQEND
  5
495
330
492
100
AcDbEntity
  8
Capa 1
370
     9
  0
ENDBLK
  5
491
330
48E
100
AcDbEntity
  8
0
100
AcDbBlockEnd
  0
BLOCK
  5
498
330
496
100
AcDbEntity
  8
0
100
AcDbBlockBegin
  2
block 125
 70
     0
 71
     0
 10
0.0
 20
0.0
 30
0.0
  3
block 125
  1

  0
POLYLINE
  5
49A
330
496
100
AcDbEntity
  8
Capa 1
 62
     7
420
 16777215
370
     9
100
AcDb2dPolyline
 66
     1
 10
0.0
 20
0.0
 30
0.0
  0
VERTEX
  5
49B
330
49A
100
AcDbEntity
  8
Capa 1
 62
     7
420
 16777215
370
     9
100
AcDbVertex
100
AcDb2dVertex
 10
186.682957308428
 20
146.7311921386737
 30
0.0
  0
VERTEX
  5
49C
330
49A
100
AcDbEntity
  8
Capa 1
 62
     7
420
 16777215
370
     9
100
AcDbVertex
100
AcDb2dVertex
 10
167.4510435843826
 20
146.7311921386737
 30
0.0
  0
SEQEND
  5
49D
330
49A
100
AcDbEntity
  8
Capa 1
370
     9
  0
ENDBLK
  5
499
330
496
100
AcDbEntity
  8
0
100
AcDbBlockEnd
  0
BLOCK
  5
4A0
330
49E
100
AcDbEntity
  8
0
100
AcDbBlockBegin
  2
block 126
 70
     0
 71
     0
 10
0.0
 20
0.0
 30
0.0
  3
block 126
  1

  0
POLYLINE
  5
4A2
330
49E
100
AcDbEntity
  8
Capa 1
370
     0
100
AcDb2dPolyline
 66
     1
 10
0.0
 20
0.0
 30
0.0
  0
VERTEX
  5
4A3
330
4A2
100
AcDbEntity
  8
Capa 1
370
     0
100
AcDbVertex
100
AcDb2dVertex
 10
123.6045953992526
 20
147.315480718424
 30
0.0
  0
VERTEX
  5
4A4
330
4A2
100
AcDbEntity
  8
Capa 1
370
     0
100
AcDbVertex
100
AcDb2dVertex
 10
123.6045953992526
 20
146.1496596371297
 30
0.0
  0
VERTEX
  5
4A5
330
4A2
100
AcDbEntity
  8
Capa 1
370
     0
100
AcDbVertex
100
AcDb2dVertex
 10
120.1016199989572
 20
146.7311921386737
 30
0.0
  0
VERTEX
  5
4A6
330
4A2
100
AcDbEntity
  8
Capa 1
370
     0
100
AcDbVertex
100
AcDb2dVertex
 10
123.6045953992526
 20
147.315480718424
 30
0.0
  0
SEQEND
  5
4A7
330
4A2
100
AcDbEntity
  8
Capa 1
370
     0
  0
HATCH
  5
4A8
330
49E
100
AcDbEntity
  8
Capa 1
 62
     7
420
 16777215
100
AcDbHatch
 10
0.0
 20
0.0
 30
0.0
210
0.0
220
0.0
230
1.0
  2
SOLID
 70
     1
 71
     0
 91
        1
 92
        1
 93
        3
 72
     1
 10
123.6045953992526
 20
147.315480718424
 11
123.6045953992526
 21
146.1496596371297
 72
     1
 10
123.6045953992526
 20
146.1496596371297
 11
120.1016199989572
 21
146.7311921386737
 72
     1
 10
120.1016199989572
 20
146.7311921386737
 11
123.6045953992526
 21
147.315480718424
 97
        0
 75
     2
 76
     1
 98
        0
  0
ENDBLK
  5
4A1
330
49E
100
AcDbEntity
  8
0
100
AcDbBlockEnd
  0
BLOCK
  5
4AB
330
4A9
100
AcDbEntity
  8
0
100
AcDbBlockBegin
  2
block 127
 70
     0
 71
     0
 10
0.0
 20
0.0
 30
0.0
  3
block 127
  1

  0
POLYLINE
  5
4AD
330
4A9
100
AcDbEntity
  8
Capa 1
370
     0
100
AcDb2dPolyline
 66
     1
 10
0.0
 20
0.0
 30
0.0
  0
VERTEX
  5
4AE
330
4AD
100
AcDbEntity
  8
Capa 1
370
     0
100
AcDbVertex
100
AcDb2dVertex
 10
186.682957308428
 20
147.315480718424
 30
0.0
  0
VERTEX
  5
4AF
330
4AD
100
AcDbEntity
  8
Capa 1
370
     0
100
AcDbVertex
100
AcDb2dVertex
 10
186.682957308428
 20
146.1496596371297
 30
0.0
  0
VERTEX
  5
4B0
330
4AD
100
AcDbEntity
  8
Capa 1
370
     0
100
AcDbVertex
100
AcDb2dVertex
 10
190.1859327087234
 20
146.7311921386737
 30
0.0
  0
VERTEX
  5
4B1
330
4AD
100
AcDbEntity
  8
Capa 1
370
     0
100
AcDbVertex
100
AcDb2dVertex
 10
186.682957308428
 20
147.315480718424
 30
0.0
  0
SEQEND
  5
4B2
330
4AD
100
AcDbEntity
  8
Capa 1
370
     0
  0
HATCH
  5
4B3
330
4A9
100
AcDbEntity
  8
Capa 1
 62
     7
420
 16777215
100
AcDbHatch
 10
0.0
 20
0.0
 30
0.0
210
0.0
220
0.0
230
1.0
  2
SOLID
 70
     1
 71
     0
 91
        1
 92
        1
 93
        3
 72
     1
 10
186.682957308428
 20
147.315480718424
 11
186.682957308428
 21
146.1496596371297
 72
     1
 10
186.682957308428
 20
146.1496596371297
 11
190.1859327087234
 21
146.7311921386737
 72
     1
 10
190.1859327087234
 20
146.7311921386737
 11
186.682957308428
 21
147.315480718424
 97
        0
 75
     2
 76
     1
 98
        0
  0
ENDBLK
  5
4AC
330
4A9
100
AcDbEntity
  8
0
100
AcDbBlockEnd
  0
BLOCK
  5
4B6
330
4B4
100
AcDbEntity
  8
0
100
AcDbBlockBegin
  2
block 128
 70
     0
 71
     0
 10
0.0
 20
0.0
 30
0.0
  3
block 128
  1

  0
MTEXT
  5
4B8
330
4B4
100
AcDbEntity
  8
Capa 1
 62
     7
420
 16777215
100
AcDbMText
 10
142.9522644079655
 20
145.7610526100316
 30
0.0
 40
2.920234194277579
 41
0.0
 71
     7
 72
     1
  1
\fArial|b1|i0|c0|p34;\W1;550/600/650
 73
     1
 44
1.0
  0
ENDBLK
  5
4B7
330
4B4
100
AcDbEntity
  8
0
100
AcDbBlockEnd
  0
BLOCK
  5
4BB
330
4B9
100
AcDbEntity
  8
0
100
AcDbBlockBegin
  2
block 129
 70
     0
 71
     0
 10
0.0
 20
0.0
 30
0.0
  3
block 129
  1

  0
POLYLINE
  5
4BD
330
4B9
100
AcDbEntity
  8
Capa 1
 62
     7
420
 16777215
370
     9
100
AcDb2dPolyline
 66
     1
 10
0.0
 20
0.0
 30
0.0
  0
VERTEX
  5
4BE
330
4BD
100
AcDbEntity
  8
Capa 1
 62
     7
420
 16777215
370
     9
100
AcDbVertex
100
AcDb2dVertex
 10
120.1016199989572
 20
138.2672759669134
 30
0.0
  0
VERTEX
  5
4BF
330
4BD
100
AcDbEntity
  8
Capa 1
 62
     7
420
 16777215
370
     9
100
AcDbVertex
100
AcDb2dVertex
 10
120.1016199989572
 20
138.2672759669134
 30
0.0
  0
SEQEND
  5
4C0
330
4BD
100
AcDbEntity
  8
Capa 1
370
     9
  0
ENDBLK
  5
4BC
330
4B9
100
AcDbEntity
  8
0
100
AcDbBlockEnd
  0
BLOCK
  5
4C3
330
4C1
100
AcDbEntity
  8
0
100
AcDbBlockBegin
  2
block 130
 70
     0
 71
     0
 10
0.0
 20
0.0
 30
0.0
  3
block 130
  1

  0
POLYLINE
  5
4C5
330
4C1
100
AcDbEntity
  8
Capa 1
 62
     7
420
 16777215
370
     9
100
AcDb2dPolyline
 66
     1
 10
0.0
 20
0.0
 30
0.0
  0
VERTEX
  5
4C6
330
4C5
100
AcDbEntity
  8
Capa 1
 62
     7
420
 16777215
370
     9
100
AcDbVertex
100
AcDb2dVertex
 10
190.1859327087234
 20
138.2672759669134
 30
0.0
  0
VERTEX
  5
4C7
330
4C5
100
AcDbEntity
  8
Capa 1
 62
     7
420
 16777215
370
     9
100
AcDbVertex
100
AcDb2dVertex
 10
190.1859327087234
 20
138.2672759669134
 30
0.0
  0
SEQEND
  5
4C8
330
4C5
100
AcDbEntity
  8
Capa 1
370
     9
  0
ENDBLK
  5
4C4
330
4C1
100
AcDbEntity
  8
0
100
AcDbBlockEnd
  0
BLOCK
  5
4CB
330
4C9
100
AcDbEntity
  8
0
100
AcDbBlockBegin
  2
block 131
 70
     0
 71
     0
 10
0.0
 20
0.0
 30
0.0
  3
block 131
  1

  0
POLYLINE
  5
4CD
330
4C9
100
AcDbEntity
  8
Capa 1
370
     0
100
AcDb2dPolyline
 66
     1
 10
0.0
 20
0.0
 30
0.0
  0
VERTEX
  5
4CE
330
4CD
100
AcDbEntity
  8
Capa 1
370
     0
100
AcDbVertex
100
AcDb2dVertex
 10
190.1859327087234
 20
146.7311921386737
 30
0.0
  0
VERTEX
  5
4CF
330
4CD
100
AcDbEntity
  8
Capa 1
370
     0
100
AcDbVertex
100
AcDb2dVertex
 10
190.1859327087234
 20
146.7311921386737
 30
0.0
  0
SEQEND
  5
4D0
330
4CD
100
AcDbEntity
  8
Capa 1
370
     0
  0
ENDBLK
  5
4CC
330
4C9
100
AcDbEntity
  8
0
100
AcDbBlockEnd
  0
BLOCK
  5
4D3
330
4D1
100
AcDbEntity
  8
0
100
AcDbBlockBegin
  2
block 132
 70
     0
 71
     0
 10
0.0
 20
0.0
 30
0.0
  3
block 132
  1

  0
SPLINE
  5
4D5
330
4D1
100
AcDbEntity
  8
Capa 1
 62
     7
420
 16777215
370
     9
100
AcDbSpline
210
0.0
220
0.0
230
1.0
 70
    11
 71
     3
 72
    23
 73
    19
 74
     0
 42
0.0000000001
 43
0.0000000001
 40
0.0
 40
0.0
 40
0.0
 40
0.0
 40
1.0
 40
1.0
 40
1.0
 40
2.0
 40
2.0
 40
2.0
 40
3.0
 40
3.0
 40
3.0
 40
4.0
 40
4.0
 40
4.0
 40
5.0
 40
5.0
 40
5.0
 40
6.0
 40
6.0
 40
6.0
 40
6.0
 10
53.60847719209024
 20
116.5411114661038
 30
0.0
 10
53.60847719209024
 20
118.0238815411305
 30
0.0
 10
52.4068270941132
 20
119.2282877173139
 30
0.0
 10
50.92130094088012
 20
119.2282877173139
 30
0.0
 10
49.43577478764705
 20
119.2282877173139
 30
0.0
 10
48.23412468967001
 20
118.0238815411305
 30
0.0
 10
48.23412468967001
 20
116.5411114661038
 30
0.0
 10
48.23412468967001
 20
115.0583413910771
 30
0.0
 10
49.43577478764705
 20
113.8539352148937
 30
0.0
 10
50.92130094088012
 20
113.8539352148937
 30
0.0
 10
52.4068270941132
 20
113.8539352148937
 30
0.0
 10
53.60847719209024
 20
115.0583413910771
 30
0.0
 10
53.60847719209024
 20
116.5411114661038
 30
0.0
 10
53.60847719209024
 20
116.5411114661038
 30
0.0
 10
53.60847719209024
 20
116.5411114661038
 30
0.0
 10
53.60847719209024
 20
116.5411114661038
 30
0.0
 10
53.60847719209024
 20
116.5411114661038
 30
0.0
 10
53.60847719209024
 20
116.5411114661038
 30
0.0
 10
53.60847719209024
 20
116.5411114661038
 30
0.0
  0
ENDBLK
  5
4D4
330
4D1
100
AcDbEntity
  8
0
100
AcDbBlockEnd
  0
BLOCK
  5
4D8
330
4D6
100
AcDbEntity
  8
0
100
AcDbBlockBegin
  2
block 133
 70
     0
 71
     0
 10
0.0
 20
0.0
 30
0.0
  3
block 133
  1

  0
SPLINE
  5
4DA
330
4D6
100
AcDbEntity
  8
Capa 1
 62
     7
420
 16777215
370
     9
100
AcDbSpline
210
0.0
220
0.0
230
1.0
 70
     8
 71
     3
 72
    11
 73
     7
 74
     0
 42
0.0000000001
 43
0.0000000001
 40
0.0
 40
0.0
 40
0.0
 40
0.0
 40
1.0
 40
1.0
 40
1.0
 40
2.0
 40
2.0
 40
2.0
 40
2.0
 10
84.38560252261678
 20
122.9655297651507
 30
0.0
 10
84.38560252261678
 20
125.5452189663125
 30
0.0
 10
82.29373916398245
 20
127.6370823249468
 30
0.0
 10
79.71404996282074
 20
127.6370823249468
 30
0.0
 10
79.71404996282074
 20
127.6370823249468
 30
0.0
 10
79.71404996282074
 20
127.6370823249468
 30
0.0
 10
79.71404996282074
 20
127.6370823249468
 30
0.0
  0
ENDBLK
  5
4D9
330
4D6
100
AcDbEntity
  8
0
100
AcDbBlockEnd
  0
BLOCK
  5
4DD
330
4DB
100
AcDbEntity
  8
0
100
AcDbBlockBegin
  2
block 134
 70
     0
 71
     0
 10
0.0
 20
0.0
 30
0.0
  3
block 134
  1

  0
SPLINE
  5
4DF
330
4DB
100
AcDbEntity
  8
Capa 1
 62
     7
420
 16777215
370
     9
100
AcDbSpline
210
0.0
220
0.0
230
1.0
 70
     8
 71
     3
 72
    11
 73
     7
 74
     0
 42
0.0000000001
 43
0.0000000001
 40
0.0
 40
0.0
 40
0.0
 40
0.0
 40
1.0
 40
1.0
 40
1.0
 40
2.0
 40
2.0
 40
2.0
 40
2.0
 10
85.96483533486642
 20
138.2672759669134
 30
0.0
 10
85.96483533486642
 20
138.5263473183121
 30
0.0
 10
85.75537339118235
 20
138.7358092619962
 30
0.0
 10
85.49630203978363
 20
138.7358092619962
 30
0.0
 10
85.49630203978363
 20
138.7358092619962
 30
0.0
 10
85.49630203978363
 20
138.7358092619962
 30
0.0
 10
85.49630203978363
 20
138.7358092619962
 30
0.0
  0
ENDBLK
  5
4DE
330
4DB
100
AcDbEntity
  8
0
100
AcDbBlockEnd
  0
BLOCK
  5
4E2
330
4E0
100
AcDbEntity
  8
0
100
AcDbBlockBegin
  2
block 135
 70
     0
 71
     0
 10
0.0
 20
0.0
 30
0.0
  3
block 135
  1

  0
SPLINE
  5
4E4
330
4E0
100
AcDbEntity
  8
Capa 1
 62
     7
420
 16777215
370
     9
100
AcDbSpline
210
0.0
220
0.0
230
1.0
 70
     8
 71
     3
 72
    14
 73
    10
 74
     0
 42
0.0000000001
 43
0.0000000001
 40
0.0
 40
0.0
 40
0.0
 40
0.0
 40
1.0
 40
1.0
 40
1.0
 40
2.0
 40
2.0
 40
2.0
 40
3.0
 40
3.0
 40
3.0
 40
3.0
 10
50.92130094088012
 20
112.3353361231842
 30
0.0
 10
53.24191879064312
 20
112.3353361231842
 30
0.0
 10
55.12707628379975
 20
114.2177375381344
 30
0.0
 10
55.12707628379975
 20
116.5411114661038
 30
0.0
 10
55.12707628379975
 20
118.8644853940732
 30
0.0
 10
53.24191879064312
 20
120.7468868090234
 30
0.0
 10
50.92130094088012
 20
120.7468868090234
 30
0.0
 10
50.92130094088012
 20
120.7468868090234
 30
0.0
 10
50.92130094088012
 20
120.7468868090234
 30
0.0
 10
50.92130094088012
 20
120.7468868090234
 30
0.0
  0
ENDBLK
  5
4E3
330
4E0
100
AcDbEntity
  8
0
100
AcDbBlockEnd
  0
BLOCK
  5
4E7
330
4E5
100
AcDbEntity
  8
0
100
AcDbBlockBegin
  2
block 136
 70
     0
 71
     0
 10
0.0
 20
0.0
 30
0.0
  3
block 136
  1

  0
POLYLINE
  5
4E9
330
4E5
100
AcDbEntity
  8
Capa 1
 62
     7
420
 16777215
370
     9
100
AcDb2dPolyline
 66
     1
 10
0.0
 20
0.0
 30
0.0
  0
VERTEX
  5
4EA
330
4E9
100
AcDbEntity
  8
Capa 1
 62
     7
420
 16777215
370
     9
100
AcDbVertex
100
AcDb2dVertex
 10
79.71404996282074
 20
127.6370823249468
 30
0.0
  0
VERTEX
  5
4EB
330
4E9
100
AcDbEntity
  8
Capa 1
 62
     7
420
 16777215
370
     9
100
AcDbVertex
100
AcDb2dVertex
 10
22.12579584073315
 20
127.6370823249468
 30
0.0
  0
SEQEND
  5
4EC
330
4E9
100
AcDbEntity
  8
Capa 1
370
     9
  0
ENDBLK
  5
4E8
330
4E5
100
AcDbEntity
  8
0
100
AcDbBlockEnd
  0
BLOCK
  5
4EF
330
4ED
100
AcDbEntity
  8
0
100
AcDbBlockBegin
  2
block 137
 70
     0
 71
     0
 10
0.0
 20
0.0
 30
0.0
  3
block 137
  1

  0
SPLINE
  5
4F1
330
4ED
100
AcDbEntity
  8
Capa 1
 62
     7
420
 16777215
370
     9
100
AcDbSpline
210
0.0
220
0.0
230
1.0
 70
    11
 71
     3
 72
    23
 73
    19
 74
     0
 42
0.0000000001
 43
0.0000000001
 40
0.0
 40
0.0
 40
0.0
 40
0.0
 40
1.0
 40
1.0
 40
1.0
 40
2.0
 40
2.0
 40
2.0
 40
3.0
 40
3.0
 40
3.0
 40
4.0
 40
4.0
 40
4.0
 40
5.0
 40
5.0
 40
5.0
 40
6.0
 40
6.0
 40
6.0
 40
6.0
 10
52.96355489179982
 20
131.7271023831989
 30
0.0
 10
52.96355489179982
 20
132.854338369604
 30
0.0
 10
52.05129300549156
 20
133.7693563341186
 30
0.0
 10
50.92130094088012
 20
133.7693563341186
 30
0.0
 10
49.79130887626869
 20
133.7693563341186
 30
0.0
 10
48.87904698996044
 20
132.854338369604
 30
0.0
 10
48.87904698996044
 20
131.7271023831989
 30
0.0
 10
48.87904698996044
 20
130.5971103185875
 30
0.0
 10
49.79130887626869
 20
129.6820923540729
 30
0.0
 10
50.92130094088012
 20
129.6820923540729
 30
0.0
 10
52.05129300549156
 20
129.6820923540729
 30
0.0
 10
52.96355489179982
 20
130.5971103185875
 30
0.0
 10
52.96355489179982
 20
131.7271023831989
 30
0.0
 10
52.96355489179982
 20
131.7271023831989
 30
0.0
 10
52.96355489179982
 20
131.7271023831989
 30
0.0
 10
52.96355489179982
 20
131.7271023831989
 30
0.0
 10
52.96355489179982
 20
131.7271023831989
 30
0.0
 10
52.96355489179982
 20
131.7271023831989
 30
0.0
 10
52.96355489179982
 20
131.7271023831989
 30
0.0
  0
ENDBLK
  5
4F0
330
4ED
100
AcDbEntity
  8
0
100
AcDbBlockEnd
  0
BLOCK
  5
4F4
330
4F2
100
AcDbEntity
  8
0
100
AcDbBlockBegin
  2
block 138
 70
     0
 71
     0
 10
0.0
 20
0.0
 30
0.0
  3
block 138
  1

  0
POLYLINE
  5
4F6
330
4F2
100
AcDbEntity
  8
Capa 1
 62
     7
420
 16777215
370
     9
100
AcDb2dPolyline
 66
     1
 10
0.0
 20
0.0
 30
0.0
  0
VERTEX
  5
4F7
330
4F6
100
AcDbEntity
  8
Capa 1
 62
     7
420
 16777215
370
     9
100
AcDbVertex
100
AcDb2dVertex
 10
24.56492505337002
 20
123.8805477296654
 30
0.0
  0
VERTEX
  5
4F8
330
4F6
100
AcDbEntity
  8
Capa 1
 62
     7
420
 16777215
370
     9
100
AcDbVertex
100
AcDb2dVertex
 10
77.27492075018385
 20
123.8805477296654
 30
0.0
  0
SEQEND
  5
4F9
330
4F6
100
AcDbEntity
  8
Capa 1
370
     9
  0
ENDBLK
  5
4F5
330
4F2
100
AcDbEntity
  8
0
100
AcDbBlockEnd
  0
BLOCK
  5
4FC
330
4FA
100
AcDbEntity
  8
0
100
AcDbBlockBegin
  2
block 139
 70
     0
 71
     0
 10
0.0
 20
0.0
 30
0.0
  3
block 139
  1

  0
SPLINE
  5
4FE
330
4FA
100
AcDbEntity
  8
Capa 1
 62
     7
420
 16777215
370
     9
100
AcDbSpline
210
0.0
220
0.0
230
1.0
 70
     8
 71
     3
 72
    11
 73
     7
 74
     0
 42
0.0000000001
 43
0.0000000001
 40
0.0
 40
0.0
 40
0.0
 40
0.0
 40
1.0
 40
1.0
 40
1.0
 40
2.0
 40
2.0
 40
2.0
 40
2.0
 10
81.01491887622707
 20
120.1433056818285
 30
0.0
 10
81.01491887622707
 20
122.2076082583992
 30
0.0
 10
79.3392233267545
 20
123.8805477296654
 30
0.0
 10
77.27492075018385
 20
123.8805477296654
 30
0.0
 10
77.27492075018385
 20
123.8805477296654
 30
0.0
 10
77.27492075018385
 20
123.8805477296654
 30
0.0
 10
77.27492075018385
 20
123.8805477296654
 30
0.0
  0
ENDBLK
  5
4FD
330
4FA
100
AcDbEntity
  8
0
100
AcDbBlockEnd
  0
BLOCK
  5
501
330
4FF
100
AcDbEntity
  8
0
100
AcDbBlockBegin
  2
block 140
 70
     0
 71
     0
 10
0.0
 20
0.0
 30
0.0
  3
block 140
  1

  0
SPLINE
  5
503
330
4FF
100
AcDbEntity
  8
Capa 1
 62
     7
420
 16777215
370
     9
100
AcDbSpline
210
0.0
220
0.0
230
1.0
 70
     8
 71
     3
 72
    62
 73
    58
 74
     0
 42
0.0000000001
 43
0.0000000001
 40
0.0
 40
0.0
 40
0.0
 40
0.0
 40
1.0
 40
1.0
 40
1.0
 40
2.0
 40
2.0
 40
2.0
 40
3.0
 40
3.0
 40
3.0
 40
4.0
 40
4.0
 40
4.0
 40
5.0
 40
5.0
 40
5.0
 40
6.0
 40
6.0
 40
6.0
 40
7.0
 40
7.0
 40
7.0
 40
8.0
 40
8.0
 40
8.0
 40
9.0
 40
9.0
 40
9.0
 40
10.0
 40
10.0
 40
10.0
 40
11.0
 40
11.0
 40
11.0
 40
12.0
 40
12.0
 40
12.0
 40
13.0
 40
13.0
 40
13.0
 40
14.0
 40
14.0
 40
14.0
 40
15.0
 40
15.0
 40
15.0
 40
16.0
 40
16.0
 40
16.0
 40
17.0
 40
17.0
 40
17.0
 40
18.0
 40
18.0
 40
18.0
 40
19.0
 40
19.0
 40
19.0
 40
19.0
 10
43.91259406208287
 20
124.8754919621647
 30
0.0
 10
43.93739876594019
 20
124.8754919621647
 30
0.0
 10
43.96495954800388
 20
124.8754919621647
 30
0.0
 10
43.99252033006758
 20
124.8782480403711
 30
0.0
 10
43.99252033006758
 20
124.8782480403711
 30
0.0
 10
43.99252033006758
 20
124.8782480403711
 30
0.0
 10
43.99252033006758
 20
124.8782480403711
 30
0.0
 10
44.17442149168795
 20
124.8865162749902
 30
0.0
 10
44.35356657510196
 20
124.922345291673
 30
0.0
 10
44.51617518927775
 20
124.9857350904195
 30
0.0
 10
44.51617518927775
 20
124.9857350904195
 30
0.0
 10
44.51617518927775
 20
124.9857350904195
 30
0.0
 10
44.51617518927775
 20
124.9857350904195
 30
0.0
 10
44.67878380345355
 20
125.049124889166
 30
0.0
 10
44.82209987018475
 20
125.1373193917698
 30
0.0
 10
44.93785515485227
 20
125.2475625200246
 30
0.0
 10
44.93785515485227
 20
125.2475625200246
 30
0.0
 10
44.93785515485227
 20
125.2475625200246
 30
0.0
 10
44.93785515485227
 20
125.2475625200246
 30
0.0
 10
45.02329357924972
 20
125.3302448662157
 30
0.0
 10
45.09219553440895
 20
125.4267076034386
 30
0.0
 10
45.13353670750449
 20
125.5286824970742
 30
0.0
 10
45.13353670750449
 20
125.5286824970742
 30
0.0
 10
45.13353670750449
 20
125.5286824970742
 30
0.0
 10
45.13353670750449
 20
125.5286824970742
 30
0.0
 10
45.1776339588064
 20
125.6306573907099
 30
0.0
 10
45.20243866266372
 20
125.7381444407583
 30
0.0
 10
45.19417042804461
 20
125.8483875690131
 30
0.0
 10
45.19417042804461
 20
125.8483875690131
 30
0.0
 10
45.19417042804461
 20
125.8483875690131
 30
0.0
 10
45.19417042804461
 20
125.8483875690131
 30
0.0
 10
45.19141434983825
 20
125.9586306972679
 30
0.0
 10
45.16109748956818
 20
126.0661177473163
 30
0.0
 10
45.10873200364716
 20
126.1653365627456
 30
0.0
 10
45.10873200364716
 20
126.1653365627456
 30
0.0
 10
45.10873200364716
 20
126.1653365627456
 30
0.0
 10
45.10873200364716
 20
126.1653365627456
 30
0.0
 10
45.05636651772615
 20
126.2645553781749
 30
0.0
 10
44.98195240615417
 20
126.355505958985
 30
0.0
 10
44.88824574713762
 20
126.4326761487634
 30
0.0
 10
44.88824574713762
 20
126.4326761487634
 30
0.0
 10
44.88824574713762
 20
126.4326761487634
 30
0.0
 10
44.88824574713762
 20
126.4326761487634
 30
0.0
 10
44.8000512445338
 20
126.5098463385417
 30
0.0
 10
44.68980811627902
 20
126.578748293701
 30
0.0
 10
44.57129675340514
 20
126.631113779622
 30
0.0
 10
44.57129675340514
 20
126.631113779622
 30
0.0
 10
44.57129675340514
 20
126.631113779622
 30
0.0
 10
44.57129675340514
 20
126.631113779622
 30
0.0
 10
44.41420029564209
 20
126.7000157347812
 30
0.0
 10
44.23229913402171
 20
126.7413569078768
 30
0.0
 10
44.05039797240133
 20
126.7551372989086
 30
0.0
 10
44.05039797240133
 20
126.7551372989086
 30
0.0
 10
44.05039797240133
 20
126.7551372989086
 30
0.0
 10
44.05039797240133
 20
126.7551372989086
 30
0.0
 10
44.00630072109942
 20
126.7606494553213
 30
0.0
 10
43.95669131338477
 20
126.7634055335277
 30
0.0
 10
43.91259406208287
 20
126.7634055335277
 30
0.0
  0
ENDBLK
  5
502
330
4FF
100
AcDbEntity
  8
0
100
AcDbBlockEnd
  0
BLOCK
  5
506
330
504
100
AcDbEntity
  8
0
100
AcDbBlockBegin
  2
block 141
 70
     0
 71
     0
 10
0.0
 20
0.0
 30
0.0
  3
block 141
  1

  0
POLYLINE
  5
508
330
504
100
AcDbEntity
  8
Capa 1
 62
     7
420
 16777215
370
     9
100
AcDb2dPolyline
 66
     1
 10
0.0
 20
0.0
 30
0.0
  0
VERTEX
  5
509
330
508
100
AcDbEntity
  8
Capa 1
 62
     7
420
 16777215
370
     9
100
AcDbVertex
100
AcDb2dVertex
 10
85.49630203978363
 20
138.7358092619962
 30
0.0
  0
VERTEX
  5
50A
330
508
100
AcDbEntity
  8
Capa 1
 62
     7
420
 16777215
370
     9
100
AcDbVertex
100
AcDb2dVertex
 10
16.34629984197662
 20
138.7358092619962
 30
0.0
  0
SEQEND
  5
50B
330
508
100
AcDbEntity
  8
Capa 1
370
     9
  0
ENDBLK
  5
507
330
504
100
AcDbEntity
  8
0
100
AcDbBlockEnd
  0
BLOCK
  5
50E
330
50C
100
AcDbEntity
  8
0
100
AcDbBlockBegin
  2
block 142
 70
     0
 71
     0
 10
0.0
 20
0.0
 30
0.0
  3
block 142
  1

  0
SPLINE
  5
510
330
50C
100
AcDbEntity
  8
Capa 1
 62
     7
420
 16777215
370
     9
100
AcDbSpline
210
0.0
220
0.0
230
1.0
 70
     8
 71
     3
 72
    11
 73
     7
 74
     0
 42
0.0000000001
 43
0.0000000001
 40
0.0
 40
0.0
 40
0.0
 40
0.0
 40
1.0
 40
1.0
 40
1.0
 40
2.0
 40
2.0
 40
2.0
 40
2.0
 10
22.12579584073315
 20
127.6370823249468
 30
0.0
 10
19.54610663957143
 20
127.6370823249468
 30
0.0
 10
17.4542432809371
 20
125.5452189663125
 30
0.0
 10
17.4542432809371
 20
122.9655297651507
 30
0.0
 10
17.4542432809371
 20
122.9655297651507
 30
0.0
 10
17.4542432809371
 20
122.9655297651507
 30
0.0
 10
17.4542432809371
 20
122.9655297651507
 30
0.0
  0
ENDBLK
  5
50F
330
50C
100
AcDbEntity
  8
0
100
AcDbBlockEnd
  0
BLOCK
  5
513
330
511
100
AcDbEntity
  8
0
100
AcDbBlockBegin
  2
block 143
 70
     0
 71
     0
 10
0.0
 20
0.0
 30
0.0
  3
block 143
  1

  0
SPLINE
  5
515
330
511
100
AcDbEntity
  8
Capa 1
 62
     7
420
 16777215
370
     9
100
AcDbSpline
210
0.0
220
0.0
230
1.0
 70
     8
 71
     3
 72
    11
 73
     7
 74
     0
 42
0.0000000001
 43
0.0000000001
 40
0.0
 40
0.0
 40
0.0
 40
0.0
 40
1.0
 40
1.0
 40
1.0
 40
2.0
 40
2.0
 40
2.0
 40
2.0
 10
16.34629984197662
 20
138.7358092619962
 30
0.0
 10
16.0872284905779
 20
138.7358092619962
 30
0.0
 10
15.87776654689383
 20
138.5263473183121
 30
0.0
 10
15.87776654689383
 20
138.2672759669134
 30
0.0
 10
15.87776654689383
 20
138.2672759669134
 30
0.0
 10
15.87776654689383
 20
138.2672759669134
 30
0.0
 10
15.87776654689383
 20
138.2672759669134
 30
0.0
  0
ENDBLK
  5
514
330
511
100
AcDbEntity
  8
0
100
AcDbBlockEnd
  0
BLOCK
  5
518
330
516
100
AcDbEntity
  8
0
100
AcDbBlockBegin
  2
block 144
 70
     0
 71
     0
 10
0.0
 20
0.0
 30
0.0
  3
block 144
  1

  0
POLYLINE
  5
51A
330
516
100
AcDbEntity
  8
Capa 1
 62
     7
420
 16777215
370
     9
100
AcDb2dPolyline
 66
     1
 10
0.0
 20
0.0
 30
0.0
  0
VERTEX
  5
51B
330
51A
100
AcDbEntity
  8
Capa 1
 62
     7
420
 16777215
370
     9
100
AcDbVertex
100
AcDb2dVertex
 10
17.4542432809371
 20
122.9655297651507
 30
0.0
  0
VERTEX
  5
754
330
51A
100
AcDbEntity
  8
0
100
AcDbVertex
100
AcDb2dVertex
 10
17.4542432809371
 20
122.9655297651507
 30
0.0
  0
SEQEND
  5
51C
330
51A
100
AcDbEntity
  8
Capa 1
370
     9
  0
POLYLINE
  5
51D
330
516
100
AcDbEntity
  8
Capa 1
 62
     7
420
 16777215
370
     9
100
AcDb2dPolyline
 66
     1
 10
0.0
 20
0.0
 30
0.0
  0
VERTEX
  5
51E
330
51D
100
AcDbEntity
  8
Capa 1
 62
     7
420
 16777215
370
     9
100
AcDbVertex
100
AcDb2dVertex
 10
17.4542432809371
 20
122.9655297651507
 30
0.0
  0
VERTEX
  5
755
330
51D
100
AcDbEntity
  8
0
100
AcDbVertex
100
AcDb2dVertex
 10
17.4542432809371
 20
122.9655297651507
 30
0.0
  0
SEQEND
  5
51F
330
51D
100
AcDbEntity
  8
Capa 1
370
     9
  0
POLYLINE
  5
520
330
516
100
AcDbEntity
  8
Capa 1
 62
     7
420
 16777215
370
     9
100
AcDb2dPolyline
 66
     1
 10
0.0
 20
0.0
 30
0.0
  0
VERTEX
  5
521
330
520
100
AcDbEntity
  8
Capa 1
 62
     7
420
 16777215
370
     9
100
AcDbVertex
100
AcDb2dVertex
 10
50.92130094088012
 20
99.42862188275649
 30
0.0
  0
VERTEX
  5
522
330
520
100
AcDbEntity
  8
Capa 1
 62
     7
420
 16777215
370
     9
100
AcDbVertex
100
AcDb2dVertex
 10
48.19553959478084
 20
99.43137796096286
 30
0.0
  0
VERTEX
  5
523
330
520
100
AcDbEntity
  8
Capa 1
 62
     7
420
 16777215
370
     9
100
AcDbVertex
100
AcDb2dVertex
 10
45.24377983575926
 20
99.4368901173756
 30
0.0
  0
VERTEX
  5
524
330
520
100
AcDbEntity
  8
Capa 1
 62
     7
420
 16777215
370
     9
100
AcDbVertex
100
AcDb2dVertex
 10
42.43258006526253
 20
99.44791443020108
 30
0.0
  0
VERTEX
  5
525
330
520
100
AcDbEntity
  8
Capa 1
 62
     7
420
 16777215
370
     9
100
AcDbVertex
100
AcDb2dVertex
 10
39.75918420508425
 20
99.4644508994393
 30
0.0
  0
VERTEX
  5
526
330
520
100
AcDbEntity
  8
Capa 1
 62
     7
420
 16777215
370
     9
100
AcDbVertex
100
AcDb2dVertex
 10
37.22359225522445
 20
99.48098736867752
 30
0.0
  0
VERTEX
  5
527
330
520
100
AcDbEntity
  8
Capa 1
 62
     7
420
 16777215
370
     9
100
AcDbVertex
100
AcDb2dVertex
 10
34.81202382465127
 20
99.5002799161221
 30
0.0
  0
VERTEX
  5
528
330
520
100
AcDbEntity
  8
Capa 1
 62
     7
420
 16777215
370
     9
100
AcDbVertex
100
AcDb2dVertex
 10
32.52447891336471
 20
99.52508461997942
 30
0.0
  0
VERTEX
  5
529
330
520
100
AcDbEntity
  8
Capa 1
 62
     7
420
 16777215
370
     9
100
AcDbVertex
100
AcDb2dVertex
 10
30.29205556620553
 20
99.54988932383675
 30
0.0
  0
VERTEX
  5
52A
330
520
100
AcDbEntity
  8
Capa 1
 62
     7
420
 16777215
370
     9
100
AcDbVertex
100
AcDb2dVertex
 10
28.14782672165018
 20
99.57469402769406
 30
0.0
  0
VERTEX
  5
52B
330
520
100
AcDbEntity
  8
Capa 1
 62
     7
420
 16777215
370
     9
100
AcDbVertex
100
AcDb2dVertex
 10
26.0780119886668
 20
99.60501088796413
 30
0.0
  0
VERTEX
  5
52C
330
520
100
AcDbEntity
  8
Capa 1
 62
     7
420
 16777215
370
     9
100
AcDbVertex
100
AcDb2dVertex
 10
25.12716500746937
 20
99.61879127899599
 30
0.0
  0
VERTEX
  5
52D
330
520
100
AcDbEntity
  8
Capa 1
 62
     7
420
 16777215
370
     9
100
AcDbVertex
100
AcDb2dVertex
 10
24.19285449551016
 20
99.63257167002783
 30
0.0
  0
VERTEX
  5
52E
330
520
100
AcDbEntity
  8
Capa 1
 62
     7
420
 16777215
370
     9
100
AcDbVertex
100
AcDb2dVertex
 10
23.28610476561465
 20
99.64635206105967
 30
0.0
  0
VERTEX
  5
52F
330
520
100
AcDbEntity
  8
Capa 1
 62
     7
420
 16777215
370
     9
100
AcDbVertex
100
AcDb2dVertex
 10
22.48408600756116
 20
99.671156764917
 30
0.0
  0
VERTEX
  5
530
330
520
100
AcDbEntity
  8
Capa 1
 62
     7
420
 16777215
370
     9
100
AcDbVertex
100
AcDb2dVertex
 10
21.8060907687943
 20
99.76486342393356
 30
0.0
  0
VERTEX
  5
531
330
520
100
AcDbEntity
  8
Capa 1
 62
     7
420
 16777215
370
     9
100
AcDbVertex
100
AcDb2dVertex
 10
21.11707121720196
 20
99.95227674196667
 30
0.0
  0
VERTEX
  5
532
330
520
100
AcDbEntity
  8
Capa 1
 62
     7
420
 16777215
370
     9
100
AcDbVertex
100
AcDb2dVertex
 10
20.51349009000708
 20
100.2003237805399
 30
0.0
  0
VERTEX
  5
533
330
520
100
AcDbEntity
  8
Capa 1
 62
     7
420
 16777215
370
     9
100
AcDbVertex
100
AcDb2dVertex
 10
20.00085954362238
 20
100.484199835796
 30
0.0
  0
VERTEX
  5
534
330
520
100
AcDbEntity
  8
Capa 1
 62
     7
420
 16777215
370
     9
100
AcDbVertex
100
AcDb2dVertex
 10
19.69493486271538
 20
100.6909057012737
 30
0.0
  0
VERTEX
  5
535
330
520
100
AcDbEntity
  8
Capa 1
 62
     7
420
 16777215
370
     9
100
AcDbVertex
100
AcDb2dVertex
 10
19.42759527669755
 20
100.8976115667514
 30
0.0
  0
VERTEX
  5
536
330
520
100
AcDbEntity
  8
Capa 1
 62
     7
420
 16777215
370
     9
100
AcDbVertex
100
AcDb2dVertex
 10
19.20710902018801
 20
101.0877809629908
 30
0.0
  0
VERTEX
  5
537
330
520
100
AcDbEntity
  8
Capa 1
 62
     7
420
 16777215
370
     9
100
AcDbVertex
100
AcDb2dVertex
 10
19.01142746753578
 20
101.2807064374367
 30
0.0
  0
VERTEX
  5
538
330
520
100
AcDbEntity
  8
Capa 1
 62
     7
420
 16777215
370
     9
100
AcDbVertex
100
AcDb2dVertex
 10
18.76613650716891
 20
101.5452899452482
 30
0.0
  0
VERTEX
  5
539
330
520
100
AcDbEntity
  8
Capa 1
 62
     7
420
 16777215
370
     9
100
AcDbVertex
100
AcDb2dVertex
 10
18.49604084294471
 20
101.8925557992507
 30
0.0
  0
VERTEX
  5
53A
330
520
100
AcDbEntity
  8
Capa 1
 62
     7
420
 16777215
370
     9
100
AcDbVertex
100
AcDb2dVertex
 10
18.26177419540332
 20
102.2370655750469
 30
0.0
  0
VERTEX
  5
53B
330
520
100
AcDbEntity
  8
Capa 1
 62
     7
420
 16777215
370
     9
100
AcDbVertex
100
AcDb2dVertex
 10
18.08814126840205
 20
102.5429902559539
 30
0.0
  0
VERTEX
  5
53C
330
520
100
AcDbEntity
  8
Capa 1
 62
     7
420
 16777215
370
     9
100
AcDbVertex
100
AcDb2dVertex
 10
17.95860559270269
 20
102.8048176855589
 30
0.0
  0
VERTEX
  5
53D
330
520
100
AcDbEntity
  8
Capa 1
 62
     7
420
 16777215
370
     9
100
AcDbVertex
100
AcDb2dVertex
 10
17.86214285547976
 20
103.0197917856558
 30
0.0
  0
VERTEX
  5
53E
330
520
100
AcDbEntity
  8
Capa 1
 62
     7
420
 16777215
370
     9
100
AcDbVertex
100
AcDb2dVertex
 10
17.75741188363773
 20
103.2981556844991
 30
0.0
  0
VERTEX
  5
53F
330
520
100
AcDbEntity
  8
Capa 1
 62
     7
420
 16777215
370
     9
100
AcDbVertex
100
AcDb2dVertex
 10
17.64441267717658
 20
103.6619580077398
 30
0.0
  0
VERTEX
  5
540
330
520
100
AcDbEntity
  8
Capa 1
 62
     7
420
 16777215
370
     9
100
AcDbVertex
100
AcDb2dVertex
 10
17.54519386174729
 20
104.1167109117908
 30
0.0
  0
VERTEX
  5
541
330
520
100
AcDbEntity
  8
Capa 1
 62
     7
420
 16777215
370
     9
100
AcDbVertex
100
AcDb2dVertex
 10
17.47077975017531
 20
104.6651704748583
 30
0.0
  0
VERTEX
  5
542
330
520
100
AcDbEntity
  8
Capa 1
 62
     7
420
 16777215
370
     9
100
AcDbVertex
100
AcDb2dVertex
 10
17.4542432809371
 20
105.387262964927
 30
0.0
  0
VERTEX
  5
543
330
520
100
AcDbEntity
  8
Capa 1
 62
     7
420
 16777215
370
     9
100
AcDbVertex
100
AcDb2dVertex
 10
17.4542432809371
 20
106.2995248512353
 30
0.0
  0
VERTEX
  5
544
330
520
100
AcDbEntity
  8
Capa 1
 62
     7
420
 16777215
370
     9
100
AcDbVertex
100
AcDb2dVertex
 10
17.4542432809371
 20
109.3835763641626
 30
0.0
  0
VERTEX
  5
545
330
520
100
AcDbEntity
  8
Capa 1
 62
     7
420
 16777215
370
     9
100
AcDbVertex
100
AcDb2dVertex
 10
17.4542432809371
 20
110.5301048980122
 30
0.0
  0
VERTEX
  5
546
330
520
100
AcDbEntity
  8
Capa 1
 62
     7
420
 16777215
370
     9
100
AcDbVertex
100
AcDb2dVertex
 10
17.4542432809371
 20
111.7868765601167
 30
0.0
  0
VERTEX
  5
547
330
520
100
AcDbEntity
  8
Capa 1
 62
     7
420
 16777215
370
     9
100
AcDbVertex
100
AcDb2dVertex
 10
17.4542432809371
 20
113.1483791940631
 30
0.0
  0
VERTEX
  5
548
330
520
100
AcDbEntity
  8
Capa 1
 62
     7
420
 16777215
370
     9
100
AcDbVertex
100
AcDb2dVertex
 10
17.4542432809371
 20
114.8406112127739
 30
0.0
  0
VERTEX
  5
549
330
520
100
AcDbEntity
  8
Capa 1
 62
     7
420
 16777215
370
     9
100
AcDbVertex
100
AcDb2dVertex
 10
17.4542432809371
 20
116.6678910635968
 30
0.0
  0
VERTEX
  5
54A
330
520
100
AcDbEntity
  8
Capa 1
 62
     7
420
 16777215
370
     9
100
AcDbVertex
100
AcDb2dVertex
 10
17.4542432809371
 20
118.6384869811509
 30
0.0
  0
VERTEX
  5
54B
330
520
100
AcDbEntity
  8
Capa 1
 62
     7
420
 16777215
370
     9
100
AcDbVertex
100
AcDb2dVertex
 10
17.4542432809371
 20
120.7496428872298
 30
0.0
  0
VERTEX
  5
54C
330
520
100
AcDbEntity
  8
Capa 1
 62
     7
420
 16777215
370
     9
100
AcDbVertex
100
AcDb2dVertex
 10
17.4542432809371
 20
122.9655297651507
 30
0.0
  0
SEQEND
  5
54D
330
520
100
AcDbEntity
  8
Capa 1
370
     9
  0
ENDBLK
  5
519
330
516
100
AcDbEntity
  8
0
100
AcDbBlockEnd
  0
BLOCK
  5
550
330
54E
100
AcDbEntity
  8
0
100
AcDbBlockBegin
  2
block 145
 70
     0
 71
     0
 10
0.0
 20
0.0
 30
0.0
  3
block 145
  1

  0
SPLINE
  5
552
330
54E
100
AcDbEntity
  8
Capa 1
 62
     7
420
 16777215
370
     9
100
AcDbSpline
210
0.0
220
0.0
230
1.0
 70
     8
 71
     3
 72
    11
 73
     7
 74
     0
 42
0.0000000001
 43
0.0000000001
 40
0.0
 40
0.0
 40
0.0
 40
0.0
 40
1.0
 40
1.0
 40
1.0
 40
2.0
 40
2.0
 40
2.0
 40
2.0
 10
24.56492505337002
 20
123.8805477296654
 30
0.0
 10
22.50337855500575
 20
123.8805477296654
 30
0.0
 10
20.82768300553318
 20
122.2076082583992
 30
0.0
 10
20.82768300553318
 20
120.1433056818285
 30
0.0
 10
20.82768300553318
 20
120.1433056818285
 30
0.0
 10
20.82768300553318
 20
120.1433056818285
 30
0.0
 10
20.82768300553318
 20
120.1433056818285
 30
0.0
  0
ENDBLK
  5
551
330
54E
100
AcDbEntity
  8
0
100
AcDbBlockEnd
  0
BLOCK
  5
555
330
553
100
AcDbEntity
  8
0
100
AcDbBlockBegin
  2
block 146
 70
     0
 71
     0
 10
0.0
 20
0.0
 30
0.0
  3
block 146
  1

  0
POLYLINE
  5
557
330
553
100
AcDbEntity
  8
Capa 1
 62
     7
420
 16777215
370
     9
100
AcDb2dPolyline
 66
     1
 10
0.0
 20
0.0
 30
0.0
  0
VERTEX
  5
558
330
557
100
AcDbEntity
  8
Capa 1
 62
     7
420
 16777215
370
     9
100
AcDbVertex
100
AcDb2dVertex
 10
50.92130094088012
 20
97.85214514871322
 30
0.0
  0
VERTEX
  5
559
330
557
100
AcDbEntity
  8
Capa 1
 62
     7
420
 16777215
370
     9
100
AcDbVertex
100
AcDb2dVertex
 10
48.19278351657447
 20
97.85214514871322
 30
0.0
  0
VERTEX
  5
55A
330
557
100
AcDbEntity
  8
Capa 1
 62
     7
420
 16777215
370
     9
100
AcDbVertex
100
AcDb2dVertex
 10
45.2410237575529
 20
97.86041338333233
 30
0.0
  0
VERTEX
  5
55B
330
557
100
AcDbEntity
  8
Capa 1
 62
     7
420
 16777215
370
     9
100
AcDbVertex
100
AcDb2dVertex
 10
42.42155575243704
 20
97.87143769615781
 30
0.0
  0
VERTEX
  5
55C
330
557
100
AcDbEntity
  8
Capa 1
 62
     7
420
 16777215
370
     9
100
AcDbVertex
100
AcDb2dVertex
 10
39.74815989225878
 20
97.88521808718966
 30
0.0
  0
VERTEX
  5
55D
330
557
100
AcDbEntity
  8
Capa 1
 62
     7
420
 16777215
370
     9
100
AcDbVertex
100
AcDb2dVertex
 10
37.2098118641926
 20
97.90451063463425
 30
0.0
  0
VERTEX
  5
55E
330
557
100
AcDbEntity
  8
Capa 1
 62
     7
420
 16777215
370
     9
100
AcDbVertex
100
AcDb2dVertex
 10
34.79824343361943
 20
97.9265592602852
 30
0.0
  0
VERTEX
  5
55F
330
557
100
AcDbEntity
  8
Capa 1
 62
     7
420
 16777215
370
     9
100
AcDbVertex
100
AcDb2dVertex
 10
32.50794244412649
 20
97.94860788593616
 30
0.0
  0
VERTEX
  5
560
330
557
100
AcDbEntity
  8
Capa 1
 62
     7
420
 16777215
370
     9
100
AcDbVertex
100
AcDb2dVertex
 10
30.27551909696732
 20
97.97341258979348
 30
0.0
  0
VERTEX
  5
561
330
557
100
AcDbEntity
  8
Capa 1
 62
     7
420
 16777215
370
     9
100
AcDbVertex
100
AcDb2dVertex
 10
28.12853417420559
 20
98.00097337185717
 30
0.0
  0
VERTEX
  5
562
330
557
100
AcDbEntity
  8
Capa 1
 62
     7
420
 16777215
370
     9
100
AcDbVertex
100
AcDb2dVertex
 10
26.05871944122221
 20
98.02853415392086
 30
0.0
  0
VERTEX
  5
563
330
557
100
AcDbEntity
  8
Capa 1
 62
     7
420
 16777215
370
     9
100
AcDbVertex
100
AcDb2dVertex
 10
25.10511638181842
 20
98.03955846674634
 30
0.0
  0
VERTEX
  5
564
330
557
100
AcDbEntity
  8
Capa 1
 62
     7
420
 16777215
370
     9
100
AcDbVertex
100
AcDb2dVertex
 10
24.17356194806558
 20
98.05609493598456
 30
0.0
  0
VERTEX
  5
565
330
557
100
AcDbEntity
  8
Capa 1
 62
     7
420
 16777215
370
     9
100
AcDbVertex
100
AcDb2dVertex
 10
23.25303182713821
 20
98.0698753270164
 30
0.0
  0
VERTEX
  5
566
330
557
100
AcDbEntity
  8
Capa 1
 62
     7
420
 16777215
370
     9
100
AcDbVertex
100
AcDb2dVertex
 10
22.35455033186181
 20
98.09468003087373
 30
0.0
  0
VERTEX
  5
567
330
557
100
AcDbEntity
  8
Capa 1
 62
     7
420
 16777215
370
     9
100
AcDbVertex
100
AcDb2dVertex
 10
21.48914177506183
 20
98.21594747195398
 30
0.0
  0
VERTEX
  5
568
330
557
100
AcDbEntity
  8
Capa 1
 62
     7
420
 16777215
370
     9
100
AcDbVertex
100
AcDb2dVertex
 10
20.60719674902364
 20
98.45572627590812
 30
0.0
  0
VERTEX
  5
569
330
557
100
AcDbEntity
  8
Capa 1
 62
     7
420
 16777215
370
     9
100
AcDbVertex
100
AcDb2dVertex
 10
19.82998269482748
 20
98.77818742605332
 30
0.0
  0
VERTEX
  5
56A
330
557
100
AcDbEntity
  8
Capa 1
 62
     7
420
 16777215
370
     9
100
AcDbVertex
100
AcDb2dVertex
 10
19.17679215991794
 20
99.13923367108771
 30
0.0
  0
VERTEX
  5
56B
330
557
100
AcDbEntity
  8
Capa 1
 62
     7
420
 16777215
370
     9
100
AcDbVertex
100
AcDb2dVertex
 10
18.77164866358165
 20
99.41484149172464
 30
0.0
  0
VERTEX
  5
56C
330
557
100
AcDbEntity
  8
Capa 1
 62
     7
420
 16777215
370
     9
100
AcDbVertex
100
AcDb2dVertex
 10
18.42713888778548
 20
99.67942499953611
 30
0.0
  0
VERTEX
  5
56D
330
557
100
AcDbEntity
  8
Capa 1
 62
     7
420
 16777215
370
     9
100
AcDbVertex
100
AcDb2dVertex
 10
18.14326283252944
 20
99.92747203810934
 30
0.0
  0
VERTEX
  5
56E
330
557
100
AcDbEntity
  8
Capa 1
 62
     7
420
 16777215
370
     9
100
AcDbVertex
100
AcDb2dVertex
 10
17.87867932471798
 20
100.1810312330953
 30
0.0
  0
VERTEX
  5
56F
330
557
100
AcDbEntity
  8
Capa 1
 62
     7
420
 16777215
370
     9
100
AcDbVertex
100
AcDb2dVertex
 10
17.56448640919187
 20
100.5227849306851
 30
0.0
  0
VERTEX
  5
570
330
557
100
AcDbEntity
  8
Capa 1
 62
     7
420
 16777215
370
     9
100
AcDbVertex
100
AcDb2dVertex
 10
17.21722055518934
 20
100.9637574437042
 30
0.0
  0
VERTEX
  5
571
330
557
100
AcDbEntity
  8
Capa 1
 62
     7
420
 16777215
370
     9
100
AcDbVertex
100
AcDb2dVertex
 10
16.92507626531418
 20
101.401973878517
 30
0.0
  0
VERTEX
  5
572
330
557
100
AcDbEntity
  8
Capa 1
 62
     7
420
 16777215
370
     9
100
AcDbVertex
100
AcDb2dVertex
 10
16.69632177418553
 20
101.7988491402341
 30
0.0
  0
VERTEX
  5
573
330
557
100
AcDbEntity
  8
Capa 1
 62
     7
420
 16777215
370
     9
100
AcDbVertex
100
AcDb2dVertex
 10
16.528201003597
 20
102.1350906814112
 30
0.0
  0
VERTEX
  5
574
330
557
100
AcDbEntity
  8
Capa 1
 62
     7
420
 16777215
370
     9
100
AcDbVertex
100
AcDb2dVertex
 10
16.40142140610401
 20
102.42447889308
 30
0.0
  0
VERTEX
  5
575
330
557
100
AcDbEntity
  8
Capa 1
 62
     7
420
 16777215
370
     9
100
AcDbVertex
100
AcDb2dVertex
 10
16.26637357399191
 20
102.7855251381144
 30
0.0
  0
VERTEX
  5
576
330
557
100
AcDbEntity
  8
Capa 1
 62
     7
420
 16777215
370
     9
100
AcDbVertex
100
AcDb2dVertex
 10
16.12030142905433
 20
103.2568145114035
 30
0.0
  0
VERTEX
  5
577
330
557
100
AcDbEntity
  8
Capa 1
 62
     7
420
 16777215
370
     9
100
AcDbVertex
100
AcDb2dVertex
 10
15.9880096751486
 20
103.8438591693602
 30
0.0
  0
VERTEX
  5
578
330
557
100
AcDbEntity
  8
Capa 1
 62
     7
420
 16777215
370
     9
100
AcDbVertex
100
AcDb2dVertex
 10
15.89705909433841
 20
104.543903033778
 30
0.0
  0
VERTEX
  5
579
330
557
100
AcDbEntity
  8
Capa 1
 62
     7
420
 16777215
370
     9
100
AcDbVertex
100
AcDb2dVertex
 10
15.87776654689383
 20
105.3679704174824
 30
0.0
  0
VERTEX
  5
57A
330
557
100
AcDbEntity
  8
Capa 1
 62
     7
420
 16777215
370
     9
100
AcDbVertex
100
AcDb2dVertex
 10
15.87776654689383
 20
106.2995248512353
 30
0.0
  0
VERTEX
  5
57B
330
557
100
AcDbEntity
  8
Capa 1
 62
     7
420
 16777215
370
     9
100
AcDbVertex
100
AcDb2dVertex
 10
15.87776654689383
 20
109.3835763641626
 30
0.0
  0
VERTEX
  5
57C
330
557
100
AcDbEntity
  8
Capa 1
 62
     7
420
 16777215
370
     9
100
AcDbVertex
100
AcDb2dVertex
 10
15.87776654689383
 20
110.5301048980122
 30
0.0
  0
VERTEX
  5
57D
330
557
100
AcDbEntity
  8
Capa 1
 62
     7
420
 16777215
370
     9
100
AcDbVertex
100
AcDb2dVertex
 10
15.87776654689383
 20
111.7868765601167
 30
0.0
  0
VERTEX
  5
57E
330
557
100
AcDbEntity
  8
Capa 1
 62
     7
420
 16777215
370
     9
100
AcDbVertex
100
AcDb2dVertex
 10
15.87776654689383
 20
113.1483791940631
 30
0.0
  0
VERTEX
  5
57F
330
557
100
AcDbEntity
  8
Capa 1
 62
     7
420
 16777215
370
     9
100
AcDbVertex
100
AcDb2dVertex
 10
15.87776654689383
 20
114.8406112127739
 30
0.0
  0
VERTEX
  5
580
330
557
100
AcDbEntity
  8
Capa 1
 62
     7
420
 16777215
370
     9
100
AcDbVertex
100
AcDb2dVertex
 10
15.87776654689383
 20
116.6678910635968
 30
0.0
  0
VERTEX
  5
581
330
557
100
AcDbEntity
  8
Capa 1
 62
     7
420
 16777215
370
     9
100
AcDbVertex
100
AcDb2dVertex
 10
15.87776654689383
 20
118.6384869811509
 30
0.0
  0
VERTEX
  5
582
330
557
100
AcDbEntity
  8
Capa 1
 62
     7
420
 16777215
370
     9
100
AcDbVertex
100
AcDb2dVertex
 10
15.87776654689383
 20
120.7496428872298
 30
0.0
  0
VERTEX
  5
583
330
557
100
AcDbEntity
  8
Capa 1
 62
     7
420
 16777215
370
     9
100
AcDbVertex
100
AcDb2dVertex
 10
15.87776654689383
 20
123.0041148600399
 30
0.0
  0
VERTEX
  5
584
330
557
100
AcDbEntity
  8
Capa 1
 62
     7
420
 16777215
370
     9
100
AcDbVertex
100
AcDb2dVertex
 10
15.87776654689383
 20
125.3963907431685
 30
0.0
  0
VERTEX
  5
585
330
557
100
AcDbEntity
  8
Capa 1
 62
     7
420
 16777215
370
     9
100
AcDbVertex
100
AcDb2dVertex
 10
15.87776654689383
 20
138.2672759669134
 30
0.0
  0
SEQEND
  5
586
330
557
100
AcDbEntity
  8
Capa 1
370
     9
  0
ENDBLK
  5
556
330
553
100
AcDbEntity
  8
0
100
AcDbBlockEnd
  0
BLOCK
  5
589
330
587
100
AcDbEntity
  8
0
100
AcDbBlockBegin
  2
block 147
 70
     0
 71
     0
 10
0.0
 20
0.0
 30
0.0
  3
block 147
  1

  0
SPLINE
  5
58B
330
587
100
AcDbEntity
  8
Capa 1
 62
     7
420
 16777215
370
     9
100
AcDbSpline
210
0.0
220
0.0
230
1.0
 70
     8
 71
     3
 72
    14
 73
    10
 74
     0
 42
0.0000000001
 43
0.0000000001
 40
0.0
 40
0.0
 40
0.0
 40
0.0
 40
1.0
 40
1.0
 40
1.0
 40
2.0
 40
2.0
 40
2.0
 40
3.0
 40
3.0
 40
3.0
 40
3.0
 10
50.92130094088012
 20
120.7468868090234
 30
0.0
 10
48.59792701291076
 20
120.7468868090234
 30
0.0
 10
46.71276951975413
 20
118.8644853940732
 30
0.0
 10
46.71276951975413
 20
116.5411114661038
 30
0.0
 10
46.71276951975413
 20
114.2177375381344
 30
0.0
 10
48.59792701291076
 20
112.3353361231842
 30
0.0
 10
50.92130094088012
 20
112.3353361231842
 30
0.0
 10
50.92130094088012
 20
112.3353361231842
 30
0.0
 10
50.92130094088012
 20
112.3353361231842
 30
0.0
 10
50.92130094088012
 20
112.3353361231842
 30
0.0
  0
ENDBLK
  5
58A
330
587
100
AcDbEntity
  8
0
100
AcDbBlockEnd
  0
BLOCK
  5
58E
330
58C
100
AcDbEntity
  8
0
100
AcDbBlockBegin
  2
block 148
 70
     0
 71
     0
 10
0.0
 20
0.0
 30
0.0
  3
block 148
  1

  0
SPLINE
  5
590
330
58C
100
AcDbEntity
  8
Capa 1
 62
     7
420
 16777215
370
     9
100
AcDbSpline
210
0.0
220
0.0
230
1.0
 70
     8
 71
     3
 72
    62
 73
    58
 74
     0
 42
0.0000000001
 43
0.0000000001
 40
0.0
 40
0.0
 40
0.0
 40
0.0
 40
1.0
 40
1.0
 40
1.0
 40
2.0
 40
2.0
 40
2.0
 40
3.0
 40
3.0
 40
3.0
 40
4.0
 40
4.0
 40
4.0
 40
5.0
 40
5.0
 40
5.0
 40
6.0
 40
6.0
 40
6.0
 40
7.0
 40
7.0
 40
7.0
 40
8.0
 40
8.0
 40
8.0
 40
9.0
 40
9.0
 40
9.0
 40
10.0
 40
10.0
 40
10.0
 40
11.0
 40
11.0
 40
11.0
 40
12.0
 40
12.0
 40
12.0
 40
13.0
 40
13.0
 40
13.0
 40
14.0
 40
14.0
 40
14.0
 40
15.0
 40
15.0
 40
15.0
 40
16.0
 40
16.0
 40
16.0
 40
17.0
 40
17.0
 40
17.0
 40
18.0
 40
18.0
 40
18.0
 40
19.0
 40
19.0
 40
19.0
 40
19.0
 10
43.91259406208287
 20
124.8754919621647
 30
0.0
 10
43.88503328001917
 20
124.8754919621647
 30
0.0
 10
43.85747249795548
 20
124.8754919621647
 30
0.0
 10
43.82991171589178
 20
124.8782480403711
 30
0.0
 10
43.82991171589178
 20
124.8782480403711
 30
0.0
 10
43.82991171589178
 20
124.8782480403711
 30
0.0
 10
43.82991171589178
 20
124.8782480403711
 30
0.0
 10
43.64801055427141
 20
124.8865162749902
 30
0.0
 10
43.4688654708574
 20
124.922345291673
 30
0.0
 10
43.30625685668161
 20
124.9857350904195
 30
0.0
 10
43.30625685668161
 20
124.9857350904195
 30
0.0
 10
43.30625685668161
 20
124.9857350904195
 30
0.0
 10
43.30625685668161
 20
124.9857350904195
 30
0.0
 10
43.14640432071219
 20
125.049124889166
 30
0.0
 10
43.00033217577461
 20
125.1373193917698
 30
0.0
 10
42.88733296931347
 20
125.2475625200246
 30
0.0
 10
42.88733296931347
 20
125.2475625200246
 30
0.0
 10
42.88733296931347
 20
125.2475625200246
 30
0.0
 10
42.88733296931347
 20
125.2475625200246
 30
0.0
 10
42.79913846670965
 20
125.3302448662157
 30
0.0
 10
42.73574866796315
 20
125.4267076034386
 30
0.0
 10
42.68889533845488
 20
125.5286824970742
 30
0.0
 10
42.68889533845488
 20
125.5286824970742
 30
0.0
 10
42.68889533845488
 20
125.5286824970742
 30
0.0
 10
42.68889533845488
 20
125.5286824970742
 30
0.0
 10
42.64479808715296
 20
125.6306573907099
 30
0.0
 10
42.62274946150201
 20
125.7381444407583
 30
0.0
 10
42.62826161791475
 20
125.8483875690131
 30
0.0
 10
42.62826161791475
 20
125.8483875690131
 30
0.0
 10
42.62826161791475
 20
125.8483875690131
 30
0.0
 10
42.62826161791475
 20
125.8483875690131
 30
0.0
 10
42.63101769612112
 20
125.9586306972679
 30
0.0
 10
42.66133455639118
 20
126.0661177473163
 30
0.0
 10
42.7137000423122
 20
126.1653365627456
 30
0.0
 10
42.7137000423122
 20
126.1653365627456
 30
0.0
 10
42.7137000423122
 20
126.1653365627456
 30
0.0
 10
42.7137000423122
 20
126.1653365627456
 30
0.0
 10
42.76882160643959
 20
126.2645553781749
 30
0.0
 10
42.84323571801156
 20
126.355505958985
 30
0.0
 10
42.93418629882174
 20
126.4326761487634
 30
0.0
 10
42.93418629882174
 20
126.4326761487634
 30
0.0
 10
42.93418629882174
 20
126.4326761487634
 30
0.0
 10
42.93418629882174
 20
126.4326761487634
 30
0.0
 10
43.02513687963194
 20
126.5098463385417
 30
0.0
 10
43.13538000788671
 20
126.578748293701
 30
0.0
 10
43.25113529255422
 20
126.631113779622
 30
0.0
 10
43.25113529255422
 20
126.631113779622
 30
0.0
 10
43.25113529255422
 20
126.631113779622
 30
0.0
 10
43.25113529255422
 20
126.631113779622
 30
0.0
 10
43.41098782852364
 20
126.7000157347812
 30
0.0
 10
43.59013291193765
 20
126.7413569078768
 30
0.0
 10
43.77203407355803
 20
126.7551372989086
 30
0.0
 10
43.77203407355803
 20
126.7551372989086
 30
0.0
 10
43.77203407355803
 20
126.7551372989086
 30
0.0
 10
43.77203407355803
 20
126.7551372989086
 30
0.0
 10
43.81613132485994
 20
126.7606494553213
 30
0.0
 10
43.86574073257459
 20
126.7634055335277
 30
0.0
 10
43.91259406208287
 20
126.7634055335277
 30
0.0
  0
ENDBLK
  5
58F
330
58C
100
AcDbEntity
  8
0
100
AcDbBlockEnd
  0
BLOCK
  5
593
330
591
100
AcDbEntity
  8
0
100
AcDbBlockBegin
  2
block 149
 70
     0
 71
     0
 10
0.0
 20
0.0
 30
0.0
  3
block 149
  1

  0
SPLINE
  5
595
330
591
100
AcDbEntity
  8
Capa 1
 62
     7
420
 16777215
370
     9
100
AcDbSpline
210
0.0
220
0.0
230
1.0
 70
     8
 71
     3
 72
     8
 73
     4
 74
     0
 42
0.0000000001
 43
0.0000000001
 40
0.0
 40
0.0
 40
0.0
 40
0.0
 40
1.0
 40
1.0
 40
1.0
 40
1.0
 10
24.8818740471025
 20
122.6458246932119
 30
0.0
 10
38.07522042099258
 20
121.9320004377622
 30
0.0
 10
63.76738146076767
 20
121.9320004377622
 30
0.0
 10
76.95797175645139
 20
122.6458246932119
 30
0.0
  0
ENDBLK
  5
594
330
591
100
AcDbEntity
  8
0
100
AcDbBlockEnd
  0
BLOCK
  5
598
330
596
100
AcDbEntity
  8
0
100
AcDbBlockBegin
  2
block 150
 70
     0
 71
     0
 10
0.0
 20
0.0
 30
0.0
  3
block 150
  1

  0
POLYLINE
  5
59A
330
596
100
AcDbEntity
  8
Capa 1
  6
AI-Linetype-17
 62
     7
420
 16777215
370
     9
100
AcDb2dPolyline
 66
     1
 10
0.0
 20
0.0
 30
0.0
  0
VERTEX
  5
59B
330
59A
100
AcDbEntity
  8
Capa 1
  6
AI-Linetype-17
 62
     7
420
 16777215
370
     9
100
AcDbVertex
100
AcDb2dVertex
 10
50.92130094088012
 20
109.5324045873065
 30
0.0
  0
VERTEX
  5
59C
330
59A
100
AcDbEntity
  8
Capa 1
  6
AI-Linetype-17
 62
     7
420
 16777215
370
     9
100
AcDbVertex
100
AcDb2dVertex
 10
50.92130094088012
 20
123.5498183449011
 30
0.0
  0
SEQEND
  5
59D
330
59A
100
AcDbEntity
  8
Capa 1
  6
AI-Linetype-17
370
     9
  0
ENDBLK
  5
599
330
596
100
AcDbEntity
  8
0
100
AcDbBlockEnd
  0
BLOCK
  5
5A1
330
59F
100
AcDbEntity
  8
0
100
AcDbBlockBegin
  2
block 151
 70
     0
 71
     0
 10
0.0
 20
0.0
 30
0.0
  3
block 151
  1

  0
POLYLINE
  5
5A3
330
59F
100
AcDbEntity
  8
Capa 1
  6
AI-Linetype-18
 62
     7
420
 16777215
370
     9
100
AcDb2dPolyline
 66
     1
 10
0.0
 20
0.0
 30
0.0
  0
VERTEX
  5
5A4
330
5A3
100
AcDbEntity
  8
Capa 1
  6
AI-Linetype-18
 62
     7
420
 16777215
370
     9
100
AcDbVertex
100
AcDb2dVertex
 10
43.91259406208287
 20
116.5411114661038
 30
0.0
  0
VERTEX
  5
5A5
330
5A3
100
AcDbEntity
  8
Capa 1
  6
AI-Linetype-18
 62
     7
420
 16777215
370
     9
100
AcDbVertex
100
AcDb2dVertex
 10
57.92725174147102
 20
116.5411114661038
 30
0.0
  0
SEQEND
  5
5A6
330
5A3
100
AcDbEntity
  8
Capa 1
  6
AI-Linetype-18
370
     9
  0
ENDBLK
  5
5A2
330
59F
100
AcDbEntity
  8
0
100
AcDbBlockEnd
  0
BLOCK
  5
5AA
330
5A8
100
AcDbEntity
  8
0
100
AcDbBlockBegin
  2
block 152
 70
     0
 71
     0
 10
0.0
 20
0.0
 30
0.0
  3
block 152
  1

  0
POLYLINE
  5
5AC
330
5A8
100
AcDbEntity
  8
Capa 1
  6
AI-Linetype-19
 62
     7
420
 16777215
370
     9
100
AcDb2dPolyline
 66
     1
 10
0.0
 20
0.0
 30
0.0
  0
VERTEX
  5
5AD
330
5AC
100
AcDbEntity
  8
Capa 1
  6
AI-Linetype-19
 62
     7
420
 16777215
370
     9
100
AcDbVertex
100
AcDb2dVertex
 10
43.91259406208287
 20
131.7271023831989
 30
0.0
  0
VERTEX
  5
5AE
330
5AC
100
AcDbEntity
  8
Capa 1
  6
AI-Linetype-19
 62
     7
420
 16777215
370
     9
100
AcDbVertex
100
AcDb2dVertex
 10
57.92725174147102
 20
131.7271023831989
 30
0.0
  0
SEQEND
  5
5AF
330
5AC
100
AcDbEntity
  8
Capa 1
  6
AI-Linetype-19
370
     9
  0
ENDBLK
  5
5AB
330
5A8
100
AcDbEntity
  8
0
100
AcDbBlockEnd
  0
BLOCK
  5
5B3
330
5B1
100
AcDbEntity
  8
0
100
AcDbBlockBegin
  2
block 153
 70
     0
 71
     0
 10
0.0
 20
0.0
 30
0.0
  3
block 153
  1

  0
POLYLINE
  5
5B5
330
5B1
100
AcDbEntity
  8
Capa 1
  6
AI-Linetype-20
 62
     7
420
 16777215
370
     9
100
AcDb2dPolyline
 66
     1
 10
0.0
 20
0.0
 30
0.0
  0
VERTEX
  5
5B6
330
5B5
100
AcDbEntity
  8
Capa 1
  6
AI-Linetype-20
 62
     7
420
 16777215
370
     9
100
AcDbVertex
100
AcDb2dVertex
 10
50.92130094088012
 20
126.7634055335277
 30
0.0
  0
VERTEX
  5
5B7
330
5B5
100
AcDbEntity
  8
Capa 1
  6
AI-Linetype-20
 62
     7
420
 16777215
370
     9
100
AcDbVertex
100
AcDb2dVertex
 10
50.92130094088012
 20
138.7358092619962
 30
0.0
  0
SEQEND
  5
5B8
330
5B5
100
AcDbEntity
  8
Capa 1
  6
AI-Linetype-20
370
     9
  0
ENDBLK
  5
5B4
330
5B1
100
AcDbEntity
  8
0
100
AcDbBlockEnd
  0
BLOCK
  5
5BC
330
5BA
100
AcDbEntity
  8
0
100
AcDbBlockBegin
  2
block 154
 70
     0
 71
     0
 10
0.0
 20
0.0
 30
0.0
  3
block 154
  1

  0
INSERT
  5
5BF
330
5BA
100
AcDbEntity
  8
Capa 1
100
AcDbBlockReference
  2
block 155
 10
0.0
 20
0.0
 30
0.0
  0
ENDBLK
  5
5BD
330
5BA
100
AcDbEntity
  8
0
100
AcDbBlockEnd
  0
BLOCK
  5
5C0
330
5BE
100
AcDbEntity
  8
0
100
AcDbBlockBegin
  2
block 155
 70
     0
 71
     0
 10
0.0
 20
0.0
 30
0.0
  3
block 155
  1

  0
INSERT
  5
5C3
330
5BE
100
AcDbEntity
  8
Capa 1
100
AcDbBlockReference
  2
block 156
 10
0.0
 20
0.0
 30
0.0
  0
INSERT
  5
5CB
330
5BE
100
AcDbEntity
  8
Capa 1
100
AcDbBlockReference
  2
block 157
 10
0.0
 20
0.0
 30
0.0
  0
INSERT
  5
5D3
330
5BE
100
AcDbEntity
  8
Capa 1
100
AcDbBlockReference
  2
block 158
 10
0.0
 20
0.0
 30
0.0
  0
INSERT
  5
5DB
330
5BE
100
AcDbEntity
  8
Capa 1
100
AcDbBlockReference
  2
block 159
 10
0.0
 20
0.0
 30
0.0
  0
INSERT
  5
5E3
330
5BE
100
AcDbEntity
  8
Capa 1
100
AcDbBlockReference
  2
block 160
 10
0.0
 20
0.0
 30
0.0
  0
INSERT
  5
5EE
330
5BE
100
AcDbEntity
  8
Capa 1
100
AcDbBlockReference
  2
block 161
 10
0.0
 20
0.0
 30
0.0
  0
INSERT
  5
5F9
330
5BE
100
AcDbEntity
  8
Capa 1
100
AcDbBlockReference
  2
block 162
 10
0.0
 20
0.0
 30
0.0
  0
INSERT
  5
5FE
330
5BE
100
AcDbEntity
  8
Capa 1
100
AcDbBlockReference
  2
block 163
 10
0.0
 20
0.0
 30
0.0
  0
INSERT
  5
606
330
5BE
100
AcDbEntity
  8
Capa 1
100
AcDbBlockReference
  2
block 164
 10
0.0
 20
0.0
 30
0.0
  0
INSERT
  5
60E
330
5BE
100
AcDbEntity
  8
Capa 1
100
AcDbBlockReference
  2
block 165
 10
0.0
 20
0.0
 30
0.0
  0
ENDBLK
  5
5C1
330
5BE
100
AcDbEntity
  8
0
100
AcDbBlockEnd
  0
BLOCK
  5
5C4
330
5C2
100
AcDbEntity
  8
0
100
AcDbBlockBegin
  2
block 156
 70
     0
 71
     0
 10
0.0
 20
0.0
 30
0.0
  3
block 156
  1

  0
POLYLINE
  5
5C6
330
5C2
100
AcDbEntity
  8
Capa 1
 62
     7
420
 16777215
370
     9
100
AcDb2dPolyline
 66
     1
 10
0.0
 20
0.0
 30
0.0
  0
VERTEX
  5
5C7
330
5C6
100
AcDbEntity
  8
Capa 1
 62
     7
420
 16777215
370
     9
100
AcDbVertex
100
AcDb2dVertex
 10
16.34629984197662
 20
138.7358092619962
 30
0.0
  0
VERTEX
  5
5C8
330
5C6
100
AcDbEntity
  8
Capa 1
 62
     7
420
 16777215
370
     9
100
AcDbVertex
100
AcDb2dVertex
 10
5.542473273008764
 20
138.7358092619962
 30
0.0
  0
SEQEND
  5
5C9
330
5C6
100
AcDbEntity
  8
Capa 1
370
     9
  0
ENDBLK
  5
5C5
330
5C2
100
AcDbEntity
  8
0
100
AcDbBlockEnd
  0
BLOCK
  5
5CC
330
5CA
100
AcDbEntity
  8
0
100
AcDbBlockBegin
  2
block 157
 70
     0
 71
     0
 10
0.0
 20
0.0
 30
0.0
  3
block 157
  1

  0
POLYLINE
  5
5CE
330
5CA
100
AcDbEntity
  8
Capa 1
 62
     7
420
 16777215
370
     9
100
AcDb2dPolyline
 66
     1
 10
0.0
 20
0.0
 30
0.0
  0
VERTEX
  5
5CF
330
5CE
100
AcDbEntity
  8
Capa 1
 62
     7
420
 16777215
370
     9
100
AcDbVertex
100
AcDb2dVertex
 10
52.28555965303295
 20
97.85214514871322
 30
0.0
  0
VERTEX
  5
5D0
330
5CE
100
AcDbEntity
  8
Capa 1
 62
     7
420
 16777215
370
     9
100
AcDbVertex
100
AcDb2dVertex
 10
5.542473273008764
 20
97.85214514871322
 30
0.0
  0
SEQEND
  5
5D1
330
5CE
100
AcDbEntity
  8
Capa 1
370
     9
  0
ENDBLK
  5
5CD
330
5CA
100
AcDbEntity
  8
0
100
AcDbBlockEnd
  0
BLOCK
  5
5D4
330
5D2
100
AcDbEntity
  8
0
100
AcDbBlockBegin
  2
block 158
 70
     0
 71
     0
 10
0.0
 20
0.0
 30
0.0
  3
block 158
  1

  0
POLYLINE
  5
5D6
330
5D2
100
AcDbEntity
  8
Capa 1
 62
     7
420
 16777215
370
     9
100
AcDb2dPolyline
 66
     1
 10
0.0
 20
0.0
 30
0.0
  0
VERTEX
  5
5D7
330
5D6
100
AcDbEntity
  8
Capa 1
 62
     7
420
 16777215
370
     9
100
AcDbVertex
100
AcDb2dVertex
 10
7.879627592009974
 20
135.2300777834944
 30
0.0
  0
VERTEX
  5
5D8
330
5D6
100
AcDbEntity
  8
Capa 1
 62
     7
420
 16777215
370
     9
100
AcDbVertex
100
AcDb2dVertex
 10
7.879627592009974
 20
123.4505995294718
 30
0.0
  0
SEQEND
  5
5D9
330
5D6
100
AcDbEntity
  8
Capa 1
370
     9
  0
ENDBLK
  5
5D5
330
5D2
100
AcDbEntity
  8
0
100
AcDbBlockEnd
  0
BLOCK
  5
5DC
330
5DA
100
AcDbEntity
  8
0
100
AcDbBlockBegin
  2
block 159
 70
     0
 71
     0
 10
0.0
 20
0.0
 30
0.0
  3
block 159
  1

  0
POLYLINE
  5
5DE
330
5DA
100
AcDbEntity
  8
Capa 1
 62
     7
420
 16777215
370
     9
100
AcDb2dPolyline
 66
     1
 10
0.0
 20
0.0
 30
0.0
  0
VERTEX
  5
5DF
330
5DE
100
AcDbEntity
  8
Capa 1
 62
     7
420
 16777215
370
     9
100
AcDbVertex
100
AcDb2dVertex
 10
7.879627592009974
 20
101.357876627215
 30
0.0
  0
VERTEX
  5
5E0
330
5DE
100
AcDbEntity
  8
Capa 1
 62
     7
420
 16777215
370
     9
100
AcDbVertex
100
AcDb2dVertex
 10
7.879627592009974
 20
113.1373548812376
 30
0.0
  0
SEQEND
  5
5E1
330
5DE
100
AcDbEntity
  8
Capa 1
370
     9
  0
ENDBLK
  5
5DD
330
5DA
100
AcDbEntity
  8
0
100
AcDbBlockEnd
  0
BLOCK
  5
5E4
330
5E2
100
AcDbEntity
  8
0
100
AcDbBlockBegin
  2
block 160
 70
     0
 71
     0
 10
0.0
 20
0.0
 30
0.0
  3
block 160
  1

  0
POLYLINE
  5
5E6
330
5E2
100
AcDbEntity
  8
Capa 1
370
     0
100
AcDb2dPolyline
 66
     1
 10
0.0
 20
0.0
 30
0.0
  0
VERTEX
  5
5E7
330
5E6
100
AcDbEntity
  8
Capa 1
370
     0
100
AcDbVertex
100
AcDb2dVertex
 10
7.295339012259672
 20
135.2300777834944
 30
0.0
  0
VERTEX
  5
5E8
330
5E6
100
AcDbEntity
  8
Capa 1
370
     0
100
AcDbVertex
100
AcDb2dVertex
 10
8.463916171760276
 20
135.2300777834944
 30
0.0
  0
VERTEX
  5
5E9
330
5E6
100
AcDbEntity
  8
Capa 1
370
     0
100
AcDbVertex
100
AcDb2dVertex
 10
7.879627592009974
 20
138.7358092619962
 30
0.0
  0
VERTEX
  5
5EA
330
5E6
100
AcDbEntity
  8
Capa 1
370
     0
100
AcDbVertex
100
AcDb2dVertex
 10
7.295339012259672
 20
135.2300777834944
 30
0.0
  0
SEQEND
  5
5EB
330
5E6
100
AcDbEntity
  8
Capa 1
370
     0
  0
HATCH
  5
5EC
330
5E2
100
AcDbEntity
  8
Capa 1
 62
     7
420
 16777215
100
AcDbHatch
 10
0.0
 20
0.0
 30
0.0
210
0.0
220
0.0
230
1.0
  2
SOLID
 70
     1
 71
     0
 91
        1
 92
        1
 93
        3
 72
     1
 10
7.295339012259672
 20
135.2300777834944
 11
8.463916171760276
 21
135.2300777834944
 72
     1
 10
8.463916171760276
 20
135.2300777834944
 11
7.879627592009974
 21
138.7358092619962
 72
     1
 10
7.879627592009974
 20
138.7358092619962
 11
7.295339012259672
 21
135.2300777834944
 97
        0
 75
     2
 76
     1
 98
        0
  0
ENDBLK
  5
5E5
330
5E2
100
AcDbEntity
  8
0
100
AcDbBlockEnd
  0
BLOCK
  5
5EF
330
5ED
100
AcDbEntity
  8
0
100
AcDbBlockBegin
  2
block 161
 70
     0
 71
     0
 10
0.0
 20
0.0
 30
0.0
  3
block 161
  1

  0
POLYLINE
  5
5F1
330
5ED
100
AcDbEntity
  8
Capa 1
370
     0
100
AcDb2dPolyline
 66
     1
 10
0.0
 20
0.0
 30
0.0
  0
VERTEX
  5
5F2
330
5F1
100
AcDbEntity
  8
Capa 1
370
     0
100
AcDbVertex
100
AcDb2dVertex
 10
7.295339012259672
 20
101.357876627215
 30
0.0
  0
VERTEX
  5
5F3
330
5F1
100
AcDbEntity
  8
Capa 1
370
     0
100
AcDbVertex
100
AcDb2dVertex
 10
8.463916171760276
 20
101.357876627215
 30
0.0
  0
VERTEX
  5
5F4
330
5F1
100
AcDbEntity
  8
Capa 1
370
     0
100
AcDbVertex
100
AcDb2dVertex
 10
7.879627592009974
 20
97.85214514871322
 30
0.0
  0
VERTEX
  5
5F5
330
5F1
100
AcDbEntity
  8
Capa 1
370
     0
100
AcDbVertex
100
AcDb2dVertex
 10
7.295339012259672
 20
101.357876627215
 30
0.0
  0
SEQEND
  5
5F6
330
5F1
100
AcDbEntity
  8
Capa 1
370
     0
  0
HATCH
  5
5F7
330
5ED
100
AcDbEntity
  8
Capa 1
 62
     7
420
 16777215
100
AcDbHatch
 10
0.0
 20
0.0
 30
0.0
210
0.0
220
0.0
230
1.0
  2
SOLID
 70
     1
 71
     0
 91
        1
 92
        1
 93
        3
 72
     1
 10
7.295339012259672
 20
101.357876627215
 11
8.463916171760276
 21
101.357876627215
 72
     1
 10
8.463916171760276
 20
101.357876627215
 11
7.879627592009974
 21
97.85214514871322
 72
     1
 10
7.879627592009974
 20
97.85214514871322
 11
7.295339012259672
 21
101.357876627215
 97
        0
 75
     2
 76
     1
 98
        0
  0
ENDBLK
  5
5F0
330
5ED
100
AcDbEntity
  8
0
100
AcDbBlockEnd
  0
BLOCK
  5
5FA
330
5F8
100
AcDbEntity
  8
0
100
AcDbBlockBegin
  2
block 162
 70
     0
 71
     0
 10
0.0
 20
0.0
 30
0.0
  3
block 162
  1

  0
MTEXT
  5
5FC
330
5F8
100
AcDbEntity
  8
Capa 1
 62
     7
420
 16777215
100
AcDbMText
 10
9.34034904138573
 20
114.8295868999484
 30
0.0
 40
2.920234194277579
 41
0.0
 71
     7
 72
     1
  1
\fArial|b1|i0|c0|p34;\W1;350
 11
-4.371139000186241E-8
 21
0.999999999999999
 31
0.0
 73
     1
 44
1.0
  0
ENDBLK
  5
5FB
330
5F8
100
AcDbEntity
  8
0
100
AcDbBlockEnd
  0
BLOCK
  5
5FF
330
5FD
100
AcDbEntity
  8
0
100
AcDbBlockBegin
  2
block 163
 70
     0
 71
     0
 10
0.0
 20
0.0
 30
0.0
  3
block 163
  1

  0
POLYLINE
  5
601
330
5FD
100
AcDbEntity
  8
Capa 1
 62
     3
420
    65280
370
     9
100
AcDb2dPolyline
 66
     1
 10
0.0
 20
0.0
 30
0.0
  0
VERTEX
  5
602
330
601
100
AcDbEntity
  8
Capa 1
 62
     3
420
    65280
370
     9
100
AcDbVertex
100
AcDb2dVertex
 10
16.34629984197662
 20
138.7358092619962
 30
0.0
  0
VERTEX
  5
603
330
601
100
AcDbEntity
  8
Capa 1
 62
     3
420
    65280
370
     9
100
AcDbVertex
100
AcDb2dVertex
 10
16.34629984197662
 20
138.7358092619962
 30
0.0
  0
SEQEND
  5
604
330
601
100
AcDbEntity
  8
Capa 1
370
     9
  0
ENDBLK
  5
600
330
5FD
100
AcDbEntity
  8
0
100
AcDbBlockEnd
  0
BLOCK
  5
607
330
605
100
AcDbEntity
  8
0
100
AcDbBlockBegin
  2
block 164
 70
     0
 71
     0
 10
0.0
 20
0.0
 30
0.0
  3
block 164
  1

  0
POLYLINE
  5
609
330
605
100
AcDbEntity
  8
Capa 1
 62
     7
420
 16777215
370
     9
100
AcDb2dPolyline
 66
     1
 10
0.0
 20
0.0
 30
0.0
  0
VERTEX
  5
60A
330
609
100
AcDbEntity
  8
Capa 1
 62
     7
420
 16777215
370
     9
100
AcDbVertex
100
AcDb2dVertex
 10
52.28555965303295
 20
97.85214514871322
 30
0.0
  0
VERTEX
  5
60B
330
609
100
AcDbEntity
  8
Capa 1
 62
     7
420
 16777215
370
     9
100
AcDbVertex
100
AcDb2dVertex
 10
52.28555965303295
 20
97.85214514871322
 30
0.0
  0
SEQEND
  5
60C
330
609
100
AcDbEntity
  8
Capa 1
370
     9
  0
ENDBLK
  5
608
330
605
100
AcDbEntity
  8
0
100
AcDbBlockEnd
  0
BLOCK
  5
60F
330
60D
100
AcDbEntity
  8
0
100
AcDbBlockBegin
  2
block 165
 70
     0
 71
     0
 10
0.0
 20
0.0
 30
0.0
  3
block 165
  1

  0
POLYLINE
  5
611
330
60D
100
AcDbEntity
  8
Capa 1
370
     0
100
AcDb2dPolyline
 66
     1
 10
0.0
 20
0.0
 30
0.0
  0
VERTEX
  5
612
330
611
100
AcDbEntity
  8
Capa 1
370
     0
100
AcDbVertex
100
AcDb2dVertex
 10
7.879627592009974
 20
97.85214514871322
 30
0.0
  0
VERTEX
  5
613
330
611
100
AcDbEntity
  8
Capa 1
370
     0
100
AcDbVertex
100
AcDb2dVertex
 10
7.879627592009974
 20
97.85214514871322
 30
0.0
  0
SEQEND
  5
614
330
611
100
AcDbEntity
  8
Capa 1
370
     0
  0
ENDBLK
  5
610
330
60D
100
AcDbEntity
  8
0
100
AcDbBlockEnd
  0
BLOCK
  5
617
330
615
100
AcDbEntity
  8
0
100
AcDbBlockBegin
  2
block 166
 70
     0
 71
     0
 10
0.0
 20
0.0
 30
0.0
  3
block 166
  1

  0
INSERT
  5
61A
330
615
100
AcDbEntity
  8
Capa 1
100
AcDbBlockReference
  2
block 167
 10
0.0
 20
0.0
 30
0.0
  0
ENDBLK
  5
618
330
615
100
AcDbEntity
  8
0
100
AcDbBlockEnd
  0
BLOCK
  5
61B
330
619
100
AcDbEntity
  8
0
100
AcDbBlockBegin
  2
block 167
 70
     0
 71
     0
 10
0.0
 20
0.0
 30
0.0
  3
block 167
  1

  0
INSERT
  5
61E
330
619
100
AcDbEntity
  8
Capa 1
100
AcDbBlockReference
  2
block 168
 10
0.0
 20
0.0
 30
0.0
  0
INSERT
  5
626
330
619
100
AcDbEntity
  8
Capa 1
100
AcDbBlockReference
  2
block 169
 10
0.0
 20
0.0
 30
0.0
  0
INSERT
  5
62E
330
619
100
AcDbEntity
  8
Capa 1
100
AcDbBlockReference
  2
block 170
 10
0.0
 20
0.0
 30
0.0
  0
INSERT
  5
636
330
619
100
AcDbEntity
  8
Capa 1
100
AcDbBlockReference
  2
block 171
 10
0.0
 20
0.0
 30
0.0
  0
INSERT
  5
63E
330
619
100
AcDbEntity
  8
Capa 1
100
AcDbBlockReference
  2
block 172
 10
0.0
 20
0.0
 30
0.0
  0
INSERT
  5
649
330
619
100
AcDbEntity
  8
Capa 1
100
AcDbBlockReference
  2
block 173
 10
0.0
 20
0.0
 30
0.0
  0
INSERT
  5
654
330
619
100
AcDbEntity
  8
Capa 1
100
AcDbBlockReference
  2
block 174
 10
0.0
 20
0.0
 30
0.0
  0
INSERT
  5
659
330
619
100
AcDbEntity
  8
Capa 1
100
AcDbBlockReference
  2
block 175
 10
0.0
 20
0.0
 30
0.0
  0
INSERT
  5
661
330
619
100
AcDbEntity
  8
Capa 1
100
AcDbBlockReference
  2
block 176
 10
0.0
 20
0.0
 30
0.0
  0
INSERT
  5
669
330
619
100
AcDbEntity
  8
Capa 1
100
AcDbBlockReference
  2
block 177
 10
0.0
 20
0.0
 30
0.0
  0
ENDBLK
  5
61C
330
619
100
AcDbEntity
  8
0
100
AcDbBlockEnd
  0
BLOCK
  5
61F
330
61D
100
AcDbEntity
  8
0
100
AcDbBlockBegin
  2
block 168
 70
     0
 71
     0
 10
0.0
 20
0.0
 30
0.0
  3
block 168
  1

  0
POLYLINE
  5
621
330
61D
100
AcDbEntity
  8
Capa 1
 62
     7
420
 16777215
370
     9
100
AcDb2dPolyline
 66
     1
 10
0.0
 20
0.0
 30
0.0
  0
VERTEX
  5
622
330
621
100
AcDbEntity
  8
Capa 1
 62
     7
420
 16777215
370
     9
100
AcDbVertex
100
AcDb2dVertex
 10
15.87776654689383
 20
138.2672759669134
 30
0.0
  0
VERTEX
  5
623
330
621
100
AcDbEntity
  8
Capa 1
 62
     7
420
 16777215
370
     9
100
AcDbVertex
100
AcDb2dVertex
 10
15.87776654689383
 20
149.0712747907691
 30
0.0
  0
SEQEND
  5
624
330
621
100
AcDbEntity
  8
Capa 1
370
     9
  0
ENDBLK
  5
620
330
61D
100
AcDbEntity
  8
0
100
AcDbBlockEnd
  0
BLOCK
  5
627
330
625
100
AcDbEntity
  8
0
100
AcDbBlockBegin
  2
block 169
 70
     0
 71
     0
 10
0.0
 20
0.0
 30
0.0
  3
block 169
  1

  0
POLYLINE
  5
629
330
625
100
AcDbEntity
  8
Capa 1
 62
     7
420
 16777215
370
     9
100
AcDb2dPolyline
 66
     1
 10
0.0
 20
0.0
 30
0.0
  0
VERTEX
  5
62A
330
629
100
AcDbEntity
  8
Capa 1
 62
     7
420
 16777215
370
     9
100
AcDbVertex
100
AcDb2dVertex
 10
85.96483533486642
 20
138.2672759669134
 30
0.0
  0
VERTEX
  5
62B
330
629
100
AcDbEntity
  8
Capa 1
 62
     7
420
 16777215
370
     9
100
AcDbVertex
100
AcDb2dVertex
 10
85.96483533486642
 20
149.0712747907691
 30
0.0
  0
SEQEND
  5
62C
330
629
100
AcDbEntity
  8
Capa 1
370
     9
  0
ENDBLK
  5
628
330
625
100
AcDbEntity
  8
0
100
AcDbBlockEnd
  0
BLOCK
  5
62F
330
62D
100
AcDbEntity
  8
0
100
AcDbBlockBegin
  2
block 170
 70
     0
 71
     0
 10
0.0
 20
0.0
 30
0.0
  3
block 170
  1

  0
POLYLINE
  5
631
330
62D
100
AcDbEntity
  8
Capa 1
 62
     7
420
 16777215
370
     9
100
AcDb2dPolyline
 66
     1
 10
0.0
 20
0.0
 30
0.0
  0
VERTEX
  5
632
330
631
100
AcDbEntity
  8
Capa 1
 62
     7
420
 16777215
370
     9
100
AcDbVertex
100
AcDb2dVertex
 10
19.38074194718928
 20
146.7311921386737
 30
0.0
  0
VERTEX
  5
633
330
631
100
AcDbEntity
  8
Capa 1
 62
     7
420
 16777215
370
     9
100
AcDbVertex
100
AcDb2dVertex
 10
38.45280313526519
 20
146.7311921386737
 30
0.0
  0
SEQEND
  5
634
330
631
100
AcDbEntity
  8
Capa 1
370
     9
  0
ENDBLK
  5
630
330
62D
100
AcDbEntity
  8
0
100
AcDbBlockEnd
  0
BLOCK
  5
637
330
635
100
AcDbEntity
  8
0
100
AcDbBlockBegin
  2
block 171
 70
     0
 71
     0
 10
0.0
 20
0.0
 30
0.0
  3
block 171
  1

  0
POLYLINE
  5
639
330
635
100
AcDbEntity
  8
Capa 1
 62
     7
420
 16777215
370
     9
100
AcDb2dPolyline
 66
     1
 10
0.0
 20
0.0
 30
0.0
  0
VERTEX
  5
63A
330
639
100
AcDbEntity
  8
Capa 1
 62
     7
420
 16777215
370
     9
100
AcDbVertex
100
AcDb2dVertex
 10
82.4591038563646
 20
146.7311921386737
 30
0.0
  0
VERTEX
  5
63B
330
639
100
AcDbEntity
  8
Capa 1
 62
     7
420
 16777215
370
     9
100
AcDbVertex
100
AcDb2dVertex
 10
63.22719013231928
 20
146.7311921386737
 30
0.0
  0
SEQEND
  5
63C
330
639
100
AcDbEntity
  8
Capa 1
370
     9
  0
ENDBLK
  5
638
330
635
100
AcDbEntity
  8
0
100
AcDbBlockEnd
  0
BLOCK
  5
63F
330
63D
100
AcDbEntity
  8
0
100
AcDbBlockBegin
  2
block 172
 70
     0
 71
     0
 10
0.0
 20
0.0
 30
0.0
  3
block 172
  1

  0
POLYLINE
  5
641
330
63D
100
AcDbEntity
  8
Capa 1
370
     0
100
AcDb2dPolyline
 66
     1
 10
0.0
 20
0.0
 30
0.0
  0
VERTEX
  5
642
330
641
100
AcDbEntity
  8
Capa 1
370
     0
100
AcDbVertex
100
AcDb2dVertex
 10
19.38074194718928
 20
147.315480718424
 30
0.0
  0
VERTEX
  5
643
330
641
100
AcDbEntity
  8
Capa 1
370
     0
100
AcDbVertex
100
AcDb2dVertex
 10
19.38074194718928
 20
146.1496596371297
 30
0.0
  0
VERTEX
  5
644
330
641
100
AcDbEntity
  8
Capa 1
370
     0
100
AcDbVertex
100
AcDb2dVertex
 10
15.87776654689383
 20
146.7311921386737
 30
0.0
  0
VERTEX
  5
645
330
641
100
AcDbEntity
  8
Capa 1
370
     0
100
AcDbVertex
100
AcDb2dVertex
 10
19.38074194718928
 20
147.315480718424
 30
0.0
  0
SEQEND
  5
646
330
641
100
AcDbEntity
  8
Capa 1
370
     0
  0
HATCH
  5
647
330
63D
100
AcDbEntity
  8
Capa 1
 62
     7
420
 16777215
100
AcDbHatch
 10
0.0
 20
0.0
 30
0.0
210
0.0
220
0.0
230
1.0
  2
SOLID
 70
     1
 71
     0
 91
        1
 92
        1
 93
        3
 72
     1
 10
19.38074194718928
 20
147.315480718424
 11
19.38074194718928
 21
146.1496596371297
 72
     1
 10
19.38074194718928
 20
146.1496596371297
 11
15.87776654689383
 21
146.7311921386737
 72
     1
 10
15.87776654689383
 20
146.7311921386737
 11
19.38074194718928
 21
147.315480718424
 97
        0
 75
     2
 76
     1
 98
        0
  0
ENDBLK
  5
640
330
63D
100
AcDbEntity
  8
0
100
AcDbBlockEnd
  0
BLOCK
  5
64A
330
648
100
AcDbEntity
  8
0
100
AcDbBlockBegin
  2
block 173
 70
     0
 71
     0
 10
0.0
 20
0.0
 30
0.0
  3
block 173
  1

  0
POLYLINE
  5
64C
330
648
100
AcDbEntity
  8
Capa 1
370
     0
100
AcDb2dPolyline
 66
     1
 10
0.0
 20
0.0
 30
0.0
  0
VERTEX
  5
64D
330
64C
100
AcDbEntity
  8
Capa 1
370
     0
100
AcDbVertex
100
AcDb2dVertex
 10
82.4591038563646
 20
147.315480718424
 30
0.0
  0
VERTEX
  5
64E
330
64C
100
AcDbEntity
  8
Capa 1
370
     0
100
AcDbVertex
100
AcDb2dVertex
 10
82.4591038563646
 20
146.1496596371297
 30
0.0
  0
VERTEX
  5
64F
330
64C
100
AcDbEntity
  8
Capa 1
370
     0
100
AcDbVertex
100
AcDb2dVertex
 10
85.96483533486642
 20
146.7311921386737
 30
0.0
  0
VERTEX
  5
650
330
64C
100
AcDbEntity
  8
Capa 1
370
     0
100
AcDbVertex
100
AcDb2dVertex
 10
82.4591038563646
 20
147.315480718424
 30
0.0
  0
SEQEND
  5
651
330
64C
100
AcDbEntity
  8
Capa 1
370
     0
  0
HATCH
  5
652
330
648
100
AcDbEntity
  8
Capa 1
 62
     7
420
 16777215
100
AcDbHatch
 10
0.0
 20
0.0
 30
0.0
210
0.0
220
0.0
230
1.0
  2
SOLID
 70
     1
 71
     0
 91
        1
 92
        1
 93
        3
 72
     1
 10
82.4591038563646
 20
147.315480718424
 11
82.4591038563646
 21
146.1496596371297
 72
     1
 10
82.4591038563646
 20
146.1496596371297
 11
85.96483533486642
 21
146.7311921386737
 72
     1
 10
85.96483533486642
 20
146.7311921386737
 11
82.4591038563646
 21
147.315480718424
 97
        0
 75
     2
 76
     1
 98
        0
  0
ENDBLK
  5
64B
330
648
100
AcDbEntity
  8
0
100
AcDbBlockEnd
  0
BLOCK
  5
655
330
653
100
AcDbEntity
  8
0
100
AcDbBlockBegin
  2
block 174
 70
     0
 71
     0
 10
0.0
 20
0.0
 30
0.0
  3
block 174
  1

  0
MTEXT
  5
657
330
653
100
AcDbEntity
  8
Capa 1
 62
     7
420
 16777215
100
AcDbMText
 10
38.73116703410849
 20
145.7610526100316
 30
0.0
 40
2.920234194277579
 41
0.0
 71
     7
 72
     1
  1
\fArial|b1|i0|c0|p34;\W1;500/550/600
 73
     1
 44
1.0
  0
ENDBLK
  5
656
330
653
100
AcDbEntity
  8
0
100
AcDbBlockEnd
  0
BLOCK
  5
65A
330
658
100
AcDbEntity
  8
0
100
AcDbBlockBegin
  2
block 175
 70
     0
 71
     0
 10
0.0
 20
0.0
 30
0.0
  3
block 175
  1

  0
POLYLINE
  5
65C
330
658
100
AcDbEntity
  8
Capa 1
 62
     3
420
    65280
370
     9
100
AcDb2dPolyline
 66
     1
 10
0.0
 20
0.0
 30
0.0
  0
VERTEX
  5
65D
330
65C
100
AcDbEntity
  8
Capa 1
 62
     3
420
    65280
370
     9
100
AcDbVertex
100
AcDb2dVertex
 10
15.87776654689383
 20
138.2672759669134
 30
0.0
  0
VERTEX
  5
65E
330
65C
100
AcDbEntity
  8
Capa 1
 62
     3
420
    65280
370
     9
100
AcDbVertex
100
AcDb2dVertex
 10
15.87776654689383
 20
138.2672759669134
 30
0.0
  0
SEQEND
  5
65F
330
65C
100
AcDbEntity
  8
Capa 1
370
     9
  0
ENDBLK
  5
65B
330
658
100
AcDbEntity
  8
0
100
AcDbBlockEnd
  0
BLOCK
  5
662
330
660
100
AcDbEntity
  8
0
100
AcDbBlockBegin
  2
block 176
 70
     0
 71
     0
 10
0.0
 20
0.0
 30
0.0
  3
block 176
  1

  0
POLYLINE
  5
664
330
660
100
AcDbEntity
  8
Capa 1
 62
     3
420
    65280
370
     9
100
AcDb2dPolyline
 66
     1
 10
0.0
 20
0.0
 30
0.0
  0
VERTEX
  5
665
330
664
100
AcDbEntity
  8
Capa 1
 62
     3
420
    65280
370
     9
100
AcDbVertex
100
AcDb2dVertex
 10
85.96483533486642
 20
138.2672759669134
 30
0.0
  0
VERTEX
  5
666
330
664
100
AcDbEntity
  8
Capa 1
 62
     3
420
    65280
370
     9
100
AcDbVertex
100
AcDb2dVertex
 10
85.96483533486642
 20
138.2672759669134
 30
0.0
  0
SEQEND
  5
667
330
664
100
AcDbEntity
  8
Capa 1
370
     9
  0
ENDBLK
  5
663
330
660
100
AcDbEntity
  8
0
100
AcDbBlockEnd
  0
BLOCK
  5
66A
330
668
100
AcDbEntity
  8
0
100
AcDbBlockBegin
  2
block 177
 70
     0
 71
     0
 10
0.0
 20
0.0
 30
0.0
  3
block 177
  1

  0
POLYLINE
  5
66C
330
668
100
AcDbEntity
  8
Capa 1
370
     0
100
AcDb2dPolyline
 66
     1
 10
0.0
 20
0.0
 30
0.0
  0
VERTEX
  5
66D
330
66C
100
AcDbEntity
  8
Capa 1
370
     0
100
AcDbVertex
100
AcDb2dVertex
 10
85.96483533486642
 20
146.7311921386737
 30
0.0
  0
VERTEX
  5
66E
330
66C
100
AcDbEntity
  8
Capa 1
370
     0
100
AcDbVertex
100
AcDb2dVertex
 10
85.96483533486642
 20
146.7311921386737
 30
0.0
  0
SEQEND
  5
66F
330
66C
100
AcDbEntity
  8
Capa 1
370
     0
  0
ENDBLK
  5
66B
330
668
100
AcDbEntity
  8
0
100
AcDbBlockEnd
  0
BLOCK
  5
672
330
670
100
AcDbEntity
  8
0
100
AcDbBlockBegin
  2
block 178
 70
     0
 71
     0
 10
0.0
 20
0.0
 30
0.0
  3
block 178
  1

  0
POLYLINE
  5
674
330
670
100
AcDbEntity
  8
Capa 1
 62
     7
420
 16777215
370
     9
100
AcDb2dPolyline
 66
     1
 10
0.0
 20
0.0
 30
0.0
  0
VERTEX
  5
675
330
674
100
AcDbEntity
  8
Capa 1
 62
     7
420
 16777215
370
     9
100
AcDbVertex
100
AcDb2dVertex
 10
84.38560252261678
 20
122.9655297651507
 30
0.0
  0
VERTEX
  5
756
330
674
100
AcDbEntity
  8
0
100
AcDbVertex
100
AcDb2dVertex
 10
84.38560252261678
 20
122.9655297651507
 30
0.0
  0
SEQEND
  5
676
330
674
100
AcDbEntity
  8
Capa 1
370
     9
  0
POLYLINE
  5
677
330
670
100
AcDbEntity
  8
Capa 1
 62
     7
420
 16777215
370
     9
100
AcDb2dPolyline
 66
     1
 10
0.0
 20
0.0
 30
0.0
  0
VERTEX
  5
678
330
677
100
AcDbEntity
  8
Capa 1
 62
     7
420
 16777215
370
     9
100
AcDbVertex
100
AcDb2dVertex
 10
84.38560252261678
 20
122.9655297651507
 30
0.0
  0
VERTEX
  5
757
330
677
100
AcDbEntity
  8
0
100
AcDbVertex
100
AcDb2dVertex
 10
84.38560252261678
 20
122.9655297651507
 30
0.0
  0
SEQEND
  5
679
330
677
100
AcDbEntity
  8
Capa 1
370
     9
  0
POLYLINE
  5
67A
330
670
100
AcDbEntity
  8
Capa 1
 62
     7
420
 16777215
370
     9
100
AcDb2dPolyline
 66
     1
 10
0.0
 20
0.0
 30
0.0
  0
VERTEX
  5
67B
330
67A
100
AcDbEntity
  8
Capa 1
 62
     7
420
 16777215
370
     9
100
AcDbVertex
100
AcDb2dVertex
 10
50.92130094088012
 20
99.42862188275649
 30
0.0
  0
VERTEX
  5
67C
330
67A
100
AcDbEntity
  8
Capa 1
 62
     7
420
 16777215
370
     9
100
AcDbVertex
100
AcDb2dVertex
 10
53.64706228697941
 20
99.43137796096286
 30
0.0
  0
VERTEX
  5
67D
330
67A
100
AcDbEntity
  8
Capa 1
 62
     7
420
 16777215
370
     9
100
AcDbVertex
100
AcDb2dVertex
 10
56.59882204600099
 20
99.4368901173756
 30
0.0
  0
VERTEX
  5
67E
330
67A
100
AcDbEntity
  8
Capa 1
 62
     7
420
 16777215
370
     9
100
AcDbVertex
100
AcDb2dVertex
 10
59.41002181649772
 20
99.44791443020108
 30
0.0
  0
VERTEX
  5
67F
330
67A
100
AcDbEntity
  8
Capa 1
 62
     7
420
 16777215
370
     9
100
AcDbVertex
100
AcDb2dVertex
 10
62.08341767667599
 20
99.4644508994393
 30
0.0
  0
VERTEX
  5
680
330
67A
100
AcDbEntity
  8
Capa 1
 62
     7
420
 16777215
370
     9
100
AcDbVertex
100
AcDb2dVertex
 10
64.6190096265358
 20
99.48098736867752
 30
0.0
  0
VERTEX
  5
681
330
67A
100
AcDbEntity
  8
Capa 1
 62
     7
420
 16777215
370
     9
100
AcDbVertex
100
AcDb2dVertex
 10
67.03057805710898
 20
99.5002799161221
 30
0.0
  0
VERTEX
  5
682
330
67A
100
AcDbEntity
  8
Capa 1
 62
     7
420
 16777215
370
     9
100
AcDbVertex
100
AcDb2dVertex
 10
69.31812296839554
 20
99.52508461997942
 30
0.0
  0
VERTEX
  5
683
330
67A
100
AcDbEntity
  8
Capa 1
 62
     7
420
 16777215
370
     9
100
AcDbVertex
100
AcDb2dVertex
 10
71.55054631555471
 20
99.54988932383675
 30
0.0
  0
VERTEX
  5
684
330
67A
100
AcDbEntity
  8
Capa 1
 62
     7
420
 16777215
370
     9
100
AcDbVertex
100
AcDb2dVertex
 10
73.6920190819037
 20
99.57469402769406
 30
0.0
  0
VERTEX
  5
685
330
67A
100
AcDbEntity
  8
Capa 1
 62
     7
420
 16777215
370
     9
100
AcDbVertex
100
AcDb2dVertex
 10
75.76183381488708
 20
99.60501088796413
 30
0.0
  0
VERTEX
  5
686
330
67A
100
AcDbEntity
  8
Capa 1
 62
     7
420
 16777215
370
     9
100
AcDbVertex
100
AcDb2dVertex
 10
76.70992471787814
 20
99.61879127899599
 30
0.0
  0
VERTEX
  5
687
330
67A
100
AcDbEntity
  8
Capa 1
 62
     7
420
 16777215
370
     9
100
AcDbVertex
100
AcDb2dVertex
 10
77.64423522983735
 20
99.63257167002783
 30
0.0
  0
VERTEX
  5
688
330
67A
100
AcDbEntity
  8
Capa 1
 62
     7
420
 16777215
370
     9
100
AcDbVertex
100
AcDb2dVertex
 10
78.55098495973287
 20
99.64635206105967
 30
0.0
  0
VERTEX
  5
689
330
67A
100
AcDbEntity
  8
Capa 1
 62
     7
420
 16777215
370
     9
100
AcDbVertex
100
AcDb2dVertex
 10
79.35300371778635
 20
99.671156764917
 30
0.0
  0
VERTEX
  5
68A
330
67A
100
AcDbEntity
  8
Capa 1
 62
     7
420
 16777215
370
     9
100
AcDbVertex
100
AcDb2dVertex
 10
80.03375503475958
 20
99.76486342393356
 30
0.0
  0
VERTEX
  5
68B
330
67A
100
AcDbEntity
  8
Capa 1
 62
     7
420
 16777215
370
     9
100
AcDbVertex
100
AcDb2dVertex
 10
80.72001850814554
 20
99.95227674196667
 30
0.0
  0
VERTEX
  5
68C
330
67A
100
AcDbEntity
  8
Capa 1
 62
     7
420
 16777215
370
     9
100
AcDbVertex
100
AcDb2dVertex
 10
81.3263557135468
 20
100.2003237805399
 30
0.0
  0
VERTEX
  5
68D
330
67A
100
AcDbEntity
  8
Capa 1
 62
     7
420
 16777215
370
     9
100
AcDbVertex
100
AcDb2dVertex
 10
81.84174233813788
 20
100.484199835796
 30
0.0
  0
VERTEX
  5
68E
330
67A
100
AcDbEntity
  8
Capa 1
 62
     7
420
 16777215
370
     9
100
AcDbVertex
100
AcDb2dVertex
 10
82.14766701904487
 20
100.6909057012737
 30
0.0
  0
VERTEX
  5
68F
330
67A
100
AcDbEntity
  8
Capa 1
 62
     7
420
 16777215
370
     9
100
AcDbVertex
100
AcDb2dVertex
 10
82.41225052685633
 20
100.8976115667514
 30
0.0
  0
VERTEX
  5
690
330
67A
100
AcDbEntity
  8
Capa 1
 62
     7
420
 16777215
370
     9
100
AcDbVertex
100
AcDb2dVertex
 10
82.62998070515951
 20
101.0877809629908
 30
0.0
  0
VERTEX
  5
691
330
67A
100
AcDbEntity
  8
Capa 1
 62
     7
420
 16777215
370
     9
100
AcDbVertex
100
AcDb2dVertex
 10
82.8284183360181
 20
101.2807064374367
 30
0.0
  0
VERTEX
  5
692
330
67A
100
AcDbEntity
  8
Capa 1
 62
     7
420
 16777215
370
     9
100
AcDbVertex
100
AcDb2dVertex
 10
83.07370929638498
 20
101.5452899452482
 30
0.0
  0
VERTEX
  5
693
330
67A
100
AcDbEntity
  8
Capa 1
 62
     7
420
 16777215
370
     9
100
AcDbVertex
100
AcDb2dVertex
 10
83.34656103881554
 20
101.8925557992507
 30
0.0
  0
VERTEX
  5
694
330
67A
100
AcDbEntity
  8
Capa 1
 62
     7
420
 16777215
370
     9
100
AcDbVertex
100
AcDb2dVertex
 10
83.57807160815057
 20
102.2370655750469
 30
0.0
  0
VERTEX
  5
695
330
67A
100
AcDbEntity
  8
Capa 1
 62
     7
420
 16777215
370
     9
100
AcDbVertex
100
AcDb2dVertex
 10
83.75170453515183
 20
102.5429902559539
 30
0.0
  0
VERTEX
  5
696
330
67A
100
AcDbEntity
  8
Capa 1
 62
     7
420
 16777215
370
     9
100
AcDbVertex
100
AcDb2dVertex
 10
83.88399628905756
 20
102.8048176855589
 30
0.0
  0
VERTEX
  5
697
330
67A
100
AcDbEntity
  8
Capa 1
 62
     7
420
 16777215
370
     9
100
AcDbVertex
100
AcDb2dVertex
 10
83.98045902628049
 20
103.0197917856558
 30
0.0
  0
VERTEX
  5
698
330
67A
100
AcDbEntity
  8
Capa 1
 62
     7
420
 16777215
370
     9
100
AcDbVertex
100
AcDb2dVertex
 10
84.08243391991616
 20
103.2981556844991
 30
0.0
  0
VERTEX
  5
699
330
67A
100
AcDbEntity
  8
Capa 1
 62
     7
420
 16777215
370
     9
100
AcDbVertex
100
AcDb2dVertex
 10
84.1954331263773
 20
103.6619580077398
 30
0.0
  0
VERTEX
  5
69A
330
67A
100
AcDbEntity
  8
Capa 1
 62
     7
420
 16777215
370
     9
100
AcDbVertex
100
AcDb2dVertex
 10
84.29740802001297
 20
104.1167109117908
 30
0.0
  0
VERTEX
  5
69B
330
67A
100
AcDbEntity
  8
Capa 1
 62
     7
420
 16777215
370
     9
100
AcDbVertex
100
AcDb2dVertex
 10
84.36906605337856
 20
104.6651704748583
 30
0.0
  0
VERTEX
  5
69C
330
67A
100
AcDbEntity
  8
Capa 1
 62
     7
420
 16777215
370
     9
100
AcDbVertex
100
AcDb2dVertex
 10
84.38560252261678
 20
105.387262964927
 30
0.0
  0
VERTEX
  5
69D
330
67A
100
AcDbEntity
  8
Capa 1
 62
     7
420
 16777215
370
     9
100
AcDbVertex
100
AcDb2dVertex
 10
84.38560252261678
 20
106.2995248512353
 30
0.0
  0
VERTEX
  5
69E
330
67A
100
AcDbEntity
  8
Capa 1
 62
     7
420
 16777215
370
     9
100
AcDbVertex
100
AcDb2dVertex
 10
84.38560252261678
 20
109.3835763641626
 30
0.0
  0
VERTEX
  5
69F
330
67A
100
AcDbEntity
  8
Capa 1
 62
     7
420
 16777215
370
     9
100
AcDbVertex
100
AcDb2dVertex
 10
84.38560252261678
 20
110.5301048980122
 30
0.0
  0
VERTEX
  5
6A0
330
67A
100
AcDbEntity
  8
Capa 1
 62
     7
420
 16777215
370
     9
100
AcDbVertex
100
AcDb2dVertex
 10
84.38560252261678
 20
111.7868765601167
 30
0.0
  0
VERTEX
  5
6A1
330
67A
100
AcDbEntity
  8
Capa 1
 62
     7
420
 16777215
370
     9
100
AcDbVertex
100
AcDb2dVertex
 10
84.38560252261678
 20
113.1483791940631
 30
0.0
  0
VERTEX
  5
6A2
330
67A
100
AcDbEntity
  8
Capa 1
 62
     7
420
 16777215
370
     9
100
AcDbVertex
100
AcDb2dVertex
 10
84.38560252261678
 20
114.8406112127739
 30
0.0
  0
VERTEX
  5
6A3
330
67A
100
AcDbEntity
  8
Capa 1
 62
     7
420
 16777215
370
     9
100
AcDbVertex
100
AcDb2dVertex
 10
84.38560252261678
 20
116.6678910635968
 30
0.0
  0
VERTEX
  5
6A4
330
67A
100
AcDbEntity
  8
Capa 1
 62
     7
420
 16777215
370
     9
100
AcDbVertex
100
AcDb2dVertex
 10
84.38560252261678
 20
118.6384869811509
 30
0.0
  0
VERTEX
  5
6A5
330
67A
100
AcDbEntity
  8
Capa 1
 62
     7
420
 16777215
370
     9
100
AcDbVertex
100
AcDb2dVertex
 10
84.38560252261678
 20
120.7496428872298
 30
0.0
  0
VERTEX
  5
6A6
330
67A
100
AcDbEntity
  8
Capa 1
 62
     7
420
 16777215
370
     9
100
AcDbVertex
100
AcDb2dVertex
 10
84.38560252261678
 20
122.9655297651507
 30
0.0
  0
SEQEND
  5
6A7
330
67A
100
AcDbEntity
  8
Capa 1
370
     9
  0
ENDBLK
  5
673
330
670
100
AcDbEntity
  8
0
100
AcDbBlockEnd
  0
BLOCK
  5
6AA
330
6A8
100
AcDbEntity
  8
0
100
AcDbBlockBegin
  2
block 179
 70
     0
 71
     0
 10
0.0
 20
0.0
 30
0.0
  3
block 179
  1

  0
POLYLINE
  5
6AC
330
6A8
100
AcDbEntity
  8
Capa 1
 62
     7
420
 16777215
370
     9
100
AcDb2dPolyline
 66
     1
 10
0.0
 20
0.0
 30
0.0
  0
VERTEX
  5
6AD
330
6AC
100
AcDbEntity
  8
Capa 1
 62
     7
420
 16777215
370
     9
100
AcDbVertex
100
AcDb2dVertex
 10
50.92130094088012
 20
97.85214514871322
 30
0.0
  0
VERTEX
  5
6AE
330
6AC
100
AcDbEntity
  8
Capa 1
 62
     7
420
 16777215
370
     9
100
AcDbVertex
100
AcDb2dVertex
 10
53.64706228697941
 20
97.85214514871322
 30
0.0
  0
VERTEX
  5
6AF
330
6AC
100
AcDbEntity
  8
Capa 1
 62
     7
420
 16777215
370
     9
100
AcDbVertex
100
AcDb2dVertex
 10
56.60157812420736
 20
97.86041338333233
 30
0.0
  0
VERTEX
  5
6B0
330
6AC
100
AcDbEntity
  8
Capa 1
 62
     7
420
 16777215
370
     9
100
AcDbVertex
100
AcDb2dVertex
 10
59.41553397291047
 20
97.87143769615781
 30
0.0
  0
VERTEX
  5
6B1
330
6AC
100
AcDbEntity
  8
Capa 1
 62
     7
420
 16777215
370
     9
100
AcDbVertex
100
AcDb2dVertex
 10
62.0916859112951
 20
97.88521808718966
 30
0.0
  0
VERTEX
  5
6B2
330
6AC
100
AcDbEntity
  8
Capa 1
 62
     7
420
 16777215
370
     9
100
AcDbVertex
100
AcDb2dVertex
 10
64.63279001756764
 20
97.90451063463425
 30
0.0
  0
VERTEX
  5
6B3
330
6AC
100
AcDbEntity
  8
Capa 1
 62
     7
420
 16777215
370
     9
100
AcDbVertex
100
AcDb2dVertex
 10
67.04435844814083
 20
97.9265592602852
 30
0.0
  0
VERTEX
  5
6B4
330
6AC
100
AcDbEntity
  8
Capa 1
 62
     7
420
 16777215
370
     9
100
AcDbVertex
100
AcDb2dVertex
 10
69.33465943763376
 20
97.94860788593616
 30
0.0
  0
VERTEX
  5
6B5
330
6AC
100
AcDbEntity
  8
Capa 1
 62
     7
420
 16777215
370
     9
100
AcDbVertex
100
AcDb2dVertex
 10
71.56708278479293
 20
97.97341258979348
 30
0.0
  0
VERTEX
  5
6B6
330
6AC
100
AcDbEntity
  8
Capa 1
 62
     7
420
 16777215
370
     9
100
AcDbVertex
100
AcDb2dVertex
 10
73.71406770755466
 20
98.00097337185717
 30
0.0
  0
VERTEX
  5
6B7
330
6AC
100
AcDbEntity
  8
Capa 1
 62
     7
420
 16777215
370
     9
100
AcDbVertex
100
AcDb2dVertex
 10
75.78388244053804
 20
98.02853415392086
 30
0.0
  0
VERTEX
  5
6B8
330
6AC
100
AcDbEntity
  8
Capa 1
 62
     7
420
 16777215
370
     9
100
AcDbVertex
100
AcDb2dVertex
 10
76.73472942173547
 20
98.03955846674634
 30
0.0
  0
VERTEX
  5
6B9
330
6AC
100
AcDbEntity
  8
Capa 1
 62
     7
420
 16777215
370
     9
100
AcDbVertex
100
AcDb2dVertex
 10
77.66903993369468
 20
98.05609493598456
 30
0.0
  0
VERTEX
  5
6BA
330
6AC
100
AcDbEntity
  8
Capa 1
 62
     7
420
 16777215
370
     9
100
AcDbVertex
100
AcDb2dVertex
 10
78.58957005462204
 20
98.0698753270164
 30
0.0
  0
VERTEX
  5
6BB
330
6AC
100
AcDbEntity
  8
Capa 1
 62
     7
420
 16777215
370
     9
100
AcDbVertex
100
AcDb2dVertex
 10
79.48805154989844
 20
98.09468003087373
 30
0.0
  0
VERTEX
  5
6BC
330
6AC
100
AcDbEntity
  8
Capa 1
 62
     7
420
 16777215
370
     9
100
AcDbVertex
100
AcDb2dVertex
 10
80.35346010669842
 20
98.21594747195398
 30
0.0
  0
VERTEX
  5
6BD
330
6AC
100
AcDbEntity
  8
Capa 1
 62
     7
420
 16777215
370
     9
100
AcDbVertex
100
AcDb2dVertex
 10
81.22989297632388
 20
98.45572627590812
 30
0.0
  0
VERTEX
  5
6BE
330
6AC
100
AcDbEntity
  8
Capa 1
 62
     7
420
 16777215
370
     9
100
AcDbVertex
100
AcDb2dVertex
 10
82.01261918693277
 20
98.77818742605332
 30
0.0
  0
VERTEX
  5
6BF
330
6AC
100
AcDbEntity
  8
Capa 1
 62
     7
420
 16777215
370
     9
100
AcDbVertex
100
AcDb2dVertex
 10
82.66305364363593
 20
99.13923367108771
 30
0.0
  0
VERTEX
  5
6C0
330
6AC
100
AcDbEntity
  8
Capa 1
 62
     7
420
 16777215
370
     9
100
AcDbVertex
100
AcDb2dVertex
 10
83.0709532181786
 20
99.41484149172464
 30
0.0
  0
VERTEX
  5
6C1
330
6AC
100
AcDbEntity
  8
Capa 1
 62
     7
420
 16777215
370
     9
100
AcDbVertex
100
AcDb2dVertex
 10
83.41546299397477
 20
99.67942499953611
 30
0.0
  0
VERTEX
  5
6C2
330
6AC
100
AcDbEntity
  8
Capa 1
 62
     7
420
 16777215
370
     9
100
AcDbVertex
100
AcDb2dVertex
 10
83.69658297102444
 20
99.92747203810934
 30
0.0
  0
VERTEX
  5
6C3
330
6AC
100
AcDbEntity
  8
Capa 1
 62
     7
420
 16777215
370
     9
100
AcDbVertex
100
AcDb2dVertex
 10
83.96392255704227
 20
100.1810312330953
 30
0.0
  0
VERTEX
  5
6C4
330
6AC
100
AcDbEntity
  8
Capa 1
 62
     7
420
 16777215
370
     9
100
AcDbVertex
100
AcDb2dVertex
 10
84.27535939436201
 20
100.5227849306851
 30
0.0
  0
VERTEX
  5
6C5
330
6AC
100
AcDbEntity
  8
Capa 1
 62
     7
420
 16777215
370
     9
100
AcDbVertex
100
AcDb2dVertex
 10
84.61986917015818
 20
100.9637574437042
 30
0.0
  0
VERTEX
  5
6C6
330
6AC
100
AcDbEntity
  8
Capa 1
 62
     7
420
 16777215
370
     9
100
AcDbVertex
100
AcDb2dVertex
 10
84.91752561644607
 20
101.401973878517
 30
0.0
  0
VERTEX
  5
6C7
330
6AC
100
AcDbEntity
  8
Capa 1
 62
     7
420
 16777215
370
     9
100
AcDbVertex
100
AcDb2dVertex
 10
85.14352402936835
 20
101.7988491402341
 30
0.0
  0
VERTEX
  5
6C8
330
6AC
100
AcDbEntity
  8
Capa 1
 62
     7
420
 16777215
370
     9
100
AcDbVertex
100
AcDb2dVertex
 10
85.31440087816326
 20
102.1350906814112
 30
0.0
  0
VERTEX
  5
6C9
330
6AC
100
AcDbEntity
  8
Capa 1
 62
     7
420
 16777215
370
     9
100
AcDbVertex
100
AcDb2dVertex
 10
85.44118047565624
 20
102.42447889308
 30
0.0
  0
VERTEX
  5
6CA
330
6AC
100
AcDbEntity
  8
Capa 1
 62
     7
420
 16777215
370
     9
100
AcDbVertex
100
AcDb2dVertex
 10
85.57347222956197
 20
102.7855251381144
 30
0.0
  0
VERTEX
  5
6CB
330
6AC
100
AcDbEntity
  8
Capa 1
 62
     7
420
 16777215
370
     9
100
AcDbVertex
100
AcDb2dVertex
 10
85.71954437449955
 20
103.2568145114035
 30
0.0
  0
VERTEX
  5
6CC
330
6AC
100
AcDbEntity
  8
Capa 1
 62
     7
420
 16777215
370
     9
100
AcDbVertex
100
AcDb2dVertex
 10
85.8490800501989
 20
103.8438591693602
 30
0.0
  0
VERTEX
  5
6CD
330
6AC
100
AcDbEntity
  8
Capa 1
 62
     7
420
 16777215
370
     9
100
AcDbVertex
100
AcDb2dVertex
 10
85.94278670921547
 20
104.543903033778
 30
0.0
  0
VERTEX
  5
6CE
330
6AC
100
AcDbEntity
  8
Capa 1
 62
     7
420
 16777215
370
     9
100
AcDbVertex
100
AcDb2dVertex
 10
85.96483533486642
 20
105.3679704174824
 30
0.0
  0
VERTEX
  5
6CF
330
6AC
100
AcDbEntity
  8
Capa 1
 62
     7
420
 16777215
370
     9
100
AcDbVertex
100
AcDb2dVertex
 10
85.96483533486642
 20
106.2995248512353
 30
0.0
  0
VERTEX
  5
6D0
330
6AC
100
AcDbEntity
  8
Capa 1
 62
     7
420
 16777215
370
     9
100
AcDbVertex
100
AcDb2dVertex
 10
85.96483533486642
 20
109.3835763641626
 30
0.0
  0
VERTEX
  5
6D1
330
6AC
100
AcDbEntity
  8
Capa 1
 62
     7
420
 16777215
370
     9
100
AcDbVertex
100
AcDb2dVertex
 10
85.96483533486642
 20
110.5301048980122
 30
0.0
  0
VERTEX
  5
6D2
330
6AC
100
AcDbEntity
  8
Capa 1
 62
     7
420
 16777215
370
     9
100
AcDbVertex
100
AcDb2dVertex
 10
85.96483533486642
 20
111.7868765601167
 30
0.0
  0
VERTEX
  5
6D3
330
6AC
100
AcDbEntity
  8
Capa 1
 62
     7
420
 16777215
370
     9
100
AcDbVertex
100
AcDb2dVertex
 10
85.96483533486642
 20
113.1483791940631
 30
0.0
  0
VERTEX
  5
6D4
330
6AC
100
AcDbEntity
  8
Capa 1
 62
     7
420
 16777215
370
     9
100
AcDbVertex
100
AcDb2dVertex
 10
85.96483533486642
 20
114.8406112127739
 30
0.0
  0
VERTEX
  5
6D5
330
6AC
100
AcDbEntity
  8
Capa 1
 62
     7
420
 16777215
370
     9
100
AcDbVertex
100
AcDb2dVertex
 10
85.96483533486642
 20
116.6678910635968
 30
0.0
  0
VERTEX
  5
6D6
330
6AC
100
AcDbEntity
  8
Capa 1
 62
     7
420
 16777215
370
     9
100
AcDbVertex
100
AcDb2dVertex
 10
85.96483533486642
 20
118.6384869811509
 30
0.0
  0
VERTEX
  5
6D7
330
6AC
100
AcDbEntity
  8
Capa 1
 62
     7
420
 16777215
370
     9
100
AcDbVertex
100
AcDb2dVertex
 10
85.96483533486642
 20
120.7496428872298
 30
0.0
  0
VERTEX
  5
6D8
330
6AC
100
AcDbEntity
  8
Capa 1
 62
     7
420
 16777215
370
     9
100
AcDbVertex
100
AcDb2dVertex
 10
85.96483533486642
 20
123.0041148600399
 30
0.0
  0
VERTEX
  5
6D9
330
6AC
100
AcDbEntity
  8
Capa 1
 62
     7
420
 16777215
370
     9
100
AcDbVertex
100
AcDb2dVertex
 10
85.96483533486642
 20
125.3963907431685
 30
0.0
  0
VERTEX
  5
6DA
330
6AC
100
AcDbEntity
  8
Capa 1
 62
     7
420
 16777215
370
     9
100
AcDbVertex
100
AcDb2dVertex
 10
85.96483533486642
 20
138.2672759669134
 30
0.0
  0
SEQEND
  5
6DB
330
6AC
100
AcDbEntity
  8
Capa 1
370
     9
  0
ENDBLK
  5
6AB
330
6A8
100
AcDbEntity
  8
0
100
AcDbBlockEnd
  0
BLOCK
  5
6DE
330
6DC
100
AcDbEntity
  8
0
100
AcDbBlockBegin
  2
block 180
 70
     0
 71
     0
 10
0.0
 20
0.0
 30
0.0
  3
block 180
  1

  0
SPLINE
  5
6E0
330
6DC
100
AcDbEntity
  8
Capa 1
 62
     7
420
 16777215
370
     9
100
AcDbSpline
210
0.0
220
0.0
230
1.0
 70
     8
 71
     3
 72
    26
 73
    22
 74
     0
 42
0.0000000001
 43
0.0000000001
 40
0.0
 40
0.0
 40
0.0
 40
0.0
 40
1.0
 40
1.0
 40
1.0
 40
2.0
 40
2.0
 40
2.0
 40
3.0
 40
3.0
 40
3.0
 40
4.0
 40
4.0
 40
4.0
 40
5.0
 40
5.0
 40
5.0
 40
6.0
 40
6.0
 40
6.0
 40
7.0
 40
7.0
 40
7.0
 40
7.0
 10
43.91259406208287
 20
125.459780541915
 30
0.0
 10
43.93739876594019
 20
125.459780541915
 30
0.0
 10
43.96495954800388
 20
125.459780541915
 30
0.0
 10
43.99252033006758
 20
125.4625366201214
 30
0.0
 10
43.99252033006758
 20
125.4625366201214
 30
0.0
 10
43.99252033006758
 20
125.4625366201214
 30
0.0
 10
43.99252033006758
 20
125.4625366201214
 30
0.0
 10
44.17442149168795
 20
125.4708048547405
 30
0.0
 10
44.35356657510196
 20
125.5066338714233
 30
0.0
 10
44.51617518927775
 20
125.5700236701698
 30
0.0
 10
44.51617518927775
 20
125.5700236701698
 30
0.0
 10
44.51617518927775
 20
125.5700236701698
 30
0.0
 10
44.51617518927775
 20
125.5700236701698
 30
0.0
 10
44.67878380345355
 20
125.6334134689163
 30
0.0
 10
44.82209987018475
 20
125.7216079715201
 30
0.0
 10
44.93785515485227
 20
125.8318510997749
 30
0.0
 10
44.93785515485227
 20
125.8318510997749
 30
0.0
 10
44.93785515485227
 20
125.8318510997749
 30
0.0
 10
44.93785515485227
 20
125.8318510997749
 30
0.0
 10
45.02329357924972
 20
125.914533445966
 30
0.0
 10
45.08668337799621
 20
126.0109961831889
 30
0.0
 10
45.13353670750449
 20
126.1129710768246
 30
0.0
  0
ENDBLK
  5
6DF
330
6DC
100
AcDbEntity
  8
0
100
AcDbBlockEnd
  0
BLOCK
  5
6E3
330
6E1
100
AcDbEntity
  8
0
100
AcDbBlockBegin
  2
block 181
 70
     0
 71
     0
 10
0.0
 20
0.0
 30
0.0
  3
block 181
  1

  0
SPLINE
  5
6E5
330
6E1
100
AcDbEntity
  8
Capa 1
 62
     7
420
 16777215
370
     9
100
AcDbSpline
210
0.0
220
0.0
230
1.0
 70
     8
 71
     3
 72
    26
 73
    22
 74
     0
 42
0.0000000001
 43
0.0000000001
 40
0.0
 40
0.0
 40
0.0
 40
0.0
 40
1.0
 40
1.0
 40
1.0
 40
2.0
 40
2.0
 40
2.0
 40
3.0
 40
3.0
 40
3.0
 40
4.0
 40
4.0
 40
4.0
 40
5.0
 40
5.0
 40
5.0
 40
6.0
 40
6.0
 40
6.0
 40
7.0
 40
7.0
 40
7.0
 40
7.0
 10
43.91259406208287
 20
125.459780541915
 30
0.0
 10
43.88503328001917
 20
125.459780541915
 30
0.0
 10
43.85747249795548
 20
125.459780541915
 30
0.0
 10
43.82991171589178
 20
125.4625366201214
 30
0.0
 10
43.82991171589178
 20
125.4625366201214
 30
0.0
 10
43.82991171589178
 20
125.4625366201214
 30
0.0
 10
43.82991171589178
 20
125.4625366201214
 30
0.0
 10
43.64801055427141
 20
125.4708048547405
 30
0.0
 10
43.4688654708574
 20
125.5066338714233
 30
0.0
 10
43.30625685668161
 20
125.5700236701698
 30
0.0
 10
43.30625685668161
 20
125.5700236701698
 30
0.0
 10
43.30625685668161
 20
125.5700236701698
 30
0.0
 10
43.30625685668161
 20
125.5700236701698
 30
0.0
 10
43.14640432071219
 20
125.6334134689163
 30
0.0
 10
43.00033217577461
 20
125.7216079715201
 30
0.0
 10
42.88733296931347
 20
125.8318510997749
 30
0.0
 10
42.88733296931347
 20
125.8318510997749
 30
0.0
 10
42.88733296931347
 20
125.8318510997749
 30
0.0
 10
42.88733296931347
 20
125.8318510997749
 30
0.0
 10
42.79913846670965
 20
125.914533445966
 30
0.0
 10
42.73574866796315
 20
126.0109961831889
 30
0.0
 10
42.68889533845488
 20
126.1129710768246
 30
0.0
  0
ENDBLK
  5
6E4
330
6E1
100
AcDbEntity
  8
0
100
AcDbBlockEnd
  0
BLOCK
  5
6E8
330
6E6
100
AcDbEntity
  8
0
100
AcDbBlockBegin
  2
block 182
 70
     0
 71
     0
 10
0.0
 20
0.0
 30
0.0
  3
block 182
  1

  0
SPLINE
  5
6EA
330
6E6
100
AcDbEntity
  8
Capa 1
 62
     7
420
 16777215
370
     9
100
AcDbSpline
210
0.0
220
0.0
230
1.0
 70
     8
 71
     3
 72
    26
 73
    22
 74
     0
 42
0.0000000001
 43
0.0000000001
 40
0.0
 40
0.0
 40
0.0
 40
0.0
 40
1.0
 40
1.0
 40
1.0
 40
2.0
 40
2.0
 40
2.0
 40
3.0
 40
3.0
 40
3.0
 40
4.0
 40
4.0
 40
4.0
 40
5.0
 40
5.0
 40
5.0
 40
6.0
 40
6.0
 40
6.0
 40
7.0
 40
7.0
 40
7.0
 40
7.0
 10
155.1423983147371
 20
123.3568928704552
 30
0.0
 10
155.1699590968008
 20
123.3568928704552
 30
0.0
 10
155.1975198788645
 20
123.3568928704552
 30
0.0
 10
155.2250806609282
 20
123.3596489486616
 30
0.0
 10
155.2250806609282
 20
123.3596489486616
 30
0.0
 10
155.2250806609282
 20
123.3596489486616
 30
0.0
 10
155.2250806609282
 20
123.3596489486616
 30
0.0
 10
155.4069818225486
 20
123.3679171832807
 30
0.0
 10
155.5861269059626
 20
123.4037461999635
 30
0.0
 10
155.7487355201384
 20
123.46713599871
 30
0.0
 10
155.7487355201384
 20
123.46713599871
 30
0.0
 10
155.7487355201384
 20
123.46713599871
 30
0.0
 10
155.7487355201384
 20
123.46713599871
 30
0.0
 10
155.9085880561078
 20
123.5305257974565
 30
0.0
 10
156.0546602010454
 20
123.6187203000603
 30
0.0
 10
156.1676594075065
 20
123.7289634283151
 30
0.0
 10
156.1676594075065
 20
123.7289634283151
 30
0.0
 10
156.1676594075065
 20
123.7289634283151
 30
0.0
 10
156.1676594075065
 20
123.7289634283151
 30
0.0
 10
156.2558539101103
 20
123.8116457745061
 30
0.0
 10
156.3192437088568
 20
123.9053524335227
 30
0.0
 10
156.3660970383651
 20
124.0073273271584
 30
0.0
  0
ENDBLK
  5
6E9
330
6E6
100
AcDbEntity
  8
0
100
AcDbBlockEnd
  0
BLOCK
  5
6ED
330
6EB
100
AcDbEntity
  8
0
100
AcDbBlockBegin
  2
block 183
 70
     0
 71
     0
 10
0.0
 20
0.0
 30
0.0
  3
block 183
  1

  0
SPLINE
  5
6EF
330
6EB
100
AcDbEntity
  8
Capa 1
 62
     7
420
 16777215
370
     9
100
AcDbSpline
210
0.0
220
0.0
230
1.0
 70
     8
 71
     3
 72
    26
 73
    22
 74
     0
 42
0.0000000001
 43
0.0000000001
 40
0.0
 40
0.0
 40
0.0
 40
0.0
 40
1.0
 40
1.0
 40
1.0
 40
2.0
 40
2.0
 40
2.0
 40
3.0
 40
3.0
 40
3.0
 40
4.0
 40
4.0
 40
4.0
 40
5.0
 40
5.0
 40
5.0
 40
6.0
 40
6.0
 40
6.0
 40
7.0
 40
7.0
 40
7.0
 40
7.0
 10
155.1423983147371
 20
123.3568928704552
 30
0.0
 10
155.1175936108798
 20
123.3568928704552
 30
0.0
 10
155.0900328288161
 20
123.3568928704552
 30
0.0
 10
155.0624720467524
 20
123.3596489486616
 30
0.0
 10
155.0624720467524
 20
123.3596489486616
 30
0.0
 10
155.0624720467524
 20
123.3596489486616
 30
0.0
 10
155.0624720467524
 20
123.3596489486616
 30
0.0
 10
154.880570885132
 20
123.3679171832807
 30
0.0
 10
154.701425801718
 20
123.4037461999635
 30
0.0
 10
154.5388171875422
 20
123.46713599871
 30
0.0
 10
154.5388171875422
 20
123.46713599871
 30
0.0
 10
154.5388171875422
 20
123.46713599871
 30
0.0
 10
154.5388171875422
 20
123.46713599871
 30
0.0
 10
154.3762085733665
 20
123.5305257974565
 30
0.0
 10
154.2328925066352
 20
123.6187203000603
 30
0.0
 10
154.1171372219677
 20
123.7289634283151
 30
0.0
 10
154.1171372219677
 20
123.7289634283151
 30
0.0
 10
154.1171372219677
 20
123.7289634283151
 30
0.0
 10
154.1171372219677
 20
123.7289634283151
 30
0.0
 10
154.0316987975703
 20
123.8116457745061
 30
0.0
 10
153.9683089988238
 20
123.9053524335227
 30
0.0
 10
153.9214556693155
 20
124.0073273271584
 30
0.0
  0
ENDBLK
  5
6EE
330
6EB
100
AcDbEntity
  8
0
100
AcDbBlockEnd
  0
BLOCK
  5
6F2
330
6F0
100
AcDbEntity
  8
0
100
AcDbBlockBegin
  2
block 184
 70
     0
 71
     0
 10
0.0
 20
0.0
 30
0.0
  3
block 184
  1

  0
SPLINE
  5
6F4
330
6F0
100
AcDbEntity
  8
Capa 1
 62
     7
420
 16777215
370
     9
100
AcDbSpline
210
0.0
220
0.0
230
1.0
 70
     8
 71
     3
 72
     8
 73
     4
 74
     0
 42
0.0000000001
 43
0.0000000001
 40
0.0
 40
0.0
 40
0.0
 40
0.0
 40
1.0
 40
1.0
 40
1.0
 40
1.0
 10
129.1029714209595
 20
120.3086703742107
 30
0.0
 10
142.299073873056
 20
119.594846118761
 30
0.0
 10
167.9884788346247
 20
119.594846118761
 30
0.0
 10
181.1790691303084
 20
120.3086703742107
 30
0.0
  0
ENDBLK
  5
6F3
330
6F0
100
AcDbEntity
  8
0
100
AcDbBlockEnd
  0
BLOCK
  5
6F7
330
6F5
100
AcDbEntity
  8
0
100
AcDbBlockBegin
  2
block 185
 70
     0
 71
     0
 10
0.0
 20
0.0
 30
0.0
  3
block 185
  1

  0
INSERT
  5
6FA
330
6F5
100
AcDbEntity
  8
Capa 1
100
AcDbBlockReference
  2
block 186
 10
0.0
 20
0.0
 30
0.0
  0
ENDBLK
  5
6F8
330
6F5
100
AcDbEntity
  8
0
100
AcDbBlockEnd
  0
BLOCK
  5
6FB
330
6F9
100
AcDbEntity
  8
0
100
AcDbBlockBegin
  2
block 186
 70
     0
 71
     0
 10
0.0
 20
0.0
 30
0.0
  3
block 186
  1

  0
INSERT
  5
6FE
330
6F9
100
AcDbEntity
  8
Capa 1
100
AcDbBlockReference
  2
block 187
 10
0.0
 20
0.0
 30
0.0
  0
INSERT
  5
706
330
6F9
100
AcDbEntity
  8
Capa 1
100
AcDbBlockReference
  2
block 188
 10
0.0
 20
0.0
 30
0.0
  0
INSERT
  5
70E
330
6F9
100
AcDbEntity
  8
Capa 1
100
AcDbBlockReference
  2
block 189
 10
0.0
 20
0.0
 30
0.0
  0
INSERT
  5
716
330
6F9
100
AcDbEntity
  8
Capa 1
100
AcDbBlockReference
  2
block 190
 10
0.0
 20
0.0
 30
0.0
  0
INSERT
  5
71E
330
6F9
100
AcDbEntity
  8
Capa 1
100
AcDbBlockReference
  2
block 191
 10
0.0
 20
0.0
 30
0.0
  0
INSERT
  5
729
330
6F9
100
AcDbEntity
  8
Capa 1
100
AcDbBlockReference
  2
block 192
 10
0.0
 20
0.0
 30
0.0
  0
INSERT
  5
734
330
6F9
100
AcDbEntity
  8
Capa 1
100
AcDbBlockReference
  2
block 193
 10
0.0
 20
0.0
 30
0.0
  0
INSERT
  5
739
330
6F9
100
AcDbEntity
  8
Capa 1
100
AcDbBlockReference
  2
block 194
 10
0.0
 20
0.0
 30
0.0
  0
INSERT
  5
741
330
6F9
100
AcDbEntity
  8
Capa 1
100
AcDbBlockReference
  2
block 195
 10
0.0
 20
0.0
 30
0.0
  0
INSERT
  5
749
330
6F9
100
AcDbEntity
  8
Capa 1
100
AcDbBlockReference
  2
block 196
 10
0.0
 20
0.0
 30
0.0
  0
ENDBLK
  5
6FC
330
6F9
100
AcDbEntity
  8
0
100
AcDbBlockEnd
  0
BLOCK
  5
6FF
330
6FD
100
AcDbEntity
  8
0
100
AcDbBlockBegin
  2
block 187
 70
     0
 71
     0
 10
0.0
 20
0.0
 30
0.0
  3
block 187
  1

  0
POLYLINE
  5
701
330
6FD
100
AcDbEntity
  8
Capa 1
 62
     7
420
 16777215
370
     9
100
AcDb2dPolyline
 66
     1
 10
0.0
 20
0.0
 30
0.0
  0
VERTEX
  5
702
330
701
100
AcDbEntity
  8
Capa 1
 62
     7
420
 16777215
370
     9
100
AcDbVertex
100
AcDb2dVertex
 10
85.49630203978363
 20
138.7358092619962
 30
0.0
  0
VERTEX
  5
703
330
701
100
AcDbEntity
  8
Capa 1
 62
     7
420
 16777215
370
     9
100
AcDbVertex
100
AcDb2dVertex
 10
96.29461645233874
 20
138.7358092619962
 30
0.0
  0
SEQEND
  5
704
330
701
100
AcDbEntity
  8
Capa 1
370
     9
  0
ENDBLK
  5
700
330
6FD
100
AcDbEntity
  8
0
100
AcDbBlockEnd
  0
BLOCK
  5
707
330
705
100
AcDbEntity
  8
0
100
AcDbBlockBegin
  2
block 188
 70
     0
 71
     0
 10
0.0
 20
0.0
 30
0.0
  3
block 188
  1

  0
POLYLINE
  5
709
330
705
100
AcDbEntity
  8
Capa 1
 62
     7
420
 16777215
370
     9
100
AcDb2dPolyline
 66
     1
 10
0.0
 20
0.0
 30
0.0
  0
VERTEX
  5
70A
330
709
100
AcDbEntity
  8
Capa 1
 62
     7
420
 16777215
370
     9
100
AcDbVertex
100
AcDb2dVertex
 10
57.92725174147102
 20
116.5411114661038
 30
0.0
  0
VERTEX
  5
70B
330
709
100
AcDbEntity
  8
Capa 1
 62
     7
420
 16777215
370
     9
100
AcDbVertex
100
AcDb2dVertex
 10
96.29461645233874
 20
116.5411114661038
 30
0.0
  0
SEQEND
  5
70C
330
709
100
AcDbEntity
  8
Capa 1
370
     9
  0
ENDBLK
  5
708
330
705
100
AcDbEntity
  8
0
100
AcDbBlockEnd
  0
BLOCK
  5
70F
330
70D
100
AcDbEntity
  8
0
100
AcDbBlockBegin
  2
block 189
 70
     0
 71
     0
 10
0.0
 20
0.0
 30
0.0
  3
block 189
  1

  0
POLYLINE
  5
711
330
70D
100
AcDbEntity
  8
Capa 1
 62
     7
420
 16777215
370
     9
100
AcDb2dPolyline
 66
     1
 10
0.0
 20
0.0
 30
0.0
  0
VERTEX
  5
712
330
711
100
AcDbEntity
  8
Capa 1
 62
     7
420
 16777215
370
     9
100
AcDbVertex
100
AcDb2dVertex
 10
93.9602182115439
 20
135.2300777834944
 30
0.0
  0
VERTEX
  5
713
330
711
100
AcDbEntity
  8
Capa 1
 62
     7
420
 16777215
370
     9
100
AcDbVertex
100
AcDb2dVertex
 10
93.9602182115439
 20
132.5869987835862
 30
0.0
  0
SEQEND
  5
714
330
711
100
AcDbEntity
  8
Capa 1
370
     9
  0
ENDBLK
  5
710
330
70D
100
AcDbEntity
  8
0
100
AcDbBlockEnd
  0
BLOCK
  5
717
330
715
100
AcDbEntity
  8
0
100
AcDbBlockBegin
  2
block 190
 70
     0
 71
     0
 10
0.0
 20
0.0
 30
0.0
  3
block 190
  1

  0
POLYLINE
  5
719
330
715
100
AcDbEntity
  8
Capa 1
 62
     7
420
 16777215
370
     9
100
AcDb2dPolyline
 66
     1
 10
0.0
 20
0.0
 30
0.0
  0
VERTEX
  5
71A
330
719
100
AcDbEntity
  8
Capa 1
 62
     7
420
 16777215
370
     9
100
AcDbVertex
100
AcDb2dVertex
 10
93.9602182115439
 20
120.0440868663992
 30
0.0
  0
VERTEX
  5
71B
330
719
100
AcDbEntity
  8
Capa 1
 62
     7
420
 16777215
370
     9
100
AcDbVertex
100
AcDb2dVertex
 10
93.9602182115439
 20
122.6899219445138
 30
0.0
  0
SEQEND
  5
71C
330
719
100
AcDbEntity
  8
Capa 1
370
     9
  0
ENDBLK
  5
718
330
715
100
AcDbEntity
  8
0
100
AcDbBlockEnd
  0
BLOCK
  5
71F
330
71D
100
AcDbEntity
  8
0
100
AcDbBlockBegin
  2
block 191
 70
     0
 71
     0
 10
0.0
 20
0.0
 30
0.0
  3
block 191
  1

  0
POLYLINE
  5
721
330
71D
100
AcDbEntity
  8
Capa 1
370
     0
100
AcDb2dPolyline
 66
     1
 10
0.0
 20
0.0
 30
0.0
  0
VERTEX
  5
722
330
721
100
AcDbEntity
  8
Capa 1
370
     0
100
AcDbVertex
100
AcDb2dVertex
 10
93.37868570999997
 20
135.2300777834944
 30
0.0
  0
VERTEX
  5
723
330
721
100
AcDbEntity
  8
Capa 1
370
     0
100
AcDbVertex
100
AcDb2dVertex
 10
94.54726286950059
 20
135.2300777834944
 30
0.0
  0
VERTEX
  5
724
330
721
100
AcDbEntity
  8
Capa 1
370
     0
100
AcDbVertex
100
AcDb2dVertex
 10
93.9602182115439
 20
138.7358092619962
 30
0.0
  0
VERTEX
  5
725
330
721
100
AcDbEntity
  8
Capa 1
370
     0
100
AcDbVertex
100
AcDb2dVertex
 10
93.37868570999997
 20
135.2300777834944
 30
0.0
  0
SEQEND
  5
726
330
721
100
AcDbEntity
  8
Capa 1
370
     0
  0
HATCH
  5
727
330
71D
100
AcDbEntity
  8
Capa 1
 62
     7
420
 16777215
100
AcDbHatch
 10
0.0
 20
0.0
 30
0.0
210
0.0
220
0.0
230
1.0
  2
SOLID
 70
     1
 71
     0
 91
        1
 92
        1
 93
        3
 72
     1
 10
93.37868570999997
 20
135.2300777834944
 11
94.54726286950059
 21
135.2300777834944
 72
     1
 10
94.54726286950059
 20
135.2300777834944
 11
93.9602182115439
 21
138.7358092619962
 72
     1
 10
93.9602182115439
 20
138.7358092619962
 11
93.37868570999997
 21
135.2300777834944
 97
        0
 75
     2
 76
     1
 98
        0
  0
ENDBLK
  5
720
330
71D
100
AcDbEntity
  8
0
100
AcDbBlockEnd
  0
BLOCK
  5
72A
330
728
100
AcDbEntity
  8
0
100
AcDbBlockBegin
  2
block 192
 70
     0
 71
     0
 10
0.0
 20
0.0
 30
0.0
  3
block 192
  1

  0
POLYLINE
  5
72C
330
728
100
AcDbEntity
  8
Capa 1
370
     0
100
AcDb2dPolyline
 66
     1
 10
0.0
 20
0.0
 30
0.0
  0
VERTEX
  5
72D
330
72C
100
AcDbEntity
  8
Capa 1
370
     0
100
AcDbVertex
100
AcDb2dVertex
 10
93.37868570999997
 20
120.0440868663992
 30
0.0
  0
VERTEX
  5
72E
330
72C
100
AcDbEntity
  8
Capa 1
370
     0
100
AcDbVertex
100
AcDb2dVertex
 10
94.54726286950059
 20
120.0440868663992
 30
0.0
  0
VERTEX
  5
72F
330
72C
100
AcDbEntity
  8
Capa 1
370
     0
100
AcDbVertex
100
AcDb2dVertex
 10
93.9602182115439
 20
116.5411114661038
 30
0.0
  0
VERTEX
  5
730
330
72C
100
AcDbEntity
  8
Capa 1
370
     0
100
AcDbVertex
100
AcDb2dVertex
 10
93.37868570999997
 20
120.0440868663992
 30
0.0
  0
SEQEND
  5
731
330
72C
100
AcDbEntity
  8
Capa 1
370
     0
  0
HATCH
  5
732
330
728
100
AcDbEntity
  8
Capa 1
 62
     7
420
 16777215
100
AcDbHatch
 10
0.0
 20
0.0
 30
0.0
210
0.0
220
0.0
230
1.0
  2
SOLID
 70
     1
 71
     0
 91
        1
 92
        1
 93
        3
 72
     1
 10
93.37868570999997
 20
120.0440868663992
 11
94.54726286950059
 21
120.0440868663992
 72
     1
 10
94.54726286950059
 20
120.0440868663992
 11
93.9602182115439
 21
116.5411114661038
 72
     1
 10
93.9602182115439
 20
116.5411114661038
 11
93.37868570999997
 21
120.0440868663992
 97
        0
 75
     2
 76
     1
 98
        0
  0
ENDBLK
  5
72B
330
728
100
AcDbEntity
  8
0
100
AcDbBlockEnd
  0
BLOCK
  5
735
330
733
100
AcDbEntity
  8
0
100
AcDbBlockBegin
  2
block 193
 70
     0
 71
     0
 10
0.0
 20
0.0
 30
0.0
  3
block 193
  1

  0
MTEXT
  5
737
330
733
100
AcDbEntity
  8
Capa 1
 62
     7
420
 16777215
100
AcDbMText
 10
95.77371767133494
 20
124.0810524191787
 30
0.0
 40
2.920234194277579
 41
0.0
 71
     7
 72
     1
  1
\fArial|b1|i0|c0|p34;\W1;190
 11
-4.371139000186241E-8
 21
0.999999999999999
 31
0.0
 73
     1
 44
1.0
  0
ENDBLK
  5
736
330
733
100
AcDbEntity
  8
0
100
AcDbBlockEnd
  0
BLOCK
  5
73A
330
738
100
AcDbEntity
  8
0
100
AcDbBlockBegin
  2
block 194
 70
     0
 71
     0
 10
0.0
 20
0.0
 30
0.0
  3
block 194
  1

  0
POLYLINE
  5
73C
330
738
100
AcDbEntity
  8
Capa 1
 62
     3
420
    65280
370
     9
100
AcDb2dPolyline
 66
     1
 10
0.0
 20
0.0
 30
0.0
  0
VERTEX
  5
73D
330
73C
100
AcDbEntity
  8
Capa 1
 62
     3
420
    65280
370
     9
100
AcDbVertex
100
AcDb2dVertex
 10
85.49630203978363
 20
138.7358092619962
 30
0.0
  0
VERTEX
  5
73E
330
73C
100
AcDbEntity
  8
Capa 1
 62
     3
420
    65280
370
     9
100
AcDbVertex
100
AcDb2dVertex
 10
85.49630203978363
 20
138.7358092619962
 30
0.0
  0
SEQEND
  5
73F
330
73C
100
AcDbEntity
  8
Capa 1
370
     9
  0
ENDBLK
  5
73B
330
738
100
AcDbEntity
  8
0
100
AcDbBlockEnd
  0
BLOCK
  5
742
330
740
100
AcDbEntity
  8
0
100
AcDbBlockBegin
  2
block 195
 70
     0
 71
     0
 10
0.0
 20
0.0
 30
0.0
  3
block 195
  1

  0
POLYLINE
  5
744
330
740
100
AcDbEntity
  8
Capa 1
 62
     7
420
 16777215
370
     9
100
AcDb2dPolyline
 66
     1
 10
0.0
 20
0.0
 30
0.0
  0
VERTEX
  5
745
330
744
100
AcDbEntity
  8
Capa 1
 62
     7
420
 16777215
370
     9
100
AcDbVertex
100
AcDb2dVertex
 10
57.92725174147102
 20
116.5411114661038
 30
0.0
  0
VERTEX
  5
746
330
744
100
AcDbEntity
  8
Capa 1
 62
     7
420
 16777215
370
     9
100
AcDbVertex
100
AcDb2dVertex
 10
57.92725174147102
 20
116.5411114661038
 30
0.0
  0
SEQEND
  5
747
330
744
100
AcDbEntity
  8
Capa 1
370
     9
  0
ENDBLK
  5
743
330
740
100
AcDbEntity
  8
0
100
AcDbBlockEnd
  0
BLOCK
  5
74A
330
748
100
AcDbEntity
  8
0
100
AcDbBlockBegin
  2
block 196
 70
     0
 71
     0
 10
0.0
 20
0.0
 30
0.0
  3
block 196
  1

  0
POLYLINE
  5
74C
330
748
100
AcDbEntity
  8
Capa 1
370
     0
100
AcDb2dPolyline
 66
     1
 10
0.0
 20
0.0
 30
0.0
  0
VERTEX
  5
74D
330
74C
100
AcDbEntity
  8
Capa 1
370
     0
100
AcDbVertex
100
AcDb2dVertex
 10
93.9602182115439
 20
116.5411114661038
 30
0.0
  0
VERTEX
  5
74E
330
74C
100
AcDbEntity
  8
Capa 1
370
     0
100
AcDbVertex
100
AcDb2dVertex
 10
93.9602182115439
 20
116.5411114661038
 30
0.0
  0
SEQEND
  5
74F
330
74C
100
AcDbEntity
  8
Capa 1
370
     0
  0
ENDBLK
  5
74B
330
748
100
AcDbEntity
  8
0
100
AcDbBlockEnd
  0
ENDSEC
  0
SECTION
  2
ENTITIES
  0
INSERT
  5
3D
330
1F
100
AcDbEntity
  8
Capa 1
100
AcDbBlockReference
  2
block 2
 10
0.0
 20
0.0
 30
0.0
  0
POLYLINE
  5
750
330
1F
100
AcDbEntity
  8
Capa 1
 62
     7
420
 16777215
370
    35
100
AcDb2dPolyline
 66
     1
 10
0.0
 20
0.0
 30
0.0
  0
VERTEX
  5
751
330
750
100
AcDbEntity
  8
Capa 1
 62
     7
420
 16777215
370
    35
100
AcDbVertex
100
AcDb2dVertex
 10
72.67227014554705
 20
169.6469488953074
 30
0.0
  0
VERTEX
  5
752
330
750
100
AcDbEntity
  8
Capa 1
 62
     7
420
 16777215
370
    35
100
AcDbVertex
100
AcDb2dVertex
 10
130.2925636767837
 20
169.6469488953074
 30
0.0
  0
SEQEND
  5
753
330
750
100
AcDbEntity
  8
Capa 1
370
    35
  0
ENDSEC
  0
SECTION
  2
OBJECTS
  0
DICTIONARY
  5
C
330
0
100
AcDbDictionary
281
     1
  3
ACAD_GROUP
350
D
  3
ACAD_LAYOUT
350
1A
  3
ACAD_MLINESTYLE
350
17
  3
ACAD_PLOTSETTINGS
350
19
  3
ACAD_PLOTSTYLENAME
350
E
  3
ACAD_TABLESTYLE
350
758
  3
ACAD_VISUALSTYLE
350
2A
  0
DICTIONARY
  5
D
102
{ACAD_REACTORS
330
C
102
}
330
C
100
AcDbDictionary
281
     1
  0
DICTIONARY
  5
1A
102
{ACAD_REACTORS
330
C
102
}
330
C
100
AcDbDictionary
281
     1
  3
Layout1
350
1E
  3
Layout2
350
26
  3
Model
350
22
  0
DICTIONARY
  5
17
102
{ACAD_REACTORS
330
C
102
}
330
C
100
AcDbDictionary
281
     1
  3
Standard
350
18
  0
DICTIONARY
  5
19
102
{ACAD_REACTORS
330
C
102
}
330
C
100
AcDbDictionary
281
     1
  0
ACDBDICTIONARYWDFLT
  5
E
102
{ACAD_REACTORS
330
C
102
}
330
C
100
AcDbDictionary
281
     1
  3
Normal
350
F
100
AcDbDictionaryWithDefault
340
F
  0
DICTIONARY
  5
758
102
{ACAD_REACTORS
330
C
102
}
330
C
100
AcDbDictionary
281
     1
  0
DICTIONARY
  5
2A
102
{ACAD_REACTORS
330
C
102
}
330
C
100
AcDbDictionary
281
     1
  3
2dWireframe
350
2F
  3
3D Hidden
350
31
  3
3dWireframe
350
30
  3
Basic
350
32
  3
Brighten
350
36
  3
ColorChange
350
3A
  3
Conceptual
350
34
  3
Dim
350
35
  3
Facepattern
350
39
  3
Flat
350
2B
  3
FlatWithEdges
350
2C
  3
Gouraud
350
2D
  3
GouraudWithEdges
350
2E
  3
Linepattern
350
38
  3
Realistic
350
33
  3
Thicken
350
37
  0
LAYOUT
  5
1E
102
{ACAD_REACTORS
330
1A
102
}
330
1A
100
AcDbPlotSettings
  1

  2
none_device
  4

  6

 40
0.0
 41
0.0
 42
0.0
 43
0.0
 44
0.0
 45
0.0
 46
0.0
 47
0.0
 48
0.0
 49
0.0
140
0.0
141
0.0
142
1.0
143
1.0
 70
   688
 72
     0
 73
     0
 74
     5
  7

 75
    16
 76
     0
 77
     2
 78
   300
147
1.0
148
0.0
149
0.0
100
AcDbLayout
  1
Layout1
 70
     1
 71
     1
 10
0.0
 20
0.0
 11
12.0
 21
9.0
 12
0.0
 22
0.0
 32
0.0
 14
1.000000000000000E+20
 24
1.000000000000000E+20
 34
1.000000000000000E+20
 15
-1.000000000000000E+20
 25
-1.000000000000000E+20
 35
-1.000000000000000E+20
146
0.0
 13
0.0
 23
0.0
 33
0.0
 16
1.0
 26
0.0
 36
0.0
 17
0.0
 27
1.0
 37
0.0
 76
     0
330
1B
  0
LAYOUT
  5
26
102
{ACAD_REACTORS
330
1A
102
}
330
1A
100
AcDbPlotSettings
  1

  2
none_device
  4

  6

 40
0.0
 41
0.0
 42
0.0
 43
0.0
 44
0.0
 45
0.0
 46
0.0
 47
0.0
 48
0.0
 49
0.0
140
0.0
141
0.0
142
1.0
143
1.0
 70
   688
 72
     0
 73
     0
 74
     5
  7

 75
    16
 76
     0
 77
     2
 78
   300
147
1.0
148
0.0
149
0.0
100
AcDbLayout
  1
Layout2
 70
     1
 71
     2
 10
0.0
 20
0.0
 11
0.0
 21
0.0
 12
0.0
 22
0.0
 32
0.0
 14
0.0
 24
0.0
 34
0.0
 15
0.0
 25
0.0
 35
0.0
146
0.0
 13
0.0
 23
0.0
 33
0.0
 16
1.0
 26
0.0
 36
0.0
 17
0.0
 27
1.0
 37
0.0
 76
     0
330
23
  0
LAYOUT
  5
22
102
{ACAD_REACTORS
330
1A
102
}
330
1A
100
AcDbPlotSettings
  1

  2
none_device
  4

  6

 40
0.0
 41
0.0
 42
0.0
 43
0.0
 44
0.0
 45
0.0
 46
0.0
 47
0.0
 48
0.0
 49
0.0
140
0.0
141
0.0
142
1.0
143
1.0
 70
  1712
 72
     0
 73
     0
 74
     0
  7

 75
     0
 76
     0
 77
     2
 78
   300
147
1.0
148
0.0
149
0.0
100
AcDbLayout
  1
Model
 70
     1
 71
     0
 10
0.0
 20
0.0
 11
12.0
 21
9.0
 12
0.0
 22
0.0
 32
0.0
 14
1.000000000000000E+20
 24
1.000000000000000E+20
 34
1.000000000000000E+20
 15
-1.000000000000000E+20
 25
-1.000000000000000E+20
 35
-1.000000000000000E+20
146
0.0
 13
0.0
 23
0.0
 33
0.0
 16
1.0
 26
0.0
 36
0.0
 17
0.0
 27
1.0
 37
0.0
 76
     0
330
1F
331
29
  0
MLINESTYLE
  5
18
102
{ACAD_REACTORS
330
17
102
}
330
17
100
AcDbMlineStyle
  2
Standard
 70
     0
  3

 62
   256
 51
90.0
 52
90.0
 71
     2
 49
0.5
 62
   256
  6
BYLAYER
 49
-0.5
 62
   256
  6
BYLAYER
  0
ACDBPLACEHOLDER
  5
F
102
{ACAD_REACTORS
330
E
102
}
330
E
  0
VISUALSTYLE
  5
2F
102
{ACAD_REACTORS
330
2A
102
}
330
2A
100
AcDbVisualStyle
  2
2dWireframe
 70
     4
 71
     0
 72
     2
 73
     0
 90
        0
 40
-0.6
 41
-30.0
 62
     5
 63
     7
421
 16777215
 74
     1
 91
        4
 64
     7
 65
   257
 75
     1
175
     1
 42
1.0
 92
        0
 66
   257
 43
1.0
 76
     1
 77
     6
 78
     2
 67
     7
 79
     5
170
     0
171
     0
290
     0
174
     0
 93
        1
 44
0.0
173
     0
291
     0
 45
0.0
1001
ACAD
1000
AcDbSavedByObjectVersion
1070
     0
  0
VISUALSTYLE
  5
31
102
{ACAD_REACTORS
330
2A
102
}
330
2A
100
AcDbVisualStyle
  2
3D Hidden
 70
     6
 71
     1
 72
     2
 73
     2
 90
        0
 40
-0.6
 41
-30.0
 62
     5
 63
     7
421
 16777215
 74
     2
 91
        2
 64
     7
 65
   257
 75
     2
175
     1
 42
40.0
 92
        0
 66
   257
 43
1.0
 76
     1
 77
     6
 78
     2
 67
     7
 79
     3
170
     0
171
     0
290
     0
174
     0
 93
        1
 44
0.0
173
     0
291
     0
 45
0.0
1001
ACAD
1000
AcDbSavedByObjectVersion
1070
     0
  0
VISUALSTYLE
  5
30
102
{ACAD_REACTORS
330
2A
102
}
330
2A
100
AcDbVisualStyle
  2
3dWireframe
 70
     5
 71
     0
 72
     2
 73
     0
 90
        0
 40
-0.6
 41
-30.0
 62
     5
 63
     7
421
 16777215
 74
     1
 91
        4
 64
     7
 65
   257
 75
     1
175
     1
 42
1.0
 92
        0
 66
   257
 43
1.0
 76
     1
 77
     6
 78
     2
 67
     7
 79
     5
170
     0
171
     0
290
     0
174
     0
 93
        1
 44
0.0
173
     0
291
     0
 45
0.0
1001
ACAD
1000
AcDbSavedByObjectVersion
1070
     0
  0
VISUALSTYLE
  5
32
102
{ACAD_REACTORS
330
2A
102
}
330
2A
100
AcDbVisualStyle
  2
Basic
 70
     7
 71
     1
 72
     0
 73
     1
 90
        0
 40
-0.6
 41
-30.0
 62
     5
 63
     7
421
 16777215
 74
     0
 91
        4
 64
     7
 65
   257
 75
     1
175
     1
 42
1.0
 92
        8
 66
     7
 43
1.0
 76
     1
 77
     6
 78
     2
 67
     7
 79
     5
170
     0
171
     0
290
     0
174
     0
 93
        1
 44
0.0
173
     0
291
     1
 45
0.0
1001
ACAD
1000
AcDbSavedByObjectVersion
1070
     0
  0
VISUALSTYLE
  5
36
102
{ACAD_REACTORS
330
2A
102
}
330
2A
100
AcDbVisualStyle
  2
Brighten
 70
    12
 71
     2
 72
     2
 73
     0
 90
        0
 40
-0.6
 41
-30.0
 62
     5
 63
     7
421
 16777215
 74
     1
 91
        4
 64
     7
 65
   257
 75
     1
175
     1
 42
1.0
 92
        8
 66
     7
 43
1.0
 76
     1
 77
     6
 78
     2
 67
     7
 79
     5
170
     0
171
     0
290
     0
174
     0
 93
        1
 44
50.0
173
     0
291
     1
 45
0.0
1001
ACAD
1000
AcDbSavedByObjectVersion
1070
     0
  0
VISUALSTYLE
  5
3A
102
{ACAD_REACTORS
330
2A
102
}
330
2A
100
AcDbVisualStyle
  2
ColorChange
 70
    16
 71
     2
 72
     2
 73
     3
 90
        0
 40
-0.6
 41
-30.0
 62
     5
 63
     8
421
  8421504
 74
     1
 91
        4
 64
     7
 65
   257
 75
     1
175
     1
 42
1.0
 92
        8
 66
     8
424
  8421504
 43
1.0
 76
     1
 77
     6
 78
     2
 67
     7
 79
     5
170
     0
171
     0
290
     0
174
     0
 93
        1
 44
0.0
173
     0
291
     1
 45
0.0
1001
ACAD
1000
AcDbSavedByObjectVersion
1070
     0
  0
VISUALSTYLE
  5
34
102
{ACAD_REACTORS
330
2A
102
}
330
2A
100
AcDbVisualStyle
  2
Conceptual
 70
     9
 71
     3
 72
     2
 73
     0
 90
        0
 40
-0.6
 41
-30.0
 62
     5
 63
     7
421
 16777215
 74
     2
 91
        2
 64
     7
 65
   257
 75
     1
175
     1
 42
40.0
 92
        8
 66
     7
 43
1.0
 76
     1
 77
     6
 78
     2
 67
     7
 79
     3
170
     0
171
     0
290
     0
174
     0
 93
        1
 44
0.0
173
     0
291
     0
 45
0.0
1001
ACAD
1000
AcDbSavedByObjectVersion
1070
     0
  0
VISUALSTYLE
  5
35
102
{ACAD_REACTORS
330
2A
102
}
330
2A
100
AcDbVisualStyle
  2
Dim
 70
    11
 71
     2
 72
     2
 73
     0
 90
        0
 40
-0.6
 41
-30.0
 62
     5
 63
     7
421
 16777215
 74
     1
 91
        4
 64
     7
 65
   257
 75
     1
175
     1
 42
1.0
 92
        8
 66
     7
 43
1.0
 76
     1
 77
     6
 78
     2
 67
     7
 79
     5
170
     0
171
     0
290
     0
174
     0
 93
        1
 44
-50.0
173
     0
291
     1
 45
0.0
1001
ACAD
1000
AcDbSavedByObjectVersion
1070
     0
  0
VISUALSTYLE
  5
39
102
{ACAD_REACTORS
330
2A
102
}
330
2A
100
AcDbVisualStyle
  2
Facepattern
 70
    15
 71
     2
 72
     2
 73
     0
 90
        0
 40
-0.6
 41
-30.0
 62
     5
 63
     7
421
 16777215
 74
     1
 91
        4
 64
     7
 65
   257
 75
     1
175
     1
 42
1.0
 92
        8
 66
     7
 43
1.0
 76
     1
 77
     6
 78
     2
 67
     7
 79
     5
170
     0
171
     0
290
     0
174
     0
 93
        1
 44
0.0
173
     0
291
     1
 45
0.0
1001
ACAD
1000
AcDbSavedByObjectVersion
1070
     0
  0
VISUALSTYLE
  5
2B
102
{ACAD_REACTORS
330
2A
102
}
330
2A
100
AcDbVisualStyle
  2
Flat
 70
     0
 71
     2
 72
     1
 73
     1
 90
        2
 40
-0.6
 41
30.0
 62
     5
 63
     7
421
 16777215
 74
     0
 91
        4
 64
     7
 65
   257
 75
     1
175
     1
 42
1.0
 92
        8
 66
     7
 43
1.0
 76
     1
 77
     6
 78
     2
 67
     7
 79
     5
170
     0
171
     0
290
     0
174
     0
 93
       13
 44
0.0
173
     0
291
     1
 45
0.0
1001
ACAD
1000
AcDbSavedByObjectVersion
1070
     0
  0
VISUALSTYLE
  5
2C
102
{ACAD_REACTORS
330
2A
102
}
330
2A
100
AcDbVisualStyle
  2
FlatWithEdges
 70
     1
 71
     2
 72
     1
 73
     1
 90
        2
 40
-0.6
 41
30.0
 62
     5
 63
     7
421
 16777215
 74
     1
 91
        4
 64
     7
 65
   257
 75
     1
175
     1
 42
1.0
 92
        0
 66
   257
 43
1.0
 76
     1
 77
     6
 78
     2
 67
     7
 79
     5
170
     0
171
     0
290
     0
174
     0
 93
       13
 44
0.0
173
     0
291
     1
 45
0.0
1001
ACAD
1000
AcDbSavedByObjectVersion
1070
     0
  0
VISUALSTYLE
  5
2D
102
{ACAD_REACTORS
330
2A
102
}
330
2A
100
AcDbVisualStyle
  2
Gouraud
 70
     2
 71
     2
 72
     2
 73
     1
 90
        2
 40
-0.6
 41
30.0
 62
     5
 63
     7
421
 16777215
 74
     0
 91
        4
 64
     7
 65
   257
 75
     1
175
     1
 42
1.0
 92
        0
 66
     7
 43
1.0
 76
     1
 77
     6
 78
     2
 67
     7
 79
     5
170
     0
171
     0
290
     0
174
     0
 93
       13
 44
0.0
173
     0
291
     1
 45
0.0
1001
ACAD
1000
AcDbSavedByObjectVersion
1070
     0
  0
VISUALSTYLE
  5
2E
102
{ACAD_REACTORS
330
2A
102
}
330
2A
100
AcDbVisualStyle
  2
GouraudWithEdges
 70
     3
 71
     2
 72
     2
 73
     1
 90
        2
 40
-0.6
 41
30.0
 62
     5
 63
     7
421
 16777215
 74
     1
 91
        4
 64
     7
 65
   257
 75
     1
175
     1
 42
1.0
 92
        0
 66
   257
 43
1.0
 76
     1
 77
     6
 78
     2
 67
     7
 79
     5
170
     0
171
     0
290
     0
174
     0
 93
       13
 44
0.0
173
     0
291
     1
 45
0.0
1001
ACAD
1000
AcDbSavedByObjectVersion
1070
     0
  0
VISUALSTYLE
  5
38
102
{ACAD_REACTORS
330
2A
102
}
330
2A
100
AcDbVisualStyle
  2
Linepattern
 70
    14
 71
     2
 72
     2
 73
     0
 90
        0
 40
-0.6
 41
-30.0
 62
     5
 63
     7
421
 16777215
 74
     1
 91
        4
 64
     7
 65
   257
 75
     7
175
     7
 42
1.0
 92
        8
 66
     7
 43
1.0
 76
     1
 77
     6
 78
     2
 67
     7
 79
     5
170
     0
171
     0
290
     0
174
     0
 93
        1
 44
0.0
173
     0
291
     1
 45
0.0
1001
ACAD
1000
AcDbSavedByObjectVersion
1070
     0
  0
VISUALSTYLE
  5
33
102
{ACAD_REACTORS
330
2A
102
}
330
2A
100
AcDbVisualStyle
  2
Realistic
 70
     8
 71
     2
 72
     2
 73
     0
 90
        0
 40
-0.6
 41
-30.0
 62
     5
 63
     7
421
 16777215
 74
     1
 91
        0
 64
     7
 65
   257
 75
     1
175
     1
 42
1.0
 92
        8
 66
     8
424
  7895160
 43
1.0
 76
     1
 77
     6
 78
     2
 67
     7
 79
     5
170
     0
171
     0
290
     0
174
     0
 93
       13
 44
0.0
173
     0
291
     0
 45
0.0
1001
ACAD
1000
AcDbSavedByObjectVersion
1070
     0
  0
VISUALSTYLE
  5
37
102
{ACAD_REACTORS
330
2A
102
}
330
2A
100
AcDbVisualStyle
  2
Thicken
 70
    13
 71
     2
 72
     2
 73
     0
 90
        0
 40
-0.6
 41
-30.0
 62
     5
 63
     7
421
 16777215
 74
     1
 91
        4
 64
     7
 65
   257
 75
     1
175
     1
 42
1.0
 92
       12
 66
     7
 43
1.0
 76
     1
 77
     6
 78
     2
 67
     7
 79
     5
170
     0
171
     0
290
     0
174
     0
 93
        1
 44
0.0
173
     0
291
     1
 45
0.0
1001
ACAD
1000
AcDbSavedByObjectVersion
1070
     0
  0
ENDSEC
  0
EOF
