  0
SECTION
  2
HEADER
  9
$ACADVER
  1
AC1015
  9
$ACADMAINTVER
 70
    20
  9
$DWGCODEPAGE
  3
ANSI_1252
  9
$INSBASE
 10
0.0
 20
0.0
 30
0.0
  9
$EXTMIN
 10
13.06413955700145
 20
0.0515814793751588
 30
-0.0015258207003583
  9
$EXTMAX
 10
726.8229782505125
 20
422.5603152046231
 30
0.0000000349246037
  9
$LIMMIN
 10
0.0
 20
0.0
  9
$LIMMAX
 10
420.0
 20
297.0
  9
$ORTHOMODE
 70
     0
  9
$REGENMODE
 70
     1
  9
$FILLMODE
 70
     1
  9
$QTEXTMODE
 70
     0
  9
$MIRRTEXT
 70
     0
  9
$LTSCALE
 40
1.0
  9
$ATTMODE
 70
     1
  9
$TEXTSIZE
 40
2.5
  9
$TRACEWID
 40
1.0
  9
$TEXTSTYLE
  7
Standard
  9
$CLAYER
  8
0
  9
$CELTYPE
  6
ByLayer
  9
$CECOLOR
 62
   256
  9
$CELTSCALE
 40
1.0
  9
$DISPSILH
 70
     0
  9
$DIMSCALE
 40
1.0
  9
$DIMASZ
 40
2.5
  9
$DIMEXO
 40
0.625
  9
$DIMDLI
 40
3.75
  9
$DIMRND
 40
0.0
  9
$DIMDLE
 40
0.0
  9
$DIMEXE
 40
1.25
  9
$DIMTP
 40
0.0
  9
$DIMTM
 40
0.0
  9
$DIMTXT
 40
2.5
  9
$DIMCEN
 40
2.5
  9
$DIMTSZ
 40
0.0
  9
$DIMTOL
 70
     0
  9
$DIMLIM
 70
     0
  9
$DIMTIH
 70
     0
  9
$DIMTOH
 70
     0
  9
$DIMSE1
 70
     0
  9
$DIMSE2
 70
     0
  9
$DIMTAD
 70
     1
  9
$DIMZIN
 70
     8
  9
$DIMBLK
  1

  9
$DIMASO
 70
     1
  9
$DIMSHO
 70
     1
  9
$DIMPOST
  1

  9
$DIMAPOST
  1

  9
$DIMALT
 70
     0
  9
$DIMALTD
 70
     3
  9
$DIMALTF
 40
0.03937007874016
  9
$DIMLFAC
 40
1.0
  9
$DIMTOFL
 70
     1
  9
$DIMTVP
 40
0.0
  9
$DIMTIX
 70
     0
  9
$DIMSOXD
 70
     0
  9
$DIMSAH
 70
     0
  9
$DIMBLK1
  1

  9
$DIMBLK2
  1

  9
$DIMSTYLE
  2
ISO-25
  9
$DIMCLRD
 70
     0
  9
$DIMCLRE
 70
     0
  9
$DIMCLRT
 70
     0
  9
$DIMTFAC
 40
1.0
  9
$DIMGAP
 40
0.625
  9
$DIMJUST
 70
     0
  9
$DIMSD1
 70
     0
  9
$DIMSD2
 70
     0
  9
$DIMTOLJ
 70
     0
  9
$DIMTZIN
 70
     8
  9
$DIMALTZ
 70
     0
  9
$DIMALTTZ
 70
     0
  9
$DIMUPT
 70
     0
  9
$DIMDEC
 70
     2
  9
$DIMTDEC
 70
     2
  9
$DIMALTU
 70
     2
  9
$DIMALTTD
 70
     3
  9
$DIMTXSTY
  7
Standard
  9
$DIMAUNIT
 70
     0
  9
$DIMADEC
 70
     0
  9
$DIMALTRND
 40
0.0
  9
$DIMAZIN
 70
     0
  9
$DIMDSEP
 70
    44
  9
$DIMATFIT
 70
     3
  9
$DIMFRAC
 70
     0
  9
$DIMLDRBLK
  1

  9
$DIMLUNIT
 70
     2
  9
$DIMLWD
 70
    -2
  9
$DIMLWE
 70
    -2
  9
$DIMTMOVE
 70
     0
  9
$LUNITS
 70
     2
  9
$LUPREC
 70
     4
  9
$SKETCHINC
 40
1.0
  9
$FILLETRAD
 40
0.0
  9
$AUNITS
 70
     0
  9
$AUPREC
 70
     0
  9
$MENU
  1
.
  9
$ELEVATION
 40
0.0
  9
$PELEVATION
 40
0.0
  9
$THICKNESS
 40
0.0
  9
$LIMCHECK
 70
     0
  9
$CHAMFERA
 40
0.0
  9
$CHAMFERB
 40
0.0
  9
$CHAMFERC
 40
0.0
  9
$CHAMFERD
 40
0.0
  9
$SKPOLY
 70
     0
  9
$TDCREATE
 40
2455019.583955972
  9
$TDUCREATE
 40
2455019.500622639
  9
$TDUPDATE
 40
2455026.487370324
  9
$TDUUPDATE
 40
2455026.404036991
  9
$TDINDWG
 40
0.1519695949
  9
$TDUSRTIMER
 40
0.1519694213
  9
$USRTIMER
 70
     1
  9
$ANGBASE
 50
0.0
  9
$ANGDIR
 70
     0
  9
$PDMODE
 70
     0
  9
$PDSIZE
 40
0.0
  9
$PLINEWID
 40
0.0
  9
$SPLFRAME
 70
     0
  9
$SPLINETYPE
 70
     6
  9
$SPLINESEGS
 70
     8
  9
$HANDSEED
  5
307
  9
$SURFTAB1
 70
     6
  9
$SURFTAB2
 70
     6
  9
$SURFTYPE
 70
     6
  9
$SURFU
 70
     6
  9
$SURFV
 70
     6
  9
$UCSBASE
  2

  9
$UCSNAME
  2

  9
$UCSORG
 10
0.0
 20
0.0
 30
0.0
  9
$UCSXDIR
 10
1.0
 20
0.0
 30
0.0
  9
$UCSYDIR
 10
0.0
 20
1.0
 30
0.0
  9
$UCSORTHOREF
  2

  9
$UCSORTHOVIEW
 70
     0
  9
$UCSORGTOP
 10
0.0
 20
0.0
 30
0.0
  9
$UCSORGBOTTOM
 10
0.0
 20
0.0
 30
0.0
  9
$UCSORGLEFT
 10
0.0
 20
0.0
 30
0.0
  9
$UCSORGRIGHT
 10
0.0
 20
0.0
 30
0.0
  9
$UCSORGFRONT
 10
0.0
 20
0.0
 30
0.0
  9
$UCSORGBACK
 10
0.0
 20
0.0
 30
0.0
  9
$PUCSBASE
  2

  9
$PUCSNAME
  2

  9
$PUCSORG
 10
0.0
 20
0.0
 30
0.0
  9
$PUCSXDIR
 10
1.0
 20
0.0
 30
0.0
  9
$PUCSYDIR
 10
0.0
 20
1.0
 30
0.0
  9
$PUCSORTHOREF
  2

  9
$PUCSORTHOVIEW
 70
     0
  9
$PUCSORGTOP
 10
0.0
 20
0.0
 30
0.0
  9
$PUCSORGBOTTOM
 10
0.0
 20
0.0
 30
0.0
  9
$PUCSORGLEFT
 10
0.0
 20
0.0
 30
0.0
  9
$PUCSORGRIGHT
 10
0.0
 20
0.0
 30
0.0
  9
$PUCSORGFRONT
 10
0.0
 20
0.0
 30
0.0
  9
$PUCSORGBACK
 10
0.0
 20
0.0
 30
0.0
  9
$USERI1
 70
     0
  9
$USERI2
 70
     0
  9
$USERI3
 70
     0
  9
$USERI4
 70
     0
  9
$USERI5
 70
     0
  9
$USERR1
 40
0.0
  9
$USERR2
 40
0.0
  9
$USERR3
 40
0.0
  9
$USERR4
 40
0.0
  9
$USERR5
 40
0.0
  9
$WORLDVIEW
 70
     1
  9
$SHADEDGE
 70
     3
  9
$SHADEDIF
 70
    70
  9
$TILEMODE
 70
     1
  9
$MAXACTVP
 70
    64
  9
$PINSBASE
 10
0.0
 20
0.0
 30
0.0
  9
$PLIMCHECK
 70
     0
  9
$PEXTMIN
 10
1.000000000000000E+20
 20
1.000000000000000E+20
 30
1.000000000000000E+20
  9
$PEXTMAX
 10
-1.000000000000000E+20
 20
-1.000000000000000E+20
 30
-1.000000000000000E+20
  9
$PLIMMIN
 10
0.0
 20
0.0
  9
$PLIMMAX
 10
420.0
 20
297.0
  9
$UNITMODE
 70
     0
  9
$VISRETAIN
 70
     1
  9
$PLINEGEN
 70
     0
  9
$PSLTSCALE
 70
     1
  9
$TREEDEPTH
 70
  3020
  9
$CMLSTYLE
  2
Standard
  9
$CMLJUST
 70
     0
  9
$CMLSCALE
 40
20.0
  9
$PROXYGRAPHICS
 70
     1
  9
$MEASUREMENT
 70
     1
  9
$CELWEIGHT
370
    -1
  9
$ENDCAPS
280
     0
  9
$JOINSTYLE
280
     0
  9
$LWDISPLAY
290
     0
  9
$INSUNITS
 70
     4
  9
$HYPERLINKBASE
  1

  9
$STYLESHEET
  1

  9
$XEDIT
290
     1
  9
$CEPSNTYPE
380
     0
  9
$PSTYLEMODE
290
     1
  9
$FINGERPRINTGUID
  2
{A6C950DD-243C-480B-8B88-1E8CBBE87BD7}
  9
$VERSIONGUID
  2
{A02E179F-A1DA-4242-B29B-5AC88AAE1F25}
  9
$EXTNAMES
290
     1
  9
$PSVPSCALE
 40
0.0
  9
$OLESTARTUP
290
     0
  0
ENDSEC
  0
SECTION
  2
CLASSES
  0
CLASS
  1
ACDBDICTIONARYWDFLT
  2
AcDbDictionaryWithDefault
  3
ObjectDBX Classes
 90
        0
280
     0
281
     0
  0
CLASS
  1
TABLESTYLE
  2
AcDbTableStyle
  3
ObjectDBX Classes
 90
     2047
280
     0
281
     0
  0
CLASS
  1
SORTENTSTABLE
  2
AcDbSortentsTable
  3
ObjectDBX Classes
 90
        0
280
     0
281
     0
  0
CLASS
  1
DICTIONARYVAR
  2
AcDbDictionaryVar
  3
ObjectDBX Classes
 90
        0
280
     0
281
     0
  0
CLASS
  1
ACDBPLACEHOLDER
  2
AcDbPlaceHolder
  3
ObjectDBX Classes
 90
        0
280
     0
281
     0
  0
CLASS
  1
LAYOUT
  2
AcDbLayout
  3
ObjectDBX Classes
 90
        0
280
     0
281
     0
  0
ENDSEC
  0
SECTION
  2
TABLES
  0
TABLE
  2
VPORT
  5
8
330
0
100
AcDbSymbolTable
 70
     2
  0
VPORT
  5
2FF
330
8
100
AcDbSymbolTableRecord
100
AcDbViewportTableRecord
  2
*Active
 70
     0
 10
0.0
 20
0.0
 11
1.0
 21
1.0
 12
369.9435589037569
 22
211.3059483419991
 13
0.0
 23
0.0
 14
10.0
 24
10.0
 15
10.0
 25
10.0
 16
0.0
 26
0.0
 36
1.0
 17
0.0
 27
0.0
 37
0.0
 40
469.7296357071693
 41
1.525474525474525
 42
50.0
 43
0.0
 44
0.0
 50
0.0
 51
0.0
 71
     0
 72
  1000
 73
     1
 74
     3
 75
     0
 76
     0
 77
     0
 78
     0
281
     0
 65
     1
110
0.0
120
0.0
130
0.0
111
1.0
121
0.0
131
0.0
112
0.0
122
1.0
132
0.0
 79
     0
146
0.0
  0
ENDTAB
  0
TABLE
  2
LTYPE
  5
5
330
0
100
AcDbSymbolTable
 70
     1
  0
LTYPE
  5
14
330
5
100
AcDbSymbolTableRecord
100
AcDbLinetypeTableRecord
  2
ByBlock
 70
     0
  3

 72
    65
 73
     0
 40
0.0
  0
LTYPE
  5
15
330
5
100
AcDbSymbolTableRecord
100
AcDbLinetypeTableRecord
  2
ByLayer
 70
     0
  3

 72
    65
 73
     0
 40
0.0
  0
LTYPE
  5
16
330
5
100
AcDbSymbolTableRecord
100
AcDbLinetypeTableRecord
  2
Continuous
 70
     0
  3
Solid line
 72
    65
 73
     0
 40
0.0
  0
ENDTAB
  0
TABLE
  2
LAYER
  5
2
102
{ACAD_XDICTIONARY
360
35
102
}
330
0
100
AcDbSymbolTable
 70
     1
  0
LAYER
  5
10
330
2
100
AcDbSymbolTableRecord
100
AcDbLayerTableRecord
  2
0
 70
     0
 62
     7
  6
Continuous
370
    -3
390
F
  0
ENDTAB
  0
TABLE
  2
STYLE
  5
3
330
0
100
AcDbSymbolTable
 70
     1
  0
STYLE
  5
11
330
3
100
AcDbSymbolTableRecord
100
AcDbTextStyleTableRecord
  2
Standard
 70
     0
 40
0.0
 41
1.0
 50
0.0
 71
     0
 42
2.5
  3
txt
  4

  0
ENDTAB
  0
TABLE
  2
VIEW
  5
6
330
0
100
AcDbSymbolTable
 70
     0
  0
ENDTAB
  0
TABLE
  2
UCS
  5
7
330
0
100
AcDbSymbolTable
 70
     0
  0
ENDTAB
  0
TABLE
  2
APPID
  5
9
330
0
100
AcDbSymbolTable
 70
     2
  0
APPID
  5
12
330
9
100
AcDbSymbolTableRecord
100
AcDbRegAppTableRecord
  2
ACAD
 70
     0
  0
APPID
  5
34
330
9
100
AcDbSymbolTableRecord
100
AcDbRegAppTableRecord
  2
ACAD_PSEXT
 70
     0
  0
ENDTAB
  0
TABLE
  2
DIMSTYLE
  5
A
330
0
100
AcDbSymbolTable
 70
     2
100
AcDbDimStyleTable
 71
     0
  0
DIMSTYLE
105
2B
330
A
100
AcDbSymbolTableRecord
100
AcDbDimStyleTableRecord
  2
ISO-25
 70
     0
 41
2.5
 42
0.625
 43
3.75
 44
1.25
 73
     0
 74
     0
 77
     1
 78
     8
140
2.5
141
2.5
143
0.03937007874016
147
0.625
171
     3
172
     1
271
     2
272
     2
274
     3
278
    44
283
     0
284
     8
340
11
  0
DIMSTYLE
105
33
330
A
100
AcDbSymbolTableRecord
100
AcDbDimStyleTableRecord
  2
STANDARD
 70
     0
340
11
  0
ENDTAB
  0
TABLE
  2
BLOCK_RECORD
  5
1
330
0
100
AcDbSymbolTable
 70
     2
  0
BLOCK_RECORD
  5
23
102
{ACAD_XDICTIONARY
360
19E
102
}
330
1
100
AcDbSymbolTableRecord
100
AcDbBlockTableRecord
  2
*Model_Space
340
26
  0
BLOCK_RECORD
  5
1F
330
1
100
AcDbSymbolTableRecord
100
AcDbBlockTableRecord
  2
*Paper_Space
340
22
  0
BLOCK_RECORD
  5
27
330
1
100
AcDbSymbolTableRecord
100
AcDbBlockTableRecord
  2
*Paper_Space0
340
2A
  0
BLOCK_RECORD
  5
2C2
102
{ACAD_XDICTIONARY
360
2C3
102
}
330
1
100
AcDbSymbolTableRecord
100
AcDbBlockTableRecord
  2
27095_P
340
0
310
2800000020000000200000000100080000000000000400000000000000000000000000000000000000000000000080000080000000808000800000008000800080800000C0C0C000C0DCC000F0CAA6000020400000206000002080000020A0000020C0000020E00000400000004020000040400000406000004080000040A0
310
000040C0000040E00000600000006020000060400000606000006080000060A0000060C0000060E00000800000008020000080400000806000008080000080A0000080C0000080E00000A0000000A0200000A0400000A0600000A0800000A0A00000A0C00000A0E00000C0000000C0200000C0400000C0600000C0800000C0
310
A00000C0C00000C0E00000E0000000E0200000E0400000E0600000E0800000E0A00000E0C00000E0E00040000000400020004000400040006000400080004000A0004000C0004000E00040200000402020004020400040206000402080004020A0004020C0004020E000404000004040200040404000404060004040800040
310
40A0004040C0004040E00040600000406020004060400040606000406080004060A0004060C0004060E00040800000408020004080400040806000408080004080A0004080C0004080E00040A0000040A0200040A0400040A0600040A0800040A0A00040A0C00040A0E00040C0000040C0200040C0400040C0600040C08000
310
40C0A00040C0C00040C0E00040E0000040E0200040E0400040E0600040E0800040E0A00040E0C00040E0E00080000000800020008000400080006000800080008000A0008000C0008000E00080200000802020008020400080206000802080008020A0008020C0008020E00080400000804020008040400080406000804080
310
008040A0008040C0008040E00080600000806020008060400080606000806080008060A0008060C0008060E00080800000808020008080400080806000808080008080A0008080C0008080E00080A0000080A0200080A0400080A0600080A0800080A0A00080A0C00080A0E00080C0000080C0200080C0400080C0600080C0
310
800080C0A00080C0C00080C0E00080E0000080E0200080E0400080E0600080E0800080E0A00080E0C00080E0E000C0000000C0002000C0004000C0006000C0008000C000A000C000C000C000E000C0200000C0202000C0204000C0206000C0208000C020A000C020C000C020E000C0400000C0402000C0404000C0406000C0
310
408000C040A000C040C000C040E000C0600000C0602000C0604000C0606000C0608000C060A000C060C000C060E000C0800000C0802000C0804000C0806000C0808000C080A000C080C000C080E000C0A00000C0A02000C0A04000C0A06000C0A08000C0A0A000C0A0C000C0A0E000C0C00000C0C02000C0C04000C0C06000
310
C0C08000C0C0A000F0FBFF00A4A0A000808080000000FF0000FF000000FFFF00FF000000FF00FF00FFFF0000FFFFFF0000000000000000000000000000000000000000000000000000000000000000000000000000000000000000000000000000000000000000000000000000000000000000000000000000000000000000
310
00000000000000000000000000000000000000000000000000000000000000000000000000000000000000000000000000000000000000000000000000000000000000000000000000000000000000000000000000000000000000000000000000000000000000000000000000000000000000000000000000000000000000
310
00000000000000000000000000000000000000000000000000000000000000000000000000000000000000000000000000000000000000000000000000FFFFFFFFFFFFFFFFFFFF00000000000000000000000000FFFFFFFFFFFFFFFFFFFFFFFFFFFFFFFFFFFFFFFFFFFFFFFFFFFFFFFF00000000FF0000000000FF00000000
310
00000000000000000000FF000000000000FF0000FF0000000000FF00000000000000000000000000000000FF0000000000FF0000FF0000000000FF00000000000000000000000000000000FF0000000000FF0000FF0000000000FF00000000000000000000000000000000FF0000000000FF0000FF0000000000FF00000000
310
000000000000000000000000FF0000000000FF0000FF0000000000FF000000000000FFFFFFFF000000000000FF0000000000FF0000FF0000000000FF000000000000FFFFFFFF000000000000FF0000000000FF0000FF0000000000FF000000000000FF0000FF000000000000FF0000000000FF0000FF0000000000FF00FF00
310
000000FFFFFFFF00000000FF00FFFFFFFF0000FF0000FF0000000000FF00FFFFFFFFFFFFFFFFFFFFFFFFFFFF00FFFF00FF0000FF0000FF000000000000FF00FFFFFFFFFFFFFFFFFFFFFFFF0000FF00FF000000FF0000FF000000000000FF000000000000FFFF000000000000FF000000000000FF0000FF00000000000000FF
310
FFFFFFFFFFFFFFFFFFFFFFFFFF00000000000000FF000000FFFFFFFFFFFFFFFFFFFFFFFFFFFFFFFFFFFFFFFFFFFFFFFFFFFFFFFF000000000000000000000000000000000000000000000000000000000000000000000000000000000000000000000000000000000000000000000000000000000000000000000000000000
310
00000000000000000000000000000000000000000000000000000000000000000000000000000000000000000000000000000000000000000000000000000000000000000000000000000000000000000000000000000000000000000000000000000000000000000000000000000000000000000000000000000000000000
310
0000000000000000000000000000000000000000000000000000000000000000000000000000000000000000000000000000000000000000
102
{BLKREFS
331
2C8
331
2E6
102
}
1001
ACAD
1000
DesignCenter Data
1002
{
1070
     1
1070
     4
1002
}
  0
ENDTAB
  0
ENDSEC
  0
SECTION
  2
BLOCKS
  0
BLOCK
  5
24
330
23
100
AcDbEntity
  8
0
100
AcDbBlockBegin
  2
*Model_Space
 70
     0
 10
0.0
 20
0.0
 30
0.0
  3
*Model_Space
  1

  0
ENDBLK
  5
25
330
23
100
AcDbEntity
  8
0
100
AcDbBlockEnd
  0
BLOCK
  5
20
330
1F
100
AcDbEntity
 67
     1
  8
0
100
AcDbBlockBegin
  2
*Paper_Space
 70
     0
 10
0.0
 20
0.0
 30
0.0
  3
*Paper_Space
  1

  0
ENDBLK
  5
21
330
1F
100
AcDbEntity
 67
     1
  8
0
100
AcDbBlockEnd
  0
BLOCK
  5
28
330
27
100
AcDbEntity
 67
     1
  8
0
100
AcDbBlockBegin
  2
*Paper_Space0
 70
     0
 10
0.0
 20
0.0
 30
0.0
  3
*Paper_Space0
  1

  0
ENDBLK
  5
29
330
27
100
AcDbEntity
 67
     1
  8
0
100
AcDbBlockEnd
  0
BLOCK
  5
2C6
330
2C2
100
AcDbEntity
  8
0
100
AcDbBlockBegin
  2
27095_P
 70
     0
 10
0.0
 20
0.0
 30
0.0
  3
27095_P
  1

  0
LINE
  5
2C9
330
2C2
100
AcDbEntity
  8
0
100
AcDbLine
 10
361.3975391780404
 20
422.5474190969143
 30
0.0
 11
607.3975391780368
 21
422.547419096878
 31
0.0
  0
LINE
  5
2CA
330
2C2
100
AcDbEntity
  8
0
100
AcDbLine
 10
469.7799041348698
 20
405.5474190968925
 30
0.0
 11
253.0151742212147
 21
405.5474190968925
 31
0.0
  0
CIRCLE
  5
2CB
330
2C2
100
AcDbEntity
  8
0
100
AcDbCircle
 10
546.3975391780405
 20
352.5114598361142
 30
0.0
 40
17.5
  0
LINE
  5
2CC
330
2C2
100
AcDbEntity
  8
0
100
AcDbLine
 10
455.9775239646078
 20
376.5258417778678
 30
0.0
 11
266.8175543914767
 21
376.5258417778678
 31
0.0
  0
LINE
  5
2CD
330
2C2
100
AcDbEntity
  8
0
100
AcDbLine
 10
611.397539178044
 20
225.8588226217507
 30
0.0
 11
611.3975391780404
 21
418.5474190968852
 31
0.0
  0
LINE
  5
2CE
330
2C2
100
AcDbEntity
  8
0
100
AcDbLine
 10
507.7799041348771
 20
224.9256186899802
 30
0.0
 11
507.7799041348844
 21
367.5474190968889
 31
0.0
  0
ARC
  5
2CF
330
2C2
100
AcDbEntity
  8
0
100
AcDbCircle
 10
469.7799041348698
 20
367.5474190968889
 30
0.0
 40
38.0
100
AcDbArc
 50
0.0
 51
90.0
  0
ARC
  5
2D0
330
2C2
100
AcDbEntity
  8
0
100
AcDbCircle
 10
607.3975391780368
 20
418.5474190968852
 30
0.0
 40
4.0
100
AcDbArc
 50
0.0
 51
90.0
  0
ARC
  5
2D1
330
2C2
100
AcDbEntity
  8
0
100
AcDbCircle
 10
455.9775239646078
 20
348.5258417778677
 30
0.0
 40
28.0
100
AcDbArc
 50
0.0
 51
90.0
  0
ARC
  5
2D2
330
2C2
100
AcDbEntity
  8
0
100
AcDbCircle
 10
361.3975391780368
 20
15172.54741909689
 30
0.0
 40
15000.0
100
AcDbArc
 50
270.0
 51
270.7589574600927
  0
ARC
  5
2D3
330
2C2
100
AcDbEntity
  8
0
100
AcDbCircle
 10
361.3975391780368
 20
15172.54741909689
 30
0.0
 40
14986.01472520794
100
AcDbArc
 50
270.0
 51
270.4154335280797
  0
ARC
  5
2D4
330
2C2
100
AcDbEntity
  8
0
100
AcDbCircle
 10
469.7799041348771
 20
224.9256186899802
 30
0.0
 40
38.0
100
AcDbArc
 50
270.4154335280797
 51
0.0
  0
ARC
  5
2D5
330
2C2
100
AcDbEntity
  8
0
100
AcDbCircle
 10
559.3975391780404
 20
225.8588226217471
 30
0.0
 40
52.0
100
AcDbArc
 50
270.7589574600927
 51
0.0
  0
LINE
  5
2D6
330
2C2
100
AcDbEntity
  8
0
100
AcDbLine
 10
361.3975391780441
 20
422.5474190969143
 30
0.0
 11
115.3975391780477
 21
422.547419096878
 31
0.0
  0
LINE
  5
2D7
330
2C2
100
AcDbEntity
  8
0
100
AcDbLine
 10
111.3975391780404
 20
225.8588226217507
 30
0.0
 11
111.3975391780441
 21
418.5474190968852
 31
0.0
  0
LINE
  5
2D8
330
2C2
100
AcDbEntity
  8
0
100
AcDbLine
 10
215.0151742212074
 20
224.9256186899802
 30
0.0
 11
215.0151742212001
 21
367.5474190968889
 31
0.0
  0
ARC
  5
2D9
330
2C2
100
AcDbEntity
  8
0
100
AcDbCircle
 10
253.0151742212147
 20
367.5474190968889
 30
0.0
 40
38.0
100
AcDbArc
 50
90.0
 51
180.0
  0
ARC
  5
2DA
330
2C2
100
AcDbEntity
  8
0
100
AcDbCircle
 10
115.3975391780477
 20
418.5474190968852
 30
0.0
 40
4.0
100
AcDbArc
 50
90.0
 51
180.0
  0
ARC
  5
2DB
330
2C2
100
AcDbEntity
  8
0
100
AcDbCircle
 10
266.8175543914767
 20
348.5258417778677
 30
0.0
 40
28.0
100
AcDbArc
 50
90.0
 51
180.0
  0
ARC
  5
2DC
330
2C2
100
AcDbEntity
  8
0
100
AcDbCircle
 10
361.3975391780477
 20
15172.54741909689
 30
0.0
 40
15000.0
100
AcDbArc
 50
269.2410425399073
 51
270.0
  0
ARC
  5
2DD
330
2C2
100
AcDbEntity
  8
0
100
AcDbCircle
 10
361.3975391780477
 20
15172.54741909689
 30
0.0
 40
14986.01472520794
100
AcDbArc
 50
269.5845664719203
 51
270.0
  0
ARC
  5
2DE
330
2C2
100
AcDbEntity
  8
0
100
AcDbCircle
 10
253.0151742212074
 20
224.9256186899802
 30
0.0
 40
38.0
100
AcDbArc
 50
180.0
 51
269.5845664719203
  0
ARC
  5
2DF
330
2C2
100
AcDbEntity
  8
0
100
AcDbCircle
 10
163.3975391780441
 20
225.8588226217471
 30
0.0
 40
52.0
100
AcDbArc
 50
180.0
 51
269.2410425399073
  0
SPLINE
  5
2E0
330
2C2
100
AcDbEntity
  8
0
100
AcDbSpline
210
0.0
220
0.0
230
1.0
 70
     8
 71
     3
 72
    26
 73
    22
 74
     0
 42
0.0000000001
 43
0.0000000001
 40
7.853979450876906
 40
7.853979450876906
 40
7.853979450876906
 40
7.853979450876906
 40
7.919352950397192
 40
7.919352950397192
 40
8.35700805459029
 40
8.35700805459029
 40
8.794663158783388
 40
8.794663158783388
 40
9.124586633184637
 40
9.124586633184637
 40
9.454510107585889
 40
9.454510107585889
 40
9.784433581987139
 40
9.784433581987139
 40
10.11435705638839
 40
10.11435705638839
 40
10.44428053078964
 40
10.44428053078964
 40
10.88286040666045
 40
10.88286040666045
 40
10.99557777686171
 40
10.99557777686171
 40
10.99557777686171
 40
10.99557777686171
 10
361.3975391780259
 20
381.9062259521388
 30
0.0
 10
361.6308458581043
 20
381.9061554697846
 30
0.0
 10
361.8641564583595
 20
381.9114914765278
 30
0.0
 10
363.6560284006991
 20
381.9944380517236
 30
0.0
 10
365.1940159828737
 20
382.3104456098599
 30
0.0
 10
367.9678456866095
 20
383.3896802919999
 30
0.0
 10
369.2036848740317
 20
384.1526218320332
 30
0.0
 10
370.9041346847662
 20
385.8013468154723
 30
0.0
 10
371.4838543612787
 20
386.6113295939622
 30
0.0
 10
372.2489596095402
 20
388.3590869174414
 30
0.0
 10
372.4314590448484
 20
389.2968495952273
 30
0.0
 10
372.3530132569649
 20
391.1619420458528
 30
0.0
 10
372.0926798584405
 20
392.0852796529371
 30
0.0
 10
371.1886197635577
 20
393.7854139005331
 30
0.0
 10
370.5473366048318
 20
394.5629697909181
 30
0.0
 10
368.9799012967414
 20
395.9070220756558
 30
0.0
 10
368.0536366473971
 20
396.4744503663251
 30
0.0
 10
365.6789515468918
 20
397.506941027631
 30
0.0
 10
364.158434635985
 20
397.875605679631
 30
0.0
 10
362.2020856906384
 20
398.0321918312339
 30
0.0
 10
361.7998119050171
 20
398.0480685162738
 30
0.0
 10
361.3975391780332
 20
398.0479396838609
 30
0.0
  0
SPLINE
  5
2E1
330
2C2
100
AcDbEntity
  8
0
100
AcDbSpline
210
0.0
220
0.0
230
1.0
 70
     8
 71
     3
 72
    26
 73
    22
 74
     0
 42
0.0000000001
 43
0.0000000001
 40
7.853979450876906
 40
7.853979450876906
 40
7.853979450876906
 40
7.853979450876906
 40
7.919352950397192
 40
7.919352950397192
 40
8.35700805459029
 40
8.35700805459029
 40
8.794663158783388
 40
8.794663158783388
 40
9.124586633184637
 40
9.124586633184637
 40
9.454510107585889
 40
9.454510107585889
 40
9.784433581987139
 40
9.784433581987139
 40
10.11435705638839
 40
10.11435705638839
 40
10.44428053078964
 40
10.44428053078964
 40
10.88286040666045
 40
10.88286040666045
 40
10.99557777686171
 40
10.99557777686171
 40
10.99557777686171
 40
10.99557777686171
 10
361.3975391780259
 20
381.9062259521388
 30
0.0
 10
361.1642324979548
 20
381.9061554697846
 30
0.0
 10
360.9309218976996
 20
381.9114914765278
 30
0.0
 10
359.1390499553599
 20
381.9944380517236
 30
0.0
 10
357.6010623731818
 20
382.3104456098599
 30
0.0
 10
354.8272326694423
 20
383.3896802919999
 30
0.0
 10
353.5913934820201
 20
384.1526218320332
 30
0.0
 10
351.8909436712929
 20
385.8013468154723
 30
0.0
 10
351.3112239947768
 20
386.6113295939622
 30
0.0
 10
350.5461187465153
 20
388.3590869174414
 30
0.0
 10
350.3636193112034
 20
389.2968495952273
 30
0.0
 10
350.4420650990905
 20
391.1619420458528
 30
0.0
 10
350.7023984976113
 20
392.0852796529371
 30
0.0
 10
351.6064585924978
 20
393.7854139005331
 30
0.0
 10
352.2477417512273
 20
394.5629697909181
 30
0.0
 10
353.8151770593176
 20
395.9070220756558
 30
0.0
 10
354.741441708662
 20
396.4744503663251
 30
0.0
 10
357.1161268091673
 20
397.506941027631
 30
0.0
 10
358.6366437200704
 20
397.875605679631
 30
0.0
 10
360.5929926654208
 20
398.0321918312339
 30
0.0
 10
360.995266451042
 20
398.0480685162738
 30
0.0
 10
361.3975391780259
 20
398.0479396838609
 30
0.0
  0
CIRCLE
  5
2E2
330
2C2
100
AcDbEntity
  8
0
100
AcDbCircle
 10
361.3975391780332
 20
322.5474190969144
 30
0.0
 40
23.00000000000022
  0
ARC
  5
2E3
330
2C2
100
AcDbEntity
  8
0
100
AcDbCircle
 10
361.3975391780259
 20
322.5474190969144
 30
0.0
 40
36.00000000000008
100
AcDbArc
 50
270.0
 51
90.0
  0
ARC
  5
2E4
330
2C2
100
AcDbEntity
  8
0
100
AcDbCircle
 10
361.3975391780223
 20
322.5474190969144
 30
0.0
 40
36.00000000000008
100
AcDbArc
 50
90.0
 51
270.0
  0
ARC
  5
2E5
330
2C2
100
AcDbEntity
  8
0
100
AcDbCircle
 10
361.3975391780514
 20
1546.938630606749
 30
0.0
 40
1183.750811992937
100
AcDbArc
 50
265.4172650365753
 51
274.5827349634247
  0
ENDBLK
  5
2C7
330
2C2
100
AcDbEntity
  8
0
100
AcDbBlockEnd
  0
ENDSEC
  0
SECTION
  2
ENTITIES
  0
MTEXT
  5
6B
330
23
100
AcDbEntity
  8
0
100
AcDbMText
 10
13.67895064802198
 20
26.44333632592591
 30
0.0
 40
20.0
 41
853.3333333333334
 71
     1
 72
     5
  1
{\fTimes New Roman|b0|i0|c0|p18;\C0;LAVAMANOS  DE 50x25 CM.  SERIE EMMA SQUARE }
 73
     1
 44
1.0
1001
ACAD
1000
ACAD_MTEXT_DEFINED_HEIGHT_BEGIN
1070
    46
1040
0.0
1000
ACAD_MTEXT_DEFINED_HEIGHT_END
1000
MTEXTBEGIN
1070
    73
1070
     1
1070
    44
1040
1.0
1070
    74
1070
     0
1000
MTEXTEND
  0
INSERT
  5
2C8
330
23
100
AcDbEntity
  8
0
100
AcDbBlockReference
  2
27095_P
 10
0.0
 20
0.0
 30
0.0
  0
INSERT
  5
2E6
330
23
100
AcDbEntity
  8
0
100
AcDbBlockReference
  2
27095_P
 10
0.0
 20
0.0
 30
0.0
  0
ENDSEC
  0
SECTION
  2
OBJECTS
  0
DICTIONARY
  5
C
330
0
100
AcDbDictionary
281
     1
  3
ACAD_COLOR
350
1C
  3
ACAD_GROUP
350
D
  3
ACAD_LAYOUT
350
1A
  3
ACAD_MATERIAL
350
1B
  3
ACAD_MLINESTYLE
350
17
  3
ACAD_PLOTSETTINGS
350
19
  3
ACAD_PLOTSTYLENAME
350
E
  3
ACAD_TABLESTYLE
350
1D
  3
ACDBHEADERROUNDTRIPXREC
350
300
  3
AcDbVariableDictionary
350
111
  0
DICTIONARY
  5
35
330
2
100
AcDbDictionary
280
     1
281
     1
  3
ACAD_LAYERSTATES
360
36
  0
DICTIONARY
  5
19E
330
23
100
AcDbDictionary
280
     1
281
     1
  3
ACAD_SORTENTS
360
19F
  0
DICTIONARY
  5
2C3
330
2C2
100
AcDbDictionary
280
     1
281
     1
  3
AcDbBlockTableRecordData
360
2C4
  0
DICTIONARY
  5
1C
102
{ACAD_REACTORS
330
C
102
}
330
C
100
AcDbDictionary
281
     1
  0
DICTIONARY
  5
D
102
{ACAD_REACTORS
330
C
102
}
330
C
100
AcDbDictionary
281
     1
  0
DICTIONARY
  5
1A
102
{ACAD_REACTORS
330
C
102
}
330
C
100
AcDbDictionary
281
     1
  3
Model
350
26
  3
Presentación1
350
22
  3
Presentación2
350
2A
  0
DICTIONARY
  5
1B
102
{ACAD_REACTORS
330
C
102
}
330
C
100
AcDbDictionary
281
     1
  0
DICTIONARY
  5
17
102
{ACAD_REACTORS
330
C
102
}
330
C
100
AcDbDictionary
281
     1
  3
Standard
350
18
  0
DICTIONARY
  5
19
102
{ACAD_REACTORS
330
C
102
}
330
C
100
AcDbDictionary
281
     1
  0
ACDBDICTIONARYWDFLT
  5
E
102
{ACAD_REACTORS
330
C
102
}
330
C
100
AcDbDictionary
281
     1
  3
Normal
350
F
100
AcDbDictionaryWithDefault
340
F
  0
DICTIONARY
  5
1D
102
{ACAD_REACTORS
330
C
102
}
330
C
100
AcDbDictionary
281
     1
  3
Standard
350
1E
  0
DICTIONARY
  5
300
102
{ACAD_REACTORS
330
C
102
}
330
C
100
AcDbDictionary
281
     1
  0
DICTIONARY
  5
111
102
{ACAD_REACTORS
330
C
102
}
330
C
100
AcDbDictionary
281
     1
  3
CTABLESTYLE
350
112
  3
DIMASSOC
350
114
  3
HIDETEXT
350
113
  3
PROJECTNAME
350
115
  0
DICTIONARY
  5
36
102
{ACAD_REACTORS
330
35
102
}
330
35
100
AcDbDictionary
281
     1
  0
SORTENTSTABLE
  5
19F
102
{ACAD_REACTORS
330
19E
102
}
330
19E
100
AcDbSortentsTable
330
23
331
6B
  5
6B
  0
DICTIONARY
  5
2C4
102
{ACAD_REACTORS
330
2C3
102
}
330
2C3
100
AcDbDictionary
280
     1
281
     1
  3
Edit
360
2C5
  0
LAYOUT
  5
26
102
{ACAD_XDICTIONARY
360
303
102
}
102
{ACAD_REACTORS
330
1A
102
}
330
1A
100
AcDbPlotSettings
  1

  2
\\CERAMICAS_GALA\PRT_BU_OT_01.ZPRINTERS.BURGOS
  4

  6

 40
0.0
 41
0.0
 42
0.0
 43
0.0
 44
0.0
 45
0.0
 46
0.0
 47
0.0
 48
0.0
 49
0.0
140
0.0
141
0.0
142
1.0
143
1.0
 70
  1712
 72
     0
 73
     0
 74
     0
  7
C:\Documents and Settings\G0810\Application Data\Autodesk\AutoCAD 2006\R16.2\esp\Plot Styles\jj.stb
 75
     0
147
1.0
148
0.0
149
0.0
100
AcDbLayout
  1
Model
 70
     1
 71
     0
 10
0.0
 20
0.0
 11
12.0
 21
9.0
 12
0.0
 22
0.0
 32
0.0
 14
0.0
 24
0.0
 34
0.0
 15
0.0
 25
0.0
 35
0.0
146
0.0
 13
0.0
 23
0.0
 33
0.0
 16
1.0
 26
0.0
 36
0.0
 17
0.0
 27
1.0
 37
0.0
 76
     0
330
23
  0
LAYOUT
  5
22
102
{ACAD_XDICTIONARY
360
301
102
}
102
{ACAD_REACTORS
330
1A
102
}
330
1A
100
AcDbPlotSettings
  1

  2
\\CERAMICAS_GALA\PRT_BU_OT_01.ZPRINTERS.BURGOS
  4

  6

 40
0.0
 41
0.0
 42
0.0
 43
0.0
 44
0.0
 45
0.0
 46
0.0
 47
0.0
 48
0.0
 49
0.0
140
0.0
141
0.0
142
1.0
143
1.0
 70
   688
 72
     0
 73
     0
 74
     5
  7
C:\Documents and Settings\G0810\Application Data\Autodesk\AutoCAD 2006\R16.2\esp\Plot Styles\jj.stb
 75
    16
147
1.0
148
0.0
149
0.0
100
AcDbLayout
  1
Presentación1
 70
     1
 71
     1
 10
0.0
 20
0.0
 11
420.0
 21
297.0
 12
0.0
 22
0.0
 32
0.0
 14
1.000000000000000E+20
 24
1.000000000000000E+20
 34
1.000000000000000E+20
 15
-1.000000000000000E+20
 25
-1.000000000000000E+20
 35
-1.000000000000000E+20
146
0.0
 13
0.0
 23
0.0
 33
0.0
 16
1.0
 26
0.0
 36
0.0
 17
0.0
 27
1.0
 37
0.0
 76
     0
330
1F
  0
LAYOUT
  5
2A
102
{ACAD_XDICTIONARY
360
305
102
}
102
{ACAD_REACTORS
330
1A
102
}
330
1A
100
AcDbPlotSettings
  1

  2
\\CERAMICAS_GALA\PRT_BU_OT_01.ZPRINTERS.BURGOS
  4

  6

 40
0.0
 41
0.0
 42
0.0
 43
0.0
 44
0.0
 45
0.0
 46
0.0
 47
0.0
 48
0.0
 49
0.0
140
0.0
141
0.0
142
1.0
143
1.0
 70
   688
 72
     0
 73
     0
 74
     5
  7
C:\Documents and Settings\G0810\Application Data\Autodesk\AutoCAD 2006\R16.2\esp\Plot Styles\jj.stb
 75
    16
147
1.0
148
0.0
149
0.0
100
AcDbLayout
  1
Presentación2
 70
     1
 71
     2
 10
0.0
 20
0.0
 11
12.0
 21
9.0
 12
0.0
 22
0.0
 32
0.0
 14
0.0
 24
0.0
 34
0.0
 15
0.0
 25
0.0
 35
0.0
146
0.0
 13
0.0
 23
0.0
 33
0.0
 16
1.0
 26
0.0
 36
0.0
 17
0.0
 27
1.0
 37
0.0
 76
     0
330
27
  0
MLINESTYLE
  5
18
102
{ACAD_REACTORS
330
17
102
}
330
17
100
AcDbMlineStyle
  2
STANDARD
 70
     0
  3

 62
   256
 51
90.0
 52
90.0
 71
     2
 49
0.5
 62
   256
  6
BYLAYER
 49
-0.5
 62
   256
  6
BYLAYER
  0
ACDBPLACEHOLDER
  5
F
102
{ACAD_REACTORS
330
E
102
}
330
E
  0
TABLESTYLE
  5
1E
102
{ACAD_REACTORS
330
1D
102
}
330
1D
100
AcDbTableStyle
  3
Standard
 70
     0
 71
     0
 40
1.5
 41
1.5
280
     0
281
     0
  7
Standard
140
4.5
170
     2
 62
     0
 63
     7
283
     0
274
    -2
284
     1
 64
     0
275
    -2
285
     1
 65
     0
276
    -2
286
     1
 66
     0
277
    -2
287
     1
 67
     0
278
    -2
288
     1
 68
     0
279
    -2
289
     1
 69
     0
  7
Standard
140
6.0
170
     5
 62
     0
 63
     7
283
     0
274
    -2
284
     1
 64
     0
275
    -2
285
     1
 65
     0
276
    -2
286
     1
 66
     0
277
    -2
287
     1
 67
     0
278
    -2
288
     1
 68
     0
279
    -2
289
     1
 69
     0
  7
Standard
140
4.5
170
     5
 62
     0
 63
     7
283
     0
274
    -2
284
     1
 64
     0
275
    -2
285
     1
 65
     0
276
    -2
286
     1
 66
     0
277
    -2
287
     1
 67
     0
278
    -2
288
     1
 68
     0
279
    -2
289
     1
 69
     0
  0
DICTIONARYVAR
  5
112
102
{ACAD_REACTORS
330
111
102
}
330
111
100
DictionaryVariables
280
     0
  1
STANDARD
  0
DICTIONARYVAR
  5
114
102
{ACAD_REACTORS
330
111
102
}
330
111
100
DictionaryVariables
280
     0
  1
2
  0
DICTIONARYVAR
  5
113
102
{ACAD_REACTORS
330
111
102
}
330
111
100
DictionaryVariables
280
     0
  1
1
  0
DICTIONARYVAR
  5
115
102
{ACAD_REACTORS
330
111
102
}
330
111
100
DictionaryVariables
280
     0
  1

  0
XRECORD
  5
2C5
102
{ACAD_REACTORS
330
2C4
102
}
330
2C4
100
AcDbXrecord
280
     1
1070
     0
1070
     0
1070
     0
  0
DICTIONARY
  5
303
330
26
100
AcDbDictionary
280
     1
281
     1
  3
ACAD_XREC_ROUNDTRIP
360
304
  0
DICTIONARY
  5
301
330
22
100
AcDbDictionary
280
     1
281
     1
  3
ACAD_XREC_ROUNDTRIP
360
302
  0
DICTIONARY
  5
305
330
2A
100
AcDbDictionary
280
     1
281
     1
  3
ACAD_XREC_ROUNDTRIP
360
306
  0
XRECORD
  5
304
102
{ACAD_REACTORS
330
303
102
}
330
303
100
AcDbXrecord
280
     1
102
SHADEPLOT
 70
     0
102
SHADEPLOTRESLEVEL
 70
     2
102
SHADEPLOTCUSTOMDPI
 70
   300
  0
XRECORD
  5
302
102
{ACAD_REACTORS
330
301
102
}
330
301
100
AcDbXrecord
280
     1
102
SHADEPLOT
 70
     0
102
SHADEPLOTRESLEVEL
 70
     2
102
SHADEPLOTCUSTOMDPI
 70
   300
  0
XRECORD
  5
306
102
{ACAD_REACTORS
330
305
102
}
330
305
100
AcDbXrecord
280
     1
102
SHADEPLOT
 70
     0
102
SHADEPLOTRESLEVEL
 70
     2
102
SHADEPLOTCUSTOMDPI
 70
   300
  0
ENDSEC
  0
EOF
