  0
SECTION
  2
HEADER
  9
$ACADVER
  1
AC1015
  9
$ACADMAINTVER
 70
    20
  9
$DWGCODEPAGE
  3
ANSI_1252
  9
$INSBASE
 10
0.0
 20
0.0
 30
0.0
  9
$EXTMIN
 10
13.04897013652748
 20
0.0221073631241779
 30
-0.0015258207003583
  9
$EXTMAX
 10
682.5245823290611
 20
419.5985181366535
 30
0.0000000349246037
  9
$LIMMIN
 10
0.0
 20
0.0
  9
$LIMMAX
 10
420.0
 20
297.0
  9
$ORTHOMODE
 70
     0
  9
$REGENMODE
 70
     1
  9
$FILLMODE
 70
     1
  9
$QTEXTMODE
 70
     0
  9
$MIRRTEXT
 70
     0
  9
$LTSCALE
 40
1.0
  9
$ATTMODE
 70
     1
  9
$TEXTSIZE
 40
2.5
  9
$TRACEWID
 40
1.0
  9
$TEXTSTYLE
  7
Standard
  9
$CLAYER
  8
0
  9
$CELTYPE
  6
ByLayer
  9
$CECOLOR
 62
   256
  9
$CELTSCALE
 40
1.0
  9
$DISPSILH
 70
     0
  9
$DIMSCALE
 40
1.0
  9
$DIMASZ
 40
2.5
  9
$DIMEXO
 40
0.625
  9
$DIMDLI
 40
3.75
  9
$DIMRND
 40
0.0
  9
$DIMDLE
 40
0.0
  9
$DIMEXE
 40
1.25
  9
$DIMTP
 40
0.0
  9
$DIMTM
 40
0.0
  9
$DIMTXT
 40
2.5
  9
$DIMCEN
 40
2.5
  9
$DIMTSZ
 40
0.0
  9
$DIMTOL
 70
     0
  9
$DIMLIM
 70
     0
  9
$DIMTIH
 70
     0
  9
$DIMTOH
 70
     0
  9
$DIMSE1
 70
     0
  9
$DIMSE2
 70
     0
  9
$DIMTAD
 70
     1
  9
$DIMZIN
 70
     8
  9
$DIMBLK
  1

  9
$DIMASO
 70
     1
  9
$DIMSHO
 70
     1
  9
$DIMPOST
  1

  9
$DIMAPOST
  1

  9
$DIMALT
 70
     0
  9
$DIMALTD
 70
     3
  9
$DIMALTF
 40
0.03937007874016
  9
$DIMLFAC
 40
1.0
  9
$DIMTOFL
 70
     1
  9
$DIMTVP
 40
0.0
  9
$DIMTIX
 70
     0
  9
$DIMSOXD
 70
     0
  9
$DIMSAH
 70
     0
  9
$DIMBLK1
  1

  9
$DIMBLK2
  1

  9
$DIMSTYLE
  2
ISO-25
  9
$DIMCLRD
 70
     0
  9
$DIMCLRE
 70
     0
  9
$DIMCLRT
 70
     0
  9
$DIMTFAC
 40
1.0
  9
$DIMGAP
 40
0.625
  9
$DIMJUST
 70
     0
  9
$DIMSD1
 70
     0
  9
$DIMSD2
 70
     0
  9
$DIMTOLJ
 70
     0
  9
$DIMTZIN
 70
     8
  9
$DIMALTZ
 70
     0
  9
$DIMALTTZ
 70
     0
  9
$DIMUPT
 70
     0
  9
$DIMDEC
 70
     2
  9
$DIMTDEC
 70
     2
  9
$DIMALTU
 70
     2
  9
$DIMALTTD
 70
     3
  9
$DIMTXSTY
  7
Standard
  9
$DIMAUNIT
 70
     0
  9
$DIMADEC
 70
     0
  9
$DIMALTRND
 40
0.0
  9
$DIMAZIN
 70
     0
  9
$DIMDSEP
 70
    44
  9
$DIMATFIT
 70
     3
  9
$DIMFRAC
 70
     0
  9
$DIMLDRBLK
  1

  9
$DIMLUNIT
 70
     2
  9
$DIMLWD
 70
    -2
  9
$DIMLWE
 70
    -2
  9
$DIMTMOVE
 70
     0
  9
$LUNITS
 70
     2
  9
$LUPREC
 70
     4
  9
$SKETCHINC
 40
1.0
  9
$FILLETRAD
 40
0.0
  9
$AUNITS
 70
     0
  9
$AUPREC
 70
     0
  9
$MENU
  1
.
  9
$ELEVATION
 40
0.0
  9
$PELEVATION
 40
0.0
  9
$THICKNESS
 40
0.0
  9
$LIMCHECK
 70
     0
  9
$CHAMFERA
 40
0.0
  9
$CHAMFERB
 40
0.0
  9
$CHAMFERC
 40
0.0
  9
$CHAMFERD
 40
0.0
  9
$SKPOLY
 70
     0
  9
$TDCREATE
 40
2455019.583955972
  9
$TDUCREATE
 40
2455019.500622639
  9
$TDUPDATE
 40
2455026.495980174
  9
$TDUUPDATE
 40
2455026.412646841
  9
$TDINDWG
 40
0.0438187269
  9
$TDUSRTIMER
 40
0.0438185532
  9
$USRTIMER
 70
     1
  9
$ANGBASE
 50
0.0
  9
$ANGDIR
 70
     0
  9
$PDMODE
 70
     0
  9
$PDSIZE
 40
0.0
  9
$PLINEWID
 40
0.0
  9
$SPLFRAME
 70
     0
  9
$SPLINETYPE
 70
     6
  9
$SPLINESEGS
 70
     8
  9
$HANDSEED
  5
200
  9
$SURFTAB1
 70
     6
  9
$SURFTAB2
 70
     6
  9
$SURFTYPE
 70
     6
  9
$SURFU
 70
     6
  9
$SURFV
 70
     6
  9
$UCSBASE
  2

  9
$UCSNAME
  2

  9
$UCSORG
 10
0.0
 20
0.0
 30
0.0
  9
$UCSXDIR
 10
1.0
 20
0.0
 30
0.0
  9
$UCSYDIR
 10
0.0
 20
1.0
 30
0.0
  9
$UCSORTHOREF
  2

  9
$UCSORTHOVIEW
 70
     0
  9
$UCSORGTOP
 10
0.0
 20
0.0
 30
0.0
  9
$UCSORGBOTTOM
 10
0.0
 20
0.0
 30
0.0
  9
$UCSORGLEFT
 10
0.0
 20
0.0
 30
0.0
  9
$UCSORGRIGHT
 10
0.0
 20
0.0
 30
0.0
  9
$UCSORGFRONT
 10
0.0
 20
0.0
 30
0.0
  9
$UCSORGBACK
 10
0.0
 20
0.0
 30
0.0
  9
$PUCSBASE
  2

  9
$PUCSNAME
  2

  9
$PUCSORG
 10
0.0
 20
0.0
 30
0.0
  9
$PUCSXDIR
 10
1.0
 20
0.0
 30
0.0
  9
$PUCSYDIR
 10
0.0
 20
1.0
 30
0.0
  9
$PUCSORTHOREF
  2

  9
$PUCSORTHOVIEW
 70
     0
  9
$PUCSORGTOP
 10
0.0
 20
0.0
 30
0.0
  9
$PUCSORGBOTTOM
 10
0.0
 20
0.0
 30
0.0
  9
$PUCSORGLEFT
 10
0.0
 20
0.0
 30
0.0
  9
$PUCSORGRIGHT
 10
0.0
 20
0.0
 30
0.0
  9
$PUCSORGFRONT
 10
0.0
 20
0.0
 30
0.0
  9
$PUCSORGBACK
 10
0.0
 20
0.0
 30
0.0
  9
$USERI1
 70
     0
  9
$USERI2
 70
     0
  9
$USERI3
 70
     0
  9
$USERI4
 70
     0
  9
$USERI5
 70
     0
  9
$USERR1
 40
0.0
  9
$USERR2
 40
0.0
  9
$USERR3
 40
0.0
  9
$USERR4
 40
0.0
  9
$USERR5
 40
0.0
  9
$WORLDVIEW
 70
     1
  9
$SHADEDGE
 70
     3
  9
$SHADEDIF
 70
    70
  9
$TILEMODE
 70
     1
  9
$MAXACTVP
 70
    64
  9
$PINSBASE
 10
0.0
 20
0.0
 30
0.0
  9
$PLIMCHECK
 70
     0
  9
$PEXTMIN
 10
1.000000000000000E+20
 20
1.000000000000000E+20
 30
1.000000000000000E+20
  9
$PEXTMAX
 10
-1.000000000000000E+20
 20
-1.000000000000000E+20
 30
-1.000000000000000E+20
  9
$PLIMMIN
 10
0.0
 20
0.0
  9
$PLIMMAX
 10
420.0
 20
297.0
  9
$UNITMODE
 70
     0
  9
$VISRETAIN
 70
     1
  9
$PLINEGEN
 70
     0
  9
$PSLTSCALE
 70
     1
  9
$TREEDEPTH
 70
  3020
  9
$CMLSTYLE
  2
Standard
  9
$CMLJUST
 70
     0
  9
$CMLSCALE
 40
20.0
  9
$PROXYGRAPHICS
 70
     1
  9
$MEASUREMENT
 70
     1
  9
$CELWEIGHT
370
    -1
  9
$ENDCAPS
280
     0
  9
$JOINSTYLE
280
     0
  9
$LWDISPLAY
290
     0
  9
$INSUNITS
 70
     4
  9
$HYPERLINKBASE
  1

  9
$STYLESHEET
  1

  9
$XEDIT
290
     1
  9
$CEPSNTYPE
380
     0
  9
$PSTYLEMODE
290
     1
  9
$FINGERPRINTGUID
  2
{A6C950DD-243C-480B-8B88-1E8CBBE87BD7}
  9
$VERSIONGUID
  2
{A03B129F-798A-4584-8B2E-B3F2DE98299C}
  9
$EXTNAMES
290
     1
  9
$PSVPSCALE
 40
0.0
  9
$OLESTARTUP
290
     0
  0
ENDSEC
  0
SECTION
  2
CLASSES
  0
CLASS
  1
ACDBDICTIONARYWDFLT
  2
AcDbDictionaryWithDefault
  3
ObjectDBX Classes
 90
        0
280
     0
281
     0
  0
CLASS
  1
TABLESTYLE
  2
AcDbTableStyle
  3
ObjectDBX Classes
 90
     2047
280
     0
281
     0
  0
CLASS
  1
SORTENTSTABLE
  2
AcDbSortentsTable
  3
ObjectDBX Classes
 90
    32768
280
     0
281
     0
  0
CLASS
  1
DICTIONARYVAR
  2
AcDbDictionaryVar
  3
ObjectDBX Classes
 90
        0
280
     0
281
     0
  0
CLASS
  1
ACDBPLACEHOLDER
  2
AcDbPlaceHolder
  3
ObjectDBX Classes
 90
        0
280
     0
281
     0
  0
CLASS
  1
LAYOUT
  2
AcDbLayout
  3
ObjectDBX Classes
 90
        0
280
     0
281
     0
  0
CLASS
  1
DIMASSOC
  2
AcDbDimAssoc
  3
"AcDbDimAssoc|Product Desc:     AcDim ARX App For Dimension|Company:          Autodesk, Inc.|WEB Address:      www.autodesk.com"
 90
    32768
280
     0
281
     0
  0
ENDSEC
  0
SECTION
  2
TABLES
  0
TABLE
  2
VPORT
  5
8
330
0
100
AcDbSymbolTable
 70
     2
  0
VPORT
  5
1F8
330
8
100
AcDbSymbolTableRecord
100
AcDbViewportTableRecord
  2
*Active
 70
     0
 10
0.0
 20
0.0
 11
1.0
 21
1.0
 12
347.7867762327942
 22
209.8103127498888
 13
0.0
 23
0.0
 14
10.0
 24
10.0
 15
10.0
 25
10.0
 16
0.0
 26
0.0
 36
1.0
 17
0.0
 27
0.0
 37
0.0
 40
440.5865376121358
 41
1.525474525474525
 42
50.0
 43
0.0
 44
0.0
 50
0.0
 51
0.0
 71
     0
 72
  1000
 73
     1
 74
     3
 75
     0
 76
     0
 77
     0
 78
     0
281
     0
 65
     1
110
0.0
120
0.0
130
0.0
111
1.0
121
0.0
131
0.0
112
0.0
122
1.0
132
0.0
 79
     0
146
0.0
  0
ENDTAB
  0
TABLE
  2
LTYPE
  5
5
330
0
100
AcDbSymbolTable
 70
     1
  0
LTYPE
  5
14
330
5
100
AcDbSymbolTableRecord
100
AcDbLinetypeTableRecord
  2
ByBlock
 70
     0
  3

 72
    65
 73
     0
 40
0.0
  0
LTYPE
  5
15
330
5
100
AcDbSymbolTableRecord
100
AcDbLinetypeTableRecord
  2
ByLayer
 70
     0
  3

 72
    65
 73
     0
 40
0.0
  0
LTYPE
  5
16
330
5
100
AcDbSymbolTableRecord
100
AcDbLinetypeTableRecord
  2
Continuous
 70
     0
  3
Solid line
 72
    65
 73
     0
 40
0.0
  0
ENDTAB
  0
TABLE
  2
LAYER
  5
2
102
{ACAD_XDICTIONARY
360
35
102
}
330
0
100
AcDbSymbolTable
 70
     1
  0
LAYER
  5
10
330
2
100
AcDbSymbolTableRecord
100
AcDbLayerTableRecord
  2
0
 70
     0
 62
     7
  6
Continuous
370
    -3
390
F
  0
ENDTAB
  0
TABLE
  2
STYLE
  5
3
330
0
100
AcDbSymbolTable
 70
     1
  0
STYLE
  5
11
330
3
100
AcDbSymbolTableRecord
100
AcDbTextStyleTableRecord
  2
Standard
 70
     0
 40
0.0
 41
1.0
 50
0.0
 71
     0
 42
2.5
  3
txt
  4

  0
ENDTAB
  0
TABLE
  2
VIEW
  5
6
330
0
100
AcDbSymbolTable
 70
     0
  0
ENDTAB
  0
TABLE
  2
UCS
  5
7
330
0
100
AcDbSymbolTable
 70
     0
  0
ENDTAB
  0
TABLE
  2
APPID
  5
9
330
0
100
AcDbSymbolTable
 70
     2
  0
APPID
  5
12
330
9
100
AcDbSymbolTableRecord
100
AcDbRegAppTableRecord
  2
ACAD
 70
     0
  0
APPID
  5
34
330
9
100
AcDbSymbolTableRecord
100
AcDbRegAppTableRecord
  2
ACAD_PSEXT
 70
     0
  0
ENDTAB
  0
TABLE
  2
DIMSTYLE
  5
A
330
0
100
AcDbSymbolTable
 70
     2
100
AcDbDimStyleTable
 71
     0
  0
DIMSTYLE
105
2B
330
A
100
AcDbSymbolTableRecord
100
AcDbDimStyleTableRecord
  2
ISO-25
 70
     0
 41
2.5
 42
0.625
 43
3.75
 44
1.25
 73
     0
 74
     0
 77
     1
 78
     8
140
2.5
141
2.5
143
0.03937007874016
147
0.625
171
     3
172
     1
271
     2
272
     2
274
     3
278
    44
283
     0
284
     8
340
11
  0
DIMSTYLE
105
33
330
A
100
AcDbSymbolTableRecord
100
AcDbDimStyleTableRecord
  2
STANDARD
 70
     0
340
11
  0
ENDTAB
  0
TABLE
  2
BLOCK_RECORD
  5
1
330
0
100
AcDbSymbolTable
 70
     2
  0
BLOCK_RECORD
  5
23
330
1
100
AcDbSymbolTableRecord
100
AcDbBlockTableRecord
  2
*Model_Space
340
26
  0
BLOCK_RECORD
  5
1F
330
1
100
AcDbSymbolTableRecord
100
AcDbBlockTableRecord
  2
*Paper_Space
340
22
  0
BLOCK_RECORD
  5
27
330
1
100
AcDbSymbolTableRecord
100
AcDbBlockTableRecord
  2
*Paper_Space0
340
2A
  0
BLOCK_RECORD
  5
1B3
102
{ACAD_XDICTIONARY
360
1B4
102
}
330
1
100
AcDbSymbolTableRecord
100
AcDbBlockTableRecord
  2
27085_P
340
0
310
2800000020000000200000000100080000000000000400000000000000000000000000000000000000000000000080000080000000808000800000008000800080800000C0C0C000C0DCC000F0CAA6000020400000206000002080000020A0000020C0000020E00000400000004020000040400000406000004080000040A0
310
000040C0000040E00000600000006020000060400000606000006080000060A0000060C0000060E00000800000008020000080400000806000008080000080A0000080C0000080E00000A0000000A0200000A0400000A0600000A0800000A0A00000A0C00000A0E00000C0000000C0200000C0400000C0600000C0800000C0
310
A00000C0C00000C0E00000E0000000E0200000E0400000E0600000E0800000E0A00000E0C00000E0E00040000000400020004000400040006000400080004000A0004000C0004000E00040200000402020004020400040206000402080004020A0004020C0004020E000404000004040200040404000404060004040800040
310
40A0004040C0004040E00040600000406020004060400040606000406080004060A0004060C0004060E00040800000408020004080400040806000408080004080A0004080C0004080E00040A0000040A0200040A0400040A0600040A0800040A0A00040A0C00040A0E00040C0000040C0200040C0400040C0600040C08000
310
40C0A00040C0C00040C0E00040E0000040E0200040E0400040E0600040E0800040E0A00040E0C00040E0E00080000000800020008000400080006000800080008000A0008000C0008000E00080200000802020008020400080206000802080008020A0008020C0008020E00080400000804020008040400080406000804080
310
008040A0008040C0008040E00080600000806020008060400080606000806080008060A0008060C0008060E00080800000808020008080400080806000808080008080A0008080C0008080E00080A0000080A0200080A0400080A0600080A0800080A0A00080A0C00080A0E00080C0000080C0200080C0400080C0600080C0
310
800080C0A00080C0C00080C0E00080E0000080E0200080E0400080E0600080E0800080E0A00080E0C00080E0E000C0000000C0002000C0004000C0006000C0008000C000A000C000C000C000E000C0200000C0202000C0204000C0206000C0208000C020A000C020C000C020E000C0400000C0402000C0404000C0406000C0
310
408000C040A000C040C000C040E000C0600000C0602000C0604000C0606000C0608000C060A000C060C000C060E000C0800000C0802000C0804000C0806000C0808000C080A000C080C000C080E000C0A00000C0A02000C0A04000C0A06000C0A08000C0A0A000C0A0C000C0A0E000C0C00000C0C02000C0C04000C0C06000
310
C0C08000C0C0A000F0FBFF00A4A0A000808080000000FF0000FF000000FFFF00FF000000FF00FF00FFFF0000FFFFFF0000000000000000000000000000000000000000000000000000000000000000000000000000000000000000000000000000000000000000000000000000000000000000000000000000000000000000
310
00000000000000000000000000000000000000000000000000000000000000000000000000000000000000000000000000000000000000000000000000000000000000000000000000000000000000000000000000FFFFFFFFFFFFFFFFFFFFFFFFFFFFFFFFFFFFFFFFFFFFFFFF000000000000FFFFFFFFFFFFFFFFFFFFFFFF
310
FFFFFFFFFFFFFFFFFFFFFFFFFFFFFFFF00000000FFFF00000000000000000000000000000000000000000000000000FFFF0000FFFF0000000000000000000000000000000000000000000000000000FFFF0000FFFF0000000000000000000000000000000000000000000000000000FFFF0000FFFF00000000000000000000
310
00000000000000000000000000000000FFFF0000FFFF0000000000000000000000000000000000000000000000000000FFFF0000FFFF000000000000000000000000FFFF000000000000000000000000FFFF0000FFFF0000000000000000000000FFFFFFFF0000000000000000000000FFFF0000FFFF000000000000000000
310
00FFFF0000FFFF00000000000000000000FFFF0000FFFF00000000000000000000FFFF0000FFFF00000000000000000000FFFF0000FFFF00FF000000000000000000FFFFFFFF000000000000000000FF00FFFF0000FFFF0000FFFFFFFFFFFFFFFFFFFFFFFFFFFFFFFFFFFFFFFFFF00FF00FFFF0000FFFF0000FFFFFFFFFFFF
310
FFFFFFFFFFFFFFFFFFFFFFFFFFFFFFFF0000FFFF0000FF00FF00000000000000FFFF000000000000000000000000000000FF00FF0000FF0000FFFFFFFFFFFFFFFFFFFFFFFFFFFFFFFFFFFFFFFFFFFFFFFF0000FF0000FF0000000000000000000000000000FF00000000000000000000000000FF0000FF0000000000000000
310
00000000FFFFFFFF000000000000000000000000FF0000FF00000000000000000000000000FFFF00000000000000000000000000FF0000FF0000000000000000000000000000FF00000000000000000000000000FF0000FF00000000000000000000000000000000000000000000000000000000FF0000FFFFFFFFFFFFFFFF
310
FFFFFFFFFFFFFFFFFFFFFFFFFFFFFFFFFFFFFFFFFFFF000000000000000000000000000000000000000000000000000000000000000000000000000000000000000000000000000000000000000000000000000000000000000000000000000000000000000000000000000000000000000000000000000000000000000000
310
0000000000000000000000000000000000000000000000000000000000000000000000000000000000000000000000000000000000000000
102
{BLKREFS
331
1EB
102
}
1001
ACAD
1000
DesignCenter Data
1002
{
1070
     1
1070
     4
1002
}
  0
ENDTAB
  0
ENDSEC
  0
SECTION
  2
BLOCKS
  0
BLOCK
  5
24
330
23
100
AcDbEntity
  8
0
100
AcDbBlockBegin
  2
*Model_Space
 70
     0
 10
0.0
 20
0.0
 30
0.0
  3
*Model_Space
  1

  0
ENDBLK
  5
25
330
23
100
AcDbEntity
  8
0
100
AcDbBlockEnd
  0
BLOCK
  5
20
330
1F
100
AcDbEntity
 67
     1
  8
0
100
AcDbBlockBegin
  2
*Paper_Space
 70
     0
 10
0.0
 20
0.0
 30
0.0
  3
*Paper_Space
  1

  0
ENDBLK
  5
21
330
1F
100
AcDbEntity
 67
     1
  8
0
100
AcDbBlockEnd
  0
BLOCK
  5
28
330
27
100
AcDbEntity
 67
     1
  8
0
100
AcDbBlockBegin
  2
*Paper_Space0
 70
     0
 10
0.0
 20
0.0
 30
0.0
  3
*Paper_Space0
  1

  0
ENDBLK
  5
29
330
27
100
AcDbEntity
 67
     1
  8
0
100
AcDbBlockEnd
  0
BLOCK
  5
1B7
330
1B3
100
AcDbEntity
  8
0
100
AcDbBlockBegin
  2
27085_P
 70
     0
 10
0.0
 20
0.0
 30
0.0
  3
27085_P
  1

  0
CIRCLE
  5
1B9
330
1B3
100
AcDbEntity
  8
0
100
AcDbCircle
 10
366.3619927417858
 20
248.8258645146745
 30
0.0
 40
23.00000000000022
  0
ARC
  5
1BA
330
1B3
100
AcDbEntity
  8
0
100
AcDbCircle
 10
366.3619927417785
 20
248.8258645146745
 30
0.0
 40
36.00000000000008
100
AcDbArc
 50
270.0
 51
90.0
  0
LINE
  5
1BB
330
1B3
100
AcDbEntity
  8
0
100
AcDbLine
 10
524.3619927417785
 20
332.8258645146818
 30
0.0
 11
366.3619927417785
 21
332.8258645146854
 31
0.0
  0
CIRCLE
  5
1BC
330
1B3
100
AcDbEntity
  8
0
100
AcDbCircle
 10
366.3619927417785
 20
366.8258645146673
 30
0.0
 40
17.5
  0
LINE
  5
1BD
330
1B3
100
AcDbEntity
  8
0
100
AcDbLine
 10
572.3619927417785
 20
423.825864514689
 30
0.0
 11
160.3619927417712
 21
423.8258645146782
 31
0.0
  0
LINE
  5
1BE
330
1B3
100
AcDbEntity
  8
0
100
AcDbLine
 10
506.9419775283495
 20
303.8258645146854
 30
0.0
 11
366.3619927417785
 21
303.8258645146854
 31
0.0
  0
LINE
  5
1BF
330
1B3
100
AcDbEntity
  8
0
100
AcDbLine
 10
576.3619927417821
 20
156.415736322888
 30
0.0
 11
576.3619927417785
 21
419.8258645146745
 31
0.0
  0
LINE
  5
1C0
330
1B3
100
AcDbEntity
  8
0
100
AcDbLine
 10
562.3619927417821
 20
156.415736322888
 30
0.0
 11
562.3619927417784
 21
294.8258645146818
 31
0.0
  0
ARC
  5
1C1
330
1B3
100
AcDbEntity
  8
0
100
AcDbCircle
 10
524.3619927417785
 20
294.8258645146818
 30
0.0
 40
38.0
100
AcDbArc
 50
0.0
 51
90.0
  0
ARC
  5
1C2
330
1B3
100
AcDbEntity
  8
0
100
AcDbCircle
 10
572.3619927417785
 20
419.8258645146745
 30
0.0
 40
4.0
100
AcDbArc
 50
0.0
 51
90.0
  0
LINE
  5
1C3
330
1B3
100
AcDbEntity
  8
0
100
AcDbLine
 10
366.3619927417822
 20
103.8111393041183
 30
0.0
 11
414.707656070128
 21
103.8399610131712
 31
0.0
  0
LINE
  5
1C4
330
1B3
100
AcDbEntity
  8
0
100
AcDbLine
 10
366.353646515312
 20
117.8111368162792
 30
0.0
 11
414.6993098436578
 21
117.8399585253321
 31
0.0
  0
LINE
  5
1C5
330
1B3
100
AcDbEntity
  8
0
100
AcDbLine
 10
414.707656070128
 20
103.8399610131712
 30
0.0
 11
439.9977727378755
 21
103.8992378324003
 31
0.0
  0
LINE
  5
1C6
330
1B3
100
AcDbEntity
  8
0
100
AcDbLine
 10
414.6748419395917
 20
117.8399225571486
 30
0.0
 11
439.9649586073392
 21
117.8991993763777
 31
0.0
  0
LINE
  5
1C7
330
1B3
100
AcDbEntity
  8
0
100
AcDbLine
 10
439.9977727378755
 20
103.8992378324003
 30
0.0
 11
464.1079595829396
 21
103.9961251824827
 31
0.0
  0
LINE
  5
1C8
330
1B3
100
AcDbEntity
  8
0
100
AcDbLine
 10
439.9415138644871
 20
117.8991247940578
 30
0.0
 11
464.0517007095513
 21
117.9960121441402
 31
0.0
  0
LINE
  5
1C9
330
1B3
100
AcDbEntity
  8
0
100
AcDbLine
 10
464.1079595829396
 20
103.9961251824827
 30
0.0
 11
487.0090103293805
 21
104.1249606221647
 31
0.0
  0
LINE
  5
1CA
330
1B3
100
AcDbEntity
  8
0
100
AcDbLine
 10
464.0292004188486
 20
117.9959036448056
 30
0.0
 11
486.9302511652895
 21
118.1247390844876
 31
0.0
  0
LINE
  5
1CB
330
1B3
100
AcDbEntity
  8
0
100
AcDbLine
 10
487.0090103293805
 20
104.1249606221647
 30
0.0
 11
508.7456172849088
 21
104.2802307218046
 31
0.0
  0
LINE
  5
1CC
330
1B3
100
AcDbEntity
  8
0
100
AcDbLine
 10
486.9090073279112
 20
118.1246034533108
 30
0.0
 11
508.6456142834395
 21
118.2798735529507
 31
0.0
  0
LINE
  5
1CD
330
1B3
100
AcDbEntity
  8
0
100
AcDbLine
 10
508.6258476101939
 20
118.2797183990371
 30
0.0
 11
524.6870818588576
 21
118.4171269132532
 31
0.0
  0
ARC
  5
1CE
330
1B3
100
AcDbEntity
  8
0
100
AcDbCircle
 10
524.3619927417821
 20
156.415736322888
 30
0.0
 40
52.0
100
AcDbArc
 50
270.4901700416302
 51
0.0
  0
ARC
  5
1CF
330
1B3
100
AcDbEntity
  8
0
100
AcDbCircle
 10
524.3619927417821
 20
156.415736322888
 30
0.0
 40
38.0
100
AcDbArc
 50
270.4901700416302
 51
0.0
  0
ARC
  5
1D0
330
1B3
100
AcDbEntity
  8
0
100
AcDbCircle
 10
506.9419775283495
 20
275.8258645146855
 30
0.0
 40
28.0
100
AcDbArc
 50
0.0
 51
90.0
  0
LINE
  5
1D1
330
1B3
100
AcDbEntity
  8
0
100
AcDbLine
 10
508.7456172849088
 20
104.2802307218046
 30
0.0
 11
524.8068515335726
 21
104.4176392360207
 31
0.0
  0
ARC
  5
1D2
330
1B3
100
AcDbEntity
  8
0
100
AcDbCircle
 10
366.3619927417749
 20
248.8258645146745
 30
0.0
 40
36.00000000000008
100
AcDbArc
 50
90.0
 51
270.0
  0
LINE
  5
1D3
330
1B3
100
AcDbEntity
  8
0
100
AcDbLine
 10
208.3619927417749
 20
332.8258645146818
 30
0.0
 11
366.3619927417749
 21
332.8258645146854
 31
0.0
  0
LINE
  5
1D4
330
1B3
100
AcDbEntity
  8
0
100
AcDbLine
 10
225.7820079552039
 20
303.8258645146854
 30
0.0
 11
366.3619927417749
 21
303.8258645146854
 31
0.0
  0
LINE
  5
1D5
330
1B3
100
AcDbEntity
  8
0
100
AcDbLine
 10
156.3619927417712
 20
156.415736322888
 30
0.0
 11
156.3619927417749
 21
419.8258645146745
 31
0.0
  0
LINE
  5
1D6
330
1B3
100
AcDbEntity
  8
0
100
AcDbLine
 10
170.3619927417712
 20
156.415736322888
 30
0.0
 11
170.3619927417749
 21
294.8258645146818
 31
0.0
  0
ARC
  5
1D7
330
1B3
100
AcDbEntity
  8
0
100
AcDbCircle
 10
208.3619927417749
 20
294.8258645146818
 30
0.0
 40
38.0
100
AcDbArc
 50
90.0
 51
180.0
  0
ARC
  5
1D8
330
1B3
100
AcDbEntity
  8
0
100
AcDbCircle
 10
160.3619927417749
 20
419.8258645146745
 30
0.0
 40
4.0
100
AcDbArc
 50
90.0
 51
180.0
  0
LINE
  5
1D9
330
1B3
100
AcDbEntity
  8
0
100
AcDbLine
 10
366.3619927417713
 20
103.8111393041183
 30
0.0
 11
318.0163294134254
 21
103.8399610131712
 31
0.0
  0
LINE
  5
1DA
330
1B3
100
AcDbEntity
  8
0
100
AcDbLine
 10
366.3703389682414
 20
117.8111368162792
 30
0.0
 11
318.0246756398956
 21
117.8399585253321
 31
0.0
  0
LINE
  5
1DB
330
1B3
100
AcDbEntity
  8
0
100
AcDbLine
 10
318.0163294134254
 20
103.8399610131712
 30
0.0
 11
292.7262127456779
 21
103.8992378324003
 31
0.0
  0
LINE
  5
1DC
330
1B3
100
AcDbEntity
  8
0
100
AcDbLine
 10
318.0491435439617
 20
117.8399225571486
 30
0.0
 11
292.7590268762142
 21
117.8991993763777
 31
0.0
  0
LINE
  5
1DD
330
1B3
100
AcDbEntity
  8
0
100
AcDbLine
 10
292.7262127456779
 20
103.8992378324003
 30
0.0
 11
268.6160259006137
 21
103.9961251824827
 31
0.0
  0
LINE
  5
1DE
330
1B3
100
AcDbEntity
  8
0
100
AcDbLine
 10
292.7824716190662
 20
117.8991247940578
 30
0.0
 11
268.672284774002
 21
117.9960121441402
 31
0.0
  0
LINE
  5
1DF
330
1B3
100
AcDbEntity
  8
0
100
AcDbLine
 10
268.6160259006137
 20
103.9961251824827
 30
0.0
 11
245.7149751541729
 21
104.1249606221647
 31
0.0
  0
LINE
  5
1E0
330
1B3
100
AcDbEntity
  8
0
100
AcDbLine
 10
268.6947850647048
 20
117.9959036448056
 30
0.0
 11
245.7937343182639
 21
118.1247390844876
 31
0.0
  0
LINE
  5
1E1
330
1B3
100
AcDbEntity
  8
0
100
AcDbLine
 10
245.7149751541729
 20
104.1249606221647
 30
0.0
 11
223.9783681986446
 21
104.2802307218046
 31
0.0
  0
LINE
  5
1E2
330
1B3
100
AcDbEntity
  8
0
100
AcDbLine
 10
245.8149781556421
 20
118.1246034533108
 30
0.0
 11
224.0783712001139
 21
118.2798735529507
 31
0.0
  0
LINE
  5
1E3
330
1B3
100
AcDbEntity
  8
0
100
AcDbLine
 10
224.0981378733595
 20
118.2797183990371
 30
0.0
 11
208.0369036246957
 21
118.4171269132532
 31
0.0
  0
ARC
  5
1E4
330
1B3
100
AcDbEntity
  8
0
100
AcDbCircle
 10
208.3619927417712
 20
156.415736322888
 30
0.0
 40
52.0
100
AcDbArc
 50
180.0
 51
269.5098299583699
  0
ARC
  5
1E5
330
1B3
100
AcDbEntity
  8
0
100
AcDbCircle
 10
208.3619927417712
 20
156.415736322888
 30
0.0
 40
38.0
100
AcDbArc
 50
180.0
 51
269.5098299583699
  0
ARC
  5
1E6
330
1B3
100
AcDbEntity
  8
0
100
AcDbCircle
 10
225.7820079552039
 20
275.8258645146855
 30
0.0
 40
28.0
100
AcDbArc
 50
90.0
 51
180.0
  0
LINE
  5
1E7
330
1B3
100
AcDbEntity
  8
0
100
AcDbLine
 10
223.9783681986446
 20
104.2802307218046
 30
0.0
 11
207.9171339499808
 21
104.4176392360207
 31
0.0
  0
SPLINE
  5
1E8
330
1B3
100
AcDbEntity
  8
0
100
AcDbSpline
210
0.0
220
0.0
230
1.0
 70
     8
 71
     3
 72
    26
 73
    22
 74
     0
 42
0.0000000001
 43
0.0000000001
 40
7.853979450876906
 40
7.853979450876906
 40
7.853979450876906
 40
7.853979450876906
 40
7.919352950397192
 40
7.919352950397192
 40
8.35700805459029
 40
8.35700805459029
 40
8.794663158783388
 40
8.794663158783388
 40
9.124586633184637
 40
9.124586633184637
 40
9.454510107585889
 40
9.454510107585889
 40
9.784433581987139
 40
9.784433581987139
 40
10.11435705638839
 40
10.11435705638839
 40
10.44428053078964
 40
10.44428053078964
 40
10.88286040666045
 40
10.88286040666045
 40
10.99557777686171
 40
10.99557777686171
 40
10.99557777686171
 40
10.99557777686171
 10
306.3619927417712
 20
309.1846713699317
 30
0.0
 10
306.5952994218496
 20
309.1846008875775
 30
0.0
 10
306.8286100221048
 20
309.1899368943207
 30
0.0
 10
308.6204819644445
 20
309.2728834695165
 30
0.0
 10
310.158469546619
 20
309.5888910276528
 30
0.0
 10
312.9322992503548
 20
310.6681257097928
 30
0.0
 10
314.1681384377771
 20
311.4310672498261
 30
0.0
 10
315.8685882485115
 20
313.0797922332651
 30
0.0
 10
316.448307925024
 20
313.8897750117551
 30
0.0
 10
317.2134131732855
 20
315.6375323352343
 30
0.0
 10
317.3959126085938
 20
316.5752950130202
 30
0.0
 10
317.3174668207102
 20
318.4403874636457
 30
0.0
 10
317.0571334221859
 20
319.36372507073
 30
0.0
 10
316.153073327303
 20
321.063859318326
 30
0.0
 10
315.5117901685771
 20
321.841415208711
 30
0.0
 10
313.9443548604868
 20
323.1854674934486
 30
0.0
 10
313.0180902111424
 20
323.752895784118
 30
0.0
 10
310.6434051106371
 20
324.7853864454239
 30
0.0
 10
309.1228881997304
 20
325.1540510974239
 30
0.0
 10
307.1665392543837
 20
325.3106372490267
 30
0.0
 10
306.7642654687625
 20
325.3265139340667
 30
0.0
 10
306.3619927417785
 20
325.3263851016539
 30
0.0
  0
SPLINE
  5
1E9
330
1B3
100
AcDbEntity
  8
0
100
AcDbSpline
210
0.0
220
0.0
230
1.0
 70
     8
 71
     3
 72
    26
 73
    22
 74
     0
 42
0.0000000001
 43
0.0000000001
 40
7.853979450876906
 40
7.853979450876906
 40
7.853979450876906
 40
7.853979450876906
 40
7.919352950397192
 40
7.919352950397192
 40
8.35700805459029
 40
8.35700805459029
 40
8.794663158783388
 40
8.794663158783388
 40
9.124586633184637
 40
9.124586633184637
 40
9.454510107585889
 40
9.454510107585889
 40
9.784433581987139
 40
9.784433581987139
 40
10.11435705638839
 40
10.11435705638839
 40
10.44428053078964
 40
10.44428053078964
 40
10.88286040666045
 40
10.88286040666045
 40
10.99557777686171
 40
10.99557777686171
 40
10.99557777686171
 40
10.99557777686171
 10
306.3619927417712
 20
309.1846713699317
 30
0.0
 10
306.1286860617002
 20
309.1846008875775
 30
0.0
 10
305.8953754614449
 20
309.1899368943207
 30
0.0
 10
304.1035035191053
 20
309.2728834695165
 30
0.0
 10
302.5655159369271
 20
309.5888910276528
 30
0.0
 10
299.7916862331877
 20
310.6681257097928
 30
0.0
 10
298.5558470457654
 20
311.4310672498261
 30
0.0
 10
296.8553972350382
 20
313.0797922332651
 30
0.0
 10
296.2756775585221
 20
313.8897750117551
 30
0.0
 10
295.5105723102606
 20
315.6375323352343
 30
0.0
 10
295.3280728749487
 20
316.5752950130202
 30
0.0
 10
295.4065186628359
 20
318.4403874636457
 30
0.0
 10
295.6668520613566
 20
319.36372507073
 30
0.0
 10
296.5709121562431
 20
321.063859318326
 30
0.0
 10
297.2121953149726
 20
321.841415208711
 30
0.0
 10
298.779630623063
 20
323.1854674934486
 30
0.0
 10
299.7058952724074
 20
323.752895784118
 30
0.0
 10
302.0805803729126
 20
324.7853864454239
 30
0.0
 10
303.6010972838158
 20
325.1540510974239
 30
0.0
 10
305.5574462291661
 20
325.3106372490267
 30
0.0
 10
305.9597200147873
 20
325.3265139340667
 30
0.0
 10
306.3619927417712
 20
325.3263851016539
 30
0.0
  0
ARC
  5
1EA
330
1B3
100
AcDbEntity
  8
0
100
AcDbCircle
 10
366.3619927417785
 20
3176.733988529685
 30
0.0
 40
2886.908124015011
100
AcDbArc
 50
267.2088386066053
 51
272.7911613933947
  0
ENDBLK
  5
1B8
330
1B3
100
AcDbEntity
  8
0
100
AcDbBlockEnd
  0
ENDSEC
  0
SECTION
  2
ENTITIES
  0
MTEXT
  5
6B
330
23
100
AcDbEntity
  8
0
100
AcDbMText
 10
13.67895064802198
 20
26.44333632592591
 30
0.0
 40
20.0
 41
853.3333333333334
 71
     1
 72
     5
  1
{\fTimes New Roman|b0|i0|c0|p18;\C0;LAVAMANOS  DE 42 CM.  SERIE EMMA SQUARE }
 73
     1
 44
1.0
1001
ACAD
1000
ACAD_MTEXT_DEFINED_HEIGHT_BEGIN
1070
    46
1040
0.0
1000
ACAD_MTEXT_DEFINED_HEIGHT_END
1000
MTEXTBEGIN
1070
    73
1070
     1
1070
    44
1040
1.0
1070
    74
1070
     0
1000
MTEXTEND
  0
INSERT
  5
1EB
330
23
100
AcDbEntity
  8
0
100
AcDbBlockReference
  2
27085_P
 10
-30.45722577747119
 20
-4.24838362009973
 30
0.0
  0
ENDSEC
  0
SECTION
  2
OBJECTS
  0
DICTIONARY
  5
C
330
0
100
AcDbDictionary
281
     1
  3
ACAD_COLOR
350
1C
  3
ACAD_GROUP
350
D
  3
ACAD_LAYOUT
350
1A
  3
ACAD_MATERIAL
350
1B
  3
ACAD_MLINESTYLE
350
17
  3
ACAD_PLOTSETTINGS
350
19
  3
ACAD_PLOTSTYLENAME
350
E
  3
ACAD_TABLESTYLE
350
1D
  3
ACDBHEADERROUNDTRIPXREC
350
1F9
  3
AcDbVariableDictionary
350
11E
  0
DICTIONARY
  5
35
330
2
100
AcDbDictionary
280
     1
281
     1
  3
ACAD_LAYERSTATES
360
36
  0
DICTIONARY
  5
1B4
330
1B3
100
AcDbDictionary
280
     1
281
     1
  3
AcDbBlockTableRecordData
360
1B5
  0
DICTIONARY
  5
1C
102
{ACAD_REACTORS
330
C
102
}
330
C
100
AcDbDictionary
281
     1
  0
DICTIONARY
  5
D
102
{ACAD_REACTORS
330
C
102
}
330
C
100
AcDbDictionary
281
     1
  0
DICTIONARY
  5
1A
102
{ACAD_REACTORS
330
C
102
}
330
C
100
AcDbDictionary
281
     1
  3
Model
350
26
  3
Presentación1
350
22
  3
Presentación2
350
2A
  0
DICTIONARY
  5
1B
102
{ACAD_REACTORS
330
C
102
}
330
C
100
AcDbDictionary
281
     1
  0
DICTIONARY
  5
17
102
{ACAD_REACTORS
330
C
102
}
330
C
100
AcDbDictionary
281
     1
  3
Standard
350
18
  0
DICTIONARY
  5
19
102
{ACAD_REACTORS
330
C
102
}
330
C
100
AcDbDictionary
281
     1
  0
ACDBDICTIONARYWDFLT
  5
E
102
{ACAD_REACTORS
330
C
102
}
330
C
100
AcDbDictionary
281
     1
  3
Normal
350
F
100
AcDbDictionaryWithDefault
340
F
  0
DICTIONARY
  5
1D
102
{ACAD_REACTORS
330
C
102
}
330
C
100
AcDbDictionary
281
     1
  3
Standard
350
1E
  0
DICTIONARY
  5
1F9
102
{ACAD_REACTORS
330
C
102
}
330
C
100
AcDbDictionary
281
     1
  0
DICTIONARY
  5
11E
102
{ACAD_REACTORS
330
C
102
}
330
C
100
AcDbDictionary
281
     1
  3
CTABLESTYLE
350
11F
  3
DIMASSOC
350
121
  3
HIDETEXT
350
120
  3
PROJECTNAME
350
122
  0
DICTIONARY
  5
36
102
{ACAD_REACTORS
330
35
102
}
330
35
100
AcDbDictionary
281
     1
  0
DICTIONARY
  5
1B5
102
{ACAD_REACTORS
330
1B4
102
}
330
1B4
100
AcDbDictionary
280
     1
281
     1
  3
Edit
360
1B6
  0
LAYOUT
  5
26
102
{ACAD_XDICTIONARY
360
1FC
102
}
102
{ACAD_REACTORS
330
1A
102
}
330
1A
100
AcDbPlotSettings
  1

  2
\\CERAMICAS_GALA\PRT_BU_OT_01.ZPRINTERS.BURGOS
  4

  6

 40
0.0
 41
0.0
 42
0.0
 43
0.0
 44
0.0
 45
0.0
 46
0.0
 47
0.0
 48
0.0
 49
0.0
140
0.0
141
0.0
142
1.0
143
1.0
 70
  1712
 72
     0
 73
     0
 74
     0
  7
C:\Documents and Settings\G0810\Application Data\Autodesk\AutoCAD 2006\R16.2\esp\Plot Styles\jj.stb
 75
     0
147
1.0
148
0.0
149
0.0
100
AcDbLayout
  1
Model
 70
     1
 71
     0
 10
0.0
 20
0.0
 11
12.0
 21
9.0
 12
0.0
 22
0.0
 32
0.0
 14
0.0
 24
0.0
 34
0.0
 15
0.0
 25
0.0
 35
0.0
146
0.0
 13
0.0
 23
0.0
 33
0.0
 16
1.0
 26
0.0
 36
0.0
 17
0.0
 27
1.0
 37
0.0
 76
     0
330
23
  0
LAYOUT
  5
22
102
{ACAD_XDICTIONARY
360
1FA
102
}
102
{ACAD_REACTORS
330
1A
102
}
330
1A
100
AcDbPlotSettings
  1

  2
\\CERAMICAS_GALA\PRT_BU_OT_01.ZPRINTERS.BURGOS
  4

  6

 40
0.0
 41
0.0
 42
0.0
 43
0.0
 44
0.0
 45
0.0
 46
0.0
 47
0.0
 48
0.0
 49
0.0
140
0.0
141
0.0
142
1.0
143
1.0
 70
   688
 72
     0
 73
     0
 74
     5
  7
C:\Documents and Settings\G0810\Application Data\Autodesk\AutoCAD 2006\R16.2\esp\Plot Styles\jj.stb
 75
    16
147
1.0
148
0.0
149
0.0
100
AcDbLayout
  1
Presentación1
 70
     1
 71
     1
 10
0.0
 20
0.0
 11
420.0
 21
297.0
 12
0.0
 22
0.0
 32
0.0
 14
1.000000000000000E+20
 24
1.000000000000000E+20
 34
1.000000000000000E+20
 15
-1.000000000000000E+20
 25
-1.000000000000000E+20
 35
-1.000000000000000E+20
146
0.0
 13
0.0
 23
0.0
 33
0.0
 16
1.0
 26
0.0
 36
0.0
 17
0.0
 27
1.0
 37
0.0
 76
     0
330
1F
  0
LAYOUT
  5
2A
102
{ACAD_XDICTIONARY
360
1FE
102
}
102
{ACAD_REACTORS
330
1A
102
}
330
1A
100
AcDbPlotSettings
  1

  2
\\CERAMICAS_GALA\PRT_BU_OT_01.ZPRINTERS.BURGOS
  4

  6

 40
0.0
 41
0.0
 42
0.0
 43
0.0
 44
0.0
 45
0.0
 46
0.0
 47
0.0
 48
0.0
 49
0.0
140
0.0
141
0.0
142
1.0
143
1.0
 70
   688
 72
     0
 73
     0
 74
     5
  7
C:\Documents and Settings\G0810\Application Data\Autodesk\AutoCAD 2006\R16.2\esp\Plot Styles\jj.stb
 75
    16
147
1.0
148
0.0
149
0.0
100
AcDbLayout
  1
Presentación2
 70
     1
 71
     2
 10
0.0
 20
0.0
 11
12.0
 21
9.0
 12
0.0
 22
0.0
 32
0.0
 14
0.0
 24
0.0
 34
0.0
 15
0.0
 25
0.0
 35
0.0
146
0.0
 13
0.0
 23
0.0
 33
0.0
 16
1.0
 26
0.0
 36
0.0
 17
0.0
 27
1.0
 37
0.0
 76
     0
330
27
  0
MLINESTYLE
  5
18
102
{ACAD_REACTORS
330
17
102
}
330
17
100
AcDbMlineStyle
  2
STANDARD
 70
     0
  3

 62
   256
 51
90.0
 52
90.0
 71
     2
 49
0.5
 62
   256
  6
BYLAYER
 49
-0.5
 62
   256
  6
BYLAYER
  0
ACDBPLACEHOLDER
  5
F
102
{ACAD_REACTORS
330
E
102
}
330
E
  0
TABLESTYLE
  5
1E
102
{ACAD_REACTORS
330
1D
102
}
330
1D
100
AcDbTableStyle
  3
Standard
 70
     0
 71
     0
 40
1.5
 41
1.5
280
     0
281
     0
  7
Standard
140
4.5
170
     2
 62
     0
 63
     7
283
     0
274
    -2
284
     1
 64
     0
275
    -2
285
     1
 65
     0
276
    -2
286
     1
 66
     0
277
    -2
287
     1
 67
     0
278
    -2
288
     1
 68
     0
279
    -2
289
     1
 69
     0
  7
Standard
140
6.0
170
     5
 62
     0
 63
     7
283
     0
274
    -2
284
     1
 64
     0
275
    -2
285
     1
 65
     0
276
    -2
286
     1
 66
     0
277
    -2
287
     1
 67
     0
278
    -2
288
     1
 68
     0
279
    -2
289
     1
 69
     0
  7
Standard
140
4.5
170
     5
 62
     0
 63
     7
283
     0
274
    -2
284
     1
 64
     0
275
    -2
285
     1
 65
     0
276
    -2
286
     1
 66
     0
277
    -2
287
     1
 67
     0
278
    -2
288
     1
 68
     0
279
    -2
289
     1
 69
     0
  0
DICTIONARYVAR
  5
11F
102
{ACAD_REACTORS
330
11E
102
}
330
11E
100
DictionaryVariables
280
     0
  1
STANDARD
  0
DICTIONARYVAR
  5
121
102
{ACAD_REACTORS
330
11E
102
}
330
11E
100
DictionaryVariables
280
     0
  1
2
  0
DICTIONARYVAR
  5
120
102
{ACAD_REACTORS
330
11E
102
}
330
11E
100
DictionaryVariables
280
     0
  1
1
  0
DICTIONARYVAR
  5
122
102
{ACAD_REACTORS
330
11E
102
}
330
11E
100
DictionaryVariables
280
     0
  1

  0
XRECORD
  5
1B6
102
{ACAD_REACTORS
330
1B5
102
}
330
1B5
100
AcDbXrecord
280
     1
1070
     0
1070
     0
1070
     0
  0
DICTIONARY
  5
1FC
330
26
100
AcDbDictionary
280
     1
281
     1
  3
ACAD_XREC_ROUNDTRIP
360
1FD
  0
DICTIONARY
  5
1FA
330
22
100
AcDbDictionary
280
     1
281
     1
  3
ACAD_XREC_ROUNDTRIP
360
1FB
  0
DICTIONARY
  5
1FE
330
2A
100
AcDbDictionary
280
     1
281
     1
  3
ACAD_XREC_ROUNDTRIP
360
1FF
  0
XRECORD
  5
1FD
102
{ACAD_REACTORS
330
1FC
102
}
330
1FC
100
AcDbXrecord
280
     1
102
SHADEPLOT
 70
     0
102
SHADEPLOTRESLEVEL
 70
     2
102
SHADEPLOTCUSTOMDPI
 70
   300
  0
XRECORD
  5
1FB
102
{ACAD_REACTORS
330
1FA
102
}
330
1FA
100
AcDbXrecord
280
     1
102
SHADEPLOT
 70
     0
102
SHADEPLOTRESLEVEL
 70
     2
102
SHADEPLOTCUSTOMDPI
 70
   300
  0
XRECORD
  5
1FF
102
{ACAD_REACTORS
330
1FE
102
}
330
1FE
100
AcDbXrecord
280
     1
102
SHADEPLOT
 70
     0
102
SHADEPLOTRESLEVEL
 70
     2
102
SHADEPLOTCUSTOMDPI
 70
   300
  0
ENDSEC
  0
EOF
