  0
SECTION
  2
HEADER
  9
$ACADVER
  1
AC1015
  9
$ACADMAINTVER
 70
    20
  9
$DWGCODEPAGE
  3
ANSI_1252
  9
$INSBASE
 10
0.0
 20
0.0
 30
0.0
  9
$EXTMIN
 10
13.06413955700145
 20
0.0244719297159009
 30
-0.0015258207003583
  9
$EXTMAX
 10
726.8229782505125
 20
534.586586714302
 30
0.0000000349246037
  9
$LIMMIN
 10
0.0
 20
0.0
  9
$LIMMAX
 10
420.0
 20
297.0
  9
$ORTHOMODE
 70
     1
  9
$REGENMODE
 70
     1
  9
$FILLMODE
 70
     1
  9
$QTEXTMODE
 70
     0
  9
$MIRRTEXT
 70
     0
  9
$LTSCALE
 40
1.0
  9
$ATTMODE
 70
     1
  9
$TEXTSIZE
 40
2.5
  9
$TRACEWID
 40
1.0
  9
$TEXTSTYLE
  7
Standard
  9
$CLAYER
  8
0
  9
$CELTYPE
  6
ByLayer
  9
$CECOLOR
 62
   256
  9
$CELTSCALE
 40
1.0
  9
$DISPSILH
 70
     0
  9
$DIMSCALE
 40
1.0
  9
$DIMASZ
 40
2.5
  9
$DIMEXO
 40
0.625
  9
$DIMDLI
 40
3.75
  9
$DIMRND
 40
0.0
  9
$DIMDLE
 40
0.0
  9
$DIMEXE
 40
1.25
  9
$DIMTP
 40
0.0
  9
$DIMTM
 40
0.0
  9
$DIMTXT
 40
2.5
  9
$DIMCEN
 40
2.5
  9
$DIMTSZ
 40
0.0
  9
$DIMTOL
 70
     0
  9
$DIMLIM
 70
     0
  9
$DIMTIH
 70
     0
  9
$DIMTOH
 70
     0
  9
$DIMSE1
 70
     0
  9
$DIMSE2
 70
     0
  9
$DIMTAD
 70
     1
  9
$DIMZIN
 70
     8
  9
$DIMBLK
  1

  9
$DIMASO
 70
     1
  9
$DIMSHO
 70
     1
  9
$DIMPOST
  1

  9
$DIMAPOST
  1

  9
$DIMALT
 70
     0
  9
$DIMALTD
 70
     3
  9
$DIMALTF
 40
0.03937007874016
  9
$DIMLFAC
 40
1.0
  9
$DIMTOFL
 70
     1
  9
$DIMTVP
 40
0.0
  9
$DIMTIX
 70
     0
  9
$DIMSOXD
 70
     0
  9
$DIMSAH
 70
     0
  9
$DIMBLK1
  1

  9
$DIMBLK2
  1

  9
$DIMSTYLE
  2
ISO-25
  9
$DIMCLRD
 70
     0
  9
$DIMCLRE
 70
     0
  9
$DIMCLRT
 70
     0
  9
$DIMTFAC
 40
1.0
  9
$DIMGAP
 40
0.625
  9
$DIMJUST
 70
     0
  9
$DIMSD1
 70
     0
  9
$DIMSD2
 70
     0
  9
$DIMTOLJ
 70
     0
  9
$DIMTZIN
 70
     8
  9
$DIMALTZ
 70
     0
  9
$DIMALTTZ
 70
     0
  9
$DIMUPT
 70
     0
  9
$DIMDEC
 70
     2
  9
$DIMTDEC
 70
     2
  9
$DIMALTU
 70
     2
  9
$DIMALTTD
 70
     3
  9
$DIMTXSTY
  7
Standard
  9
$DIMAUNIT
 70
     0
  9
$DIMADEC
 70
     0
  9
$DIMALTRND
 40
0.0
  9
$DIMAZIN
 70
     0
  9
$DIMDSEP
 70
    44
  9
$DIMATFIT
 70
     3
  9
$DIMFRAC
 70
     0
  9
$DIMLDRBLK
  1

  9
$DIMLUNIT
 70
     2
  9
$DIMLWD
 70
    -2
  9
$DIMLWE
 70
    -2
  9
$DIMTMOVE
 70
     0
  9
$LUNITS
 70
     2
  9
$LUPREC
 70
     4
  9
$SKETCHINC
 40
1.0
  9
$FILLETRAD
 40
0.0
  9
$AUNITS
 70
     0
  9
$AUPREC
 70
     0
  9
$MENU
  1
.
  9
$ELEVATION
 40
0.0
  9
$PELEVATION
 40
0.0
  9
$THICKNESS
 40
0.0
  9
$LIMCHECK
 70
     0
  9
$CHAMFERA
 40
0.0
  9
$CHAMFERB
 40
0.0
  9
$CHAMFERC
 40
0.0
  9
$CHAMFERD
 40
0.0
  9
$SKPOLY
 70
     0
  9
$TDCREATE
 40
2455019.583955972
  9
$TDUCREATE
 40
2455019.500622639
  9
$TDUPDATE
 40
2455026.500668762
  9
$TDUUPDATE
 40
2455026.417335429
  9
$TDINDWG
 40
0.0690771412
  9
$TDUSRTIMER
 40
0.0690769676
  9
$USRTIMER
 70
     1
  9
$ANGBASE
 50
0.0
  9
$ANGDIR
 70
     0
  9
$PDMODE
 70
     0
  9
$PDSIZE
 40
0.0
  9
$PLINEWID
 40
0.0
  9
$SPLFRAME
 70
     0
  9
$SPLINETYPE
 70
     6
  9
$SPLINESEGS
 70
     8
  9
$HANDSEED
  5
2A8
  9
$SURFTAB1
 70
     6
  9
$SURFTAB2
 70
     6
  9
$SURFTYPE
 70
     6
  9
$SURFU
 70
     6
  9
$SURFV
 70
     6
  9
$UCSBASE
  2

  9
$UCSNAME
  2

  9
$UCSORG
 10
0.0
 20
0.0
 30
0.0
  9
$UCSXDIR
 10
1.0
 20
0.0
 30
0.0
  9
$UCSYDIR
 10
0.0
 20
1.0
 30
0.0
  9
$UCSORTHOREF
  2

  9
$UCSORTHOVIEW
 70
     0
  9
$UCSORGTOP
 10
0.0
 20
0.0
 30
0.0
  9
$UCSORGBOTTOM
 10
0.0
 20
0.0
 30
0.0
  9
$UCSORGLEFT
 10
0.0
 20
0.0
 30
0.0
  9
$UCSORGRIGHT
 10
0.0
 20
0.0
 30
0.0
  9
$UCSORGFRONT
 10
0.0
 20
0.0
 30
0.0
  9
$UCSORGBACK
 10
0.0
 20
0.0
 30
0.0
  9
$PUCSBASE
  2

  9
$PUCSNAME
  2

  9
$PUCSORG
 10
0.0
 20
0.0
 30
0.0
  9
$PUCSXDIR
 10
1.0
 20
0.0
 30
0.0
  9
$PUCSYDIR
 10
0.0
 20
1.0
 30
0.0
  9
$PUCSORTHOREF
  2

  9
$PUCSORTHOVIEW
 70
     0
  9
$PUCSORGTOP
 10
0.0
 20
0.0
 30
0.0
  9
$PUCSORGBOTTOM
 10
0.0
 20
0.0
 30
0.0
  9
$PUCSORGLEFT
 10
0.0
 20
0.0
 30
0.0
  9
$PUCSORGRIGHT
 10
0.0
 20
0.0
 30
0.0
  9
$PUCSORGFRONT
 10
0.0
 20
0.0
 30
0.0
  9
$PUCSORGBACK
 10
0.0
 20
0.0
 30
0.0
  9
$USERI1
 70
     0
  9
$USERI2
 70
     0
  9
$USERI3
 70
     0
  9
$USERI4
 70
     0
  9
$USERI5
 70
     0
  9
$USERR1
 40
0.0
  9
$USERR2
 40
0.0
  9
$USERR3
 40
0.0
  9
$USERR4
 40
0.0
  9
$USERR5
 40
0.0
  9
$WORLDVIEW
 70
     1
  9
$SHADEDGE
 70
     3
  9
$SHADEDIF
 70
    70
  9
$TILEMODE
 70
     1
  9
$MAXACTVP
 70
    64
  9
$PINSBASE
 10
0.0
 20
0.0
 30
0.0
  9
$PLIMCHECK
 70
     0
  9
$PEXTMIN
 10
1.000000000000000E+20
 20
1.000000000000000E+20
 30
1.000000000000000E+20
  9
$PEXTMAX
 10
-1.000000000000000E+20
 20
-1.000000000000000E+20
 30
-1.000000000000000E+20
  9
$PLIMMIN
 10
0.0
 20
0.0
  9
$PLIMMAX
 10
420.0
 20
297.0
  9
$UNITMODE
 70
     0
  9
$VISRETAIN
 70
     1
  9
$PLINEGEN
 70
     0
  9
$PSLTSCALE
 70
     1
  9
$TREEDEPTH
 70
  3020
  9
$CMLSTYLE
  2
Standard
  9
$CMLJUST
 70
     0
  9
$CMLSCALE
 40
20.0
  9
$PROXYGRAPHICS
 70
     1
  9
$MEASUREMENT
 70
     1
  9
$CELWEIGHT
370
    -1
  9
$ENDCAPS
280
     0
  9
$JOINSTYLE
280
     0
  9
$LWDISPLAY
290
     0
  9
$INSUNITS
 70
     4
  9
$HYPERLINKBASE
  1

  9
$STYLESHEET
  1

  9
$XEDIT
290
     1
  9
$CEPSNTYPE
380
     0
  9
$PSTYLEMODE
290
     1
  9
$FINGERPRINTGUID
  2
{A6C950DD-243C-480B-8B88-1E8CBBE87BD7}
  9
$VERSIONGUID
  2
{9519E5E1-08D5-4759-AD65-DF2186D34086}
  9
$EXTNAMES
290
     1
  9
$PSVPSCALE
 40
0.0
  9
$OLESTARTUP
290
     0
  0
ENDSEC
  0
SECTION
  2
CLASSES
  0
CLASS
  1
ACDBDICTIONARYWDFLT
  2
AcDbDictionaryWithDefault
  3
ObjectDBX Classes
 90
        0
280
     0
281
     0
  0
CLASS
  1
TABLESTYLE
  2
AcDbTableStyle
  3
ObjectDBX Classes
 90
     2047
280
     0
281
     0
  0
CLASS
  1
SORTENTSTABLE
  2
AcDbSortentsTable
  3
ObjectDBX Classes
 90
        0
280
     0
281
     0
  0
CLASS
  1
DICTIONARYVAR
  2
AcDbDictionaryVar
  3
ObjectDBX Classes
 90
        0
280
     0
281
     0
  0
CLASS
  1
ACDBPLACEHOLDER
  2
AcDbPlaceHolder
  3
ObjectDBX Classes
 90
        0
280
     0
281
     0
  0
CLASS
  1
LAYOUT
  2
AcDbLayout
  3
ObjectDBX Classes
 90
        0
280
     0
281
     0
  0
CLASS
  1
DIMASSOC
  2
AcDbDimAssoc
  3
"AcDbDimAssoc|Product Desc:     AcDim ARX App For Dimension|Company:          Autodesk, Inc.|WEB Address:      www.autodesk.com"
 90
    32768
280
     0
281
     0
  0
ENDSEC
  0
SECTION
  2
TABLES
  0
TABLE
  2
VPORT
  5
8
330
0
100
AcDbSymbolTable
 70
     2
  0
VPORT
  5
2A0
330
8
100
AcDbSymbolTableRecord
100
AcDbViewportTableRecord
  2
*Active
 70
     0
 10
0.0
 20
0.0
 11
1.0
 21
1.0
 12
369.9435589037569
 22
267.3055293220089
 13
0.0
 23
0.0
 14
10.0
 24
10.0
 15
10.0
 25
10.0
 16
0.0
 26
0.0
 36
1.0
 17
0.0
 27
0.0
 37
0.0
 40
537.7630855317991
 41
1.525474525474525
 42
50.0
 43
0.0
 44
0.0
 50
0.0
 51
0.0
 71
     0
 72
  1000
 73
     1
 74
     3
 75
     0
 76
     0
 77
     0
 78
     0
281
     0
 65
     1
110
0.0
120
0.0
130
0.0
111
1.0
121
0.0
131
0.0
112
0.0
122
1.0
132
0.0
 79
     0
146
0.0
  0
ENDTAB
  0
TABLE
  2
LTYPE
  5
5
330
0
100
AcDbSymbolTable
 70
     1
  0
LTYPE
  5
14
330
5
100
AcDbSymbolTableRecord
100
AcDbLinetypeTableRecord
  2
ByBlock
 70
     0
  3

 72
    65
 73
     0
 40
0.0
  0
LTYPE
  5
15
330
5
100
AcDbSymbolTableRecord
100
AcDbLinetypeTableRecord
  2
ByLayer
 70
     0
  3

 72
    65
 73
     0
 40
0.0
  0
LTYPE
  5
16
330
5
100
AcDbSymbolTableRecord
100
AcDbLinetypeTableRecord
  2
Continuous
 70
     0
  3
Solid line
 72
    65
 73
     0
 40
0.0
  0
ENDTAB
  0
TABLE
  2
LAYER
  5
2
102
{ACAD_XDICTIONARY
360
35
102
}
330
0
100
AcDbSymbolTable
 70
     2
  0
LAYER
  5
10
330
2
100
AcDbSymbolTableRecord
100
AcDbLayerTableRecord
  2
0
 70
     0
 62
     7
  6
Continuous
370
    -3
390
F
  0
LAYER
  5
22A
330
2
100
AcDbSymbolTableRecord
100
AcDbLayerTableRecord
  2
Defpoints
 70
     0
 62
     7
  6
Continuous
290
     0
370
    -3
390
F
  0
ENDTAB
  0
TABLE
  2
STYLE
  5
3
330
0
100
AcDbSymbolTable
 70
     1
  0
STYLE
  5
11
330
3
100
AcDbSymbolTableRecord
100
AcDbTextStyleTableRecord
  2
Standard
 70
     0
 40
0.0
 41
1.0
 50
0.0
 71
     0
 42
2.5
  3
txt
  4

  0
ENDTAB
  0
TABLE
  2
VIEW
  5
6
330
0
100
AcDbSymbolTable
 70
     0
  0
ENDTAB
  0
TABLE
  2
UCS
  5
7
330
0
100
AcDbSymbolTable
 70
     0
  0
ENDTAB
  0
TABLE
  2
APPID
  5
9
330
0
100
AcDbSymbolTable
 70
     2
  0
APPID
  5
12
330
9
100
AcDbSymbolTableRecord
100
AcDbRegAppTableRecord
  2
ACAD
 70
     0
  0
APPID
  5
34
330
9
100
AcDbSymbolTableRecord
100
AcDbRegAppTableRecord
  2
ACAD_PSEXT
 70
     0
  0
ENDTAB
  0
TABLE
  2
DIMSTYLE
  5
A
330
0
100
AcDbSymbolTable
 70
     2
100
AcDbDimStyleTable
 71
     1
340
2B
  0
DIMSTYLE
105
2B
330
A
100
AcDbSymbolTableRecord
100
AcDbDimStyleTableRecord
  2
ISO-25
 70
     0
 41
2.5
 42
0.625
 43
3.75
 44
1.25
 73
     0
 74
     0
 77
     1
 78
     8
140
2.5
141
2.5
143
0.03937007874016
147
0.625
171
     3
172
     1
271
     2
272
     2
274
     3
278
    44
283
     0
284
     8
340
11
  0
DIMSTYLE
105
33
330
A
100
AcDbSymbolTableRecord
100
AcDbDimStyleTableRecord
  2
STANDARD
 70
     0
340
11
  0
ENDTAB
  0
TABLE
  2
BLOCK_RECORD
  5
1
330
0
100
AcDbSymbolTable
 70
     2
  0
BLOCK_RECORD
  5
23
102
{ACAD_XDICTIONARY
360
19E
102
}
330
1
100
AcDbSymbolTableRecord
100
AcDbBlockTableRecord
  2
*Model_Space
340
26
  0
BLOCK_RECORD
  5
1F
330
1
100
AcDbSymbolTableRecord
100
AcDbBlockTableRecord
  2
*Paper_Space
340
22
  0
BLOCK_RECORD
  5
27
330
1
100
AcDbSymbolTableRecord
100
AcDbBlockTableRecord
  2
*Paper_Space0
340
2A
  0
BLOCK_RECORD
  5
279
102
{ACAD_XDICTIONARY
360
27A
102
}
330
1
100
AcDbSymbolTableRecord
100
AcDbBlockTableRecord
  2
27080_P
340
0
310
2800000020000000200000000100080000000000000400000000000000000000000000000000000000000000000080000080000000808000800000008000800080800000C0C0C000C0DCC000F0CAA6000020400000206000002080000020A0000020C0000020E00000400000004020000040400000406000004080000040A0
310
000040C0000040E00000600000006020000060400000606000006080000060A0000060C0000060E00000800000008020000080400000806000008080000080A0000080C0000080E00000A0000000A0200000A0400000A0600000A0800000A0A00000A0C00000A0E00000C0000000C0200000C0400000C0600000C0800000C0
310
A00000C0C00000C0E00000E0000000E0200000E0400000E0600000E0800000E0A00000E0C00000E0E00040000000400020004000400040006000400080004000A0004000C0004000E00040200000402020004020400040206000402080004020A0004020C0004020E000404000004040200040404000404060004040800040
310
40A0004040C0004040E00040600000406020004060400040606000406080004060A0004060C0004060E00040800000408020004080400040806000408080004080A0004080C0004080E00040A0000040A0200040A0400040A0600040A0800040A0A00040A0C00040A0E00040C0000040C0200040C0400040C0600040C08000
310
40C0A00040C0C00040C0E00040E0000040E0200040E0400040E0600040E0800040E0A00040E0C00040E0E00080000000800020008000400080006000800080008000A0008000C0008000E00080200000802020008020400080206000802080008020A0008020C0008020E00080400000804020008040400080406000804080
310
008040A0008040C0008040E00080600000806020008060400080606000806080008060A0008060C0008060E00080800000808020008080400080806000808080008080A0008080C0008080E00080A0000080A0200080A0400080A0600080A0800080A0A00080A0C00080A0E00080C0000080C0200080C0400080C0600080C0
310
800080C0A00080C0C00080C0E00080E0000080E0200080E0400080E0600080E0800080E0A00080E0C00080E0E000C0000000C0002000C0004000C0006000C0008000C000A000C000C000C000E000C0200000C0202000C0204000C0206000C0208000C020A000C020C000C020E000C0400000C0402000C0404000C0406000C0
310
408000C040A000C040C000C040E000C0600000C0602000C0604000C0606000C0608000C060A000C060C000C060E000C0800000C0802000C0804000C0806000C0808000C080A000C080C000C080E000C0A00000C0A02000C0A04000C0A06000C0A08000C0A0A000C0A0C000C0A0E000C0C00000C0C02000C0C04000C0C06000
310
C0C08000C0C0A000F0FBFF00A4A0A000808080000000FF0000FF000000FFFF00FF000000FF00FF00FFFF0000FFFFFF0000000000000000000000000000000000000000000000000000000000000000000000000000000000000000000000000000000000000000000000000000000000000000000000000000000000000000
310
0000000000000000000000000000000000000000000000000000000000000000000000000000000000000000000000000000000000000000000000000000000000000000000000000000000000000000000000000000000000000000000000000000000000000000000000000000000000000000FFFFFFFFFFFFFFFFFFFFFF
310
FFFFFFFFFFFFFFFFFFFFFFFFFFFFFF0000000000FFFFFFFF0000000000000000000000000000000000000000FFFFFFFF00000000FFFF000000000000000000000000000000000000000000000000FFFF000000FFFF0000000000000000000000000000000000000000000000000000FFFF0000FFFF00000000000000000000
310
00000000000000000000000000000000FFFF0000FFFF0000000000000000000000000000000000000000000000000000FFFF0000FFFF0000000000000000000000000000000000000000000000000000FFFF0000FFFF0000000000000000000000FFFFFFFF0000000000000000000000FFFF0000FFFF000000000000000000
310
0000FF0000FF0000000000000000000000FFFF0000FFFF0000000000000000000000FF0000FF0000000000000000000000FFFF0000FFFF00FF000000000000000000FFFFFFFF000000000000000000FF00FFFF0000FFFF00FF00000000000000000000FFFF00000000000000000000FF00FFFF0000FFFF00FFFFFFFFFFFFFF
310
FFFFFFFFFFFFFFFFFFFFFFFFFFFFFFFFFF00FFFF0000FF00FF00000000000000FFFFFF0000000000000000000000000000FF00FF0000FF0000FFFFFFFFFFFFFFFFFFFFFFFFFFFFFFFFFFFFFFFFFFFFFFFF0000FF0000FF00000000000000000000000000FFFF00000000000000000000000000FF0000FF0000000000000000
310
0000000000FFFF00000000000000000000000000FF0000FF00000000000000000000000000FFFF00000000000000000000000000FF0000FF00000000000000000000000000000000000000000000000000000000FF0000FFFFFFFFFFFFFFFFFFFFFFFFFFFFFFFFFFFFFFFFFFFFFFFFFFFFFFFFFFFF00000000000000000000
310
00000000000000000000000000000000000000000000000000000000000000000000000000000000000000000000000000000000000000000000000000000000000000000000000000000000000000000000000000000000000000000000000000000000000000000000000000000000000000000000000000000000000000
310
0000000000000000000000000000000000000000000000000000000000000000000000000000000000000000000000000000000000000000
102
{BLKREFS
331
293
102
}
1001
ACAD
1000
DesignCenter Data
1002
{
1070
     1
1070
     4
1002
}
  0
ENDTAB
  0
ENDSEC
  0
SECTION
  2
BLOCKS
  0
BLOCK
  5
24
330
23
100
AcDbEntity
  8
0
100
AcDbBlockBegin
  2
*Model_Space
 70
     0
 10
0.0
 20
0.0
 30
0.0
  3
*Model_Space
  1

  0
ENDBLK
  5
25
330
23
100
AcDbEntity
  8
0
100
AcDbBlockEnd
  0
BLOCK
  5
20
330
1F
100
AcDbEntity
 67
     1
  8
0
100
AcDbBlockBegin
  2
*Paper_Space
 70
     0
 10
0.0
 20
0.0
 30
0.0
  3
*Paper_Space
  1

  0
ENDBLK
  5
21
330
1F
100
AcDbEntity
 67
     1
  8
0
100
AcDbBlockEnd
  0
BLOCK
  5
28
330
27
100
AcDbEntity
 67
     1
  8
0
100
AcDbBlockBegin
  2
*Paper_Space0
 70
     0
 10
0.0
 20
0.0
 30
0.0
  3
*Paper_Space0
  1

  0
ENDBLK
  5
29
330
27
100
AcDbEntity
 67
     1
  8
0
100
AcDbBlockEnd
  0
BLOCK
  5
27D
330
279
100
AcDbEntity
  8
0
100
AcDbBlockBegin
  2
27080_P
 70
     0
 10
0.0
 20
0.0
 30
0.0
  3
27080_P
  1

  0
CIRCLE
  5
27F
330
279
100
AcDbEntity
  8
0
100
AcDbCircle
 10
381.6508526156949
 20
344.5702716796029
 30
0.0
 40
23.00000000000022
  0
ARC
  5
280
330
279
100
AcDbEntity
  8
0
100
AcDbCircle
 10
578.1508259046031
 20
399.570271679633
 30
0.0
 40
40.0
100
AcDbArc
 50
0.0
 51
90.0
  0
ARC
  5
281
330
279
100
AcDbEntity
  8
0
100
AcDbCircle
 10
627.650825904605
 20
530.5702716796028
 30
0.0
 40
4.0
100
AcDbArc
 50
0.0
 51
90.0
  0
ARC
  5
282
330
279
100
AcDbEntity
  8
0
100
AcDbCircle
 10
381.6508526156895
 20
344.5702716796029
 30
0.0
 40
36.00000000000008
100
AcDbArc
 50
270.0
 51
90.0
  0
LINE
  5
283
330
279
100
AcDbEntity
  8
0
100
AcDbLine
 10
578.1508259046031
 20
439.5702716796328
 30
0.0
 11
185.1508526156912
 21
439.5702716796257
 31
0.0
  0
CIRCLE
  5
284
330
279
100
AcDbEntity
  8
0
100
AcDbCircle
 10
381.6508526156895
 20
474.5702716795992
 30
0.0
 40
17.5
  0
LINE
  5
285
330
279
100
AcDbEntity
  8
0
100
AcDbLine
 10
206.0249404835786
 20
407.4109728215441
 30
0.0
 11
557.2767380367158
 21
407.4109728215441
 31
0.0
  0
ARC
  5
286
330
279
100
AcDbEntity
  8
0
100
AcDbCircle
 10
557.2767380367158
 20
375.4109728215442
 30
0.0
 40
32.0
100
AcDbArc
 50
0.0
 51
90.0
  0
SPLINE
  5
287
330
279
100
AcDbEntity
  8
0
100
AcDbSpline
210
0.0
220
0.0
230
1.0
 70
     8
 71
     3
 72
    26
 73
    22
 74
     0
 42
0.0000000001
 43
0.0000000001
 40
7.853979450876906
 40
7.853979450876906
 40
7.853979450876906
 40
7.853979450876906
 40
7.919352950397192
 40
7.919352950397192
 40
8.35700805459029
 40
8.35700805459029
 40
8.794663158783388
 40
8.794663158783388
 40
9.124586633184637
 40
9.124586633184637
 40
9.454510107585889
 40
9.454510107585889
 40
9.784433581987139
 40
9.784433581987139
 40
10.11435705638839
 40
10.11435705638839
 40
10.44428053078964
 40
10.44428053078964
 40
10.88286040666045
 40
10.88286040666045
 40
10.99557777686171
 40
10.99557777686171
 40
10.99557777686171
 40
10.99557777686171
 10
321.650852615684
 20
415.9290785348755
 30
0.0
 10
321.8841592957588
 20
415.9290080525213
 30
0.0
 10
322.117469896014
 20
415.9343440592644
 30
0.0
 10
323.9093418383536
 20
416.0172906344603
 30
0.0
 10
325.44732942053
 20
416.3332981925966
 30
0.0
 10
328.2211591242676
 20
417.4125328747366
 30
0.0
 10
329.4569983116899
 20
418.1754744147699
 30
0.0
 10
331.1574481224206
 20
419.8241993982089
 30
0.0
 10
331.737167798935
 20
420.6341821766988
 30
0.0
 10
332.5022730471965
 20
422.3819395001781
 30
0.0
 10
332.6847724825066
 20
423.3197021779639
 30
0.0
 10
332.6063266946212
 20
425.1847946285895
 30
0.0
 10
332.3459932960986
 20
426.1081322356737
 30
0.0
 10
331.441933201214
 20
427.8082664832697
 30
0.0
 10
330.8006500424863
 20
428.5858223736547
 30
0.0
 10
329.2332147343959
 20
429.9298746583924
 30
0.0
 10
328.3069500850515
 20
430.4973029490618
 30
0.0
 10
325.9322649845462
 20
431.5297936103677
 30
0.0
 10
324.4117480736413
 20
431.8984582623677
 30
0.0
 10
322.4553991282928
 20
432.0550444139705
 30
0.0
 10
322.0531253426716
 20
432.0709210990105
 30
0.0
 10
321.6508526156876
 20
432.0707922665977
 30
0.0
  0
LINE
  5
288
330
279
100
AcDbEntity
  8
0
100
AcDbLine
 10
627.650825904605
 20
534.5702716796028
 30
0.0
 11
135.6508526156894
 21
534.5702716796101
 31
0.0
  0
ARC
  5
289
330
279
100
AcDbEntity
  8
0
100
AcDbCircle
 10
185.1508526156912
 20
399.570271679633
 30
0.0
 40
40.0
100
AcDbArc
 50
90.0
 51
180.0
  0
ARC
  5
28A
330
279
100
AcDbEntity
  8
0
100
AcDbCircle
 10
135.6508526156931
 20
530.5702716796028
 30
0.0
 40
4.0
100
AcDbArc
 50
90.0
 51
180.0
  0
LWPOLYLINE
  5
28B
330
279
100
AcDbEntity
  8
0
100
AcDbPolyline
 90
       46
 70
   128
 43
0.0
 10
381.6508821720572
 20
198.0702692806178
 10
358.3251116445617
 20
198.0841799322577
 10
333.05809573225
 20
198.143402606255
 10
308.9700609688634
 20
198.2402009376771
 10
286.0901011488922
 20
198.3689177252151
 10
264.3732671213302
 20
198.5240465818121
 10
268.7449466678036
 20
198.7005278422391
 10
274.1478447301151
 20
198.8938347870087
 10
255.0487620018948
 20
199.1059275488503
 10
236.7008299313647
 20
199.3332281950886
 10
218.9789212164896
 20
199.5746031967744
 10
210.8502260232099
 20
199.6920755807211
 10
202.8571615686133
 20
199.8118349240565
 10
195.0999135905595
 20
199.9322415409831
 10
188.2282617165337
 20
200.1368957313814
 10
182.4032884883099
 20
200.9506358278184
 10
176.5171145034137
 20
202.5523861712307
 10
171.3366697919309
 20
204.6886801649914
 10
166.9565408937951
 20
207.1102824437828
 10
164.3241074141433
 20
208.8838732701795
 10
162.0429448095301
 20
210.6493829840026
 10
160.1790880413382
 20
212.2729351985352
 10
158.4762808186597
 20
213.9244476139854
 10
156.3943697794939
 20
216.1992857069479
 10
154.0498016684642
 20
219.1676155570301
 10
152.0698739389036
 20
222.1156776745145
 10
150.5698538722745
 20
224.7274284166512
 10
149.4564450407169
 20
226.9644186107387
 10
148.6443569213415
 20
228.8217538352026
 10
147.7442413897033
 20
231.1998778556106
 10
146.7836776683443
 20
234.3175054507071
 10
145.9124521257299
 20
238.1979089532058
 10
145.3061754255568
 20
242.9084277847421
 10
145.1497726736588
 20
249.0815918583855
 10
145.1500059777636
 20
256.8907468631321
 10
145.1492310722651
 20
283.2950081502966
 10
145.1485158318855
 20
293.1187939293957
 10
145.147860191445
 20
303.8644879121891
 10
145.147293956551
 20
315.5321074097517
 10
145.146906537414
 20
329.9953279577637
 10
145.1467873325773
 20
345.6628055831495
 10
145.1470555521637
 20
362.5345962364006
 10
145.1478304018483
 20
380.6107115983393
 10
145.1508526156913
 20
399.570271679633
 10
145.1508526156913
 20
399.570271679633
 10
145.1508526156913
 20
399.570271679633
  0
ARC
  5
28C
330
279
100
AcDbEntity
  8
0
100
AcDbCircle
 10
206.0249404835786
 20
375.4109728215442
 30
0.0
 40
32.0
100
AcDbArc
 50
90.0
 51
180.0
  0
LWPOLYLINE
  5
28D
330
279
100
AcDbEntity
  8
0
100
AcDbPolyline
 90
       46
 70
   128
 43
0.0
 10
381.6508526156895
 20
184.5702716796065
 10
358.3052664572742
 20
184.5841893641616
 10
333.0151497895267
 20
184.6434661833907
 10
308.9049629444626
 20
184.7403535334731
 10
286.0039121980217
 20
184.8691889731551
 10
264.2673052424934
 20
185.024459072795
 10
268.6206213707474
 20
185.2010974375869
 10
274.0063122982529
 20
185.3945741145278
 10
254.8901937479523
 20
185.6068560568953
 10
236.5252874369171
 20
185.834366986003
 10
218.7950662846115
 20
186.0758552043105
 10
210.6551579708603
 20
186.1934849707747
 10
202.654918240979
 20
186.313349911418
 10
194.7941980833557
 20
186.4353606192733
 10
187.0900444263961
 20
186.6648086993361
 10
179.686104464009
 20
187.6991281001235
 10
172.1542827362564
 20
189.7486934153701
 10
165.4784433121231
 20
192.501653143611
 10
159.905409025624
 20
195.5827662436629
 10
156.4125768417861
 20
197.9360470263625
 10
153.4708194012191
 20
200.2128252474929
 10
151.0395459408309
 20
202.3306378810073
 10
148.7888149494674
 20
204.5135685889388
 10
146.1044005627182
 20
207.4467429606582
 10
143.1330792183425
 20
211.2085709063674
 10
140.5989579433944
 20
214.9818131415511
 10
138.6631480927017
 20
218.3523365943099
 10
137.2213713402298
 20
221.2490627257491
 10
136.1388317818191
 20
223.7249502627517
 10
134.9678985352066
 20
226.8185803382064
 10
133.7270192379501
 20
230.8460065810348
 10
132.6029650444534
 20
235.8524987189437
 10
131.8280748600509
 20
241.8730744807387
 10
131.6497675652053
 20
248.9108035056258
 10
131.6500059837844
 20
256.8911501853133
 10
131.6492311234005
 20
283.2938330857721
 10
131.6485158676632
 20
293.1178110330072
 10
131.6478602165707
 20
303.8636642186609
 10
131.6472939724453
 20
315.5314522473779
 10
131.6469065422543
 20
329.9949663369623
 10
131.6467873329647
 20
345.6627028672663
 10
131.6470555538662
 20
362.5348108499018
 10
131.6478304142483
 20
380.6112902848688
 10
131.649111914111
 20
399.8922007768122
 10
131.650959658099
 20
420.3775721280542
 10
131.6508526156931
 20
530.5702716796028
  0
ARC
  5
28E
330
279
100
AcDbEntity
  8
0
100
AcDbCircle
 10
381.6508526156895
 20
344.5702716796029
 30
0.0
 40
36.00000000000008
100
AcDbArc
 50
90.0
 51
270.0
  0
SPLINE
  5
28F
330
279
100
AcDbEntity
  8
0
100
AcDbSpline
210
0.0
220
0.0
230
1.0
 70
     8
 71
     3
 72
    26
 73
    22
 74
     0
 42
0.0000000001
 43
0.0000000001
 40
7.853979450876906
 40
7.853979450876906
 40
7.853979450876906
 40
7.853979450876906
 40
7.919352950397192
 40
7.919352950397192
 40
8.35700805459029
 40
8.35700805459029
 40
8.794663158783388
 40
8.794663158783388
 40
9.124586633184637
 40
9.124586633184637
 40
9.454510107585889
 40
9.454510107585889
 40
9.784433581987139
 40
9.784433581987139
 40
10.11435705638839
 40
10.11435705638839
 40
10.44428053078964
 40
10.44428053078964
 40
10.88286040666045
 40
10.88286040666045
 40
10.99557777686171
 40
10.99557777686171
 40
10.99557777686171
 40
10.99557777686171
 10
321.650852615684
 20
415.9290785348755
 30
0.0
 10
321.4175459356093
 20
415.9290080525213
 30
0.0
 10
321.184235335354
 20
415.9343440592644
 30
0.0
 10
319.3923633930144
 20
416.0172906344603
 30
0.0
 10
317.8543758108381
 20
416.3332981925966
 30
0.0
 10
315.0805461071004
 20
417.4125328747366
 30
0.0
 10
313.8447069196782
 20
418.1754744147699
 30
0.0
 10
312.1442571089474
 20
419.8241993982089
 30
0.0
 10
311.5645374324331
 20
420.6341821766988
 30
0.0
 10
310.7994321841716
 20
422.3819395001781
 30
0.0
 10
310.6169327488615
 20
423.3197021779639
 30
0.0
 10
310.6953785367468
 20
425.1847946285895
 30
0.0
 10
310.9557119352694
 20
426.1081322356737
 30
0.0
 10
311.8597720301541
 20
427.8082664832697
 30
0.0
 10
312.5010551888818
 20
428.5858223736547
 30
0.0
 10
314.0684904969721
 20
429.9298746583924
 30
0.0
 10
314.9947551463165
 20
430.4973029490618
 30
0.0
 10
317.3694402468218
 20
431.5297936103677
 30
0.0
 10
318.8899571577267
 20
431.8984582623677
 30
0.0
 10
320.8463061030752
 20
432.0550444139705
 30
0.0
 10
321.2485798886965
 20
432.0709210990105
 30
0.0
 10
321.6508526156804
 20
432.0707922665977
 30
0.0
  0
ARC
  5
290
330
279
100
AcDbEntity
  8
0
100
AcDbCircle
 10
381.6508392601436
 20
3653.027797344458
 30
0.0
 40
3260.779591976122
100
AcDbArc
 50
266.9603645856984
 51
273.0396354143016
  0
LWPOLYLINE
  5
291
330
279
100
AcDbEntity
  8
0
100
AcDbPolyline
 90
       46
 70
   128
 43
0.0
 10
381.6508821720572
 20
198.0702692806178
 10
404.9766526995527
 20
198.0841799322577
 10
430.2436686118644
 20
198.143402606255
 10
454.331703375251
 20
198.2402009376771
 10
477.2116631952221
 20
198.3689177252151
 10
473.9284705116997
 20
198.5240465818121
 10
469.5567909652263
 20
198.7005278422391
 10
489.1538929029147
 20
198.8938347870087
 10
508.2529756311351
 20
199.1059275488503
 10
526.6009077016652
 20
199.3332281950886
 10
544.3228164165402
 20
199.5746031967744
 10
552.45151160982
 20
199.6920755807211
 10
560.4445760644166
 20
199.8118349240565
 10
568.2018240424704
 20
199.9322415409831
 10
575.0734759164961
 20
200.1368957313814
 10
580.8984491447199
 20
200.9506358278184
 10
586.7846231296161
 20
202.5523861712307
 10
591.9650678410989
 20
204.6886801649914
 10
596.3451967392347
 20
207.1102824437828
 10
598.9776302188865
 20
208.8838732701795
 10
601.2587928234998
 20
210.6493829840026
 10
603.1226495916917
 20
212.2729351985352
 10
604.8254568143702
 20
213.9244476139854
 10
606.907367853536
 20
216.1992857069479
 10
609.2519359645657
 20
219.1676155570301
 10
611.2318636941263
 20
222.1156776745145
 10
612.7318837607553
 20
224.7274284166512
 10
613.8452925923129
 20
226.9644186107387
 10
614.6573807116883
 20
228.8217538352026
 10
615.5574962433266
 20
231.1998778556106
 10
616.5180599646856
 20
234.3175054507071
 10
617.3892855072999
 20
238.1979089532058
 10
617.995562207473
 20
242.9084277847421
 10
618.1519649593711
 20
249.0815918583855
 10
618.1517316552663
 20
256.8907468631321
 10
618.1525065607611
 20
283.2950081502966
 10
618.1532218011406
 20
293.1187939293957
 10
618.1538774415813
 20
303.8644879121891
 10
618.1544436764752
 20
315.5321074097517
 10
618.1548310956123
 20
329.9953279577637
 10
618.154950300449
 20
345.6628055831495
 10
618.1546820808626
 20
362.5345962364006
 10
618.1539072311779
 20
380.6107115983393
 10
618.150885017335
 20
399.570271679633
 10
618.150885017335
 20
399.570271679633
 10
618.150885017335
 20
399.570271679633
  0
LWPOLYLINE
  5
292
330
279
100
AcDbEntity
  8
0
100
AcDbPolyline
 90
       46
 70
   128
 43
0.0
 10
381.6509117284249
 20
184.5702716796065
 10
404.9964978868401
 20
184.5841893641616
 10
430.2866145545876
 20
184.6434661833907
 10
454.3968013996518
 20
184.7403535334731
 10
477.2978521460927
 20
184.8691889731551
 10
474.0344323905365
 20
185.024459072795
 10
469.6811162622825
 20
185.2010974375869
 10
489.295425334777
 20
185.3945741145278
 10
508.4115438850776
 20
185.6068560568953
 10
526.7764501961128
 20
185.834366986003
 10
544.5066713484184
 20
186.0758552043105
 10
552.6465796621696
 20
186.1934849707747
 10
560.6468193920509
 20
186.313349911418
 10
568.5075395496742
 20
186.4353606192733
 10
576.2116932066337
 20
186.6648086993361
 10
583.6156331690208
 20
187.6991281001235
 10
591.1474548967735
 20
189.7486934153701
 10
597.8232943209068
 20
192.501653143611
 10
603.3963286074058
 20
195.5827662436629
 10
606.8891607912437
 20
197.9360470263625
 10
609.8309182318107
 20
200.2128252474929
 10
612.2621916921989
 20
202.3306378810073
 10
614.5129226835624
 20
204.5135685889388
 10
617.1973370703117
 20
207.4467429606582
 10
620.1686584146873
 20
211.2085709063674
 10
622.7027796896354
 20
214.9818131415511
 10
624.6385895403282
 20
218.3523365943099
 10
626.0803662928001
 20
221.2490627257491
 10
627.1629058512107
 20
223.7249502627517
 10
628.3338390978233
 20
226.8185803382064
 10
629.5747183950798
 20
230.8460065810348
 10
630.6987725885765
 20
235.8524987189437
 10
631.4736627729789
 20
241.8730744807387
 10
631.6519700678245
 20
248.9108035056258
 10
631.6517316492454
 20
256.8911501853133
 10
631.6525065096257
 20
283.2938330857721
 10
631.653221765363
 20
293.1178110330072
 10
631.6538774164556
 20
303.8636642186609
 10
631.6544436605809
 20
315.5314522473779
 10
631.654831090772
 20
329.9949663369623
 10
631.6549503000615
 20
345.6627028672663
 10
631.65468207916
 20
362.5348108499018
 10
631.6539072187779
 20
380.6112902848688
 10
631.6526257189153
 20
399.8922007768122
 10
631.6507779749272
 20
420.3775721280542
 10
631.6508850173367
 20
530.5702716796028
  0
ENDBLK
  5
27E
330
279
100
AcDbEntity
  8
0
100
AcDbBlockEnd
  0
ENDSEC
  0
SECTION
  2
ENTITIES
  0
MTEXT
  5
6B
330
23
100
AcDbEntity
  8
0
100
AcDbMText
 10
13.67895064802198
 20
26.44333632592591
 30
0.0
 40
20.0
 41
853.3333333333334
 71
     1
 72
     5
  1
{\fTimes New Roman|b0|i0|c0|p18;\C0;LAVAMANOS  DE 50x35 CM.  SERIE EMMA SQUARE }
 73
     1
 44
1.0
1001
ACAD
1000
ACAD_MTEXT_DEFINED_HEIGHT_BEGIN
1070
    46
1040
0.0
1000
ACAD_MTEXT_DEFINED_HEIGHT_END
1000
MTEXTBEGIN
1070
    73
1070
     1
1070
    44
1040
1.0
1070
    74
1070
     0
1000
MTEXTEND
  0
INSERT
  5
293
330
23
100
AcDbEntity
  8
0
100
AcDbBlockReference
  2
27080_P
 10
0.0
 20
0.0
 30
0.0
  0
ENDSEC
  0
SECTION
  2
OBJECTS
  0
DICTIONARY
  5
C
330
0
100
AcDbDictionary
281
     1
  3
ACAD_COLOR
350
1C
  3
ACAD_GROUP
350
D
  3
ACAD_LAYOUT
350
1A
  3
ACAD_MATERIAL
350
1B
  3
ACAD_MLINESTYLE
350
17
  3
ACAD_PLOTSETTINGS
350
19
  3
ACAD_PLOTSTYLENAME
350
E
  3
ACAD_TABLESTYLE
350
1D
  3
ACDBHEADERROUNDTRIPXREC
350
2A1
  3
AcDbVariableDictionary
350
111
  0
DICTIONARY
  5
35
330
2
100
AcDbDictionary
280
     1
281
     1
  3
ACAD_LAYERSTATES
360
36
  0
DICTIONARY
  5
19E
330
23
100
AcDbDictionary
280
     1
281
     1
  3
ACAD_SORTENTS
360
19F
  0
DICTIONARY
  5
27A
330
279
100
AcDbDictionary
280
     1
281
     1
  3
AcDbBlockTableRecordData
360
27B
  0
DICTIONARY
  5
1C
102
{ACAD_REACTORS
330
C
102
}
330
C
100
AcDbDictionary
281
     1
  0
DICTIONARY
  5
D
102
{ACAD_REACTORS
330
C
102
}
330
C
100
AcDbDictionary
281
     1
  0
DICTIONARY
  5
1A
102
{ACAD_REACTORS
330
C
102
}
330
C
100
AcDbDictionary
281
     1
  3
Model
350
26
  3
Presentación1
350
22
  3
Presentación2
350
2A
  0
DICTIONARY
  5
1B
102
{ACAD_REACTORS
330
C
102
}
330
C
100
AcDbDictionary
281
     1
  0
DICTIONARY
  5
17
102
{ACAD_REACTORS
330
C
102
}
330
C
100
AcDbDictionary
281
     1
  3
Standard
350
18
  0
DICTIONARY
  5
19
102
{ACAD_REACTORS
330
C
102
}
330
C
100
AcDbDictionary
281
     1
  0
ACDBDICTIONARYWDFLT
  5
E
102
{ACAD_REACTORS
330
C
102
}
330
C
100
AcDbDictionary
281
     1
  3
Normal
350
F
100
AcDbDictionaryWithDefault
340
F
  0
DICTIONARY
  5
1D
102
{ACAD_REACTORS
330
C
102
}
330
C
100
AcDbDictionary
281
     1
  3
Standard
350
1E
  0
DICTIONARY
  5
2A1
102
{ACAD_REACTORS
330
C
102
}
330
C
100
AcDbDictionary
281
     1
  0
DICTIONARY
  5
111
102
{ACAD_REACTORS
330
C
102
}
330
C
100
AcDbDictionary
281
     1
  3
CTABLESTYLE
350
112
  3
DIMASSOC
350
114
  3
HIDETEXT
350
113
  3
PROJECTNAME
350
115
  0
DICTIONARY
  5
36
102
{ACAD_REACTORS
330
35
102
}
330
35
100
AcDbDictionary
281
     1
  0
SORTENTSTABLE
  5
19F
102
{ACAD_REACTORS
330
19E
102
}
330
19E
100
AcDbSortentsTable
330
23
331
6B
  5
6B
  0
DICTIONARY
  5
27B
102
{ACAD_REACTORS
330
27A
102
}
330
27A
100
AcDbDictionary
280
     1
281
     1
  3
Edit
360
27C
  0
LAYOUT
  5
26
102
{ACAD_XDICTIONARY
360
2A4
102
}
102
{ACAD_REACTORS
330
1A
102
}
330
1A
100
AcDbPlotSettings
  1

  2
\\CERAMICAS_GALA\PRT_BU_OT_01.ZPRINTERS.BURGOS
  4

  6

 40
0.0
 41
0.0
 42
0.0
 43
0.0
 44
0.0
 45
0.0
 46
0.0
 47
0.0
 48
0.0
 49
0.0
140
0.0
141
0.0
142
1.0
143
1.0
 70
  1712
 72
     0
 73
     0
 74
     0
  7
C:\Documents and Settings\G0810\Application Data\Autodesk\AutoCAD 2006\R16.2\esp\Plot Styles\jj.stb
 75
     0
147
1.0
148
0.0
149
0.0
100
AcDbLayout
  1
Model
 70
     1
 71
     0
 10
0.0
 20
0.0
 11
12.0
 21
9.0
 12
0.0
 22
0.0
 32
0.0
 14
0.0
 24
0.0
 34
0.0
 15
0.0
 25
0.0
 35
0.0
146
0.0
 13
0.0
 23
0.0
 33
0.0
 16
1.0
 26
0.0
 36
0.0
 17
0.0
 27
1.0
 37
0.0
 76
     0
330
23
  0
LAYOUT
  5
22
102
{ACAD_XDICTIONARY
360
2A2
102
}
102
{ACAD_REACTORS
330
1A
102
}
330
1A
100
AcDbPlotSettings
  1

  2
\\CERAMICAS_GALA\PRT_BU_OT_01.ZPRINTERS.BURGOS
  4

  6

 40
0.0
 41
0.0
 42
0.0
 43
0.0
 44
0.0
 45
0.0
 46
0.0
 47
0.0
 48
0.0
 49
0.0
140
0.0
141
0.0
142
1.0
143
1.0
 70
   688
 72
     0
 73
     0
 74
     5
  7
C:\Documents and Settings\G0810\Application Data\Autodesk\AutoCAD 2006\R16.2\esp\Plot Styles\jj.stb
 75
    16
147
1.0
148
0.0
149
0.0
100
AcDbLayout
  1
Presentación1
 70
     1
 71
     1
 10
0.0
 20
0.0
 11
420.0
 21
297.0
 12
0.0
 22
0.0
 32
0.0
 14
1.000000000000000E+20
 24
1.000000000000000E+20
 34
1.000000000000000E+20
 15
-1.000000000000000E+20
 25
-1.000000000000000E+20
 35
-1.000000000000000E+20
146
0.0
 13
0.0
 23
0.0
 33
0.0
 16
1.0
 26
0.0
 36
0.0
 17
0.0
 27
1.0
 37
0.0
 76
     0
330
1F
  0
LAYOUT
  5
2A
102
{ACAD_XDICTIONARY
360
2A6
102
}
102
{ACAD_REACTORS
330
1A
102
}
330
1A
100
AcDbPlotSettings
  1

  2
\\CERAMICAS_GALA\PRT_BU_OT_01.ZPRINTERS.BURGOS
  4

  6

 40
0.0
 41
0.0
 42
0.0
 43
0.0
 44
0.0
 45
0.0
 46
0.0
 47
0.0
 48
0.0
 49
0.0
140
0.0
141
0.0
142
1.0
143
1.0
 70
   688
 72
     0
 73
     0
 74
     5
  7
C:\Documents and Settings\G0810\Application Data\Autodesk\AutoCAD 2006\R16.2\esp\Plot Styles\jj.stb
 75
    16
147
1.0
148
0.0
149
0.0
100
AcDbLayout
  1
Presentación2
 70
     1
 71
     2
 10
0.0
 20
0.0
 11
12.0
 21
9.0
 12
0.0
 22
0.0
 32
0.0
 14
0.0
 24
0.0
 34
0.0
 15
0.0
 25
0.0
 35
0.0
146
0.0
 13
0.0
 23
0.0
 33
0.0
 16
1.0
 26
0.0
 36
0.0
 17
0.0
 27
1.0
 37
0.0
 76
     0
330
27
  0
MLINESTYLE
  5
18
102
{ACAD_REACTORS
330
17
102
}
330
17
100
AcDbMlineStyle
  2
STANDARD
 70
     0
  3

 62
   256
 51
90.0
 52
90.0
 71
     2
 49
0.5
 62
   256
  6
BYLAYER
 49
-0.5
 62
   256
  6
BYLAYER
  0
ACDBPLACEHOLDER
  5
F
102
{ACAD_REACTORS
330
E
102
}
330
E
  0
TABLESTYLE
  5
1E
102
{ACAD_REACTORS
330
1D
102
}
330
1D
100
AcDbTableStyle
  3
Standard
 70
     0
 71
     0
 40
1.5
 41
1.5
280
     0
281
     0
  7
Standard
140
4.5
170
     2
 62
     0
 63
     7
283
     0
274
    -2
284
     1
 64
     0
275
    -2
285
     1
 65
     0
276
    -2
286
     1
 66
     0
277
    -2
287
     1
 67
     0
278
    -2
288
     1
 68
     0
279
    -2
289
     1
 69
     0
  7
Standard
140
6.0
170
     5
 62
     0
 63
     7
283
     0
274
    -2
284
     1
 64
     0
275
    -2
285
     1
 65
     0
276
    -2
286
     1
 66
     0
277
    -2
287
     1
 67
     0
278
    -2
288
     1
 68
     0
279
    -2
289
     1
 69
     0
  7
Standard
140
4.5
170
     5
 62
     0
 63
     7
283
     0
274
    -2
284
     1
 64
     0
275
    -2
285
     1
 65
     0
276
    -2
286
     1
 66
     0
277
    -2
287
     1
 67
     0
278
    -2
288
     1
 68
     0
279
    -2
289
     1
 69
     0
  0
DICTIONARYVAR
  5
112
102
{ACAD_REACTORS
330
111
102
}
330
111
100
DictionaryVariables
280
     0
  1
STANDARD
  0
DICTIONARYVAR
  5
114
102
{ACAD_REACTORS
330
111
102
}
330
111
100
DictionaryVariables
280
     0
  1
2
  0
DICTIONARYVAR
  5
113
102
{ACAD_REACTORS
330
111
102
}
330
111
100
DictionaryVariables
280
     0
  1
1
  0
DICTIONARYVAR
  5
115
102
{ACAD_REACTORS
330
111
102
}
330
111
100
DictionaryVariables
280
     0
  1

  0
XRECORD
  5
27C
102
{ACAD_REACTORS
330
27B
102
}
330
27B
100
AcDbXrecord
280
     1
1070
     0
1070
     0
1070
     0
  0
DICTIONARY
  5
2A4
330
26
100
AcDbDictionary
280
     1
281
     1
  3
ACAD_XREC_ROUNDTRIP
360
2A5
  0
DICTIONARY
  5
2A2
330
22
100
AcDbDictionary
280
     1
281
     1
  3
ACAD_XREC_ROUNDTRIP
360
2A3
  0
DICTIONARY
  5
2A6
330
2A
100
AcDbDictionary
280
     1
281
     1
  3
ACAD_XREC_ROUNDTRIP
360
2A7
  0
XRECORD
  5
2A5
102
{ACAD_REACTORS
330
2A4
102
}
330
2A4
100
AcDbXrecord
280
     1
102
SHADEPLOT
 70
     0
102
SHADEPLOTRESLEVEL
 70
     2
102
SHADEPLOTCUSTOMDPI
 70
   300
  0
XRECORD
  5
2A3
102
{ACAD_REACTORS
330
2A2
102
}
330
2A2
100
AcDbXrecord
280
     1
102
SHADEPLOT
 70
     0
102
SHADEPLOTRESLEVEL
 70
     2
102
SHADEPLOTCUSTOMDPI
 70
   300
  0
XRECORD
  5
2A7
102
{ACAD_REACTORS
330
2A6
102
}
330
2A6
100
AcDbXrecord
280
     1
102
SHADEPLOT
 70
     0
102
SHADEPLOTRESLEVEL
 70
     2
102
SHADEPLOTCUSTOMDPI
 70
   300
  0
ENDSEC
  0
EOF
