  0
SECTION
  2
HEADER
  9
$ACADVER
  1
AC1015
  9
$ACADMAINTVER
 70
    20
  9
$DWGCODEPAGE
  3
ANSI_1252
  9
$INSBASE
 10
0.0
 20
0.0
 30
0.0
  9
$EXTMIN
 10
13.04448715122021
 20
0.0239377719576623
 30
-0.0015258207003583
  9
$EXTMAX
 10
661.1829072106536
 20
522.9179698149794
 30
0.0000000349246037
  9
$LIMMIN
 10
0.0
 20
0.0
  9
$LIMMAX
 10
420.0
 20
297.0
  9
$ORTHOMODE
 70
     0
  9
$REGENMODE
 70
     1
  9
$FILLMODE
 70
     1
  9
$QTEXTMODE
 70
     0
  9
$MIRRTEXT
 70
     0
  9
$LTSCALE
 40
1.0
  9
$ATTMODE
 70
     1
  9
$TEXTSIZE
 40
2.5
  9
$TRACEWID
 40
1.0
  9
$TEXTSTYLE
  7
Standard
  9
$CLAYER
  8
0
  9
$CELTYPE
  6
ByLayer
  9
$CECOLOR
 62
   256
  9
$CELTSCALE
 40
1.0
  9
$DISPSILH
 70
     0
  9
$DIMSCALE
 40
1.0
  9
$DIMASZ
 40
0.18
  9
$DIMEXO
 40
0.0625
  9
$DIMDLI
 40
0.38
  9
$DIMRND
 40
0.0
  9
$DIMDLE
 40
0.0
  9
$DIMEXE
 40
0.18
  9
$DIMTP
 40
0.0
  9
$DIMTM
 40
0.0
  9
$DIMTXT
 40
0.18
  9
$DIMCEN
 40
0.09
  9
$DIMTSZ
 40
0.0
  9
$DIMTOL
 70
     0
  9
$DIMLIM
 70
     0
  9
$DIMTIH
 70
     1
  9
$DIMTOH
 70
     1
  9
$DIMSE1
 70
     0
  9
$DIMSE2
 70
     0
  9
$DIMTAD
 70
     0
  9
$DIMZIN
 70
     0
  9
$DIMBLK
  1

  9
$DIMASO
 70
     1
  9
$DIMSHO
 70
     1
  9
$DIMPOST
  1

  9
$DIMAPOST
  1

  9
$DIMALT
 70
     0
  9
$DIMALTD
 70
     2
  9
$DIMALTF
 40
25.4
  9
$DIMLFAC
 40
1.0
  9
$DIMTOFL
 70
     0
  9
$DIMTVP
 40
0.0
  9
$DIMTIX
 70
     0
  9
$DIMSOXD
 70
     0
  9
$DIMSAH
 70
     0
  9
$DIMBLK1
  1

  9
$DIMBLK2
  1

  9
$DIMSTYLE
  2
STANDARD
  9
$DIMCLRD
 70
     0
  9
$DIMCLRE
 70
     0
  9
$DIMCLRT
 70
     0
  9
$DIMTFAC
 40
1.0
  9
$DIMGAP
 40
0.09
  9
$DIMJUST
 70
     0
  9
$DIMSD1
 70
     0
  9
$DIMSD2
 70
     0
  9
$DIMTOLJ
 70
     1
  9
$DIMTZIN
 70
     0
  9
$DIMALTZ
 70
     0
  9
$DIMALTTZ
 70
     0
  9
$DIMUPT
 70
     0
  9
$DIMDEC
 70
     4
  9
$DIMTDEC
 70
     4
  9
$DIMALTU
 70
     2
  9
$DIMALTTD
 70
     2
  9
$DIMTXSTY
  7
Standard
  9
$DIMAUNIT
 70
     0
  9
$DIMADEC
 70
     0
  9
$DIMALTRND
 40
0.0
  9
$DIMAZIN
 70
     0
  9
$DIMDSEP
 70
    46
  9
$DIMATFIT
 70
     3
  9
$DIMFRAC
 70
     0
  9
$DIMLDRBLK
  1

  9
$DIMLUNIT
 70
     2
  9
$DIMLWD
 70
    -2
  9
$DIMLWE
 70
    -2
  9
$DIMTMOVE
 70
     0
  9
$LUNITS
 70
     2
  9
$LUPREC
 70
     4
  9
$SKETCHINC
 40
1.0
  9
$FILLETRAD
 40
0.0
  9
$AUNITS
 70
     0
  9
$AUPREC
 70
     0
  9
$MENU
  1
.
  9
$ELEVATION
 40
0.0
  9
$PELEVATION
 40
0.0
  9
$THICKNESS
 40
0.0
  9
$LIMCHECK
 70
     0
  9
$CHAMFERA
 40
0.0
  9
$CHAMFERB
 40
0.0
  9
$CHAMFERC
 40
0.0
  9
$CHAMFERD
 40
0.0
  9
$SKPOLY
 70
     0
  9
$TDCREATE
 40
2455019.583955972
  9
$TDUCREATE
 40
2455019.500622639
  9
$TDUPDATE
 40
2455026.518819977
  9
$TDUUPDATE
 40
2455026.435486644
  9
$TDINDWG
 40
0.3191466088
  9
$TDUSRTIMER
 40
0.3191464352
  9
$USRTIMER
 70
     1
  9
$ANGBASE
 50
0.0
  9
$ANGDIR
 70
     0
  9
$PDMODE
 70
     0
  9
$PDSIZE
 40
0.0
  9
$PLINEWID
 40
0.0
  9
$SPLFRAME
 70
     0
  9
$SPLINETYPE
 70
     6
  9
$SPLINESEGS
 70
     8
  9
$HANDSEED
  5
BBF
  9
$SURFTAB1
 70
     6
  9
$SURFTAB2
 70
     6
  9
$SURFTYPE
 70
     6
  9
$SURFU
 70
     6
  9
$SURFV
 70
     6
  9
$UCSBASE
  2

  9
$UCSNAME
  2

  9
$UCSORG
 10
0.0
 20
0.0
 30
0.0
  9
$UCSXDIR
 10
1.0
 20
0.0
 30
0.0
  9
$UCSYDIR
 10
0.0
 20
1.0
 30
0.0
  9
$UCSORTHOREF
  2

  9
$UCSORTHOVIEW
 70
     0
  9
$UCSORGTOP
 10
0.0
 20
0.0
 30
0.0
  9
$UCSORGBOTTOM
 10
0.0
 20
0.0
 30
0.0
  9
$UCSORGLEFT
 10
0.0
 20
0.0
 30
0.0
  9
$UCSORGRIGHT
 10
0.0
 20
0.0
 30
0.0
  9
$UCSORGFRONT
 10
0.0
 20
0.0
 30
0.0
  9
$UCSORGBACK
 10
0.0
 20
0.0
 30
0.0
  9
$PUCSBASE
  2

  9
$PUCSNAME
  2

  9
$PUCSORG
 10
0.0
 20
0.0
 30
0.0
  9
$PUCSXDIR
 10
1.0
 20
0.0
 30
0.0
  9
$PUCSYDIR
 10
0.0
 20
1.0
 30
0.0
  9
$PUCSORTHOREF
  2

  9
$PUCSORTHOVIEW
 70
     0
  9
$PUCSORGTOP
 10
0.0
 20
0.0
 30
0.0
  9
$PUCSORGBOTTOM
 10
0.0
 20
0.0
 30
0.0
  9
$PUCSORGLEFT
 10
0.0
 20
0.0
 30
0.0
  9
$PUCSORGRIGHT
 10
0.0
 20
0.0
 30
0.0
  9
$PUCSORGFRONT
 10
0.0
 20
0.0
 30
0.0
  9
$PUCSORGBACK
 10
0.0
 20
0.0
 30
0.0
  9
$USERI1
 70
     0
  9
$USERI2
 70
     0
  9
$USERI3
 70
     0
  9
$USERI4
 70
     0
  9
$USERI5
 70
     0
  9
$USERR1
 40
0.0
  9
$USERR2
 40
0.0
  9
$USERR3
 40
0.0
  9
$USERR4
 40
0.0
  9
$USERR5
 40
0.0
  9
$WORLDVIEW
 70
     1
  9
$SHADEDGE
 70
     3
  9
$SHADEDIF
 70
    70
  9
$TILEMODE
 70
     1
  9
$MAXACTVP
 70
    64
  9
$PINSBASE
 10
0.0
 20
0.0
 30
0.0
  9
$PLIMCHECK
 70
     0
  9
$PEXTMIN
 10
1.000000000000000E+20
 20
1.000000000000000E+20
 30
1.000000000000000E+20
  9
$PEXTMAX
 10
-1.000000000000000E+20
 20
-1.000000000000000E+20
 30
-1.000000000000000E+20
  9
$PLIMMIN
 10
0.0
 20
0.0
  9
$PLIMMAX
 10
420.0
 20
297.0
  9
$UNITMODE
 70
     0
  9
$VISRETAIN
 70
     1
  9
$PLINEGEN
 70
     0
  9
$PSLTSCALE
 70
     1
  9
$TREEDEPTH
 70
  3020
  9
$CMLSTYLE
  2
Standard
  9
$CMLJUST
 70
     0
  9
$CMLSCALE
 40
20.0
  9
$PROXYGRAPHICS
 70
     1
  9
$MEASUREMENT
 70
     1
  9
$CELWEIGHT
370
    -1
  9
$ENDCAPS
280
     0
  9
$JOINSTYLE
280
     0
  9
$LWDISPLAY
290
     0
  9
$INSUNITS
 70
     4
  9
$HYPERLINKBASE
  1

  9
$STYLESHEET
  1

  9
$XEDIT
290
     1
  9
$CEPSNTYPE
380
     0
  9
$PSTYLEMODE
290
     1
  9
$FINGERPRINTGUID
  2
{A6C950DD-243C-480B-8B88-1E8CBBE87BD7}
  9
$VERSIONGUID
  2
{7473BB24-1CDB-46FB-8CAE-0B0EDFFE6E35}
  9
$EXTNAMES
290
     1
  9
$PSVPSCALE
 40
0.0
  9
$OLESTARTUP
290
     0
  0
ENDSEC
  0
SECTION
  2
CLASSES
  0
CLASS
  1
ACDBDICTIONARYWDFLT
  2
AcDbDictionaryWithDefault
  3
ObjectDBX Classes
 90
        0
280
     0
281
     0
  0
CLASS
  1
TABLESTYLE
  2
AcDbTableStyle
  3
ObjectDBX Classes
 90
     2047
280
     0
281
     0
  0
CLASS
  1
SORTENTSTABLE
  2
AcDbSortentsTable
  3
ObjectDBX Classes
 90
        0
280
     0
281
     0
  0
CLASS
  1
DICTIONARYVAR
  2
AcDbDictionaryVar
  3
ObjectDBX Classes
 90
        0
280
     0
281
     0
  0
CLASS
  1
ACDBPLACEHOLDER
  2
AcDbPlaceHolder
  3
ObjectDBX Classes
 90
        0
280
     0
281
     0
  0
CLASS
  1
LAYOUT
  2
AcDbLayout
  3
ObjectDBX Classes
 90
        0
280
     0
281
     0
  0
CLASS
  1
ACAD_EVALUATION_GRAPH
  2
AcDbEvalGraph
  3
ObjectDBX Classes
 90
    33921
280
     0
281
     0
  0
CLASS
  1
ACAECUSTOBJ
  2
AcAeEditorObj
  3
AcAeEditorObj
 90
    33792
280
     0
281
     0
  0
CLASS
  1
ACDB_DYNAMICBLOCKPURGEPREVENTER_VERSION
  2
AcDbDynamicBlockPurgePreventer
  3
ObjectDBX Classes
 90
    33921
280
     0
281
     0
  0
CLASS
  1
DIMASSOC
  2
AcDbDimAssoc
  3
"AcDbDimAssoc|Product Desc:     AcDim ARX App For Dimension|Company:          Autodesk, Inc.|WEB Address:      www.autodesk.com"
 90
    32768
280
     0
281
     0
  0
ENDSEC
  0
SECTION
  2
TABLES
  0
TABLE
  2
VPORT
  5
8
330
0
100
AcDbSymbolTable
 70
     2
  0
VPORT
  5
BB7
330
8
100
AcDbSymbolTableRecord
100
AcDbViewportTableRecord
  2
*Active
 70
     0
 10
0.0
 20
0.0
 11
1.0
 21
1.0
 12
337.113697180937
 22
261.4709537934686
 13
0.0
 23
0.0
 14
10.0
 24
10.0
 15
10.0
 25
10.0
 16
0.0
 26
0.0
 36
1.0
 17
0.0
 27
0.0
 37
0.0
 40
526.0251340313033
 41
1.525474525474525
 42
50.0
 43
0.0
 44
0.0
 50
0.0
 51
0.0
 71
     0
 72
  1000
 73
     1
 74
     3
 75
     0
 76
     0
 77
     0
 78
     0
281
     0
 65
     1
110
0.0
120
0.0
130
0.0
111
1.0
121
0.0
131
0.0
112
0.0
122
1.0
132
0.0
 79
     0
146
0.0
  0
ENDTAB
  0
TABLE
  2
LTYPE
  5
5
330
0
100
AcDbSymbolTable
 70
     1
  0
LTYPE
  5
14
330
5
100
AcDbSymbolTableRecord
100
AcDbLinetypeTableRecord
  2
ByBlock
 70
     0
  3

 72
    65
 73
     0
 40
0.0
  0
LTYPE
  5
15
330
5
100
AcDbSymbolTableRecord
100
AcDbLinetypeTableRecord
  2
ByLayer
 70
     0
  3

 72
    65
 73
     0
 40
0.0
  0
LTYPE
  5
16
330
5
100
AcDbSymbolTableRecord
100
AcDbLinetypeTableRecord
  2
Continuous
 70
     0
  3
Solid line
 72
    65
 73
     0
 40
0.0
  0
ENDTAB
  0
TABLE
  2
LAYER
  5
2
102
{ACAD_XDICTIONARY
360
35
102
}
330
0
100
AcDbSymbolTable
 70
     2
  0
LAYER
  5
10
330
2
100
AcDbSymbolTableRecord
100
AcDbLayerTableRecord
  2
0
 70
     0
 62
     7
  6
Continuous
370
    -3
390
F
  0
LAYER
  5
B91
330
2
100
AcDbSymbolTableRecord
100
AcDbLayerTableRecord
  2
Defpoints
 70
     0
 62
     7
  6
Continuous
290
     0
370
    -3
390
F
  0
ENDTAB
  0
TABLE
  2
STYLE
  5
3
330
0
100
AcDbSymbolTable
 70
     1
  0
STYLE
  5
11
330
3
100
AcDbSymbolTableRecord
100
AcDbTextStyleTableRecord
  2
Standard
 70
     0
 40
0.0
 41
1.0
 50
0.0
 71
     0
 42
2.5
  3
txt
  4

  0
ENDTAB
  0
TABLE
  2
VIEW
  5
6
330
0
100
AcDbSymbolTable
 70
     0
  0
ENDTAB
  0
TABLE
  2
UCS
  5
7
330
0
100
AcDbSymbolTable
 70
     0
  0
ENDTAB
  0
TABLE
  2
APPID
  5
9
330
0
100
AcDbSymbolTable
 70
    11
  0
APPID
  5
12
330
9
100
AcDbSymbolTableRecord
100
AcDbRegAppTableRecord
  2
ACAD
 70
     0
  0
APPID
  5
34
330
9
100
AcDbSymbolTableRecord
100
AcDbRegAppTableRecord
  2
ACAD_PSEXT
 70
     0
  0
APPID
  5
33E
330
9
100
AcDbSymbolTableRecord
100
AcDbRegAppTableRecord
  2
ACAD_DSTYLE_DIMTEXT_FILL
 70
     0
  0
APPID
  5
33F
330
9
100
AcDbSymbolTableRecord
100
AcDbRegAppTableRecord
  2
ACAD_DSTYLE_DIMEXT_LENGTH
 70
     0
  0
APPID
  5
340
330
9
100
AcDbSymbolTableRecord
100
AcDbRegAppTableRecord
  2
ACAD_DSTYLE_DIMEXT_ENABLED
 70
     0
  0
APPID
  5
341
330
9
100
AcDbSymbolTableRecord
100
AcDbRegAppTableRecord
  2
ACAD_DSTYLE_DIM_LINETYPE
 70
     0
  0
APPID
  5
342
330
9
100
AcDbSymbolTableRecord
100
AcDbRegAppTableRecord
  2
ACAD_DSTYLE_DIM_EXT1_LINETYPE
 70
     0
  0
APPID
  5
343
330
9
100
AcDbSymbolTableRecord
100
AcDbRegAppTableRecord
  2
ACAD_DSTYLE_DIM_EXT2_LINETYPE
 70
     0
  0
APPID
  5
80F
330
9
100
AcDbSymbolTableRecord
100
AcDbRegAppTableRecord
  2
ACAUTHENVIRON
 70
     0
  0
APPID
  5
861
330
9
100
AcDbSymbolTableRecord
100
AcDbRegAppTableRecord
  2
AcDbDynamicBlockTrueName
 70
     0
  0
APPID
  5
862
330
9
100
AcDbSymbolTableRecord
100
AcDbRegAppTableRecord
  2
AcDbDynamicBlockGUID
 70
     0
  0
ENDTAB
  0
TABLE
  2
DIMSTYLE
  5
A
330
0
100
AcDbSymbolTable
 70
     1
100
AcDbDimStyleTable
 71
     1
340
33
  0
DIMSTYLE
105
33
330
A
100
AcDbSymbolTableRecord
100
AcDbDimStyleTableRecord
  2
STANDARD
 70
     0
340
11
  0
ENDTAB
  0
TABLE
  2
BLOCK_RECORD
  5
1
330
0
100
AcDbSymbolTable
 70
     3
  0
BLOCK_RECORD
  5
23
102
{ACAD_XDICTIONARY
360
19E
102
}
330
1
100
AcDbSymbolTableRecord
100
AcDbBlockTableRecord
  2
*Model_Space
340
26
  0
BLOCK_RECORD
  5
1F
330
1
100
AcDbSymbolTableRecord
100
AcDbBlockTableRecord
  2
*Paper_Space
340
22
  0
BLOCK_RECORD
  5
27
330
1
100
AcDbSymbolTableRecord
100
AcDbBlockTableRecord
  2
*Paper_Space0
340
2A
  0
BLOCK_RECORD
  5
B3C
102
{ACAD_XDICTIONARY
360
B3D
102
}
330
1
100
AcDbSymbolTableRecord
100
AcDbBlockTableRecord
  2
27015_P
340
0
310
2800000020000000200000000100080000000000000400000000000000000000000000000000000000000000000080000080000000808000800000008000800080800000C0C0C000C0DCC000F0CAA6000020400000206000002080000020A0000020C0000020E00000400000004020000040400000406000004080000040A0
310
000040C0000040E00000600000006020000060400000606000006080000060A0000060C0000060E00000800000008020000080400000806000008080000080A0000080C0000080E00000A0000000A0200000A0400000A0600000A0800000A0A00000A0C00000A0E00000C0000000C0200000C0400000C0600000C0800000C0
310
A00000C0C00000C0E00000E0000000E0200000E0400000E0600000E0800000E0A00000E0C00000E0E00040000000400020004000400040006000400080004000A0004000C0004000E00040200000402020004020400040206000402080004020A0004020C0004020E000404000004040200040404000404060004040800040
310
40A0004040C0004040E00040600000406020004060400040606000406080004060A0004060C0004060E00040800000408020004080400040806000408080004080A0004080C0004080E00040A0000040A0200040A0400040A0600040A0800040A0A00040A0C00040A0E00040C0000040C0200040C0400040C0600040C08000
310
40C0A00040C0C00040C0E00040E0000040E0200040E0400040E0600040E0800040E0A00040E0C00040E0E00080000000800020008000400080006000800080008000A0008000C0008000E00080200000802020008020400080206000802080008020A0008020C0008020E00080400000804020008040400080406000804080
310
008040A0008040C0008040E00080600000806020008060400080606000806080008060A0008060C0008060E00080800000808020008080400080806000808080008080A0008080C0008080E00080A0000080A0200080A0400080A0600080A0800080A0A00080A0C00080A0E00080C0000080C0200080C0400080C0600080C0
310
800080C0A00080C0C00080C0E00080E0000080E0200080E0400080E0600080E0800080E0A00080E0C00080E0E000C0000000C0002000C0004000C0006000C0008000C000A000C000C000C000E000C0200000C0202000C0204000C0206000C0208000C020A000C020C000C020E000C0400000C0402000C0404000C0406000C0
310
408000C040A000C040C000C040E000C0600000C0602000C0604000C0606000C0608000C060A000C060C000C060E000C0800000C0802000C0804000C0806000C0808000C080A000C080C000C080E000C0A00000C0A02000C0A04000C0A06000C0A08000C0A0A000C0A0C000C0A0E000C0C00000C0C02000C0C04000C0C06000
310
C0C08000C0C0A000F0FBFF00A4A0A000808080000000FF0000FF000000FFFF00FF000000FF00FF00FFFF0000FFFFFF0000000000000000000000000000000000000000000000000000000000000000000000000000000000000000000000000000000000000000000000000000000000000000000000000000000000000000
310
00000000000000000000000000000000000000000000000000000000000000000000000000000000000000000000000000000000000000000000000000000000000000000000000000000000000000000000000000000000000000000000000000000000000000000000000000000000000000000000000000000000000000
310
00000000000000000000000000000000000000000000FFFFFFFFFFFFFFFFFFFFFFFFFFFFFFFFFFFFFFFFFFFFFFFF000000000000FFFFFFFFFFFFFFFFFFFFFFFFFFFFFFFFFFFFFFFFFFFFFFFFFFFFFFFF00000000FFFF000000000000000000000000000000000000000000000000FFFF000000FFFF00000000000000000000
310
00000000000000000000000000000000FFFF0000FFFF0000000000000000000000000000000000000000000000000000FFFF0000FFFF0000000000000000000000000000000000000000000000000000FFFF0000FFFF000000000000000000000000FFFF000000000000000000000000FFFF0000FFFF000000000000000000
310
0000FFFFFFFF0000000000000000000000FFFF0000FFFF0000000000000000000000FF00FFFF0000000000000000000000FFFF0000FFFFFF0000000000000000000000FFFF0000000000000000000000FFFFFF0000FFFF00FFFFFFFFFFFFFFFFFFFFFFFFFFFFFFFFFFFFFFFFFFFFFFFF00FFFF0000FF00FF00FFFFFFFFFFFF
310
FFFFFFFFFFFFFFFFFFFFFFFFFFFFFFFF0000FFFF0000FF00FFFFFFFFFFFFFFFFFFFFFFFFFFFFFFFFFFFFFFFFFFFFFFFFFFFF00FF0000FF00000000000000000000000000FFFF00000000000000000000000000FF0000FF00000000000000000000000000FFFF00000000000000000000000000FF0000FF0000000000000000
310
0000000000FF0000000000000000000000000000FF0000FF00000000000000000000000000000000000000000000000000000000FF0000FFFFFFFFFFFFFFFFFFFFFFFFFFFFFFFFFFFFFFFFFFFFFFFFFFFFFFFFFFFF000000000000000000000000000000000000000000000000000000000000000000000000000000000000
310
00000000000000000000000000000000000000000000000000000000000000000000000000000000000000000000000000000000000000000000000000000000000000000000000000000000000000000000000000000000000000000000000000000000000000000000000000000000000000000000000000000000000000
310
0000000000000000000000000000000000000000000000000000000000000000000000000000000000000000000000000000000000000000
102
{BLKREFS
331
B58
102
}
1001
ACAD
1000
DesignCenter Data
1002
{
1070
     1
1070
     4
1002
}
  0
ENDTAB
  0
ENDSEC
  0
SECTION
  2
BLOCKS
  0
BLOCK
  5
24
330
23
100
AcDbEntity
  8
0
100
AcDbBlockBegin
  2
*Model_Space
 70
     0
 10
0.0
 20
0.0
 30
0.0
  3
*Model_Space
  1

  0
ENDBLK
  5
25
330
23
100
AcDbEntity
  8
0
100
AcDbBlockEnd
  0
BLOCK
  5
20
330
1F
100
AcDbEntity
 67
     1
  8
0
100
AcDbBlockBegin
  2
*Paper_Space
 70
     0
 10
0.0
 20
0.0
 30
0.0
  3
*Paper_Space
  1

  0
ENDBLK
  5
21
330
1F
100
AcDbEntity
 67
     1
  8
0
100
AcDbBlockEnd
  0
BLOCK
  5
28
330
27
100
AcDbEntity
 67
     1
  8
0
100
AcDbBlockBegin
  2
*Paper_Space0
 70
     0
 10
0.0
 20
0.0
 30
0.0
  3
*Paper_Space0
  1

  0
ENDBLK
  5
29
330
27
100
AcDbEntity
 67
     1
  8
0
100
AcDbBlockEnd
  0
BLOCK
  5
B40
330
B3C
100
AcDbEntity
  8
0
100
AcDbBlockBegin
  2
27015_P
 70
     0
 10
0.0
 20
0.0
 30
0.0
  3
27015_P
  1

  0
CIRCLE
  5
B42
330
B3C
100
AcDbEntity
  8
0
100
AcDbCircle
 10
340.7655221137448
 20
332.9020108945083
 30
0.0
 40
23.00000000000022
  0
ARC
  5
B43
330
B3C
100
AcDbEntity
  8
0
100
AcDbCircle
 10
587.2655221137375
 20
387.9020108945383
 30
0.0
 40
40.0
100
AcDbArc
 50
0.0
 51
90.0
  0
ARC
  5
B44
330
B3C
100
AcDbEntity
  8
0
100
AcDbCircle
 10
636.7655221137392
 20
518.9020108945083
 30
0.0
 40
4.0
100
AcDbArc
 50
0.0
 51
90.0
  0
ARC
  5
B45
330
B3C
100
AcDbEntity
  8
0
100
AcDbCircle
 10
340.7655221137393
 20
332.9020108945083
 30
0.0
 40
36.00000000000008
100
AcDbArc
 50
270.0
 51
90.0
  0
LINE
  5
B46
330
B3C
100
AcDbEntity
  8
0
100
AcDbLine
 10
587.2655221137375
 20
427.9020108945383
 30
0.0
 11
94.2655221137411
 21
427.902010894531
 31
0.0
  0
CIRCLE
  5
B47
330
B3C
100
AcDbEntity
  8
0
100
AcDbCircle
 10
340.7655221137393
 20
462.9020108945046
 30
0.0
 40
17.5
  0
LINE
  5
B48
330
B3C
100
AcDbEntity
  8
0
100
AcDbLine
 10
115.1396099816283
 20
395.7427120364496
 30
0.0
 11
566.3914342458501
 21
395.7427120364496
 31
0.0
  0
ARC
  5
B49
330
B3C
100
AcDbEntity
  8
0
100
AcDbCircle
 10
566.3914342458501
 20
363.7427120364496
 30
0.0
 40
32.0
100
AcDbArc
 50
0.0
 51
90.0
  0
SPLINE
  5
B4A
330
B3C
100
AcDbEntity
  8
0
100
AcDbSpline
210
0.0
220
0.0
230
1.0
 70
     8
 71
     3
 72
    26
 73
    22
 74
     0
 42
0.0000000001
 43
0.0000000001
 40
7.853979450876906
 40
7.853979450876906
 40
7.853979450876906
 40
7.853979450876906
 40
7.919352950397192
 40
7.919352950397192
 40
8.35700805459029
 40
8.35700805459029
 40
8.794663158783388
 40
8.794663158783388
 40
9.124586633184637
 40
9.124586633184637
 40
9.454510107585889
 40
9.454510107585889
 40
9.784433581987139
 40
9.784433581987139
 40
10.11435705638839
 40
10.11435705638839
 40
10.44428053078964
 40
10.44428053078964
 40
10.88286040666045
 40
10.88286040666045
 40
10.99557777686171
 40
10.99557777686171
 40
10.99557777686171
 40
10.99557777686171
 10
280.7655221137338
 20
404.2608177497809
 30
0.0
 10
280.9988287938086
 20
404.2607472674267
 30
0.0
 10
281.2321393940638
 20
404.2660832741699
 30
0.0
 10
283.0240113364034
 20
404.3490298493656
 30
0.0
 10
284.5619989185798
 20
404.665037407502
 30
0.0
 10
287.3358286223174
 20
405.7442720896419
 30
0.0
 10
288.5716678097397
 20
406.5072136296753
 30
0.0
 10
290.2721176204705
 20
408.1559386131143
 30
0.0
 10
290.8518372969847
 20
408.9659213916043
 30
0.0
 10
291.6169425452462
 20
410.7136787150834
 30
0.0
 10
291.7994419805564
 20
411.6514413928694
 30
0.0
 10
291.720996192671
 20
413.5165338434949
 30
0.0
 10
291.4606627941484
 20
414.4398714505792
 30
0.0
 10
290.5566026992637
 20
416.1400056981752
 30
0.0
 10
289.9153195405361
 20
416.9175615885601
 30
0.0
 10
288.3478842324457
 20
418.2616138732978
 30
0.0
 10
287.4216195831014
 20
418.8290421639671
 30
0.0
 10
285.0469344825961
 20
419.861532825273
 30
0.0
 10
283.5264175716911
 20
420.2301974772731
 30
0.0
 10
281.5700686263426
 20
420.3867836288759
 30
0.0
 10
281.1677948407214
 20
420.4026603139159
 30
0.0
 10
280.7655221137375
 20
420.402531481503
 30
0.0
  0
LINE
  5
B4B
330
B3C
100
AcDbEntity
  8
0
100
AcDbLine
 10
636.7655221137392
 20
522.9020108945083
 30
0.0
 11
44.76552211373928
 21
522.9020108945156
 31
0.0
  0
ARC
  5
B4C
330
B3C
100
AcDbEntity
  8
0
100
AcDbCircle
 10
94.2655221137411
 20
387.9020108945383
 30
0.0
 40
40.0
100
AcDbArc
 50
90.0
 51
180.0
  0
ARC
  5
B4D
330
B3C
100
AcDbEntity
  8
0
100
AcDbCircle
 10
44.76552211374292
 20
518.9020108945083
 30
0.0
 40
4.0
100
AcDbArc
 50
90.0
 51
180.0
  0
LWPOLYLINE
  5
B4E
330
B3C
100
AcDbEntity
  8
0
100
AcDbPolyline
 90
       46
 70
   128
 43
0.0
 10
340.765551670107
 20
186.4020084955232
 10
317.4397811426115
 20
186.4159191471631
 10
292.1727652302998
 20
186.4751418211604
 10
268.0847304669133
 20
186.5719401525825
 10
245.2047706469421
 20
186.7006569401205
 10
223.48793661938
 20
186.8557857967175
 10
202.8596161658533
 20
187.0322670571445
 10
183.2625142281649
 20
187.2255740019141
 10
164.1634314999446
 20
187.4376667637557
 10
145.8154994294145
 20
187.664967409994
 10
128.0935907145394
 20
187.9063424116798
 10
119.9648955212597
 20
188.0238147956265
 10
111.971831066663
 20
188.1435741389618
 10
104.2145830886093
 20
188.2639807558885
 10
97.34293121458359
 20
188.4686349462868
 10
91.51795798635976
 20
189.2823750427237
 10
85.63178400146354
 20
190.884125386136
 10
80.45133928998074
 20
193.0204193798968
 10
76.07121039184495
 20
195.4420216586882
 10
73.43877691219313
 20
197.2156124850848
 10
71.15761430757993
 20
198.981122198908
 10
69.29375753938803
 20
200.6046744134405
 10
67.59095031670949
 20
202.2561868288908
 10
65.50903927754371
 20
204.5310249218533
 10
63.16447116651398
 20
207.4993547719355
 10
61.18454343695339
 20
210.4474168894199
 10
59.68452337032431
 20
213.0591676315567
 10
58.57111453876678
 20
215.2961578256441
 10
57.75902641939137
 20
217.153493050108
 10
56.85891088775315
 20
219.5316170705159
 10
55.89834716639416
 20
222.6492446656125
 10
55.02712162377974
 20
226.5296481681112
 10
54.42084492360663
 20
231.2401669996475
 10
54.26444217170865
 20
237.4133310732909
 10
54.26467547581342
 20
245.2224860780375
 10
54.26390057031494
 20
271.626747365202
 10
54.26318532993537
 20
281.4505331443011
 10
54.26252968949484
 20
292.1962271270945
 10
54.26196345460084
 20
303.8638466246571
 10
54.2615760354638
 20
318.3270671726691
 10
54.26145683062713
 20
333.9945447980549
 10
54.2617250502135
 20
350.866335451306
 10
54.2624998998981
 20
368.9424508132447
 10
54.2655221137411
 20
387.9020108945383
 10
54.2655221137411
 20
387.9020108945383
 10
54.2655221137411
 20
387.9020108945383
  0
ARC
  5
B4F
330
B3C
100
AcDbEntity
  8
0
100
AcDbCircle
 10
115.1396099816283
 20
363.7427120364496
 30
0.0
 40
32.0
100
AcDbArc
 50
90.0
 51
180.0
  0
LWPOLYLINE
  5
B50
330
B3C
100
AcDbEntity
  8
0
100
AcDbPolyline
 90
       46
 70
   128
 43
0.0
 10
340.7655221137393
 20
172.9020108945119
 10
317.419935955324
 20
172.915928579067
 10
292.1298192875765
 20
172.9752053982961
 10
268.0196324425124
 20
173.0720927483785
 10
245.1185816960715
 20
173.2009281880605
 10
223.3819747405432
 20
173.3561982877004
 10
202.7352908687972
 20
173.5328366524923
 10
183.1209817963026
 20
173.7263133294332
 10
164.004863246002
 20
173.9385952718007
 10
145.6399569349669
 20
174.1661062009084
 10
127.9097357826613
 20
174.4075944192159
 10
119.76982746891
 20
174.5252241856801
 10
111.7695877390288
 20
174.6450891263234
 10
103.9088675814055
 20
174.7670998341787
 10
96.20471392444597
 20
174.9965479142415
 10
88.80077396205889
 20
176.0308673150289
 10
81.2689522343062
 20
178.0804326302755
 10
74.59311281017289
 20
180.8333923585164
 10
69.02007852367387
 20
183.9145054585683
 10
65.52724633983598
 20
186.2677862412679
 10
62.58548889926896
 20
188.5445644623983
 10
60.15421543888078
 20
190.6623770959127
 10
57.90348444751725
 20
192.8453078038442
 10
55.21907006076799
 20
195.7784821755635
 10
52.24774871639238
 20
199.5403101212728
 10
49.71362744144426
 20
203.3135523564565
 10
47.77781759075151
 20
206.6840758092153
 10
46.33604083827958
 20
209.5808019406545
 10
45.25350127986894
 20
212.0566894776571
 10
44.08256803325639
 20
215.1503195531118
 10
42.84168873599992
 20
219.1777457959402
 10
41.71763454250322
 20
224.1842379338491
 10
40.94274435810075
 20
230.2048136956441
 10
40.76443706325517
 20
237.2425427205312
 10
40.76467548183427
 20
245.2228894002187
 10
40.76390062145037
 20
271.6255723006775
 10
40.76318536571307
 20
281.4495502479126
 10
40.76252971462054
 20
292.1954034335663
 10
40.76196347049517
 20
303.8631914622833
 10
40.76157604030413
 20
318.3267055518677
 10
40.76145683101458
 20
333.9944420821717
 10
40.76172505191607
 20
350.8665500648072
 10
40.76249991229815
 20
368.9430294997742
 10
40.76378141216082
 20
388.2239399917176
 10
40.76562915614886
 20
408.7093113429595
 10
40.76552211374291
 20
518.9020108945083
  0
ARC
  5
B51
330
B3C
100
AcDbEntity
  8
0
100
AcDbCircle
 10
340.7655221137393
 20
332.9020108945083
 30
0.0
 40
36.00000000000008
100
AcDbArc
 50
90.0
 51
270.0
  0
SPLINE
  5
B52
330
B3C
100
AcDbEntity
  8
0
100
AcDbSpline
210
0.0
220
0.0
230
1.0
 70
     8
 71
     3
 72
    26
 73
    22
 74
     0
 42
0.0000000001
 43
0.0000000001
 40
7.853979450876906
 40
7.853979450876906
 40
7.853979450876906
 40
7.853979450876906
 40
7.919352950397192
 40
7.919352950397192
 40
8.35700805459029
 40
8.35700805459029
 40
8.794663158783388
 40
8.794663158783388
 40
9.124586633184637
 40
9.124586633184637
 40
9.454510107585889
 40
9.454510107585889
 40
9.784433581987139
 40
9.784433581987139
 40
10.11435705638839
 40
10.11435705638839
 40
10.44428053078964
 40
10.44428053078964
 40
10.88286040666045
 40
10.88286040666045
 40
10.99557777686171
 40
10.99557777686171
 40
10.99557777686171
 40
10.99557777686171
 10
280.7655221137338
 20
404.2608177497809
 30
0.0
 10
280.5322154336591
 20
404.2607472674267
 30
0.0
 10
280.2989048334039
 20
404.2660832741699
 30
0.0
 10
278.5070328910642
 20
404.3490298493656
 30
0.0
 10
276.9690453088879
 20
404.665037407502
 30
0.0
 10
274.1952156051502
 20
405.7442720896419
 30
0.0
 10
272.959376417728
 20
406.5072136296753
 30
0.0
 10
271.2589266069972
 20
408.1559386131143
 30
0.0
 10
270.6792069304829
 20
408.9659213916043
 30
0.0
 10
269.9141016822214
 20
410.7136787150834
 30
0.0
 10
269.7316022469113
 20
411.6514413928694
 30
0.0
 10
269.8100480347966
 20
413.5165338434949
 30
0.0
 10
270.0703814333192
 20
414.4398714505792
 30
0.0
 10
270.9744415282039
 20
416.1400056981752
 30
0.0
 10
271.6157246869316
 20
416.9175615885601
 30
0.0
 10
273.1831599950219
 20
418.2616138732978
 30
0.0
 10
274.1094246443663
 20
418.8290421639671
 30
0.0
 10
276.4841097448716
 20
419.861532825273
 30
0.0
 10
278.0046266557765
 20
420.2301974772731
 30
0.0
 10
279.960975601125
 20
420.3867836288759
 30
0.0
 10
280.3632493867462
 20
420.4026603139159
 30
0.0
 10
280.7655221137302
 20
420.402531481503
 30
0.0
  0
ARC
  5
B53
330
B3C
100
AcDbEntity
  8
0
100
AcDbCircle
 10
340.765522113732
 20
5798.346233163962
 30
0.0
 40
5417.76628858072
100
AcDbArc
 50
267.6419565446544
 51
272.3580434553456
  0
LWPOLYLINE
  5
B54
330
B3C
100
AcDbEntity
  8
0
100
AcDbPolyline
 90
       46
 70
   128
 43
0.0
 10
340.765551670107
 20
186.4020084955232
 10
364.0913221976025
 20
186.4159191471631
 10
389.3583381099142
 20
186.4751418211604
 10
413.4463728733008
 20
186.5719401525825
 10
436.3263326932719
 20
186.7006569401205
 10
458.043166720834
 20
186.8557857967175
 10
478.6714871743606
 20
187.0322670571445
 10
498.2685891120491
 20
187.2255740019141
 10
517.3676718402694
 20
187.4376667637557
 10
535.7156039107994
 20
187.664967409994
 10
553.4375126256746
 20
187.9063424116798
 10
561.5662078189543
 20
188.0238147956265
 10
569.559272273551
 20
188.1435741389618
 10
577.3165202516047
 20
188.2639807558885
 10
584.1881721256304
 20
188.4686349462868
 10
590.0131453538542
 20
189.2823750427237
 10
595.8993193387505
 20
190.884125386136
 10
601.0797640502333
 20
193.0204193798968
 10
605.4598929483691
 20
195.4420216586882
 10
608.0923264280208
 20
197.2156124850848
 10
610.373489032634
 20
198.981122198908
 10
612.237345800826
 20
200.6046744134405
 10
613.9401530235045
 20
202.2561868288908
 10
616.0220640626703
 20
204.5310249218533
 10
618.3666321737
 20
207.4993547719355
 10
620.3465599032606
 20
210.4474168894199
 10
621.8465799698897
 20
213.0591676315567
 10
622.9599888014472
 20
215.2961578256441
 10
623.7720769208226
 20
217.153493050108
 10
624.6721924524608
 20
219.5316170705159
 10
625.6327561738198
 20
222.6492446656125
 10
626.5039817164343
 20
226.5296481681112
 10
627.1102584166073
 20
231.2401669996475
 10
627.2666611685053
 20
237.4133310732909
 10
627.2664278644006
 20
245.2224860780375
 10
627.2672027698954
 20
271.626747365202
 10
627.267918010275
 20
281.4505331443011
 10
627.2685736507155
 20
292.1962271270945
 10
627.2691398856095
 20
303.8638466246571
 10
627.2695273047466
 20
318.3270671726691
 10
627.2696465095832
 20
333.9945447980549
 10
627.2693782899969
 20
350.866335451306
 10
627.2686034403123
 20
368.9424508132447
 10
627.2655812264693
 20
387.9020108945383
 10
627.2655812264693
 20
387.9020108945383
 10
627.2655812264693
 20
387.9020108945383
  0
LWPOLYLINE
  5
B55
330
B3C
100
AcDbEntity
  8
0
100
AcDbPolyline
 90
       46
 70
   128
 43
0.0
 10
340.7655812264748
 20
172.9020108945119
 10
364.11116738489
 20
172.915928579067
 10
389.4012840526375
 20
172.9752053982961
 10
413.5114708977016
 20
173.0720927483785
 10
436.4125216441425
 20
173.2009281880605
 10
458.1491285996707
 20
173.3561982877004
 10
478.7958124714168
 20
173.5328366524923
 10
498.4101215439113
 20
173.7263133294332
 10
517.5262400942119
 20
173.9385952718007
 10
535.8911464052471
 20
174.1661062009084
 10
553.6213675575527
 20
174.4075944192159
 10
561.7612758713039
 20
174.5252241856801
 10
569.7615156011852
 20
174.6450891263234
 10
577.6222357588085
 20
174.7670998341787
 10
585.326389415768
 20
174.9965479142415
 10
592.7303293781551
 20
176.0308673150289
 10
600.2621511059078
 20
178.0804326302755
 10
606.9379905300411
 20
180.8333923585164
 10
612.5110248165401
 20
183.9145054585683
 10
616.003857000378
 20
186.2677862412679
 10
618.945614440945
 20
188.5445644623983
 10
621.3768879013332
 20
190.6623770959127
 10
623.6276188926967
 20
192.8453078038442
 10
626.312033279446
 20
195.7784821755635
 10
629.2833546238216
 20
199.5403101212728
 10
631.8174758987697
 20
203.3135523564565
 10
633.7532857494625
 20
206.6840758092153
 10
635.1950625019344
 20
209.5808019406545
 10
636.277602060345
 20
212.0566894776571
 10
637.4485353069576
 20
215.1503195531118
 10
638.689414604214
 20
219.1777457959402
 10
639.8134687977107
 20
224.1842379338491
 10
640.5883589821132
 20
230.2048136956441
 10
640.7666662769588
 20
237.2425427205312
 10
640.7664278583797
 20
245.2228894002187
 10
640.76720271876
 20
271.6255723006775
 10
640.7679179744973
 20
281.4495502479126
 10
640.7685736255898
 20
292.1954034335663
 10
640.7691398697152
 20
303.8631914622833
 10
640.7695272999062
 20
318.3267055518677
 10
640.7696465091958
 20
333.9944420821717
 10
640.7693782882943
 20
350.8665500648072
 10
640.7686034279122
 20
368.9430294997742
 10
640.7673219280495
 20
388.2239399917176
 10
640.7654741840615
 20
408.7093113429595
 10
640.7655812264711
 20
518.9020108945083
  0
SPLINE
  5
B56
330
B3C
100
AcDbEntity
  8
0
100
AcDbSpline
210
0.0
220
0.0
230
1.0
 70
     8
 71
     3
 72
    14
 73
    10
 74
     0
 42
0.0000000001
 43
0.0000000001
 40
7.853979450876906
 40
7.853979450876906
 40
7.853979450876906
 40
7.853979450876906
 40
7.919352950397192
 40
7.919352950397192
 40
8.35700805459029
 40
8.35700805459029
 40
8.794663158783388
 40
8.794663158783388
 40
9.12353607243547
 40
9.12353607243547
 40
9.12353607243547
 40
9.12353607243547
 10
280.7655221137338
 20
409.2608177497809
 30
0.0
 10
280.9988287938086
 20
409.2607472674266
 30
0.0
 10
281.2321393940638
 20
409.2660832741699
 30
0.0
 10
283.0240113364034
 20
409.3490298493657
 30
0.0
 10
284.5619989185798
 20
409.665037407502
 30
0.0
 10
287.3358286223174
 20
410.7442720896419
 30
0.0
 10
288.5716678097397
 20
411.5072136296753
 30
0.0
 10
290.2697902680957
 20
413.1536820548904
 30
0.0
 10
290.848143812631
 20
413.9607640341733
 30
0.0
 10
291.2307294888033
 20
414.8314540384776
 30
0.0
  0
SPLINE
  5
B57
330
B3C
100
AcDbEntity
  8
0
100
AcDbSpline
210
0.0
220
0.0
230
1.0
 70
     8
 71
     3
 72
    14
 73
    10
 74
     0
 42
0.0000000001
 43
0.0000000001
 40
7.853979450876906
 40
7.853979450876906
 40
7.853979450876906
 40
7.853979450876906
 40
7.919352950397192
 40
7.919352950397192
 40
8.35700805459029
 40
8.35700805459029
 40
8.794663158783388
 40
8.794663158783388
 40
9.123536072435442
 40
9.123536072435442
 40
9.123536072435442
 40
9.123536072435442
 10
280.7655221137338
 20
409.2608177497809
 30
0.0
 10
280.5322154336591
 20
409.2607472674266
 30
0.0
 10
280.2989048334039
 20
409.2660832741699
 30
0.0
 10
278.5070328910642
 20
409.3490298493657
 30
0.0
 10
276.9690453088879
 20
409.665037407502
 30
0.0
 10
274.1952156051502
 20
410.7442720896419
 30
0.0
 10
272.959376417728
 20
411.5072136296753
 30
0.0
 10
271.261253959372
 20
413.1536820548904
 30
0.0
 10
270.6829004148367
 20
413.9607640341733
 30
0.0
 10
270.3003147386644
 20
414.8314540384776
 30
0.0
  0
ENDBLK
  5
B41
330
B3C
100
AcDbEntity
  8
0
100
AcDbBlockEnd
  0
ENDSEC
  0
SECTION
  2
ENTITIES
  0
MTEXT
  5
6B
330
23
100
AcDbEntity
  8
0
100
AcDbMText
 10
13.67895064802198
 20
26.44333632592591
 30
0.0
 40
20.0
 41
853.3333333333334
 71
     1
 72
     5
  1
{\fTimes New Roman|b0|i0|c0|p18;\C0;LAVABO  DE 60x35 CM.  SERIE EMMA SQUARE }
 73
     1
 44
1.0
1001
ACAD
1000
ACAD_MTEXT_DEFINED_HEIGHT_BEGIN
1070
    46
1040
0.0
1000
ACAD_MTEXT_DEFINED_HEIGHT_END
1000
MTEXTBEGIN
1070
    73
1070
     1
1070
    44
1040
1.0
1070
    74
1070
     0
1000
MTEXTEND
  0
INSERT
  5
B58
330
23
100
AcDbEntity
  8
0
100
AcDbBlockReference
  2
27015_P
 10
0.0
 20
0.0
 30
0.0
  0
ENDSEC
  0
SECTION
  2
OBJECTS
  0
DICTIONARY
  5
C
330
0
100
AcDbDictionary
281
     1
  3
ACAD_COLOR
350
1C
  3
ACAD_GROUP
350
D
  3
ACAD_LAYOUT
350
1A
  3
ACAD_MATERIAL
350
1B
  3
ACAD_MLINESTYLE
350
17
  3
ACAD_PLOTSETTINGS
350
19
  3
ACAD_PLOTSTYLENAME
350
E
  3
ACAD_TABLESTYLE
350
1D
  3
ACDBHEADERROUNDTRIPXREC
350
BB8
  3
AcDbVariableDictionary
350
111
  0
DICTIONARY
  5
35
330
2
100
AcDbDictionary
280
     1
281
     1
  3
ACAD_LAYERSTATES
360
36
  0
DICTIONARY
  5
19E
330
23
100
AcDbDictionary
280
     1
281
     1
  3
ACAD_SORTENTS
360
19F
  0
DICTIONARY
  5
B3D
330
B3C
100
AcDbDictionary
280
     1
281
     1
  3
AcDbBlockTableRecordData
360
B3E
  0
DICTIONARY
  5
1C
102
{ACAD_REACTORS
330
C
102
}
330
C
100
AcDbDictionary
281
     1
  0
DICTIONARY
  5
D
102
{ACAD_REACTORS
330
C
102
}
330
C
100
AcDbDictionary
281
     1
  0
DICTIONARY
  5
1A
102
{ACAD_REACTORS
330
C
102
}
330
C
100
AcDbDictionary
281
     1
  3
Model
350
26
  3
Presentación1
350
22
  3
Presentación2
350
2A
  0
DICTIONARY
  5
1B
102
{ACAD_REACTORS
330
C
102
}
330
C
100
AcDbDictionary
281
     1
  0
DICTIONARY
  5
17
102
{ACAD_REACTORS
330
C
102
}
330
C
100
AcDbDictionary
281
     1
  3
Standard
350
18
  0
DICTIONARY
  5
19
102
{ACAD_REACTORS
330
C
102
}
330
C
100
AcDbDictionary
281
     1
  0
ACDBDICTIONARYWDFLT
  5
E
102
{ACAD_REACTORS
330
C
102
}
330
C
100
AcDbDictionary
281
     1
  3
Normal
350
F
100
AcDbDictionaryWithDefault
340
F
  0
DICTIONARY
  5
1D
102
{ACAD_REACTORS
330
C
102
}
330
C
100
AcDbDictionary
281
     1
  3
Standard
350
1E
  0
DICTIONARY
  5
BB8
102
{ACAD_REACTORS
330
C
102
}
330
C
100
AcDbDictionary
281
     1
  0
DICTIONARY
  5
111
102
{ACAD_REACTORS
330
C
102
}
330
C
100
AcDbDictionary
281
     1
  3
CTABLESTYLE
350
112
  3
DIMASSOC
350
114
  3
HIDETEXT
350
113
  3
PROJECTNAME
350
115
  0
DICTIONARY
  5
36
102
{ACAD_REACTORS
330
35
102
}
330
35
100
AcDbDictionary
281
     1
  0
SORTENTSTABLE
  5
19F
102
{ACAD_REACTORS
330
19E
102
}
330
19E
100
AcDbSortentsTable
330
23
331
6B
  5
6B
  0
DICTIONARY
  5
B3E
102
{ACAD_REACTORS
330
B3D
102
}
330
B3D
100
AcDbDictionary
280
     1
281
     1
  3
Edit
360
B3F
  0
LAYOUT
  5
26
102
{ACAD_XDICTIONARY
360
BBB
102
}
102
{ACAD_REACTORS
330
1A
102
}
330
1A
100
AcDbPlotSettings
  1

  2
\\CERAMICAS_GALA\PRT_BU_OT_01.ZPRINTERS.BURGOS
  4

  6

 40
0.0
 41
0.0
 42
0.0
 43
0.0
 44
0.0
 45
0.0
 46
0.0
 47
0.0
 48
0.0
 49
0.0
140
0.0
141
0.0
142
1.0
143
1.0
 70
  1712
 72
     0
 73
     0
 74
     0
  7
C:\Documents and Settings\G0810\Application Data\Autodesk\AutoCAD 2006\R16.2\esp\Plot Styles\jj.stb
 75
     0
147
1.0
148
0.0
149
0.0
100
AcDbLayout
  1
Model
 70
     1
 71
     0
 10
0.0
 20
0.0
 11
12.0
 21
9.0
 12
0.0
 22
0.0
 32
0.0
 14
0.0
 24
0.0
 34
0.0
 15
0.0
 25
0.0
 35
0.0
146
0.0
 13
0.0
 23
0.0
 33
0.0
 16
1.0
 26
0.0
 36
0.0
 17
0.0
 27
1.0
 37
0.0
 76
     0
330
23
  0
LAYOUT
  5
22
102
{ACAD_XDICTIONARY
360
BB9
102
}
102
{ACAD_REACTORS
330
1A
102
}
330
1A
100
AcDbPlotSettings
  1

  2
\\CERAMICAS_GALA\PRT_BU_OT_01.ZPRINTERS.BURGOS
  4

  6

 40
0.0
 41
0.0
 42
0.0
 43
0.0
 44
0.0
 45
0.0
 46
0.0
 47
0.0
 48
0.0
 49
0.0
140
0.0
141
0.0
142
1.0
143
1.0
 70
   688
 72
     0
 73
     0
 74
     5
  7
C:\Documents and Settings\G0810\Application Data\Autodesk\AutoCAD 2006\R16.2\esp\Plot Styles\jj.stb
 75
    16
147
1.0
148
0.0
149
0.0
100
AcDbLayout
  1
Presentación1
 70
     1
 71
     1
 10
0.0
 20
0.0
 11
420.0
 21
297.0
 12
0.0
 22
0.0
 32
0.0
 14
1.000000000000000E+20
 24
1.000000000000000E+20
 34
1.000000000000000E+20
 15
-1.000000000000000E+20
 25
-1.000000000000000E+20
 35
-1.000000000000000E+20
146
0.0
 13
0.0
 23
0.0
 33
0.0
 16
1.0
 26
0.0
 36
0.0
 17
0.0
 27
1.0
 37
0.0
 76
     0
330
1F
  0
LAYOUT
  5
2A
102
{ACAD_XDICTIONARY
360
BBD
102
}
102
{ACAD_REACTORS
330
1A
102
}
330
1A
100
AcDbPlotSettings
  1

  2
\\CERAMICAS_GALA\PRT_BU_OT_01.ZPRINTERS.BURGOS
  4

  6

 40
0.0
 41
0.0
 42
0.0
 43
0.0
 44
0.0
 45
0.0
 46
0.0
 47
0.0
 48
0.0
 49
0.0
140
0.0
141
0.0
142
1.0
143
1.0
 70
   688
 72
     0
 73
     0
 74
     5
  7
C:\Documents and Settings\G0810\Application Data\Autodesk\AutoCAD 2006\R16.2\esp\Plot Styles\jj.stb
 75
    16
147
1.0
148
0.0
149
0.0
100
AcDbLayout
  1
Presentación2
 70
     1
 71
     2
 10
0.0
 20
0.0
 11
12.0
 21
9.0
 12
0.0
 22
0.0
 32
0.0
 14
0.0
 24
0.0
 34
0.0
 15
0.0
 25
0.0
 35
0.0
146
0.0
 13
0.0
 23
0.0
 33
0.0
 16
1.0
 26
0.0
 36
0.0
 17
0.0
 27
1.0
 37
0.0
 76
     0
330
27
  0
MLINESTYLE
  5
18
102
{ACAD_REACTORS
330
17
102
}
330
17
100
AcDbMlineStyle
  2
STANDARD
 70
     0
  3

 62
   256
 51
90.0
 52
90.0
 71
     2
 49
0.5
 62
   256
  6
BYLAYER
 49
-0.5
 62
   256
  6
BYLAYER
  0
ACDBPLACEHOLDER
  5
F
102
{ACAD_REACTORS
330
E
102
}
330
E
  0
TABLESTYLE
  5
1E
102
{ACAD_REACTORS
330
1D
102
}
330
1D
100
AcDbTableStyle
  3
Standard
 70
     0
 71
     0
 40
1.5
 41
1.5
280
     0
281
     0
  7
Standard
140
4.5
170
     2
 62
     0
 63
     7
283
     0
274
    -2
284
     1
 64
     0
275
    -2
285
     1
 65
     0
276
    -2
286
     1
 66
     0
277
    -2
287
     1
 67
     0
278
    -2
288
     1
 68
     0
279
    -2
289
     1
 69
     0
  7
Standard
140
6.0
170
     5
 62
     0
 63
     7
283
     0
274
    -2
284
     1
 64
     0
275
    -2
285
     1
 65
     0
276
    -2
286
     1
 66
     0
277
    -2
287
     1
 67
     0
278
    -2
288
     1
 68
     0
279
    -2
289
     1
 69
     0
  7
Standard
140
4.5
170
     5
 62
     0
 63
     7
283
     0
274
    -2
284
     1
 64
     0
275
    -2
285
     1
 65
     0
276
    -2
286
     1
 66
     0
277
    -2
287
     1
 67
     0
278
    -2
288
     1
 68
     0
279
    -2
289
     1
 69
     0
  0
DICTIONARYVAR
  5
112
102
{ACAD_REACTORS
330
111
102
}
330
111
100
DictionaryVariables
280
     0
  1
STANDARD
  0
DICTIONARYVAR
  5
114
102
{ACAD_REACTORS
330
111
102
}
330
111
100
DictionaryVariables
280
     0
  1
2
  0
DICTIONARYVAR
  5
113
102
{ACAD_REACTORS
330
111
102
}
330
111
100
DictionaryVariables
280
     0
  1
1
  0
DICTIONARYVAR
  5
115
102
{ACAD_REACTORS
330
111
102
}
330
111
100
DictionaryVariables
280
     0
  1

  0
XRECORD
  5
B3F
102
{ACAD_REACTORS
330
B3E
102
}
330
B3E
100
AcDbXrecord
280
     1
1070
     0
1070
     0
1070
     0
  0
DICTIONARY
  5
BBB
330
26
100
AcDbDictionary
280
     1
281
     1
  3
ACAD_XREC_ROUNDTRIP
360
BBC
  0
DICTIONARY
  5
BB9
330
22
100
AcDbDictionary
280
     1
281
     1
  3
ACAD_XREC_ROUNDTRIP
360
BBA
  0
DICTIONARY
  5
BBD
330
2A
100
AcDbDictionary
280
     1
281
     1
  3
ACAD_XREC_ROUNDTRIP
360
BBE
  0
XRECORD
  5
BBC
102
{ACAD_REACTORS
330
BBB
102
}
330
BBB
100
AcDbXrecord
280
     1
102
SHADEPLOT
 70
     0
102
SHADEPLOTRESLEVEL
 70
     2
102
SHADEPLOTCUSTOMDPI
 70
   300
  0
XRECORD
  5
BBA
102
{ACAD_REACTORS
330
BB9
102
}
330
BB9
100
AcDbXrecord
280
     1
102
SHADEPLOT
 70
     0
102
SHADEPLOTRESLEVEL
 70
     2
102
SHADEPLOTCUSTOMDPI
 70
   300
  0
XRECORD
  5
BBE
102
{ACAD_REACTORS
330
BBD
102
}
330
BBD
100
AcDbXrecord
280
     1
102
SHADEPLOT
 70
     0
102
SHADEPLOTRESLEVEL
 70
     2
102
SHADEPLOTCUSTOMDPI
 70
   300
  0
ENDSEC
  0
EOF
