  0
SECTION
  2
HEADER
  9
$ACADVER
  1
AC1018
  9
$ACADMAINTVER
 70
     0
  9
$DWGCODEPAGE
  3
ANSI_1252
  9
$INSBASE
 10
0.0
 20
0.0
 30
0.0
  9
$EXTMIN
 10
425.9451634422799
 20
65.47788630593531
 30
0.0
  9
$EXTMAX
 10
1203.017982476166
 20
978.4246351259653
 30
0.0
  9
$LIMMIN
 10
0.0
 20
0.0
  9
$LIMMAX
 10
12.0
 20
9.0
  9
$ORTHOMODE
 70
     0
  9
$REGENMODE
 70
     1
  9
$FILLMODE
 70
     1
  9
$QTEXTMODE
 70
     0
  9
$MIRRTEXT
 70
     0
  9
$LTSCALE
 40
1.0
  9
$ATTMODE
 70
     1
  9
$TEXTSIZE
 40
0.2
  9
$TRACEWID
 40
0.05
  9
$TEXTSTYLE
  7
Standard
  9
$CLAYER
  8
0
  9
$CELTYPE
  6
ByLayer
  9
$CECOLOR
 62
   256
  9
$CELTSCALE
 40
1.0
  9
$DISPSILH
 70
     0
  9
$DIMSCALE
 40
1.0
  9
$DIMASZ
 40
0.18
  9
$DIMEXO
 40
0.0625
  9
$DIMDLI
 40
0.38
  9
$DIMRND
 40
0.0
  9
$DIMDLE
 40
0.0
  9
$DIMEXE
 40
0.18
  9
$DIMTP
 40
0.0
  9
$DIMTM
 40
0.0
  9
$DIMTXT
 40
0.18
  9
$DIMCEN
 40
0.09
  9
$DIMTSZ
 40
0.0
  9
$DIMTOL
 70
     0
  9
$DIMLIM
 70
     0
  9
$DIMTIH
 70
     1
  9
$DIMTOH
 70
     1
  9
$DIMSE1
 70
     0
  9
$DIMSE2
 70
     0
  9
$DIMTAD
 70
     0
  9
$DIMZIN
 70
     0
  9
$DIMBLK
  1

  9
$DIMASO
 70
     1
  9
$DIMSHO
 70
     1
  9
$DIMPOST
  1

  9
$DIMAPOST
  1

  9
$DIMALT
 70
     0
  9
$DIMALTD
 70
     2
  9
$DIMALTF
 40
25.4
  9
$DIMLFAC
 40
1.0
  9
$DIMTOFL
 70
     0
  9
$DIMTVP
 40
0.0
  9
$DIMTIX
 70
     0
  9
$DIMSOXD
 70
     0
  9
$DIMSAH
 70
     0
  9
$DIMBLK1
  1

  9
$DIMBLK2
  1

  9
$DIMSTYLE
  2
Standard
  9
$DIMCLRD
 70
     0
  9
$DIMCLRE
 70
     0
  9
$DIMCLRT
 70
     0
  9
$DIMTFAC
 40
1.0
  9
$DIMGAP
 40
0.09
  9
$DIMJUST
 70
     0
  9
$DIMSD1
 70
     0
  9
$DIMSD2
 70
     0
  9
$DIMTOLJ
 70
     1
  9
$DIMTZIN
 70
     0
  9
$DIMALTZ
 70
     0
  9
$DIMALTTZ
 70
     0
  9
$DIMUPT
 70
     0
  9
$DIMDEC
 70
     4
  9
$DIMTDEC
 70
     4
  9
$DIMALTU
 70
     2
  9
$DIMALTTD
 70
     2
  9
$DIMTXSTY
  7
Standard
  9
$DIMAUNIT
 70
     0
  9
$DIMADEC
 70
     0
  9
$DIMALTRND
 40
0.0
  9
$DIMAZIN
 70
     0
  9
$DIMDSEP
 70
    46
  9
$DIMATFIT
 70
     3
  9
$DIMFRAC
 70
     0
  9
$DIMLDRBLK
  1

  9
$DIMLUNIT
 70
     2
  9
$DIMLWD
 70
    -2
  9
$DIMLWE
 70
    -2
  9
$DIMTMOVE
 70
     0
  9
$LUNITS
 70
     2
  9
$LUPREC
 70
     4
  9
$SKETCHINC
 40
0.1
  9
$FILLETRAD
 40
0.0
  9
$AUNITS
 70
     0
  9
$AUPREC
 70
     0
  9
$MENU
  1
.
  9
$ELEVATION
 40
0.0
  9
$PELEVATION
 40
0.0
  9
$THICKNESS
 40
0.0
  9
$LIMCHECK
 70
     0
  9
$CHAMFERA
 40
0.0
  9
$CHAMFERB
 40
0.0
  9
$CHAMFERC
 40
0.0
  9
$CHAMFERD
 40
0.0
  9
$SKPOLY
 70
     0
  9
$TDCREATE
 40
2454473.076148496
  9
$TDUCREATE
 40
2454473.034481829
  9
$TDUPDATE
 40
2454551.546600625
  9
$TDUUPDATE
 40
2454551.504933959
  9
$TDINDWG
 40
0.0020336111
  9
$TDUSRTIMER
 40
0.0020336111
  9
$USRTIMER
 70
     1
  9
$ANGBASE
 50
0.0
  9
$ANGDIR
 70
     0
  9
$PDMODE
 70
     0
  9
$PDSIZE
 40
0.0
  9
$PLINEWID
 40
0.0
  9
$SPLFRAME
 70
     0
  9
$SPLINETYPE
 70
     6
  9
$SPLINESEGS
 70
     8
  9
$HANDSEED
  5
551
  9
$SURFTAB1
 70
     6
  9
$SURFTAB2
 70
     6
  9
$SURFTYPE
 70
     6
  9
$SURFU
 70
     6
  9
$SURFV
 70
     6
  9
$UCSBASE
  2

  9
$UCSNAME
  2

  9
$UCSORG
 10
0.0
 20
0.0
 30
0.0
  9
$UCSXDIR
 10
1.0
 20
0.0
 30
0.0
  9
$UCSYDIR
 10
0.0
 20
1.0
 30
0.0
  9
$UCSORTHOREF
  2

  9
$UCSORTHOVIEW
 70
     0
  9
$UCSORGTOP
 10
0.0
 20
0.0
 30
0.0
  9
$UCSORGBOTTOM
 10
0.0
 20
0.0
 30
0.0
  9
$UCSORGLEFT
 10
0.0
 20
0.0
 30
0.0
  9
$UCSORGRIGHT
 10
0.0
 20
0.0
 30
0.0
  9
$UCSORGFRONT
 10
0.0
 20
0.0
 30
0.0
  9
$UCSORGBACK
 10
0.0
 20
0.0
 30
0.0
  9
$PUCSBASE
  2

  9
$PUCSNAME
  2

  9
$PUCSORG
 10
0.0
 20
0.0
 30
0.0
  9
$PUCSXDIR
 10
1.0
 20
0.0
 30
0.0
  9
$PUCSYDIR
 10
0.0
 20
1.0
 30
0.0
  9
$PUCSORTHOREF
  2

  9
$PUCSORTHOVIEW
 70
     0
  9
$PUCSORGTOP
 10
0.0
 20
0.0
 30
0.0
  9
$PUCSORGBOTTOM
 10
0.0
 20
0.0
 30
0.0
  9
$PUCSORGLEFT
 10
0.0
 20
0.0
 30
0.0
  9
$PUCSORGRIGHT
 10
0.0
 20
0.0
 30
0.0
  9
$PUCSORGFRONT
 10
0.0
 20
0.0
 30
0.0
  9
$PUCSORGBACK
 10
0.0
 20
0.0
 30
0.0
  9
$USERI1
 70
     0
  9
$USERI2
 70
     0
  9
$USERI3
 70
     0
  9
$USERI4
 70
     0
  9
$USERI5
 70
     0
  9
$USERR1
 40
0.0
  9
$USERR2
 40
0.0
  9
$USERR3
 40
0.0
  9
$USERR4
 40
0.0
  9
$USERR5
 40
0.0
  9
$WORLDVIEW
 70
     1
  9
$SHADEDGE
 70
     3
  9
$SHADEDIF
 70
    70
  9
$TILEMODE
 70
     1
  9
$MAXACTVP
 70
    64
  9
$PINSBASE
 10
0.0
 20
0.0
 30
0.0
  9
$PLIMCHECK
 70
     0
  9
$PEXTMIN
 10
0.0
 20
0.0
 30
0.0
  9
$PEXTMAX
 10
0.0
 20
0.0
 30
0.0
  9
$PLIMMIN
 10
0.0
 20
0.0
  9
$PLIMMAX
 10
12.0
 20
9.0
  9
$UNITMODE
 70
     0
  9
$VISRETAIN
 70
     1
  9
$PLINEGEN
 70
     0
  9
$PSLTSCALE
 70
     1
  9
$TREEDEPTH
 70
  3020
  9
$CMLSTYLE
  2
Standard
  9
$CMLJUST
 70
     0
  9
$CMLSCALE
 40
1.0
  9
$PROXYGRAPHICS
 70
     1
  9
$MEASUREMENT
 70
     0
  9
$CELWEIGHT
370
    -1
  9
$ENDCAPS
280
     0
  9
$JOINSTYLE
280
     0
  9
$LWDISPLAY
290
     0
  9
$INSUNITS
 70
     1
  9
$HYPERLINKBASE
  1

  9
$STYLESHEET
  1

  9
$XEDIT
290
     1
  9
$CEPSNTYPE
380
     0
  9
$PSTYLEMODE
290
     1
  9
$FINGERPRINTGUID
  2
{FDEAD576-A652-11D2-9A35-0060089B3A3F}
  9
$VERSIONGUID
  2
{F97F0E12-57E7-4632-9787-5C71E61B6BAB}
  9
$EXTNAMES
290
     1
  9
$PSVPSCALE
 40
0.0
  9
$OLESTARTUP
290
     0
  9
$SORTENTS
280
   127
  9
$INDEXCTL
280
     0
  9
$HIDETEXT
280
     1
  9
$XCLIPFRAME
290
     0
  9
$HALOGAP
280
     0
  9
$OBSCOLOR
 70
   257
  9
$OBSLTYPE
280
     0
  9
$INTERSECTIONDISPLAY
280
     0
  9
$INTERSECTIONCOLOR
 70
   257
  9
$DIMASSOC
280
     2
  9
$PROJECTNAME
  1

  0
ENDSEC
  0
SECTION
  2
CLASSES
  0
CLASS
  1
ACDBDICTIONARYWDFLT
  2
AcDbDictionaryWithDefault
  3
ObjectDBX Classes
 90
        0
 91
        1
280
     0
281
     0
  0
CLASS
  1
DICTIONARYVAR
  2
AcDbDictionaryVar
  3
ObjectDBX Classes
 90
        0
 91
        2
280
     0
281
     0
  0
CLASS
  1
SORTENTSTABLE
  2
AcDbSortentsTable
  3
ObjectDBX Classes
 90
        0
 91
        0
280
     0
281
     0
  0
ENDSEC
  0
SECTION
  2
TABLES
  0
TABLE
  2
VPORT
  5
8
330
0
100
AcDbSymbolTable
 70
     4
  0
VPORT
  5
550
330
8
100
AcDbSymbolTableRecord
100
AcDbViewportTableRecord
  2
*Active
 70
     0
 10
0.0
 20
0.0
 11
1.0
 21
1.0
 12
582.5913656683747
 22
358.9517105501013
 13
0.0
 23
0.0
 14
0.5
 24
0.5
 15
0.5
 25
0.5
 16
0.0
 26
0.0
 36
1.0
 17
0.0
 27
0.0
 37
0.0
 40
1589.526705298301
 41
1.642184557438794
 42
50.0
 43
0.0
 44
0.0
 50
0.0
 51
0.0
 71
     0
 72
  1000
 73
     1
 74
     3
 75
     0
 76
     0
 77
     0
 78
     0
281
     0
 65
     1
110
0.0
120
0.0
130
0.0
111
1.0
121
0.0
131
0.0
112
0.0
122
1.0
132
0.0
 79
     0
146
0.0
  0
ENDTAB
  0
TABLE
  2
LTYPE
  5
5
330
0
100
AcDbSymbolTable
 70
     1
  0
LTYPE
  5
14
330
5
100
AcDbSymbolTableRecord
100
AcDbLinetypeTableRecord
  2
ByBlock
 70
     0
  3

 72
    65
 73
     0
 40
0.0
  0
LTYPE
  5
15
330
5
100
AcDbSymbolTableRecord
100
AcDbLinetypeTableRecord
  2
ByLayer
 70
     0
  3

 72
    65
 73
     0
 40
0.0
  0
LTYPE
  5
16
330
5
100
AcDbSymbolTableRecord
100
AcDbLinetypeTableRecord
  2
Continuous
 70
     0
  3
Solid line
 72
    65
 73
     0
 40
0.0
  0
ENDTAB
  0
TABLE
  2
LAYER
  5
2
102
{ACAD_XDICTIONARY
360
96
102
}
330
0
100
AcDbSymbolTable
 70
     1
  0
LAYER
  5
10
330
2
100
AcDbSymbolTableRecord
100
AcDbLayerTableRecord
  2
0
 70
     0
 62
     7
  6
Continuous
370
    -3
390
F
  0
ENDTAB
  0
TABLE
  2
STYLE
  5
3
330
0
100
AcDbSymbolTable
 70
     5
  0
STYLE
  5
11
330
3
100
AcDbSymbolTableRecord
100
AcDbTextStyleTableRecord
  2
Standard
 70
     0
 40
0.0
 41
1.0
 50
0.0
 71
     0
 42
0.2
  3
txt
  4

  0
STYLE
  5
93
330
3
100
AcDbSymbolTableRecord
100
AcDbTextStyleTableRecord
  2
ROMANS
 70
     0
 40
0.0
 41
1.0
 50
0.0
 71
     0
 42
25.0
  3
romans
  4

  0
STYLE
  5
94
330
3
100
AcDbSymbolTableRecord
100
AcDbTextStyleTableRecord
  2
SANSSERIFBOLD
 70
     0
 40
0.0
 41
1.0
 50
0.0
 71
     0
 42
87.71704489347758
  3
ARIALBD.TTF
  4

1001
ACAD
1000
Arial
1071
 33554466
  0
STYLE
  5
172
330
3
100
AcDbSymbolTableRecord
100
AcDbTextStyleTableRecord
  2
NOMBRE
 70
     0
 40
0.0
 41
1.0
 50
0.0
 71
     0
 42
2.0
  3
stylu.ttf
  4

1001
ACAD
1000
Stylus BT
1071
       34
  0
STYLE
  5
173
330
3
100
AcDbSymbolTableRecord
100
AcDbTextStyleTableRecord
  2
ISO
 70
     0
 40
0.0
 41
1.0
 50
0.0
 71
     0
 42
4.0
  3
ISOCP.SHX
  4

  0
ENDTAB
  0
TABLE
  2
VIEW
  5
6
330
0
100
AcDbSymbolTable
 70
     0
  0
ENDTAB
  0
TABLE
  2
UCS
  5
7
330
0
100
AcDbSymbolTable
 70
     0
  0
ENDTAB
  0
TABLE
  2
APPID
  5
9
330
0
100
AcDbSymbolTable
 70
     2
  0
APPID
  5
12
330
9
100
AcDbSymbolTableRecord
100
AcDbRegAppTableRecord
  2
ACAD
 70
     0
  0
APPID
  5
95
330
9
100
AcDbSymbolTableRecord
100
AcDbRegAppTableRecord
  2
ACAD_PSEXT
 70
     0
  0
ENDTAB
  0
TABLE
  2
DIMSTYLE
  5
A
330
0
100
AcDbSymbolTable
 70
     1
100
AcDbDimStyleTable
 71
     0
  0
DIMSTYLE
105
27
330
A
100
AcDbSymbolTableRecord
100
AcDbDimStyleTableRecord
  2
Standard
 70
     0
340
11
  0
ENDTAB
  0
TABLE
  2
BLOCK_RECORD
  5
1
330
0
100
AcDbSymbolTable
 70
     5
  0
BLOCK_RECORD
  5
1F
330
1
100
AcDbSymbolTableRecord
100
AcDbBlockTableRecord
  2
*Model_Space
340
22
  0
BLOCK_RECORD
  5
58
330
1
100
AcDbSymbolTableRecord
100
AcDbBlockTableRecord
  2
*Paper_Space
340
59
  0
BLOCK_RECORD
  5
5D
330
1
100
AcDbSymbolTableRecord
100
AcDbBlockTableRecord
  2
*Paper_Space0
340
5E
  0
BLOCK_RECORD
  5
121
330
1
100
AcDbSymbolTableRecord
100
AcDbBlockTableRecord
  2
18180_L
340
0
310
2800000020000000200000000100080000000000000400000000000000000000000000000000000000000000000080000080000000808000800000008000800080800000C0C0C000C0DCC000F0CAA6000020400000206000002080000020A0000020C0000020E00000400000004020000040400000406000004080000040A0
310
000040C0000040E00000600000006020000060400000606000006080000060A0000060C0000060E00000800000008020000080400000806000008080000080A0000080C0000080E00000A0000000A0200000A0400000A0600000A0800000A0A00000A0C00000A0E00000C0000000C0200000C0400000C0600000C0800000C0
310
A00000C0C00000C0E00000E0000000E0200000E0400000E0600000E0800000E0A00000E0C00000E0E00040000000400020004000400040006000400080004000A0004000C0004000E00040200000402020004020400040206000402080004020A0004020C0004020E000404000004040200040404000404060004040800040
310
40A0004040C0004040E00040600000406020004060400040606000406080004060A0004060C0004060E00040800000408020004080400040806000408080004080A0004080C0004080E00040A0000040A0200040A0400040A0600040A0800040A0A00040A0C00040A0E00040C0000040C0200040C0400040C0600040C08000
310
40C0A00040C0C00040C0E00040E0000040E0200040E0400040E0600040E0800040E0A00040E0C00040E0E00080000000800020008000400080006000800080008000A0008000C0008000E00080200000802020008020400080206000802080008020A0008020C0008020E00080400000804020008040400080406000804080
310
008040A0008040C0008040E00080600000806020008060400080606000806080008060A0008060C0008060E00080800000808020008080400080806000808080008080A0008080C0008080E00080A0000080A0200080A0400080A0600080A0800080A0A00080A0C00080A0E00080C0000080C0200080C0400080C0600080C0
310
800080C0A00080C0C00080C0E00080E0000080E0200080E0400080E0600080E0800080E0A00080E0C00080E0E000C0000000C0002000C0004000C0006000C0008000C000A000C000C000C000E000C0200000C0202000C0204000C0206000C0208000C020A000C020C000C020E000C0400000C0402000C0404000C0406000C0
310
408000C040A000C040C000C040E000C0600000C0602000C0604000C0606000C0608000C060A000C060C000C060E000C0800000C0802000C0804000C0806000C0808000C080A000C080C000C080E000C0A00000C0A02000C0A04000C0A06000C0A08000C0A0A000C0A0C000C0A0E000C0C00000C0C02000C0C04000C0C06000
310
C0C08000C0C0A000F0FBFF00A4A0A000808080000000FF0000FF000000FFFF00FF000000FF00FF00FFFF0000FFFFFF00000000000000000000000000000000000000000000000000000000000000000000000000000000000000FFFFFFFFFFFFFFFFFFFFFFFFFFFF000000000000000000000000000000000000FFFFFFFFFF
310
FF00000000000000FF000000000000000000000000000000000000FF00000000FF00000000000000FF000000000000000000000000000000000000FF00000000FF00000000000000FF000000000000000000000000000000000000FF00000000FF000000000000FF0000000000000000000000000000000000FFFFFF000000
310
00FF000000000000FF0000000000000000000000000000000000FF00FF00000000FF000000000000FF0000000000000000000000000000000000FF00FF0000000000000000FFFFFFFFFF00000000000000000000000000000000FF00FF000000FF00FFFFFF0000000000FF000000000000000000000000000000FFFFFF0000
310
FFFF00000000000000000000FF0000000000000000000000000000FFFF0000FFFFFF0000000000000000000000FF000000000000000000000000FF0000FFFF00FFFF000000000000000000000000FF0000000000000000000000FF00FF0000FFFF00000000000000000000000000FF0000000000000000FFFFFFFFFFFFFFFF
310
FFFFFFFFFFFFFFFFFF000000000000FF0000000000000000FFFFFFFFFFFFFFFFFFFFFFFFFFFFFFFFFFFFFFFFFFFFFFFF0000000000000000FF0000000000FFFFFFFFFFFFFFFFFFFFFFFFFFFFFFFFFFFF0000000000000000FF0000000000FFFFFFFFFFFFFFFFFFFFFFFFFFFFFFFF00000000000000000000FF0000000000FF
310
00000000000000000000000000000000000000000000000000FF0000000000FF00000000000000000000000000000000000000000000000000FF0000000000FF00000000000000000000000000000000000000000000000000FF0000000000FF00000000000000000000000000000000000000000000000000FF0000000000
310
FF00000000000000000000000000000000000000000000000000FF0000000000FF00000000000000000000000000000000000000000000000000FF0000000000FF00000000000000000000000000000000000000000000000000FF0000000000FF00000000000000000000000000000000000000000000000000FFFFFF0000
310
00FF00000000000000000000000000000000000000000000000000FFFFFF000000FF00000000000000000000000000000000000000000000000000FFFFFFFFFFFFFF00000000000000000000000000000000000000000000000000FFFFFFFFFFFFFF00000000000000000000000000000000000000000000000000FF000000
310
0000000000000000000000000000000000000000000000000000000000000000000000000000000000000000000000000000000000000000
102
{BLKREFS
331
54D
102
}
1001
ACAD
1000
DesignCenter Data
1002
{
1070
     1
1070
     4
1002
}
  0
BLOCK_RECORD
  5
16C
330
1
100
AcDbSymbolTableRecord
100
AcDbBlockTableRecord
  2
_DOT
340
0
  0
BLOCK_RECORD
  5
20F
330
1
100
AcDbSymbolTableRecord
100
AcDbBlockTableRecord
  2
18150_L
340
0
1001
ACAD
1000
DesignCenter Data
1002
{
1070
     1
1070
     4
1002
}
  0
ENDTAB
  0
ENDSEC
  0
SECTION
  2
BLOCKS
  0
BLOCK
  5
20
330
1F
100
AcDbEntity
  8
0
100
AcDbBlockBegin
  2
*Model_Space
 70
     0
 10
0.0
 20
0.0
 30
0.0
  3
*Model_Space
  1

  0
ENDBLK
  5
21
330
1F
100
AcDbEntity
  8
0
100
AcDbBlockEnd
  0
BLOCK
  5
5A
330
58
100
AcDbEntity
 67
     1
  8
0
100
AcDbBlockBegin
  2
*Paper_Space
 70
     0
 10
0.0
 20
0.0
 30
0.0
  3
*Paper_Space
  1

  0
ENDBLK
  5
5B
330
58
100
AcDbEntity
 67
     1
  8
0
100
AcDbBlockEnd
  0
BLOCK
  5
5F
330
5D
100
AcDbEntity
  8
0
100
AcDbBlockBegin
  2
*Paper_Space0
 70
     0
 10
0.0
 20
0.0
 30
0.0
  3
*Paper_Space0
  1

  0
ENDBLK
  5
60
330
5D
100
AcDbEntity
  8
0
100
AcDbBlockEnd
  0
BLOCK
  5
122
330
121
100
AcDbEntity
  8
0
100
AcDbBlockBegin
  2
18180_L
 70
     0
 10
0.0
 20
0.0
 30
0.0
  3
18180_L
  1

  0
ARC
  5
4ED
330
121
100
AcDbEntity
  8
0
100
AcDbCircle
 10
305.0
 20
-713.0
 30
0.0
 40
2.0
100
AcDbArc
 50
270.0
 51
0.0
  0
LINE
  5
4EE
330
121
100
AcDbEntity
  8
0
100
AcDbLine
 10
307.0
 20
-713.0
 30
0.0
 11
307.0
 21
-585.0
 31
0.0
1001
ACAD
1000
ASC_BOUNDS
1002
{
1070
    19
1005
0
1005
0
1002
}
  0
LINE
  5
4EF
330
121
100
AcDbEntity
  8
0
100
AcDbLine
 10
218.0
 20
-715.0
 30
0.0
 11
305.0
 21
-715.0
 31
0.0
1001
ACAD
1000
ASC_BOUNDS
1002
{
1070
    19
1002
}
  0
ARC
  5
4F0
330
121
100
AcDbEntity
  8
0
100
AcDbCircle
 10
14.6188021535163
 20
26.18974362329027
 30
0.0
 40
2.0
100
AcDbArc
 50
210.0000000000385
 51
270.0
  0
LINE
  5
4F1
330
121
100
AcDbEntity
  8
0
100
AcDbLine
 10
154.0
 20
2.0
 30
0.0
 11
153.2720595314676
 21
0.0
 31
0.0
1001
ACAD
1000
ASC_BOUNDS
1002
{
1070
    19
1002
}
  0
ARC
  5
4F2
330
121
100
AcDbEntity
  8
0
100
AcDbCircle
 10
95.0
 20
-694.2307946434175
 30
0.0
 40
718.4205382667082
100
AcDbArc
 50
85.66232660677981
 51
90.0
  0
LINE
  5
4F3
330
121
100
AcDbEntity
  8
0
100
AcDbLine
 10
2.0
 20
30.18974362329027
 30
0.0
 11
8.845299461620015
 21
30.18974362329027
 31
0.0
1001
ACAD
1000
ASC_BOUNDS
1002
{
1070
    19
1002
}
  0
ARC
  5
4F4
330
121
100
AcDbEntity
  8
0
100
AcDbCircle
 10
2.0
 20
28.18974362329027
 30
0.0
 40
2.0
100
AcDbArc
 50
90.0
 51
180.0
1001
ACAD
1000
ASC_BOUNDS
1002
{
1070
    19
1002
}
  0
ARC
  5
4F5
330
121
100
AcDbEntity
  8
0
100
AcDbCircle
 10
8.845299461620015
 20
28.18974362329027
 30
0.0
 40
2.0
100
AcDbArc
 50
30.00000000003852
 51
90.0
1001
ACAD
1000
ASC_BOUNDS
1002
{
1070
    19
1002
}
  0
LINE
  5
4F6
330
121
100
AcDbEntity
  8
0
100
AcDbLine
 10
14.0
 20
2.0
 30
0.0
 11
14.72794046853232
 21
0.0
 31
0.0
1001
ACAD
1000
ASC_BOUNDS
1002
{
1070
    19
1002
}
  0
LINE
  5
4F7
330
121
100
AcDbEntity
  8
0
100
AcDbLine
 10
0.0
 20
28.18974362329027
 30
0.0
 11
0.0
 21
2.0
 31
0.0
1001
ACAD
1000
ASC_BOUNDS
1002
{
1070
    19
1002
}
  0
LINE
  5
4F8
330
121
100
AcDbEntity
  8
0
100
AcDbLine
 10
10.57735026918817
 20
29.18974362329027
 30
0.0
 11
12.88675134594814
 21
25.18974362329027
 31
0.0
1001
ACAD
1000
ASC_BOUNDS
1002
{
1070
    19
1002
}
  0
LINE
  5
4F9
330
121
100
AcDbEntity
  8
0
100
AcDbLine
 10
95.0
 20
24.18974362329027
 30
0.0
 11
14.6188021535163
 21
24.18974362329027
 31
0.0
  0
LINE
  5
4FA
330
121
100
AcDbEntity
  8
0
100
AcDbLine
 10
0.0
 20
2.0
 30
0.0
 11
168.0
 21
2.0
 31
0.0
1001
ACAD
1000
ASC_BOUNDS
1002
{
1070
    19
1002
}
  0
ARC
  5
4FB
330
121
100
AcDbEntity
  8
0
100
AcDbCircle
 10
147.8102563767097
 20
2.0
 30
0.0
 40
20.18974362329164
100
AcDbArc
 50
0.0
 51
90.0
1001
ACAD
1000
ASC_BOUNDS
1002
{
1070
    19
1002
}
  0
LINE
  5
4FC
330
121
100
AcDbEntity
  8
0
100
AcDbLine
 10
3.935120748479675
 20
-144.7777702153689
 30
0.0
 11
9.501718455663649
 21
-342.5065477876997
 31
0.0
1001
ACAD
1000
ASC_BOUNDS
1002
{
1070
    19
1002
}
  0
LINE
  5
4FD
330
121
100
AcDbEntity
  8
0
100
AcDbLine
 10
33.496966777122
 20
-360.0
 30
0.0
 11
27.49458952558053
 21
-360.0
 31
0.0
1001
ACAD
1000
ASC_BOUNDS
1002
{
1070
    19
1002
}
  0
LINE
  5
4FE
330
121
100
AcDbEntity
  8
0
100
AcDbLine
 10
0.0
 20
0.0
 30
0.0
 11
165.0
 21
0.0
 31
0.0
1001
ACAD
1000
ASC_BOUNDS
1002
{
1070
    19
1005
0
1002
}
  0
ARC
  5
4FF
330
121
100
AcDbEntity
  8
0
100
AcDbCircle
 10
27.49458952558053
 20
-342.0
 30
0.0
 40
18.0
100
AcDbArc
 50
181.6126045836877
 51
270.0
1001
ACAD
1000
ASC_BOUNDS
1002
{
1070
    19
1002
}
  0
LINE
  5
500
330
121
100
AcDbEntity
  8
0
100
AcDbLine
 10
0.0
 20
0.0
 30
0.0
 11
3.920488364918128
 21
-145.319357842025
 31
0.0
1001
ACAD
1000
ASC_BOUNDS
1002
{
1070
    19
1002
}
  0
LINE
  5
501
330
121
100
AcDbEntity
  8
0
100
AcDbLine
 10
126.5
 20
-360.0
 30
0.0
 11
63.5
 21
-360.0
 31
0.0
  0
LINE
  5
502
330
121
100
AcDbEntity
  8
0
100
AcDbLine
 10
63.5
 20
-360.0
 30
0.0
 11
33.496966777122
 21
-360.0
 31
0.0
1001
ACAD
1000
ASC_BOUNDS
1002
{
1070
    19
1002
}
  0
ARC
  5
503
330
121
100
AcDbEntity
  8
0
100
AcDbCircle
 10
157.0
 20
-352.0
 30
0.0
 40
8.0
100
AcDbArc
 50
270.0
 51
0.0
1001
ACAD
1000
ASC_BOUNDS
1002
{
1070
    19
1002
}
  0
LINE
  5
504
330
121
100
AcDbEntity
  8
0
100
AcDbLine
 10
157.0
 20
-360.0
 30
0.0
 11
126.5
 21
-360.0
 31
0.0
1001
ACAD
1000
ASC_BOUNDS
1002
{
1070
    19
1002
}
  0
LINE
  5
505
330
121
100
AcDbEntity
  8
0
100
AcDbLine
 10
165.0
 20
-352.0
 30
0.0
 11
165.0
 21
0.0
 31
0.0
1001
ACAD
1000
ASC_BOUNDS
1002
{
1070
    19
1002
}
  0
ARC
  5
506
330
121
100
AcDbEntity
  8
0
100
AcDbCircle
 10
33.0
 20
-387.0
 30
0.0
 40
8.0
100
AcDbArc
 50
180.0
 51
266.3255106134537
1001
ACAD
1000
ASC_BOUNDS
1002
{
1070
    19
1002
}
  0
ARC
  5
507
330
121
100
AcDbEntity
  8
0
100
AcDbCircle
 10
104.0567196758857
 20
-360.1224782501522
 30
0.0
 40
75.0
100
AcDbArc
 50
211.83908985282
 51
257.758659170943
1001
ACAD
1000
ASC_BOUNDS
1002
{
1070
    19
1002
}
  0
ARC
  5
508
330
121
100
AcDbEntity
  8
0
100
AcDbCircle
 10
31.84641625685618
 20
-404.9629965358653
 30
0.0
 40
10.0
100
AcDbArc
 50
31.83908985282001
 51
86.32551061345363
1001
ACAD
1000
ASC_BOUNDS
1002
{
1070
    19
1002
}
  0
ARC
  5
509
330
121
100
AcDbEntity
  8
0
100
AcDbCircle
 10
77.5529722036772
 20
-482.2803734920436
 30
0.0
 40
50.0
100
AcDbArc
 50
55.05985285987214
 51
77.75865917094299
1001
ACAD
1000
ASC_BOUNDS
1002
{
1070
    19
1002
}
  0
ARC
  5
50A
330
121
100
AcDbEntity
  8
0
100
AcDbCircle
 10
228.1435361286458
 20
-401.5281320729481
 30
0.0
 40
5.0
100
AcDbArc
 50
269.0000000000243
 51
348.0388397107853
1001
ACAD
1000
ASC_BOUNDS
1002
{
1070
    19
1002
}
  0
LINE
  5
50B
330
121
100
AcDbEntity
  8
0
100
AcDbLine
 10
132.9830436876764
 20
-404.867861139006
 30
0.0
 11
228.0562740964597
 21
-406.527370548727
 31
0.0
1001
ACAD
1000
ASC_BOUNDS
1002
{
1070
    19
1002
}
  0
ARC
  5
50C
330
121
100
AcDbEntity
  8
0
100
AcDbCircle
 10
132.9481388748027
 20
-406.8675565293196
 30
0.0
 40
2.0
100
AcDbArc
 50
89.0000000000243
 51
230.6163516724168
1001
ACAD
1000
ASC_BOUNDS
1002
{
1070
    19
1002
}
  0
LINE
  5
50D
330
121
100
AcDbEntity
  8
0
100
AcDbLine
 10
32.48729611415911
 20
-394.9835540159402
 30
0.0
 11
448.714559417669
 21
-404.9910843975558
 31
0.0
  0
ARC
  5
50E
330
121
100
AcDbEntity
  8
0
100
AcDbCircle
 10
438.1439210178905
 20
-280.0768761884792
 30
0.0
 40
285.8599310007276
100
AcDbArc
 50
247.986605662371
 51
280.412513761731
  0
LINE
  5
50F
330
121
100
AcDbEntity
  8
0
100
AcDbLine
 10
652.0
 20
-365.0
 30
0.0
 11
169.5000000000218
 21
-365.0
 31
0.0
1001
ACAD
1000
ASC_BOUNDS
1002
{
1070
    19
1002
}
  0
LINE
  5
510
330
121
100
AcDbEntity
  8
0
100
AcDbLine
 10
37.0
 20
-360.0
 30
0.0
 11
153.0
 21
-360.0
 31
0.0
1001
ACAD
1000
ASC_BOUNDS
1002
{
1070
    19
1002
}
  0
POLYLINE
  5
511
330
121
100
AcDbEntity
  8
0
100
AcDb2dPolyline
 66
     1
 10
0.0
 20
0.0
 30
0.0
 75
     6
1001
ACAD
1000
ASC_BOUNDS
1002
{
1070
    19
1002
}
  0
VERTEX
  5
512
330
511
100
AcDbEntity
  8
0
100
AcDbVertex
100
AcDb2dVertex
 10
160.4999999999927
 20
-360.0
 30
0.0
 42
-0.2679491924316757
  0
VERTEX
  5
513
330
511
100
AcDbEntity
  8
0
100
AcDbVertex
100
AcDb2dVertex
 10
165.0
 20
-362.5
 30
0.0
 42
0.2679491924322104
1001
ACAD
1000
ASC_BOUNDS
1002
{
1070
    19
1002
}
  0
VERTEX
  5
514
330
511
100
AcDbEntity
  8
0
100
AcDbVertex
100
AcDb2dVertex
 10
169.5000000000218
 20
-365.0
 30
0.0
 42
0.2679491924322104
1001
ACAD
1000
ASC_BOUNDS
1002
{
1070
    19
1002
}
  0
SEQEND
  5
515
330
511
100
AcDbEntity
  8
0
  0
ARC
  5
516
330
121
100
AcDbEntity
  8
0
100
AcDbCircle
 10
33.0
 20
-368.0
 30
0.0
 40
8.0
100
AcDbArc
 50
90.0
 51
180.0
1001
ACAD
1000
ASC_BOUNDS
1002
{
1070
    19
1002
}
  0
LINE
  5
517
330
121
100
AcDbEntity
  8
0
100
AcDbLine
 10
33.0
 20
-360.0
 30
0.0
 11
37.0
 21
-360.0
 31
0.0
1001
ACAD
1000
ASC_BOUNDS
1002
{
1070
    19
1002
}
  0
LINE
  5
518
330
121
100
AcDbEntity
  8
0
100
AcDbLine
 10
160.6698729810887
 20
-360.0
 30
0.0
 11
153.0
 21
-360.0
 31
0.0
1001
ACAD
1000
ASC_BOUNDS
1002
{
1070
    19
1002
}
  0
LINE
  5
519
330
121
100
AcDbEntity
  8
0
100
AcDbLine
 10
25.0
 20
-387.0
 30
0.0
 11
25.0
 21
-368.0
 31
0.0
1001
ACAD
1000
ASC_BOUNDS
1002
{
1070
    19
1002
}
  0
LINE
  5
51A
330
121
100
AcDbEntity
  8
0
100
AcDbLine
 10
525.0
 20
-745.0
 30
0.0
 11
518.6008499386989
 21
-573.1371126392878
 31
0.0
1001
ACAD
1000
ASC_BOUNDS
1002
{
1070
    19
1002
}
  0
ARC
  5
51B
330
121
100
AcDbEntity
  8
0
100
AcDbCircle
 10
543.5835382629011
 20
-572.2069061591301
 30
0.0
 40
24.99999999999996
100
AcDbArc
 50
118.1355429170338
 51
182.132368436556
1001
ACAD
1000
ASC_BOUNDS
1002
{
1070
    19
1002
}
  0
ARC
  5
51C
330
121
100
AcDbEntity
  8
0
100
AcDbCircle
 10
413.9048105252731
 20
-329.7024163607966
 30
0.0
 40
249.9999999999999
100
AcDbArc
 50
298.1355429170339
 51
349.6933950195373
1001
ACAD
1000
ASC_BOUNDS
1002
{
1070
    19
1002
}
  0
ARC
  5
51D
330
121
100
AcDbEntity
  8
0
100
AcDbCircle
 10
652.0
 20
-373.0
 30
0.0
 40
8.000000000000024
100
AcDbArc
 50
349.6933950195373
 51
90.0
1001
ACAD
1000
ASC_BOUNDS
1002
{
1070
    19
1002
}
  0
LINE
  5
51E
330
121
100
AcDbEntity
  8
0
100
AcDbLine
 10
165.0
 20
-745.0
 30
0.0
 11
525.0
 21
-745.0
 31
0.0
  0
LINE
  5
51F
330
121
100
AcDbEntity
  8
0
100
AcDbLine
 10
233.0349777053088
 20
-402.5643749508817
 30
0.0
 11
233.6164977973567
 21
-399.8193895652512
 31
0.0
1001
ACAD
1000
ASC_BOUNDS
1002
{
1070
    19
1002
}
  0
LINE
  5
520
330
121
100
AcDbEntity
  8
0
100
AcDbLine
 10
120.0
 20
-514.0
 30
0.0
 11
120.0
 21
-616.0
 31
0.0
1001
ACAD
1000
ASC_BOUNDS
1002
{
1070
    19
1002
}
  0
LINE
  5
521
330
121
100
AcDbEntity
  8
0
100
AcDbLine
 10
120.0
 20
-514.0
 30
0.0
 11
178.4829884364553
 21
-514.0
 31
0.0
1001
ACAD
1000
ASC_BOUNDS
1002
{
1070
    19
1002
}
  0
LINE
  5
522
330
121
100
AcDbEntity
  8
0
100
AcDbLine
 10
120.0
 20
-616.0
 30
0.0
 11
150.1485676718803
 21
-616.0
 31
0.0
  0
LINE
  5
523
330
121
100
AcDbEntity
  8
0
100
AcDbLine
 10
120.0
 20
-616.0
 30
0.0
 11
163.2729310395261
 21
-616.0
 31
0.0
1001
ACAD
1000
ASC_BOUNDS
1002
{
1070
    19
1002
}
  0
ARC
  5
524
330
121
100
AcDbEntity
  8
0
100
AcDbCircle
 10
163.2729310395261
 20
-626.0
 30
0.0
 40
10.0
100
AcDbArc
 50
352.0463427754907
 51
90.0
1001
ACAD
1000
ASC_BOUNDS
1002
{
1070
    19
1002
}
  0
ARC
  5
525
330
121
100
AcDbEntity
  8
0
100
AcDbCircle
 10
1015.0
 20
-745.0
 30
0.0
 40
850.0
100
AcDbArc
 50
172.0463427754906
 51
180.0
1001
ACAD
1000
ASC_BOUNDS
1002
{
1070
    19
1002
}
  0
LINE
  5
526
330
121
100
AcDbEntity
  8
0
100
AcDbLine
 10
184.2101925682655
 20
-495.8024922791993
 30
0.0
 11
106.1889928627206
 21
-441.2928348880377
 31
0.0
1001
ACAD
1000
ASC_BOUNDS
1002
{
1070
    19
1002
}
  0
ARC
  5
527
330
121
100
AcDbEntity
  8
0
100
AcDbCircle
 10
178.4829884364553
 20
-504.0
 30
0.0
 40
10.0
100
AcDbArc
 50
270.0
 51
55.05985285987214
1001
ACAD
1000
ASC_BOUNDS
1002
{
1070
    19
1002
}
  0
ARC
  5
528
330
121
100
AcDbEntity
  8
0
100
AcDbCircle
 10
572.9034139253744
 20
-376.480592800297
 30
0.0
 40
310.0
100
AcDbArc
 50
184.4523783558547
 51
207.6534884124195
1001
ACAD
1000
ASC_BOUNDS
1002
{
1070
    19
1002
}
  0
ARC
  5
529
330
121
100
AcDbEntity
  8
0
100
AcDbCircle
 10
256.4260876866829
 20
-423.8314320411082
 30
0.0
 40
10.0
100
AcDbArc
 50
8.509382886782015
 51
188.509382886782
1001
ACAD
1000
ASC_BOUNDS
1002
{
1070
    19
1002
}
  0
ARC
  5
52A
330
121
100
AcDbEntity
  8
0
100
AcDbCircle
 10
572.9034139253744
 20
-376.480592800297
 30
0.0
 40
330.0
100
AcDbArc
 50
188.509382886782
 51
207.6534884124195
1001
ACAD
1000
ASC_BOUNDS
1002
{
1070
    19
1002
}
  0
ARC
  5
52B
330
121
100
AcDbEntity
  8
0
100
AcDbCircle
 10
289.456795167891
 20
-525.0
 30
0.0
 40
10.0
100
AcDbArc
 50
207.6534884124195
 51
27.65348841241954
1001
ACAD
1000
ASC_BOUNDS
1002
{
1070
    19
1002
}
  0
LINE
  5
52C
330
121
100
AcDbEntity
  8
0
100
AcDbLine
 10
283.1116956026999
 20
-532.7291468809817
 30
0.0
 11
131.6791189617615
 21
-408.4133859055145
 31
0.0
1001
ACAD
1000
ASC_BOUNDS
1002
{
1070
    19
1002
}
  0
ARC
  5
52D
330
121
100
AcDbEntity
  8
0
100
AcDbCircle
 10
-6700.515838821516
 20
291.6793867076449
 30
0.0
 40
6934.86312653524
100
AcDbArc
 50
352.5550580952419
 51
353.2137147359518
  0
ARC
  5
52E
330
121
100
AcDbEntity
  8
0
100
AcDbCircle
 10
640.2029407345835
 20
-339.0000000000023
 30
0.0
 40
1.0
100
AcDbArc
 50
270.0
 51
0.0
1001
ACAD
1000
ASC_BOUNDS
1002
{
1070
    19
1002
}
  0
LINE
  5
52F
330
121
100
AcDbEntity
  8
0
100
AcDbLine
 10
555.9396832574998
 20
-342.000000000002
 30
0.0
 11
555.9396832574998
 21
-344.3725393319396
 31
0.0
  0
LINE
  5
530
330
121
100
AcDbEntity
  8
0
100
AcDbLine
 10
555.9396832574994
 20
-342.000000000002
 30
0.0
 11
556.0687225088534
 21
-340.0000000000022
 31
0.0
  0
LINE
  5
531
330
121
100
AcDbEntity
  8
0
100
AcDbLine
 10
535.9396832574998
 20
-342.000000000002
 30
0.0
 11
535.8106440061458
 21
-340.0000000000022
 31
0.0
  0
LINE
  5
532
330
121
100
AcDbEntity
  8
0
100
AcDbLine
 10
535.9396832574998
 20
-342.000000000002
 30
0.0
 11
535.9396832574998
 21
-344.3725393319396
 31
0.0
  0
ARC
  5
533
330
121
100
AcDbEntity
  8
0
100
AcDbCircle
 10
545.9396832574966
 20
-265.0000000000025
 30
0.0
 40
80.0
100
AcDbArc
 50
262.8192442185415
 51
277.1807557814585
  0
LINE
  5
534
330
121
100
AcDbEntity
  8
0
100
AcDbLine
 10
535.9396832574994
 20
-344.3725393319398
 30
0.0
 11
555.9396832574998
 21
-344.3725393319398
 31
0.0
  0
ARC
  5
535
330
121
100
AcDbEntity
  8
0
100
AcDbCircle
 10
545.939683257498
 20
-265.0000000000616
 30
0.0
 40
79.99999999994082
100
AcDbArc
 50
262.8192442185415
 51
277.1807557814585
  0
ARC
  5
536
330
121
100
AcDbEntity
  8
0
100
AcDbCircle
 10
549.0306367626199
 20
-679.8816074002417
 30
0.0
 40
359.8816074002396
100
AcDbArc
 50
76.28820863090464
 51
90.0
1001
ACAD
1000
ASC_BOUNDS
1002
{
1070
    19
1002
}
  0
ARC
  5
537
330
121
100
AcDbEntity
  8
0
100
AcDbCircle
 10
632.2029407345835
 20
-339.0000000000023
 30
0.0
 40
9.0
100
AcDbArc
 50
0.0
 51
76.28820863090464
1001
ACAD
1000
ASC_BOUNDS
1002
{
1070
    19
1002
}
  0
LINE
  5
538
330
121
100
AcDbEntity
  8
0
100
AcDbLine
 10
605.405821856405
 20
-345.0000000000025
 30
0.0
 11
639.0806902738122
 21
-345.0000000000025
 31
0.0
1001
ACAD
1000
ASC_BOUNDS
1002
{
1070
    19
1002
}
  0
LINE
  5
539
330
121
100
AcDbEntity
  8
0
100
AcDbLine
 10
651.3058393275714
 20
-358.908759364461
 30
0.0
 11
651.0306367626199
 21
-355.9051123735078
 31
0.0
1001
ACAD
1000
ASC_BOUNDS
1002
{
1070
    19
1002
}
  0
ARC
  5
53A
330
121
100
AcDbEntity
  8
0
100
AcDbCircle
 10
650.3100104535042
 20
-359.0000000000023
 30
0.0
 40
1.0
100
AcDbArc
 50
270.0
 51
5.234983955055522
1001
ACAD
1000
ASC_BOUNDS
1002
{
1070
    19
1002
}
  0
ARC
  5
53B
330
121
100
AcDbEntity
  8
0
100
AcDbCircle
 10
639.0806902738122
 20
-357.0000000000023
 30
0.0
 40
12.0
100
AcDbArc
 50
5.234983955055522
 51
90.0
1001
ACAD
1000
ASC_BOUNDS
1002
{
1070
    19
1002
}
  0
ARC
  5
53C
330
121
100
AcDbEntity
  8
0
100
AcDbCircle
 10
223.4322639976172
 20
-345.5000000000025
 30
0.0
 40
6.0
100
AcDbArc
 50
113.5564643090874
 51
178.4242238671761
1001
ACAD
1000
ASC_BOUNDS
1002
{
1070
    19
1002
}
  0
LINE
  5
53D
330
121
100
AcDbEntity
  8
0
100
AcDbLine
 10
216.4069731670734
 20
-338.5000000000025
 30
0.0
 11
216.4058218564051
 21
-340.0000000000023
 31
0.0
  0
ARC
  5
53E
330
121
100
AcDbEntity
  8
0
100
AcDbCircle
 10
221.0587635492493
 20
-337.9874012046069
 30
0.0
 40
2.0
100
AcDbArc
 50
270.0
 51
270.1347785445022
  0
LINE
  5
53F
330
121
100
AcDbEntity
  8
0
100
AcDbLine
 10
217.4345330141041
 20
-345.3350059109689
 30
0.0
 11
217.3612205775835
 21
-348.0000000000025
 31
0.0
  0
LINE
  5
540
330
121
100
AcDbEntity
  8
0
100
AcDbLine
 10
216.4069731670734
 20
-338.5000000000025
 30
0.0
 11
217.1743303311341
 21
-328.3221521277117
 31
0.0
1001
ACAD
1000
ASC_BOUNDS
1002
{
1070
    19
1002
}
  0
ARC
  5
541
330
121
100
AcDbEntity
  8
0
100
AcDbCircle
 10
226.148859155388
 20
-328.9987852503298
 30
0.0
 40
9.0
100
AcDbArc
 50
90.0
 51
175.6883514775355
1001
ACAD
1000
ASC_BOUNDS
1002
{
1070
    19
1002
}
  0
ARC
  5
542
330
121
100
AcDbEntity
  8
0
100
AcDbCircle
 10
365.4721199436845
 20
802.3792029750413
 30
0.0
 40
1150.0
100
AcDbArc
 50
263.4002265097071
 51
266.1332690721669
1001
ACAD
1000
ASC_BOUNDS
1002
{
1070
    19
1002
}
  0
LINE
  5
543
330
121
100
AcDbEntity
  8
0
100
AcDbLine
 10
293.7061500351742
 20
-364.1218693434055
 30
0.0
 11
293.2000481177452
 21
-360.0000000000022
 31
0.0
1001
ACAD
1000
ASC_BOUNDS
1002
{
1070
    19
1002
}
  0
ARC
  5
544
330
121
100
AcDbEntity
  8
0
100
AcDbCircle
 10
229.4058218564051
 20
-348.0000000000023
 30
0.0
 40
12.0
100
AcDbArc
 50
242.1818607153448
 51
270.0
  0
LINE
  5
545
330
121
100
AcDbEntity
  8
0
100
AcDbLine
 10
229.4058218564051
 20
-360.0000000000023
 30
0.0
 11
650.3100104535042
 21
-360.0000000000023
 31
0.0
  0
ARC
  5
546
330
121
100
AcDbEntity
  8
0
100
AcDbCircle
 10
229.5176993263592
 20
-347.8815422541479
 30
0.0
 40
12.15705588565699
100
AcDbArc
 50
180.558296051007
 51
241.9760550992328
  0
LINE
  5
547
330
121
100
AcDbEntity
  8
0
100
AcDbLine
 10
216.4058218564051
 20
-340.0000000000022
 30
0.0
 11
640.2029407345835
 21
-340.0000000000023
 31
0.0
  0
LINE
  5
548
330
121
100
AcDbEntity
  8
0
100
AcDbLine
 10
289.3413483710647
 20
-345.0000000000023
 30
0.0
 11
639.0806902738122
 21
-345.0000000000023
 31
0.0
  0
LINE
  5
549
330
121
100
AcDbEntity
  8
0
100
AcDbLine
 10
287.8772452395333
 20
-345.0000000000025
 30
0.0
 11
605.405821856405
 21
-345.0000000000023
 31
0.0
1001
ACAD
1000
ASC_BOUNDS
1002
{
1070
    19
1002
}
  0
LINE
  5
54A
330
121
100
AcDbEntity
  8
0
100
AcDbLine
 10
599.6000899951607
 20
-359.9987852503296
 30
0.0
 11
599.3378573477762
 21
-364.0631710032503
 31
0.0
  0
LINE
  5
54B
330
121
100
AcDbEntity
  8
0
100
AcDbLine
 10
549.178501628261
 20
-319.9987852503296
 30
0.0
 11
226.148859155388
 21
-319.9987852503298
 31
0.0
  0
CIRCLE
  5
54C
330
121
100
AcDbEntity
  8
0
100
AcDbCircle
 10
54.99999999999636
 20
-50.00000000000046
 30
0.0
 40
9.5
  0
ENDBLK
  5
123
330
121
100
AcDbEntity
  8
0
100
AcDbBlockEnd
  0
BLOCK
  5
16D
330
16C
100
AcDbEntity
  8
0
100
AcDbBlockBegin
  2
_DOT
 70
     0
 10
0.0
 20
0.0
 30
0.0
  3
_DOT
  1

  0
LWPOLYLINE
  5
16E
330
16C
100
AcDbEntity
  8
0
  6
ByBlock
 62
     0
100
AcDbPolyline
 90
        2
 70
     1
 43
0.5
 10
-0.25
 20
0.0
 42
1.0
 10
0.25
 20
0.0
 42
1.0
  0
LINE
  5
16F
330
16C
100
AcDbEntity
  8
0
  6
ByBlock
 62
     0
100
AcDbLine
 10
-0.5
 20
0.0
 30
0.0
 11
-1.0
 21
0.0
 31
0.0
  0
ENDBLK
  5
170
330
16C
100
AcDbEntity
  8
0
100
AcDbBlockEnd
  0
BLOCK
  5
210
330
20F
100
AcDbEntity
  8
0
100
AcDbBlockBegin
  2
18150_L
 70
     0
 10
0.0
 20
0.0
 30
0.0
  3
18150_L
  1

  0
ARC
  5
211
330
20F
100
AcDbEntity
  8
0
100
AcDbCircle
 10
189.9999999727951
 20
32.0
 30
0.0
 40
2.0
100
AcDbArc
 50
270.0
 51
0.0
  0
LINE
  5
212
330
20F
100
AcDbEntity
  8
0
100
AcDbLine
 10
191.9999999727951
 20
32.0
 30
0.0
 11
191.9999999727951
 21
160.0
 31
0.0
1001
ACAD
1000
ASC_BOUNDS
1002
{
1070
    19
1005
0
1005
0
1002
}
  0
LINE
  5
213
330
20F
100
AcDbEntity
  8
0
100
AcDbLine
 10
102.9999999727951
 20
30.0
 30
0.0
 11
189.9999999727951
 21
30.0
 31
0.0
1001
ACAD
1000
ASC_BOUNDS
1002
{
1070
    19
1002
}
  0
LINE
  5
214
330
20F
100
AcDbEntity
  8
0
100
AcDbLine
 10
-81.50303325008282
 20
385.0
 30
0.0
 11
-87.5054105016243
 21
385.0
 31
0.0
1001
ACAD
1000
ASC_BOUNDS
1002
{
1070
    19
1002
}
  0
ARC
  5
215
330
20F
100
AcDbEntity
  8
0
100
AcDbCircle
 10
41.99999997279156
 20
393.0
 30
0.0
 40
8.0
100
AcDbArc
 50
270.0
 51
0.0
1001
ACAD
1000
ASC_BOUNDS
1002
{
1070
    19
1002
}
  0
ARC
  5
216
330
20F
100
AcDbEntity
  8
0
100
AcDbCircle
 10
-87.5054105016243
 20
402.9999999999999
 30
0.0
 40
18.0
100
AcDbArc
 50
181.6126045836877
 51
270.0
1001
ACAD
1000
ASC_BOUNDS
1002
{
1070
    19
1002
}
  0
LINE
  5
217
330
20F
100
AcDbEntity
  8
0
100
AcDbLine
 10
49.99999997279156
 20
393.0
 30
0.0
 11
49.9999999727952
 21
745.0
 31
0.0
1001
ACAD
1000
ASC_BOUNDS
1002
{
1070
    19
1002
}
  0
LINE
  5
218
330
20F
100
AcDbEntity
  8
0
100
AcDbLine
 10
-115.0000000272084
 20
745.0
 30
0.0
 11
-111.0795116622903
 21
599.6806421579749
 31
0.0
1001
ACAD
1000
ASC_BOUNDS
1002
{
1070
    19
1002
}
  0
LINE
  5
219
330
20F
100
AcDbEntity
  8
0
100
AcDbLine
 10
-115.0000000272084
 20
745.0
 30
0.0
 11
49.9999999727952
 21
745.0
 31
0.0
1001
ACAD
1000
ASC_BOUNDS
1002
{
1070
    19
1005
0
1002
}
  0
LINE
  5
21A
330
20F
100
AcDbEntity
  8
0
100
AcDbLine
 10
-111.0648792787288
 20
600.222229784631
 30
0.0
 11
-105.4982815715448
 21
402.4934522123002
 31
0.0
1001
ACAD
1000
ASC_BOUNDS
1002
{
1070
    19
1002
}
  0
ARC
  5
21B
330
20F
100
AcDbEntity
  8
0
100
AcDbCircle
 10
32.81025634950129
 20
747.0
 30
0.0
 40
20.18974362329164
100
AcDbArc
 50
0.0
 51
90.0
1001
ACAD
1000
ASC_BOUNDS
1002
{
1070
    19
1002
}
  0
LINE
  5
21C
330
20F
100
AcDbEntity
  8
0
100
AcDbLine
 10
-115.0000000272084
 20
747.0
 30
0.0
 11
52.99999997279155
 21
747.0
 31
0.0
1001
ACAD
1000
ASC_BOUNDS
1002
{
1070
    19
1002
}
  0
LINE
  5
21D
330
20F
100
AcDbEntity
  8
0
100
AcDbLine
 10
-20.00000002720844
 20
769.1897436232903
 30
0.0
 11
-100.3811978736885
 21
769.1897436232903
 31
0.0
  0
LINE
  5
21E
330
20F
100
AcDbEntity
  8
0
100
AcDbLine
 10
-104.4226497580166
 20
774.1897436232902
 30
0.0
 11
-102.1132486812567
 21
770.1897436232902
 31
0.0
1001
ACAD
1000
ASC_BOUNDS
1002
{
1070
    19
1002
}
  0
LINE
  5
21F
330
20F
100
AcDbEntity
  8
0
100
AcDbLine
 10
-115.0000000272084
 20
773.1897436232903
 30
0.0
 11
-115.0000000272084
 21
747.0
 31
0.0
1001
ACAD
1000
ASC_BOUNDS
1002
{
1070
    19
1002
}
  0
LINE
  5
220
330
20F
100
AcDbEntity
  8
0
100
AcDbLine
 10
-101.0000000272084
 20
747.0
 30
0.0
 11
-100.2720595586725
 21
745.0
 31
0.0
1001
ACAD
1000
ASC_BOUNDS
1002
{
1070
    19
1002
}
  0
ARC
  5
221
330
20F
100
AcDbEntity
  8
0
100
AcDbCircle
 10
-106.1547005655848
 20
773.1897436232903
 30
0.0
 40
2.0
100
AcDbArc
 50
30.00000000003548
 51
90.0
1001
ACAD
1000
ASC_BOUNDS
1002
{
1070
    19
1002
}
  0
ARC
  5
222
330
20F
100
AcDbEntity
  8
0
100
AcDbCircle
 10
-113.0000000272084
 20
773.1897436232903
 30
0.0
 40
2.0
100
AcDbArc
 50
90.0
 51
180.0
1001
ACAD
1000
ASC_BOUNDS
1002
{
1070
    19
1002
}
  0
LINE
  5
223
330
20F
100
AcDbEntity
  8
0
100
AcDbLine
 10
-113.0000000272084
 20
775.1897436232902
 30
0.0
 11
-106.1547005655848
 21
775.1897436232902
 31
0.0
1001
ACAD
1000
ASC_BOUNDS
1002
{
1070
    19
1002
}
  0
ARC
  5
224
330
20F
100
AcDbEntity
  8
0
100
AcDbCircle
 10
-20.00000002720844
 20
50.76920535658246
 30
0.0
 40
718.4205382667082
100
AcDbArc
 50
85.66232660677956
 51
90.0
  0
LINE
  5
225
330
20F
100
AcDbEntity
  8
0
100
AcDbLine
 10
38.99999997279156
 20
747.0
 30
0.0
 11
38.27205950425923
 21
745.0
 31
0.0
1001
ACAD
1000
ASC_BOUNDS
1002
{
1070
    19
1002
}
  0
ARC
  5
226
330
20F
100
AcDbEntity
  8
0
100
AcDbCircle
 10
-100.3811978736885
 20
771.1897436232902
 30
0.0
 40
2.0
100
AcDbArc
 50
210.0000000000355
 51
270.0
  0
LINE
  5
227
330
20F
100
AcDbEntity
  8
0
100
AcDbLine
 10
-82.51270391304935
 20
350.0164459840598
 30
0.0
 11
333.7145593904606
 21
340.0089156024441
 31
0.0
  0
ARC
  5
228
330
20F
100
AcDbEntity
  8
0
100
AcDbCircle
 10
323.1439209906821
 20
464.9231238115206
 30
0.0
 40
285.8599310007276
100
AcDbArc
 50
247.9866056623717
 51
280.4125137617307
  0
LINE
  5
229
330
20F
100
AcDbEntity
  8
0
100
AcDbLine
 10
514.2353755447291
 20
379.9999999999999
 30
0.0
 11
536.999999972795
 21
379.9999999999999
 31
0.0
1001
ACAD
1000
ASC_BOUNDS
1002
{
1070
    19
1002
}
  0
LINE
  5
22A
330
20F
100
AcDbEntity
  8
0
100
AcDbLine
 10
168.0457060702647
 20
379.9999999999999
 30
0.0
 11
54.49999997281338
 21
379.9999999999999
 31
0.0
1001
ACAD
1000
ASC_BOUNDS
1002
{
1070
    19
1002
}
  0
LINE
  5
22B
330
20F
100
AcDbEntity
  8
0
100
AcDbLine
 10
168.0457060702647
 20
379.9999999999999
 30
0.0
 11
514.2353755447291
 21
379.9999999999999
 31
0.0
1001
ACAD
1000
ASC_BOUNDS
1002
{
1070
    19
1002
}
  0
LINE
  5
22C
330
20F
100
AcDbEntity
  8
0
100
AcDbLine
 10
-78.00000002720482
 20
385.0
 30
0.0
 11
37.99999997279156
 21
385.0
 31
0.0
1001
ACAD
1000
ASC_BOUNDS
1002
{
1070
    19
1002
}
  0
POLYLINE
  5
22D
330
20F
100
AcDbEntity
  8
0
100
AcDb2dPolyline
 66
     1
 10
0.0
 20
0.0
 30
0.0
 75
     6
1001
ACAD
1000
ASC_BOUNDS
1002
{
1070
    19
1002
}
  0
VERTEX
  5
22E
330
22D
100
AcDbEntity
  8
0
100
AcDbVertex
100
AcDb2dVertex
 10
45.49999997278428
 20
385.0
 30
0.0
 42
-0.2679491924316757
  0
VERTEX
  5
22F
330
22D
100
AcDbEntity
  8
0
100
AcDbVertex
100
AcDb2dVertex
 10
49.9999999727952
 20
382.4999999999999
 30
0.0
 42
0.2679491924322104
1001
ACAD
1000
ASC_BOUNDS
1002
{
1070
    19
1002
}
  0
VERTEX
  5
230
330
22D
100
AcDbEntity
  8
0
100
AcDbVertex
100
AcDb2dVertex
 10
54.49999997281338
 20
379.9999999999999
 30
0.0
 42
0.2679491924322104
1001
ACAD
1000
ASC_BOUNDS
1002
{
1070
    19
1002
}
  0
SEQEND
  5
231
330
22D
100
AcDbEntity
  8
0
  0
ARC
  5
232
330
20F
100
AcDbEntity
  8
0
100
AcDbCircle
 10
-82.00000002720482
 20
377.0
 30
0.0
 40
8.0
100
AcDbArc
 50
90.0
 51
180.0
1001
ACAD
1000
ASC_BOUNDS
1002
{
1070
    19
1002
}
  0
LINE
  5
233
330
20F
100
AcDbEntity
  8
0
100
AcDbLine
 10
-82.00000002720482
 20
385.0
 30
0.0
 11
-78.00000002720482
 21
385.0
 31
0.0
1001
ACAD
1000
ASC_BOUNDS
1002
{
1070
    19
1002
}
  0
LINE
  5
234
330
20F
100
AcDbEntity
  8
0
100
AcDbLine
 10
45.66987295388389
 20
385.0
 30
0.0
 11
37.99999997279519
 21
385.0
 31
0.0
1001
ACAD
1000
ASC_BOUNDS
1002
{
1070
    19
1002
}
  0
LINE
  5
235
330
20F
100
AcDbEntity
  8
0
100
AcDbLine
 10
-90.00000002720481
 20
358.0
 30
0.0
 11
-90.00000002720481
 21
377.0
 31
0.0
1001
ACAD
1000
ASC_BOUNDS
1002
{
1070
    19
1002
}
  0
LINE
  5
236
330
20F
100
AcDbEntity
  8
0
100
AcDbLine
 10
409.9999999727951
 20
0.0
 30
0.0
 11
403.6008499114904
 21
171.8628873607122
 31
0.0
1001
ACAD
1000
ASC_BOUNDS
1002
{
1070
    19
1002
}
  0
ARC
  5
237
330
20F
100
AcDbEntity
  8
0
100
AcDbCircle
 10
428.5835382356926
 20
172.7930938408699
 30
0.0
 40
24.99999999999996
100
AcDbArc
 50
118.1355429170353
 51
182.132368436556
1001
ACAD
1000
ASC_BOUNDS
1002
{
1070
    19
1002
}
  0
ARC
  5
238
330
20F
100
AcDbEntity
  8
0
100
AcDbCircle
 10
298.9048104980648
 20
415.2975836392033
 30
0.0
 40
249.9999999999999
100
AcDbArc
 50
298.1355429170354
 51
349.6933950195356
1001
ACAD
1000
ASC_BOUNDS
1002
{
1070
    19
1002
}
  0
ARC
  5
239
330
20F
100
AcDbEntity
  8
0
100
AcDbCircle
 10
536.999999972795
 20
371.9999999999999
 30
0.0
 40
8.000000000000024
100
AcDbArc
 50
349.6933950195356
 51
94.23873685813498
1001
ACAD
1000
ASC_BOUNDS
1002
{
1070
    19
1002
}
  0
ARC
  5
23A
330
20F
100
AcDbEntity
  8
0
100
AcDbCircle
 10
-82.00000002720482
 20
358.0
 30
0.0
 40
8.0
100
AcDbArc
 50
180.0
 51
266.3255106135582
1001
ACAD
1000
ASC_BOUNDS
1002
{
1070
    19
1002
}
  0
LINE
  5
23B
330
20F
100
AcDbEntity
  8
0
100
AcDbLine
 10
0.0
 20
0.0
 30
0.0
 11
409.9999999727951
 21
0.0
 31
0.0
  0
ARC
  5
23C
330
20F
100
AcDbEntity
  8
0
100
AcDbCircle
 10
309.9999999727952
 20
-0.0041070554580074
 30
0.0
 40
310.0
100
AcDbArc
 50
159.0708156426127
 51
179.9992409130832
1001
ACAD
1000
ASC_BOUNDS
1002
{
1070
    19
1002
}
  0
ARC
  5
23D
330
20F
100
AcDbEntity
  8
0
100
AcDbCircle
 10
-157.0113220052007
 20
178.6027941112224
 30
0.0
 40
190.0
100
AcDbArc
 50
339.0708156426127
 51
38.20561137486404
1001
ACAD
1000
ASC_BOUNDS
1002
{
1070
    19
1002
}
  0
LINE
  5
23E
330
20F
100
AcDbEntity
  8
0
100
AcDbLine
 10
118.5478593377738
 20
344.856612182004
 30
0.0
 11
118.6164977701519
 21
345.1806104347524
 31
0.0
1001
ACAD
1000
ASC_BOUNDS
1002
{
1070
    19
1002
}
  0
ARC
  5
23F
330
20F
100
AcDbEntity
  8
0
100
AcDbCircle
 10
-83.15358377034865
 20
340.0370034641345
 30
0.0
 40
10.0
100
AcDbArc
 50
31.8390898528932
 51
86.32551061355817
1001
ACAD
1000
ASC_BOUNDS
1002
{
1070
    19
1002
}
  0
ARC
  5
240
330
20F
100
AcDbEntity
  8
0
100
AcDbCircle
 10
-10.94328035131912
 20
384.8775217498478
 30
0.0
 40
75.0
100
AcDbArc
 50
211.8390898528932
 51
253.2346708785855
1001
ACAD
1000
ASC_BOUNDS
1002
{
1070
    19
1002
}
  0
ARC
  5
241
330
20F
100
AcDbEntity
  8
0
100
AcDbCircle
 10
-46.99983659434292
 20
265.1907440678769
 30
0.0
 40
50.0
100
AcDbArc
 50
38.20561137486404
 51
73.23467087858547
1001
ACAD
1000
ASC_BOUNDS
1002
{
1070
    19
1002
}
  0
LINE
  5
242
330
20F
100
AcDbEntity
  8
0
100
AcDbLine
 10
22.85505391320839
 20
340.0470976057003
 30
0.0
 11
110.5819335636151
 21
338.515819225453
 31
0.0
1001
ACAD
1000
ASC_BOUNDS
1002
{
1070
    19
1002
}
  0
ARC
  5
243
330
20F
100
AcDbEntity
  8
0
100
AcDbCircle
 10
110.72155281511
 20
346.5146007867042
 30
0.0
 40
8.0
100
AcDbArc
 50
269.0000000000243
 51
348.0388397107782
1001
ACAD
1000
ASC_BOUNDS
1002
{
1070
    19
1002
}
  0
ARC
  5
244
330
20F
100
AcDbEntity
  8
0
100
AcDbCircle
 10
-157.0113220052007
 20
178.6027941112224
 30
0.0
 40
225.0
100
AcDbArc
 50
30.18509548609263
 51
40.12447528212501
1001
ACAD
1000
ASC_BOUNDS
1002
{
1070
    19
1002
}
  0
ARC
  5
245
330
20F
100
AcDbEntity
  8
0
100
AcDbCircle
 10
63.41211229794499
 20
306.8155454661682
 30
0.0
 40
30.0
100
AcDbArc
 50
210.1850954860926
 51
240.1387212054015
1001
ACAD
1000
ASC_BOUNDS
1002
{
1070
    19
1002
}
  0
ARC
  5
246
330
20F
100
AcDbEntity
  8
0
100
AcDbCircle
 10
22.68052984883616
 20
330.0486206541354
 30
0.0
 40
10.0
100
AcDbArc
 50
89.0000000000243
 51
220.124475282125
1001
ACAD
1000
ASC_BOUNDS
1002
{
1070
    19
1002
}
  0
ARC
  5
247
330
20F
100
AcDbEntity
  8
0
100
AcDbCircle
 10
457.903413898166
 20
368.5194071997029
 30
0.0
 40
310.0
100
AcDbArc
 50
184.4523783558514
 51
207.6534884124167
1001
ACAD
1000
ASC_BOUNDS
1002
{
1070
    19
1002
}
  0
ARC
  5
248
330
20F
100
AcDbEntity
  8
0
100
AcDbCircle
 10
457.903413898166
 20
368.5194071997029
 30
0.0
 40
330.0
100
AcDbArc
 50
188.5093828867785
 51
207.6534884124167
  0
ARC
  5
249
330
20F
100
AcDbEntity
  8
0
100
AcDbCircle
 10
141.4260876594744
 20
321.1685679588918
 30
0.0
 40
10.0
100
AcDbArc
 50
8.509382886778553
 51
188.5093828867785
  0
ARC
  5
24A
330
20F
100
AcDbEntity
  8
0
100
AcDbCircle
 10
174.4567951406861
 20
220.0
 30
0.0
 40
10.0
100
AcDbArc
 50
207.6534884124167
 51
27.65348841241665
1001
ACAD
1000
ASC_BOUNDS
1002
{
1070
    19
1002
}
  0
LINE
  5
24B
330
20F
100
AcDbEntity
  8
0
100
AcDbLine
 10
169.4777774778667
 20
211.3276656479738
 30
0.0
 11
48.47505930949046
 21
280.7985424100916
 31
0.0
1001
ACAD
1000
ASC_BOUNDS
1002
{
1070
    19
1002
}
  0
ARC
  5
24C
330
20F
100
AcDbEntity
  8
0
100
AcDbCircle
 10
525.2029407073784
 20
405.9999999999976
 30
0.0
 40
1.0
100
AcDbArc
 50
270.0
 51
0.0
1001
ACAD
1000
ASC_BOUNDS
1002
{
1070
    19
1002
}
  0
LINE
  5
24D
330
20F
100
AcDbEntity
  8
0
100
AcDbLine
 10
440.9396832302947
 20
402.9999999999978
 30
0.0
 11
440.9396832302947
 21
400.6274606680603
 31
0.0
  0
LINE
  5
24E
330
20F
100
AcDbEntity
  8
0
100
AcDbLine
 10
440.9396832302943
 20
402.9999999999978
 30
0.0
 11
441.5797545894167
 21
412.9205683914935
 31
0.0
  0
ARC
  5
24F
330
20F
100
AcDbEntity
  8
0
100
AcDbCircle
 10
442.5776796741904
 20
412.8561826385702
 30
0.0
 40
1.0
100
AcDbArc
 50
99.69992962541219
 51
176.3084145010453
  0
LINE
  5
250
330
20F
100
AcDbEntity
  8
0
100
AcDbLine
 10
420.9396832302947
 20
402.9999999999978
 30
0.0
 11
420.2996118711722
 21
412.9205683914935
 31
0.0
  0
ARC
  5
251
330
20F
100
AcDbEntity
  8
0
100
AcDbCircle
 10
419.3016867863986
 20
412.8561826385702
 30
0.0
 40
1.0
100
AcDbArc
 50
3.691585498954691
 51
80.30007037458782
  0
LINE
  5
252
330
20F
100
AcDbEntity
  8
0
100
AcDbLine
 10
420.9396832302947
 20
402.9999999999978
 30
0.0
 11
420.9396832302947
 21
400.6274606680603
 31
0.0
  0
ARC
  5
253
330
20F
100
AcDbEntity
  8
0
100
AcDbCircle
 10
430.9396832302915
 20
479.9999999999974
 30
0.0
 40
80.0
100
AcDbArc
 50
262.8192442185417
 51
277.1807557814583
  0
LINE
  5
254
330
20F
100
AcDbEntity
  8
0
100
AcDbLine
 10
420.9396832302942
 20
400.6274606680601
 30
0.0
 11
440.9396832302947
 21
400.6274606680601
 31
0.0
  0
ARC
  5
255
330
20F
100
AcDbEntity
  8
0
100
AcDbCircle
 10
430.9396832302929
 20
479.9999999999383
 30
0.0
 40
79.99999999994082
100
AcDbArc
 50
262.8192442185417
 51
277.1807557814583
  0
ARC
  5
256
330
20F
100
AcDbEntity
  8
0
100
AcDbCircle
 10
434.0306367354147
 20
65.11839259975812
 30
0.0
 40
359.8816074002396
100
AcDbArc
 50
76.28820863090424
 51
90.0
1001
ACAD
1000
ASC_BOUNDS
1002
{
1070
    19
1002
}
  0
ARC
  5
257
330
20F
100
AcDbEntity
  8
0
100
AcDbCircle
 10
517.2029407073785
 20
405.9999999999976
 30
0.0
 40
9.0
100
AcDbArc
 50
0.0
 51
76.28820863090424
1001
ACAD
1000
ASC_BOUNDS
1002
{
1070
    19
1002
}
  0
LINE
  5
258
330
20F
100
AcDbEntity
  8
0
100
AcDbLine
 10
490.4058218291999
 20
399.9999999999975
 30
0.0
 11
524.0806902466072
 21
399.9999999999975
 31
0.0
1001
ACAD
1000
ASC_BOUNDS
1002
{
1070
    19
1002
}
  0
LINE
  5
259
330
20F
100
AcDbEntity
  8
0
100
AcDbLine
 10
441.0687224816481
 20
404.9999999999976
 30
0.0
 11
525.2029407073784
 21
404.9999999999976
 31
0.0
1001
ACAD
1000
ASC_BOUNDS
1002
{
1070
    19
1002
}
  0
LINE
  5
25A
330
20F
100
AcDbEntity
  8
0
100
AcDbLine
 10
536.3058393003663
 20
386.0912406355389
 30
0.0
 11
536.0306367354148
 21
389.0948876264922
 31
0.0
1001
ACAD
1000
ASC_BOUNDS
1002
{
1070
    19
1002
}
  0
ARC
  5
25B
330
20F
100
AcDbEntity
  8
0
100
AcDbCircle
 10
535.3100104262991
 20
385.9999999999977
 30
0.0
 40
1.0
100
AcDbArc
 50
270.0
 51
5.234983955055522
1001
ACAD
1000
ASC_BOUNDS
1002
{
1070
    19
1002
}
  0
LINE
  5
25C
330
20F
100
AcDbEntity
  8
0
100
AcDbLine
 10
484.1899924549299
 20
380.9356142470769
 30
0.0
 11
484.4813041150571
 21
385.4507002704604
 31
0.0
1001
ACAD
1000
ASC_BOUNDS
1002
{
1070
    19
1005
0
1005
0
1002
}
  0
ARC
  5
25D
330
20F
100
AcDbEntity
  8
0
100
AcDbCircle
 10
483.1920673701563
 20
381.0
 30
0.0
 40
1.0
100
AcDbArc
 50
270.0
 51
356.3084145010584
1001
ACAD
1000
ASC_BOUNDS
1002
{
1070
    19
1005
0
1005
0
1002
}
  0
LINE
  5
25E
330
20F
100
AcDbEntity
  8
0
100
AcDbLine
 10
484.4522251023142
 20
384.9999999999977
 30
0.0
 11
535.3100104262991
 21
384.9999999999977
 31
0.0
1001
ACAD
1000
ASC_BOUNDS
1002
{
1070
    19
1002
}
  0
ARC
  5
25F
330
20F
100
AcDbEntity
  8
0
100
AcDbCircle
 10
524.0806902466072
 20
387.9999999999977
 30
0.0
 40
12.0
100
AcDbArc
 50
5.234983955055522
 51
90.0
1001
ACAD
1000
ASC_BOUNDS
1002
{
1070
    19
1002
}
  0
ARC
  5
260
330
20F
100
AcDbEntity
  8
0
100
AcDbCircle
 10
131.8161616436497
 20
697.5204928919701
 30
0.0
 40
292.5207806986128
100
AcDbArc
 50
267.8554643813525
 51
269.9196270870494
  0
ARC
  5
261
330
20F
100
AcDbEntity
  8
0
100
AcDbCircle
 10
111.4058218291999
 20
361.0020223379981
 30
0.0
 40
44.5
100
AcDbArc
 50
83.31433879264926
 51
90.0
1001
ACAD
1000
ASC_BOUNDS
1002
{
1070
    19
1002
}
  0
LINE
  5
262
330
20F
100
AcDbEntity
  8
0
100
AcDbLine
 10
120.5411300216644
 20
399.2172539367047
 30
0.0
 11
120.3922842653198
 21
396.5065500185355
 31
0.0
  0
ARC
  5
263
330
20F
100
AcDbEntity
  8
0
100
AcDbCircle
 10
108.4322639704121
 20
399.4999999999974
 30
0.0
 40
6.0
100
AcDbArc
 50
90.0
 51
178.4242238671761
1001
ACAD
1000
ASC_BOUNDS
1002
{
1070
    19
1002
}
  0
LINE
  5
264
330
20F
100
AcDbEntity
  8
0
100
AcDbLine
 10
101.4069731398683
 20
406.4999999999974
 30
0.0
 11
101.4058218291999
 21
404.9999999999976
 31
0.0
  0
ARC
  5
265
330
20F
100
AcDbEntity
  8
0
100
AcDbCircle
 10
106.0587635220442
 20
407.0125987953931
 30
0.0
 40
2.0
100
AcDbArc
 50
270.0
 51
270.1347785445022
  0
LINE
  5
266
330
20F
100
AcDbEntity
  8
0
100
AcDbLine
 10
101.4058218291999
 20
404.9999999999976
 30
0.0
 11
102.4670948920144
 21
395.9515913285158
 31
0.0
  0
LINE
  5
267
330
20F
100
AcDbEntity
  8
0
100
AcDbLine
 10
102.434532986899
 20
399.6649940890311
 30
0.0
 11
102.3612205503784
 21
396.9999999999974
 31
0.0
  0
ARC
  5
268
330
20F
100
AcDbEntity
  8
0
100
AcDbCircle
 10
131.8161616436497
 20
697.5204928919701
 30
0.0
 40
292.5207806986128
100
AcDbArc
 50
264.0342458986717
 51
264.7297460690354
1001
ACAD
1000
ASC_BOUNDS
1002
{
1070
    19
1002
}
  0
LINE
  5
269
330
20F
100
AcDbEntity
  8
0
100
AcDbLine
 10
101.4069731398683
 20
406.4999999999974
 30
0.0
 11
102.174330303929
 21
416.6778478722882
 31
0.0
1001
ACAD
1000
ASC_BOUNDS
1002
{
1070
    19
1002
}
  0
LINE
  5
26A
330
20F
100
AcDbEntity
  8
0
100
AcDbLine
 10
102.7761251321096
 20
401.5020223379982
 30
0.0
 11
111.4058218291999
 21
401.502022337998
 31
0.0
1001
ACAD
1000
ASC_BOUNDS
1002
{
1070
    19
1002
}
  0
LINE
  5
26B
330
20F
100
AcDbEntity
  8
0
100
AcDbLine
 10
108.4322639704121
 20
405.4999999999974
 30
0.0
 11
111.4058218291999
 21
405.4999999999974
 31
0.0
1001
ACAD
1000
ASC_BOUNDS
1002
{
1070
    19
1002
}
  0
ARC
  5
26C
330
20F
100
AcDbEntity
  8
0
100
AcDbCircle
 10
111.1488591281829
 20
416.0012147496702
 30
0.0
 40
9.0
100
AcDbArc
 50
90.0
 51
175.6883514775356
1001
ACAD
1000
ASC_BOUNDS
1002
{
1070
    19
1002
}
  0
ARC
  5
26D
330
20F
100
AcDbEntity
  8
0
100
AcDbCircle
 10
121.5396258479001
 20
399.1624261609867
 30
0.0
 40
1.0
100
AcDbArc
 50
74.93936450491455
 51
176.8570238324249
  0
ARC
  5
26E
330
20F
100
AcDbEntity
  8
0
100
AcDbCircle
 10
111.4058218291999
 20
361.5020223379981
 30
0.0
 40
40.0
100
AcDbArc
 50
66.82093297999156
 51
90.0
1001
ACAD
1000
ASC_BOUNDS
1002
{
1070
    19
1002
}
  0
ARC
  5
26F
330
20F
100
AcDbEntity
  8
0
100
AcDbCircle
 10
131.8161616436497
 20
697.5204928919701
 30
0.0
 40
292.5207806986128
100
AcDbArc
 50
264.7297460690354
 51
267.8554643813525
  0
ARC
  5
270
330
20F
100
AcDbEntity
  8
0
100
AcDbCircle
 10
250.4721199164793
 20
1547.379202975041
 30
0.0
 40
1150.0
100
AcDbArc
 50
263.3143387926493
 51
266.133269072167
1001
ACAD
1000
ASC_BOUNDS
1002
{
1070
    19
1002
}
  0
LINE
  5
271
330
20F
100
AcDbEntity
  8
0
100
AcDbLine
 10
178.7061500079691
 20
380.8781306565945
 30
0.0
 11
178.1856277042759
 21
385.117444621359
 31
0.0
1001
ACAD
1000
ASC_BOUNDS
1002
{
1070
    19
1002
}
  0
ARC
  5
272
330
20F
100
AcDbEntity
  8
0
100
AcDbCircle
 10
179.6986961596105
 20
380.9999999999997
 30
0.0
 40
1.0
100
AcDbArc
 50
187.000000000006
 51
270.0
1001
ACAD
1000
ASC_BOUNDS
1002
{
1070
    19
1002
}
  0
ARC
  5
273
330
20F
100
AcDbEntity
  8
0
100
AcDbCircle
 10
250.4721199164793
 20
1547.379202975041
 30
0.0
 40
1158.0
100
AcDbArc
 50
264.6327357776938
 51
266.0546353379999
1001
ACAD
1000
ASC_BOUNDS
1002
{
1070
    19
1002
}
  0
ARC
  5
274
330
20F
100
AcDbEntity
  8
0
 48
0.75
100
AcDbCircle
 10
114.4058218291999
 20
396.9999999999977
 30
0.0
 40
12.0
100
AcDbArc
 50
242.181860715344
 51
270.0
  0
ARC
  5
275
330
20F
100
AcDbEntity
  8
0
100
AcDbCircle
 10
170.2452584911454
 20
384.1424898741179
 30
0.0
 40
8.0
100
AcDbArc
 50
6.999999999992874
 51
86.05463533799991
1001
ACAD
1000
ASC_BOUNDS
1002
{
1070
    19
1002
}
  0
LINE
  5
276
330
20F
100
AcDbEntity
  8
0
100
AcDbLine
 10
114.4058218291999
 20
384.9999999999977
 30
0.0
 11
178.20004809054
 21
384.9999999999977
 31
0.0
  0
ARC
  5
277
330
20F
100
AcDbEntity
  8
0
100
AcDbCircle
 10
146.8303688258681
 20
444.2371507302404
 30
0.0
 40
50.0
100
AcDbArc
 50
246.8209329799916
 51
264.6327357776938
1001
ACAD
1000
ASC_BOUNDS
1002
{
1070
    19
1002
}
  0
ARC
  5
278
330
20F
100
AcDbEntity
  8
0
100
AcDbCircle
 10
114.4058218291999
 20
396.9999999999977
 30
0.0
 40
12.0
100
AcDbArc
 50
180.0
 51
242.181860715344
  0
ARC
  5
279
330
20F
100
AcDbEntity
  8
0
100
AcDbCircle
 10
111.4058218291999
 20
396.9999999999974
 30
0.0
 40
9.0
100
AcDbArc
 50
185.692397280442
 51
356.8570238324249
  0
LINE
  5
27A
330
20F
100
AcDbEntity
  8
0
100
AcDbLine
 10
131.4058218293418
 20
404.9999999999976
 30
0.0
 11
420.8106439789404
 21
404.9999999999976
 31
0.0
  0
LINE
  5
27B
330
20F
100
AcDbEntity
  8
0
100
AcDbLine
 10
111.0009942625417
 20
424.9999999999974
 30
0.0
 11
434.0306367354147
 21
424.9999999999976
 31
0.0
1001
ACAD
1000
ASC_BOUNDS
1002
{
1070
    19
1005
0
1005
0
1002
}
  0
LINE
  5
27C
330
20F
100
AcDbEntity
  8
0
100
AcDbLine
 10
179.6986961596105
 20
379.9999999999999
 30
0.0
 11
483.1920673701563
 21
379.9999999999999
 31
0.0
1001
ACAD
1000
ASC_BOUNDS
1002
{
1070
    19
1002
}
  0
LINE
  5
27D
330
20F
100
AcDbEntity
  8
0
100
AcDbLine
 10
174.3413483438596
 20
399.9999999999977
 30
0.0
 11
524.0806902466072
 21
399.9999999999977
 31
0.0
  0
LINE
  5
27E
330
20F
100
AcDbEntity
  8
0
100
AcDbLine
 10
172.8772452123282
 20
399.9999999999975
 30
0.0
 11
490.4058218291999
 21
399.9999999999977
 31
0.0
1001
ACAD
1000
ASC_BOUNDS
1002
{
1070
    19
1002
}
  0
ENDBLK
  5
27F
330
20F
100
AcDbEntity
  8
0
100
AcDbBlockEnd
  0
ENDSEC
  0
SECTION
  2
ENTITIES
  0
MTEXT
  5
E1
330
1F
100
AcDbEntity
  8
0
100
AcDbMText
 10
427.7908736081053
 20
125.1991071663054
 30
0.0
 40
20.0
 41
1133.185185185185
 71
     1
 72
     5
  1
{\fTimes New Roman|b0|i0|c0|p18;\C0;INODORO DE TANQUE BAJO CON SALIDA HORIZONTAL\PSERIE ELIA}
 73
     1
 44
1.0
  0
INSERT
  5
54D
330
1F
100
AcDbEntity
  8
0
100
AcDbBlockReference
  2
18180_L
 10
465.9801908135332
 20
944.1026888219569
 30
0.0
  0
ENDSEC
  0
SECTION
  2
OBJECTS
  0
DICTIONARY
  5
C
330
0
100
AcDbDictionary
281
     1
  3
ACAD_COLOR
350
73
  3
ACAD_GROUP
350
D
  3
ACAD_LAYOUT
350
1A
  3
ACAD_MATERIAL
350
72
  3
ACAD_MLINESTYLE
350
17
  3
ACAD_PLOTSETTINGS
350
19
  3
ACAD_PLOTSTYLENAME
350
E
  3
AcDbVariableDictionary
350
66
  0
DICTIONARY
  5
96
330
2
100
AcDbDictionary
280
     1
281
     1
  3
ACAD_LAYERFILTERS
360
1C1
  3
ACAD_LAYERSTATES
360
97
  0
DICTIONARY
  5
73
102
{ACAD_REACTORS
330
C
102
}
330
C
100
AcDbDictionary
281
     1
  0
DICTIONARY
  5
D
102
{ACAD_REACTORS
330
C
102
}
330
C
100
AcDbDictionary
281
     1
  0
DICTIONARY
  5
1A
102
{ACAD_REACTORS
330
C
102
}
330
C
100
AcDbDictionary
281
     1
  3
Model
350
22
  3
Presentación1
350
59
  3
Presentación2
350
5E
  0
DICTIONARY
  5
72
102
{ACAD_REACTORS
330
C
102
}
330
C
100
AcDbDictionary
281
     1
  0
DICTIONARY
  5
17
102
{ACAD_REACTORS
330
C
102
}
330
C
100
AcDbDictionary
281
     1
  3
Standard
350
18
  0
DICTIONARY
  5
19
102
{ACAD_REACTORS
330
C
102
}
330
C
100
AcDbDictionary
281
     1
  0
ACDBDICTIONARYWDFLT
  5
E
102
{ACAD_REACTORS
330
C
102
}
330
C
100
AcDbDictionary
281
     1
  3
Normal
350
F
100
AcDbDictionaryWithDefault
340
F
  0
DICTIONARY
  5
66
102
{ACAD_REACTORS
330
C
102
}
330
C
100
AcDbDictionary
281
     1
  3
DIMASSOC
350
67
  3
HIDETEXT
350
6B
  0
DICTIONARY
  5
1C1
102
{ACAD_REACTORS
330
96
102
}
330
96
100
AcDbDictionary
281
     1
  0
DICTIONARY
  5
97
102
{ACAD_REACTORS
330
96
102
}
330
96
100
AcDbDictionary
281
     1
  0
LAYOUT
  5
22
102
{ACAD_REACTORS
330
1A
102
}
330
1A
100
AcDbPlotSettings
  1

  2
none_device
  4
ANSI_A_(8.50_x_11.00_Inches)
  6

 40
6.349999904632567
 41
19.04999923706055
 42
6.350006103515625
 43
19.04998779296875
 44
215.8999938964844
 45
279.3999938964844
 46
0.0
 47
0.0
 48
0.0
 49
0.0
140
0.0
141
0.0
142
1.0
143
2.584895464708373
 70
 11952
 72
     0
 73
     1
 74
     0
  7

 75
     0
147
0.3868628397755418
 76
     0
 77
     2
 78
   300
148
0.0
149
0.0
100
AcDbLayout
  1
Model
 70
     1
 71
     0
 10
0.0
 20
0.0
 11
12.0
 21
9.0
 12
0.0
 22
0.0
 32
0.0
 14
0.0
 24
0.0
 34
0.0
 15
0.0
 25
0.0
 35
0.0
146
0.0
 13
0.0
 23
0.0
 33
0.0
 16
1.0
 26
0.0
 36
0.0
 17
0.0
 27
1.0
 37
0.0
 76
     0
330
1F
  0
LAYOUT
  5
59
102
{ACAD_REACTORS
330
1A
102
}
330
1A
100
AcDbPlotSettings
  1

  2
None
  4

  6

 40
0.0
 41
0.0
 42
0.0
 43
0.0
 44
0.0
 45
0.0
 46
0.0
 47
0.0
 48
0.0
 49
0.0
140
0.0
141
0.0
142
1.0
143
1.0
 70
   688
 72
     0
 73
     0
 74
     5
  7

 75
    16
147
1.0
 76
     0
 77
     2
 78
   300
148
0.0
149
0.0
100
AcDbLayout
  1
Presentación1
 70
     1
 71
     1
 10
0.0
 20
0.0
 11
12.0
 21
9.0
 12
0.0
 22
0.0
 32
0.0
 14
0.0
 24
0.0
 34
0.0
 15
0.0
 25
0.0
 35
0.0
146
0.0
 13
0.0
 23
0.0
 33
0.0
 16
1.0
 26
0.0
 36
0.0
 17
0.0
 27
1.0
 37
0.0
 76
     0
330
58
  0
LAYOUT
  5
5E
102
{ACAD_REACTORS
330
1A
102
}
330
1A
100
AcDbPlotSettings
  1

  2
None
  4

  6

 40
0.0
 41
0.0
 42
0.0
 43
0.0
 44
0.0
 45
0.0
 46
0.0
 47
0.0
 48
0.0
 49
0.0
140
0.0
141
0.0
142
1.0
143
1.0
 70
   688
 72
     0
 73
     0
 74
     5
  7

 75
    16
147
1.0
 76
     0
 77
     2
 78
   300
148
0.0
149
0.0
100
AcDbLayout
  1
Presentación2
 70
     1
 71
     2
 10
0.0
 20
0.0
 11
12.0
 21
9.0
 12
0.0
 22
0.0
 32
0.0
 14
0.0
 24
0.0
 34
0.0
 15
0.0
 25
0.0
 35
0.0
146
0.0
 13
0.0
 23
0.0
 33
0.0
 16
1.0
 26
0.0
 36
0.0
 17
0.0
 27
1.0
 37
0.0
 76
     0
330
5D
  0
MLINESTYLE
  5
18
102
{ACAD_REACTORS
330
17
102
}
330
17
100
AcDbMlineStyle
  2
STANDARD
 70
     0
  3

 62
   256
 51
90.0
 52
90.0
 71
     2
 49
0.5
 62
   256
  6
BYLAYER
 49
-0.5
 62
   256
  6
BYLAYER
  0
ACDBPLACEHOLDER
  5
F
102
{ACAD_REACTORS
330
E
102
}
330
E
  0
DICTIONARYVAR
  5
67
102
{ACAD_REACTORS
330
66
102
}
330
66
100
DictionaryVariables
280
     0
  1
2
  0
DICTIONARYVAR
  5
6B
102
{ACAD_REACTORS
330
66
102
}
330
66
100
DictionaryVariables
280
     0
  1
1
  0
ENDSEC
  0
EOF
