  0
SECTION
  2
HEADER
  9
$ACADVER
  1
AC1018
  9
$ACADMAINTVER
 70
     0
  9
$DWGCODEPAGE
  3
ANSI_1252
  9
$INSBASE
 10
0.0
 20
0.0
 30
0.0
  9
$EXTMIN
 10
98.00302087620307
 20
-1.610336901025877
 30
0.0
  9
$EXTMAX
 10
1034.196243659188
 20
539.7568625833696
 30
0.0
  9
$LIMMIN
 10
0.0
 20
0.0
  9
$LIMMAX
 10
12.0
 20
9.0
  9
$ORTHOMODE
 70
     0
  9
$REGENMODE
 70
     1
  9
$FILLMODE
 70
     1
  9
$QTEXTMODE
 70
     0
  9
$MIRRTEXT
 70
     0
  9
$LTSCALE
 40
1.0
  9
$ATTMODE
 70
     1
  9
$TEXTSIZE
 40
0.2
  9
$TRACEWID
 40
0.05
  9
$TEXTSTYLE
  7
Standard
  9
$CLAYER
  8
0
  9
$CELTYPE
  6
ByLayer
  9
$CECOLOR
 62
   256
  9
$CELTSCALE
 40
1.0
  9
$DISPSILH
 70
     0
  9
$DIMSCALE
 40
1.0
  9
$DIMASZ
 40
0.18
  9
$DIMEXO
 40
0.0625
  9
$DIMDLI
 40
0.38
  9
$DIMRND
 40
0.0
  9
$DIMDLE
 40
0.0
  9
$DIMEXE
 40
0.18
  9
$DIMTP
 40
0.0
  9
$DIMTM
 40
0.0
  9
$DIMTXT
 40
0.18
  9
$DIMCEN
 40
0.09
  9
$DIMTSZ
 40
0.0
  9
$DIMTOL
 70
     0
  9
$DIMLIM
 70
     0
  9
$DIMTIH
 70
     1
  9
$DIMTOH
 70
     1
  9
$DIMSE1
 70
     0
  9
$DIMSE2
 70
     0
  9
$DIMTAD
 70
     0
  9
$DIMZIN
 70
     0
  9
$DIMBLK
  1

  9
$DIMASO
 70
     1
  9
$DIMSHO
 70
     1
  9
$DIMPOST
  1

  9
$DIMAPOST
  1

  9
$DIMALT
 70
     0
  9
$DIMALTD
 70
     2
  9
$DIMALTF
 40
25.4
  9
$DIMLFAC
 40
1.0
  9
$DIMTOFL
 70
     0
  9
$DIMTVP
 40
0.0
  9
$DIMTIX
 70
     0
  9
$DIMSOXD
 70
     0
  9
$DIMSAH
 70
     0
  9
$DIMBLK1
  1

  9
$DIMBLK2
  1

  9
$DIMSTYLE
  2
Standard
  9
$DIMCLRD
 70
     0
  9
$DIMCLRE
 70
     0
  9
$DIMCLRT
 70
     0
  9
$DIMTFAC
 40
1.0
  9
$DIMGAP
 40
0.09
  9
$DIMJUST
 70
     0
  9
$DIMSD1
 70
     0
  9
$DIMSD2
 70
     0
  9
$DIMTOLJ
 70
     1
  9
$DIMTZIN
 70
     0
  9
$DIMALTZ
 70
     0
  9
$DIMALTTZ
 70
     0
  9
$DIMUPT
 70
     0
  9
$DIMDEC
 70
     4
  9
$DIMTDEC
 70
     4
  9
$DIMALTU
 70
     2
  9
$DIMALTTD
 70
     2
  9
$DIMTXSTY
  7
Standard
  9
$DIMAUNIT
 70
     0
  9
$DIMADEC
 70
     0
  9
$DIMALTRND
 40
0.0
  9
$DIMAZIN
 70
     0
  9
$DIMDSEP
 70
    46
  9
$DIMATFIT
 70
     3
  9
$DIMFRAC
 70
     0
  9
$DIMLDRBLK
  1

  9
$DIMLUNIT
 70
     2
  9
$DIMLWD
 70
    -2
  9
$DIMLWE
 70
    -2
  9
$DIMTMOVE
 70
     0
  9
$LUNITS
 70
     2
  9
$LUPREC
 70
     4
  9
$SKETCHINC
 40
0.1
  9
$FILLETRAD
 40
0.0
  9
$AUNITS
 70
     0
  9
$AUPREC
 70
     0
  9
$MENU
  1
.
  9
$ELEVATION
 40
0.0
  9
$PELEVATION
 40
0.0
  9
$THICKNESS
 40
0.0
  9
$LIMCHECK
 70
     0
  9
$CHAMFERA
 40
0.0
  9
$CHAMFERB
 40
0.0
  9
$CHAMFERC
 40
0.0
  9
$CHAMFERD
 40
0.0
  9
$SKPOLY
 70
     0
  9
$TDCREATE
 40
2454473.060624768
  9
$TDUCREATE
 40
2454473.018958102
  9
$TDUPDATE
 40
2454551.545731308
  9
$TDUUPDATE
 40
2454551.504064641
  9
$TDINDWG
 40
0.0019028472
  9
$TDUSRTIMER
 40
0.0019028472
  9
$USRTIMER
 70
     1
  9
$ANGBASE
 50
0.0
  9
$ANGDIR
 70
     0
  9
$PDMODE
 70
     0
  9
$PDSIZE
 40
0.0
  9
$PLINEWID
 40
0.0
  9
$SPLFRAME
 70
     0
  9
$SPLINETYPE
 70
     6
  9
$SPLINESEGS
 70
     8
  9
$HANDSEED
  5
362
  9
$SURFTAB1
 70
     6
  9
$SURFTAB2
 70
     6
  9
$SURFTYPE
 70
     6
  9
$SURFU
 70
     6
  9
$SURFV
 70
     6
  9
$UCSBASE
  2

  9
$UCSNAME
  2

  9
$UCSORG
 10
0.0
 20
0.0
 30
0.0
  9
$UCSXDIR
 10
1.0
 20
0.0
 30
0.0
  9
$UCSYDIR
 10
0.0
 20
1.0
 30
0.0
  9
$UCSORTHOREF
  2

  9
$UCSORTHOVIEW
 70
     0
  9
$UCSORGTOP
 10
0.0
 20
0.0
 30
0.0
  9
$UCSORGBOTTOM
 10
0.0
 20
0.0
 30
0.0
  9
$UCSORGLEFT
 10
0.0
 20
0.0
 30
0.0
  9
$UCSORGRIGHT
 10
0.0
 20
0.0
 30
0.0
  9
$UCSORGFRONT
 10
0.0
 20
0.0
 30
0.0
  9
$UCSORGBACK
 10
0.0
 20
0.0
 30
0.0
  9
$PUCSBASE
  2

  9
$PUCSNAME
  2

  9
$PUCSORG
 10
0.0
 20
0.0
 30
0.0
  9
$PUCSXDIR
 10
1.0
 20
0.0
 30
0.0
  9
$PUCSYDIR
 10
0.0
 20
1.0
 30
0.0
  9
$PUCSORTHOREF
  2

  9
$PUCSORTHOVIEW
 70
     0
  9
$PUCSORGTOP
 10
0.0
 20
0.0
 30
0.0
  9
$PUCSORGBOTTOM
 10
0.0
 20
0.0
 30
0.0
  9
$PUCSORGLEFT
 10
0.0
 20
0.0
 30
0.0
  9
$PUCSORGRIGHT
 10
0.0
 20
0.0
 30
0.0
  9
$PUCSORGFRONT
 10
0.0
 20
0.0
 30
0.0
  9
$PUCSORGBACK
 10
0.0
 20
0.0
 30
0.0
  9
$USERI1
 70
     0
  9
$USERI2
 70
     0
  9
$USERI3
 70
     0
  9
$USERI4
 70
     0
  9
$USERI5
 70
     0
  9
$USERR1
 40
0.0
  9
$USERR2
 40
0.0
  9
$USERR3
 40
0.0
  9
$USERR4
 40
0.0
  9
$USERR5
 40
0.0
  9
$WORLDVIEW
 70
     1
  9
$SHADEDGE
 70
     3
  9
$SHADEDIF
 70
    70
  9
$TILEMODE
 70
     1
  9
$MAXACTVP
 70
    64
  9
$PINSBASE
 10
0.0
 20
0.0
 30
0.0
  9
$PLIMCHECK
 70
     0
  9
$PEXTMIN
 10
0.0
 20
0.0
 30
0.0
  9
$PEXTMAX
 10
0.0
 20
0.0
 30
0.0
  9
$PLIMMIN
 10
0.0
 20
0.0
  9
$PLIMMAX
 10
12.0
 20
9.0
  9
$UNITMODE
 70
     0
  9
$VISRETAIN
 70
     1
  9
$PLINEGEN
 70
     0
  9
$PSLTSCALE
 70
     1
  9
$TREEDEPTH
 70
  3020
  9
$CMLSTYLE
  2
Standard
  9
$CMLJUST
 70
     0
  9
$CMLSCALE
 40
1.0
  9
$PROXYGRAPHICS
 70
     1
  9
$MEASUREMENT
 70
     0
  9
$CELWEIGHT
370
    -1
  9
$ENDCAPS
280
     0
  9
$JOINSTYLE
280
     0
  9
$LWDISPLAY
290
     0
  9
$INSUNITS
 70
     1
  9
$HYPERLINKBASE
  1

  9
$STYLESHEET
  1

  9
$XEDIT
290
     1
  9
$CEPSNTYPE
380
     0
  9
$PSTYLEMODE
290
     1
  9
$FINGERPRINTGUID
  2
{FDEAD576-A652-11D2-9A35-0060089B3A3F}
  9
$VERSIONGUID
  2
{856CBA59-1F35-42B3-B0C0-29BAB2152582}
  9
$EXTNAMES
290
     1
  9
$PSVPSCALE
 40
0.0
  9
$OLESTARTUP
290
     0
  9
$SORTENTS
280
   127
  9
$INDEXCTL
280
     0
  9
$HIDETEXT
280
     1
  9
$XCLIPFRAME
290
     0
  9
$HALOGAP
280
     0
  9
$OBSCOLOR
 70
   257
  9
$OBSLTYPE
280
     0
  9
$INTERSECTIONDISPLAY
280
     0
  9
$INTERSECTIONCOLOR
 70
   257
  9
$DIMASSOC
280
     2
  9
$PROJECTNAME
  1

  0
ENDSEC
  0
SECTION
  2
CLASSES
  0
CLASS
  1
ACDBDICTIONARYWDFLT
  2
AcDbDictionaryWithDefault
  3
ObjectDBX Classes
 90
        0
 91
        1
280
     0
281
     0
  0
CLASS
  1
DICTIONARYVAR
  2
AcDbDictionaryVar
  3
ObjectDBX Classes
 90
        0
 91
        2
280
     0
281
     0
  0
CLASS
  1
SORTENTSTABLE
  2
AcDbSortentsTable
  3
ObjectDBX Classes
 90
        0
 91
        0
280
     0
281
     0
  0
ENDSEC
  0
SECTION
  2
TABLES
  0
TABLE
  2
VPORT
  5
8
330
0
100
AcDbSymbolTable
 70
     5
  0
VPORT
  5
361
330
8
100
AcDbSymbolTableRecord
100
AcDbViewportTableRecord
  2
*Active
 70
     0
 10
0.0
 20
0.0
 11
1.0
 21
1.0
 12
469.6136633802669
 22
348.9103557680486
 13
0.0
 23
0.0
 14
0.5
 24
0.5
 15
0.5
 25
0.5
 16
0.0
 26
0.0
 36
1.0
 17
0.0
 27
0.0
 37
0.0
 40
1105.822177119678
 41
1.642184557438794
 42
50.0
 43
0.0
 44
0.0
 50
0.0
 51
0.0
 71
     0
 72
  1000
 73
     1
 74
     3
 75
     0
 76
     0
 77
     0
 78
     0
281
     0
 65
     1
110
0.0
120
0.0
130
0.0
111
1.0
121
0.0
131
0.0
112
0.0
122
1.0
132
0.0
 79
     0
146
0.0
  0
ENDTAB
  0
TABLE
  2
LTYPE
  5
5
330
0
100
AcDbSymbolTable
 70
     1
  0
LTYPE
  5
14
330
5
100
AcDbSymbolTableRecord
100
AcDbLinetypeTableRecord
  2
ByBlock
 70
     0
  3

 72
    65
 73
     0
 40
0.0
  0
LTYPE
  5
15
330
5
100
AcDbSymbolTableRecord
100
AcDbLinetypeTableRecord
  2
ByLayer
 70
     0
  3

 72
    65
 73
     0
 40
0.0
  0
LTYPE
  5
16
330
5
100
AcDbSymbolTableRecord
100
AcDbLinetypeTableRecord
  2
Continuous
 70
     0
  3
Solid line
 72
    65
 73
     0
 40
0.0
  0
ENDTAB
  0
TABLE
  2
LAYER
  5
2
102
{ACAD_XDICTIONARY
360
96
102
}
330
0
100
AcDbSymbolTable
 70
     1
  0
LAYER
  5
10
330
2
100
AcDbSymbolTableRecord
100
AcDbLayerTableRecord
  2
0
 70
     0
 62
     7
  6
Continuous
370
    -3
390
F
  0
ENDTAB
  0
TABLE
  2
STYLE
  5
3
330
0
100
AcDbSymbolTable
 70
     3
  0
STYLE
  5
11
330
3
100
AcDbSymbolTableRecord
100
AcDbTextStyleTableRecord
  2
Standard
 70
     0
 40
0.0
 41
1.0
 50
0.0
 71
     0
 42
0.2
  3
txt
  4

  0
STYLE
  5
93
330
3
100
AcDbSymbolTableRecord
100
AcDbTextStyleTableRecord
  2
ROMANS
 70
     0
 40
0.0
 41
1.0
 50
0.0
 71
     0
 42
25.0
  3
romans
  4

  0
STYLE
  5
94
330
3
100
AcDbSymbolTableRecord
100
AcDbTextStyleTableRecord
  2
SANSSERIFBOLD
 70
     0
 40
0.0
 41
1.0
 50
0.0
 71
     0
 42
87.71704489347758
  3
ARIALBD.TTF
  4

1001
ACAD
1000
Arial
1071
 33554466
  0
ENDTAB
  0
TABLE
  2
VIEW
  5
6
330
0
100
AcDbSymbolTable
 70
     0
  0
ENDTAB
  0
TABLE
  2
UCS
  5
7
330
0
100
AcDbSymbolTable
 70
     0
  0
ENDTAB
  0
TABLE
  2
APPID
  5
9
330
0
100
AcDbSymbolTable
 70
     2
  0
APPID
  5
12
330
9
100
AcDbSymbolTableRecord
100
AcDbRegAppTableRecord
  2
ACAD
 70
     0
  0
APPID
  5
95
330
9
100
AcDbSymbolTableRecord
100
AcDbRegAppTableRecord
  2
ACAD_PSEXT
 70
     0
  0
ENDTAB
  0
TABLE
  2
DIMSTYLE
  5
A
330
0
100
AcDbSymbolTable
 70
     1
100
AcDbDimStyleTable
 71
     0
  0
DIMSTYLE
105
27
330
A
100
AcDbSymbolTableRecord
100
AcDbDimStyleTableRecord
  2
Standard
 70
     0
340
11
  0
ENDTAB
  0
TABLE
  2
BLOCK_RECORD
  5
1
330
0
100
AcDbSymbolTable
 70
     4
  0
BLOCK_RECORD
  5
1F
330
1
100
AcDbSymbolTableRecord
100
AcDbBlockTableRecord
  2
*Model_Space
340
22
  0
BLOCK_RECORD
  5
58
330
1
100
AcDbSymbolTableRecord
100
AcDbBlockTableRecord
  2
*Paper_Space
340
59
  0
BLOCK_RECORD
  5
5D
330
1
100
AcDbSymbolTableRecord
100
AcDbBlockTableRecord
  2
*Paper_Space0
340
5E
  0
BLOCK_RECORD
  5
DF
330
1
100
AcDbSymbolTableRecord
100
AcDbBlockTableRecord
  2
18170_L
340
0
310
2800000020000000200000000100080000000000000400000000000000000000000000000000000000000000000080000080000000808000800000008000800080800000C0C0C000C0DCC000F0CAA6000020400000206000002080000020A0000020C0000020E00000400000004020000040400000406000004080000040A0
310
000040C0000040E00000600000006020000060400000606000006080000060A0000060C0000060E00000800000008020000080400000806000008080000080A0000080C0000080E00000A0000000A0200000A0400000A0600000A0800000A0A00000A0C00000A0E00000C0000000C0200000C0400000C0600000C0800000C0
310
A00000C0C00000C0E00000E0000000E0200000E0400000E0600000E0800000E0A00000E0C00000E0E00040000000400020004000400040006000400080004000A0004000C0004000E00040200000402020004020400040206000402080004020A0004020C0004020E000404000004040200040404000404060004040800040
310
40A0004040C0004040E00040600000406020004060400040606000406080004060A0004060C0004060E00040800000408020004080400040806000408080004080A0004080C0004080E00040A0000040A0200040A0400040A0600040A0800040A0A00040A0C00040A0E00040C0000040C0200040C0400040C0600040C08000
310
40C0A00040C0C00040C0E00040E0000040E0200040E0400040E0600040E0800040E0A00040E0C00040E0E00080000000800020008000400080006000800080008000A0008000C0008000E00080200000802020008020400080206000802080008020A0008020C0008020E00080400000804020008040400080406000804080
310
008040A0008040C0008040E00080600000806020008060400080606000806080008060A0008060C0008060E00080800000808020008080400080806000808080008080A0008080C0008080E00080A0000080A0200080A0400080A0600080A0800080A0A00080A0C00080A0E00080C0000080C0200080C0400080C0600080C0
310
800080C0A00080C0C00080C0E00080E0000080E0200080E0400080E0600080E0800080E0A00080E0C00080E0E000C0000000C0002000C0004000C0006000C0008000C000A000C000C000C000E000C0200000C0202000C0204000C0206000C0208000C020A000C020C000C020E000C0400000C0402000C0404000C0406000C0
310
408000C040A000C040C000C040E000C0600000C0602000C0604000C0606000C0608000C060A000C060C000C060E000C0800000C0802000C0804000C0806000C0808000C080A000C080C000C080E000C0A00000C0A02000C0A04000C0A06000C0A08000C0A0A000C0A0C000C0A0E000C0C00000C0C02000C0C04000C0C06000
310
C0C08000C0C0A000F0FBFF00A4A0A000808080000000FF0000FF000000FFFF00FF000000FF00FF00FFFF0000FFFFFF0000000000000000000000000000000000000000000000000000000000000000000000000000000000000000000000000000000000000000000000000000000000000000000000000000000000000000
310
000000000000000000000000000000000000000000FFFFFFFFFFFFFFFFFFFFFFFFFFFFFFFFFFFFFF00000000000000000000000000FF0000000000000000000000000000000000FF00000000000000000000000000FF00000000000000FFFF0000000000000000FF00000000000000000000000000FF0000000000FFFF0000
310
FF00000000000000FF00000000000000000000000000FF00000000FF0000000000FF000000000000FF00000000000000000000000000FF000000FF00000000000000FF0000000000FF00000000000000000000000000FF000000FF00000000FFFF00FF0000000000FF00000000000000000000000000FF0000FF00000000FF
310
00FF00000000000000FF00000000000000000000FFFFFFFF0000FF000000FF00FF0000000000000000FF00000000000000000000FF0000FF0000FF000000FFFF000000000000000000FF00000000000000000000FF0000FF00FF000000FFFFFFFFFFFFFF0000000000FF00000000000000000000FF000000FFFF0000FFFF00
310
0000000000FFFFFFFFFFFF00000000000000000000FF000000FFFF00FF00FF000000000000000000000000FF000000000000000000FF000000FF00FF00FF0000000000000000000000000000FFFF00000000000000FFFFFFFFFFFFFF00FF00000000000000000000000000000000FF00000000000000000000FF00FFFFFF00
310
00000000000000000000000000000000FF0000000000000000FF000000FF000000000000000000000000000000000000FF00000000000000FFFFFFFFFFFF00000000000000000000000000000000000000FF000000000000FF00000000FF0000000000000000000000000000000000000000FF0000000000FF000000FF0000
310
00000000FFFFFFFFFFFFFFFFFFFF0000000000FF0000000000FFFFFFFFFFFFFFFFFFFFFF00000000000000000000000000000000FF00000000FF0000000000000000000000000000000000000000000000000000FF00000000FFFFFFFFFFFFFFFFFFFFFFFFFFFFFFFFFFFFFFFFFFFFFFFFFFFFFF00000000000000FFFFFFFF
310
FFFFFFFFFFFFFFFFFFFFFFFFFFFFFFFFFFFFFFFFFF00000000000000FF0000000000000000000000000000000000000000FFFFFF0000000000000000FFFFFFFFFFFFFFFFFFFFFFFFFFFFFFFFFFFFFFFFFF00000000000000000000000000000000000000000000000000000000000000000000000000000000000000000000
310
0000000000000000000000000000000000000000000000000000000000000000000000000000000000000000000000000000000000000000
102
{BLKREFS
331
35D
102
}
1001
ACAD
1000
DesignCenter Data
1002
{
1070
     1
1070
     4
1002
}
  0
BLOCK_RECORD
  5
10A
330
1
100
AcDbSymbolTableRecord
100
AcDbBlockTableRecord
  2
18130_L
340
0
1001
ACAD
1000
DesignCenter Data
1002
{
1070
     1
1070
     4
1002
}
  0
ENDTAB
  0
ENDSEC
  0
SECTION
  2
BLOCKS
  0
BLOCK
  5
20
330
1F
100
AcDbEntity
  8
0
100
AcDbBlockBegin
  2
*Model_Space
 70
     0
 10
0.0
 20
0.0
 30
0.0
  3
*Model_Space
  1

  0
ENDBLK
  5
21
330
1F
100
AcDbEntity
  8
0
100
AcDbBlockEnd
  0
BLOCK
  5
5A
330
58
100
AcDbEntity
 67
     1
  8
0
100
AcDbBlockBegin
  2
*Paper_Space
 70
     0
 10
0.0
 20
0.0
 30
0.0
  3
*Paper_Space
  1

  0
ENDBLK
  5
5B
330
58
100
AcDbEntity
 67
     1
  8
0
100
AcDbBlockEnd
  0
BLOCK
  5
5F
330
5D
100
AcDbEntity
  8
0
100
AcDbBlockBegin
  2
*Paper_Space0
 70
     0
 10
0.0
 20
0.0
 30
0.0
  3
*Paper_Space0
  1

  0
ENDBLK
  5
60
330
5D
100
AcDbEntity
  8
0
100
AcDbBlockEnd
  0
BLOCK
  5
E0
330
DF
100
AcDbEntity
  8
0
100
AcDbBlockBegin
  2
18170_L
 70
     0
 10
0.0
 20
0.0
 30
0.0
  3
18170_L
  1

  0
LINE
  5
31D
330
DF
100
AcDbEntity
  8
0
100
AcDbLine
 10
29.53913709105837
 20
120.0000000000018
 30
0.0
 11
29.53913709105837
 21
192.0000000000018
 31
0.0
  0
ARC
  5
31E
330
DF
100
AcDbEntity
  8
0
100
AcDbCircle
 10
37.53913709105836
 20
192.0000000000018
 30
0.0
 40
8.0
100
AcDbArc
 50
88.75345692163987
 51
180.0
  0
ARC
  5
31F
330
DF
100
AcDbEntity
  8
0
100
AcDbCircle
 10
490.3760513773768
 20
192.0000000000018
 30
0.0
 40
8.0
100
AcDbArc
 50
351.1244024997445
 51
90.0
  0
ARC
  5
320
330
DF
100
AcDbEntity
  8
0
100
AcDbCircle
 10
383.132204970133
 20
-7.462844422143461
 30
0.0
 40
25.0
100
AcDbArc
 50
117.4061287676965
 51
182.1323684365494
  0
ARC
  5
321
330
DF
100
AcDbEntity
  8
0
100
AcDbCircle
 10
261.1540964177611
 20
227.7951863312937
 30
0.0
 40
240.0
100
AcDbArc
 50
297.4061287676966
 51
351.1244024997445
  0
LINE
  5
322
330
DF
100
AcDbEntity
  8
0
100
AcDbLine
 10
364.5391370910575
 20
-179.9999999999982
 30
0.0
 11
358.1495166459308
 21
-8.393050902303002
 31
0.0
  0
LINE
  5
323
330
DF
100
AcDbEntity
  8
0
100
AcDbLine
 10
380.8176636393609
 20
154.9593036744045
 30
0.0
 11
29.53913709105837
 21
160.0
 31
0.0
  0
ARC
  5
324
330
DF
100
AcDbEntity
  8
0
100
AcDbCircle
 10
253.4829696252664
 20
235.2872383462017
 30
0.0
 40
250.0
100
AcDbArc
 50
254.448662254712
 51
290.2990917357014
  0
ARC
  5
325
330
DF
100
AcDbEntity
  8
0
100
AcDbCircle
 10
204.1779165713806
 20
-96.50662155402825
 30
0.0
 40
50.0
100
AcDbArc
 50
300.6536653838998
 51
7.340166715228282
  0
ARC
  5
326
330
DF
100
AcDbEntity
  8
0
100
AcDbCircle
 10
191.4317316781735
 20
-75.0
 30
0.0
 40
75.0
100
AcDbArc
 50
199.9329139852877
 51
300.6536653838998
  0
LINE
  5
327
330
DF
100
AcDbEntity
  8
0
100
AcDbLine
 10
65.95909619040139
 20
51.00000000002182
 30
0.0
 11
120.9247988044008
 21
-100.5689737129432
 31
0.0
  0
LINE
  5
328
330
DF
100
AcDbEntity
  8
0
100
AcDbLine
 10
43.72049584637352
 20
-179.9999999999982
 30
0.0
 11
48.33059005343603
 21
-56.18604129603046
 31
0.0
  0
ARC
  5
329
330
DF
100
AcDbEntity
  8
0
100
AcDbCircle
 10
469.2519932811401
 20
200.0
 30
0.0
 40
366.3137934459011
100
AcDbArc
 50
194.1509176059325
 51
227.1747581920694
  0
ARC
  5
32A
330
DF
100
AcDbEntity
  8
0
100
AcDbCircle
 10
469.2519932811401
 20
200.0
 30
0.0
 40
386.3137934459011
100
AcDbArc
 50
209.0498043040487
 51
227.1747581920694
  0
LINE
  5
32B
330
DF
100
AcDbEntity
  8
0
100
AcDbLine
 10
0.0
 20
51.0
 30
0.0
 11
0.0
 21
-51.0
 31
0.0
  0
LINE
  5
32C
330
DF
100
AcDbEntity
  8
0
100
AcDbLine
 10
65.95909619040139
 20
51.00000000002182
 30
0.0
 11
46.45520935855347
 21
114.4687129601661
 31
0.0
  0
ARC
  5
32D
330
DF
100
AcDbEntity
  8
0
100
AcDbCircle
 10
41.67578656488148
 20
113.0000000000072
 30
0.0
 40
5.0
100
AcDbArc
 50
17.08215299911855
 51
90.0
  0
ARC
  5
32E
330
DF
100
AcDbEntity
  8
0
100
AcDbCircle
 10
59.1918428635854
 20
56.0
 30
0.0
 40
5.0
100
AcDbArc
 50
270.0
 51
17.08215299910202
  0
ARC
  5
32F
330
DF
100
AcDbEntity
  8
0
100
AcDbCircle
 10
112.792952771435
 20
56.35444917548738
 30
0.0
 40
18.0
100
AcDbArc
 50
21.94840562335595
 51
239.771710744373
  0
ARC
  5
330
330
DF
100
AcDbEntity
  8
0
100
AcDbCircle
 10
65.97241777123781
 20
-24.0
 30
0.0
 40
75.0
100
AcDbArc
 50
29.04980430404871
 51
90.0
  0
LINE
  5
331
330
DF
100
AcDbEntity
  8
0
100
AcDbLine
 10
65.95909619041958
 20
51.00000000000727
 30
0.0
 11
65.97241777123781
 21
51.0
 31
0.0
  0
ARC
  5
332
330
DF
100
AcDbEntity
  8
0
100
AcDbCircle
 10
31.53913709105836
 20
120.0
 30
0.0
 40
2.0
100
AcDbArc
 50
180.0
 51
270.0
  0
LINE
  5
333
330
DF
100
AcDbEntity
  8
0
100
AcDbLine
 10
31.53913709105836
 20
118.0
 30
0.0
 11
104.357390501591
 21
118.0
 31
0.0
  0
ARC
  5
334
330
DF
100
AcDbEntity
  8
0
100
AcDbCircle
 10
104.357390501591
 20
108.0
 30
0.0
 40
10.0
100
AcDbArc
 50
15.01496493170428
 51
90.0
  0
ARC
  5
335
330
DF
100
AcDbEntity
  8
0
100
AcDbCircle
 10
43.33405238859268
 20
-56.0
 30
0.0
 40
5.0
100
AcDbArc
 50
357.8676315634505
 51
90.0
  0
LINE
  5
336
330
DF
100
AcDbEntity
  8
0
100
AcDbLine
 10
0.0
 20
51.0
 30
0.0
 11
59.1918428635854
 21
51.00000000000727
 31
0.0
  0
LINE
  5
337
330
DF
100
AcDbEntity
  8
0
100
AcDbLine
 10
0.0
 20
-51.0
 30
0.0
 11
43.33405238859268
 21
-51.0
 31
0.0
  0
ARC
  5
338
330
DF
100
AcDbEntity
  8
0
100
AcDbCircle
 10
213.4472412970417
 20
-76.0
 30
0.0
 40
10.0
100
AcDbArc
 50
219.7909508648219
 51
47.17475819206938
  0
LINE
  5
339
330
DF
100
AcDbEntity
  8
0
100
AcDbLine
 10
43.72049584637352
 20
-179.9999999999982
 30
0.0
 11
364.5391370910575
 21
-179.9999999999982
 31
0.0
  0
LINE
  5
33A
330
DF
100
AcDbEntity
  8
0
100
AcDbLine
 10
37.53913709105745
 20
200.0000000000018
 30
0.0
 11
490.3760513773768
 21
200.0000000000018
 31
0.0
  0
ARC
  5
33B
330
DF
100
AcDbEntity
  8
0
100
AcDbCircle
 10
479.7420778256407
 20
225.9999999999995
 30
0.0
 40
1.0
100
AcDbArc
 50
270.0
 51
0.0
1001
ACAD
1000
ASC_BOUNDS
1002
{
1070
    19
1002
}
  0
LINE
  5
33C
330
DF
100
AcDbEntity
  8
0
100
AcDbLine
 10
395.4788203485571
 20
222.9999999999997
 30
0.0
 11
395.4788203485571
 21
220.6274606680622
 31
0.0
  0
LINE
  5
33D
330
DF
100
AcDbEntity
  8
0
100
AcDbLine
 10
395.4788203485566
 20
222.9999999999997
 30
0.0
 11
395.6078595999106
 21
224.9999999999995
 31
0.0
  0
LINE
  5
33E
330
DF
100
AcDbEntity
  8
0
100
AcDbLine
 10
375.4788203485571
 20
222.9999999999997
 30
0.0
 11
375.3497810972031
 21
224.9999999999995
 31
0.0
  0
LINE
  5
33F
330
DF
100
AcDbEntity
  8
0
100
AcDbLine
 10
375.4788203485571
 20
222.9999999999997
 30
0.0
 11
375.4788203485571
 21
220.6274606680622
 31
0.0
  0
ARC
  5
340
330
DF
100
AcDbEntity
  8
0
100
AcDbCircle
 10
385.4788203485539
 20
299.9999999999993
 30
0.0
 40
80.0
100
AcDbArc
 50
262.8192442185419
 51
277.1807557814581
  0
LINE
  5
341
330
DF
100
AcDbEntity
  8
0
100
AcDbLine
 10
375.4788203485566
 20
220.6274606680619
 30
0.0
 11
395.4788203485571
 21
220.6274606680619
 31
0.0
  0
ARC
  5
342
330
DF
100
AcDbEntity
  8
0
100
AcDbCircle
 10
385.4788203485552
 20
299.9999999999401
 30
0.0
 40
79.99999999994082
100
AcDbArc
 50
262.8192442185419
 51
277.1807557814581
  0
ARC
  5
343
330
DF
100
AcDbEntity
  8
0
100
AcDbCircle
 10
388.5697738536771
 20
-114.8816074002401
 30
0.0
 40
359.8816074002396
100
AcDbArc
 50
76.28820863090464
 51
90.0
1001
ACAD
1000
ASC_BOUNDS
1002
{
1070
    19
1002
}
  0
ARC
  5
344
330
DF
100
AcDbEntity
  8
0
100
AcDbCircle
 10
471.7420778256407
 20
225.9999999999995
 30
0.0
 40
9.0
100
AcDbArc
 50
0.0
 51
76.28820863090464
1001
ACAD
1000
ASC_BOUNDS
1002
{
1070
    19
1002
}
  0
LINE
  5
345
330
DF
100
AcDbEntity
  8
0
100
AcDbLine
 10
444.9449589474623
 20
219.9999999999993
 30
0.0
 11
478.6198273648694
 21
219.9999999999993
 31
0.0
1001
ACAD
1000
ASC_BOUNDS
1002
{
1070
    19
1002
}
  0
LINE
  5
346
330
DF
100
AcDbEntity
  8
0
100
AcDbLine
 10
490.8449764186286
 20
206.0912406355407
 30
0.0
 11
490.5697738536771
 21
209.0948876264939
 31
0.0
1001
ACAD
1000
ASC_BOUNDS
1002
{
1070
    19
1002
}
  0
ARC
  5
347
330
DF
100
AcDbEntity
  8
0
100
AcDbCircle
 10
489.8491475445614
 20
205.9999999999994
 30
0.0
 40
1.0
100
AcDbArc
 50
270.0
 51
5.234983955055522
1001
ACAD
1000
ASC_BOUNDS
1002
{
1070
    19
1002
}
  0
ARC
  5
348
330
DF
100
AcDbEntity
  8
0
100
AcDbCircle
 10
478.6198273648694
 20
207.9999999999994
 30
0.0
 40
12.0
100
AcDbArc
 50
5.234983955055522
 51
90.0
1001
ACAD
1000
ASC_BOUNDS
1002
{
1070
    19
1002
}
  0
ARC
  5
349
330
DF
100
AcDbEntity
  8
0
100
AcDbCircle
 10
62.97140108867438
 20
219.4999999999992
 30
0.0
 40
6.0
100
AcDbArc
 50
113.5564643090934
 51
178.4242238671761
1001
ACAD
1000
ASC_BOUNDS
1002
{
1070
    19
1002
}
  0
LINE
  5
34A
330
DF
100
AcDbEntity
  8
0
100
AcDbLine
 10
55.9461102581306
 20
226.4999999999993
 30
0.0
 11
55.94495894746228
 21
224.9999999999995
 31
0.0
  0
ARC
  5
34B
330
DF
100
AcDbEntity
  8
0
100
AcDbCircle
 10
60.59790064030654
 20
227.0125987953949
 30
0.0
 40
2.0
100
AcDbArc
 50
270.0
 51
270.1347785445022
  0
LINE
  5
34C
330
DF
100
AcDbEntity
  8
0
100
AcDbLine
 10
56.97367010516131
 20
219.6649940890328
 30
0.0
 11
56.9003576686407
 21
216.9999999999992
 31
0.0
  0
LINE
  5
34D
330
DF
100
AcDbEntity
  8
0
100
AcDbLine
 10
55.9461102581306
 20
226.4999999999993
 30
0.0
 11
56.71346742219134
 21
236.6778478722901
 31
0.0
1001
ACAD
1000
ASC_BOUNDS
1002
{
1070
    19
1002
}
  0
ARC
  5
34E
330
DF
100
AcDbEntity
  8
0
100
AcDbCircle
 10
65.68799624644521
 20
236.001214749672
 30
0.0
 40
9.0
100
AcDbArc
 50
90.0
 51
175.6883514775355
1001
ACAD
1000
ASC_BOUNDS
1002
{
1070
    19
1002
}
  0
ARC
  5
34F
330
DF
100
AcDbEntity
  8
0
100
AcDbCircle
 10
205.0112570347417
 20
1367.379202975043
 30
0.0
 40
1150.0
100
AcDbArc
 50
263.4002265097107
 51
266.1332690721671
1001
ACAD
1000
ASC_BOUNDS
1002
{
1070
    19
1002
}
  0
LINE
  5
350
330
DF
100
AcDbEntity
  8
0
100
AcDbLine
 10
133.2452871262314
 20
200.8781306565962
 30
0.0
 11
132.7391852088024
 21
204.9999999999995
 31
0.0
1001
ACAD
1000
ASC_BOUNDS
1002
{
1070
    19
1002
}
  0
ARC
  5
351
330
DF
100
AcDbEntity
  8
0
100
AcDbCircle
 10
134.2378332778728
 20
201.0000000000015
 30
0.0
 40
1.0
100
AcDbArc
 50
187.000000000006
 51
270.0
1001
ACAD
1000
ASC_BOUNDS
1002
{
1070
    19
1002
}
  0
ARC
  5
352
330
DF
100
AcDbEntity
  8
0
100
AcDbCircle
 10
68.94495894746228
 20
216.9999999999994
 30
0.0
 40
12.0
100
AcDbArc
 50
242.1818607153448
 51
270.0
  0
LINE
  5
353
330
DF
100
AcDbEntity
  8
0
100
AcDbLine
 10
68.94495894746228
 20
204.9999999999994
 30
0.0
 11
489.8491475445614
 21
204.9999999999994
 31
0.0
  0
ARC
  5
354
330
DF
100
AcDbEntity
  8
0
100
AcDbCircle
 10
69.05683641741638
 20
217.1184577458538
 30
0.0
 40
12.15705588565699
100
AcDbArc
 50
180.558296051007
 51
241.9760550992299
  0
LINE
  5
355
330
DF
100
AcDbEntity
  8
0
100
AcDbLine
 10
55.94495894746228
 20
224.9999999999995
 30
0.0
 11
479.7420778256407
 21
224.9999999999995
 31
0.0
  0
LINE
  5
356
330
DF
100
AcDbEntity
  8
0
100
AcDbLine
 10
128.8804854621219
 20
219.9999999999995
 30
0.0
 11
478.6198273648694
 21
219.9999999999995
 31
0.0
  0
LINE
  5
357
330
DF
100
AcDbEntity
  8
0
100
AcDbLine
 10
127.4163823305905
 20
219.9999999999993
 30
0.0
 11
444.9449589474623
 21
219.9999999999995
 31
0.0
1001
ACAD
1000
ASC_BOUNDS
1002
{
1070
    19
1002
}
  0
LINE
  5
358
330
DF
100
AcDbEntity
  8
0
100
AcDbLine
 10
388.5697738536771
 20
244.9999999999995
 30
0.0
 11
65.68799624644521
 21
245.001214749672
 31
0.0
  0
LINE
  5
359
330
DF
100
AcDbEntity
  8
0
100
AcDbLine
 10
438.9913622205766
 20
204.9999999999994
 30
0.0
 11
438.7291295731922
 21
200.9356142470787
 31
0.0
  0
ARC
  5
35A
330
DF
100
AcDbEntity
  8
0
100
AcDbCircle
 10
437.7312044884186
 20
201.0000000000018
 30
0.0
 40
0.999999999999895
100
AcDbArc
 50
269.9999999999935
 51
356.3084145010519
  0
ARC
  5
35B
330
DF
100
AcDbEntity
  8
0
100
AcDbCircle
 10
-177.5353528726473
 20
20.84445762108544
 30
0.0
 40
238.640151561524
100
AcDbArc
 50
345.0745777116094
 51
4.262047695597452
  0
ARC
  5
35C
330
DF
100
AcDbEntity
  8
0
100
AcDbCircle
 10
469.2519932811411
 20
200.0
 30
0.0
 40
366.3137934459011
100
AcDbArc
 50
188.2595823090991
 51
192.0262372571466
  0
ENDBLK
  5
E1
330
DF
100
AcDbEntity
  8
0
100
AcDbBlockEnd
  0
BLOCK
  5
10B
330
10A
100
AcDbEntity
  8
0
100
AcDbBlockBegin
  2
18130_L
 70
     0
 10
0.0
 20
0.0
 30
0.0
  3
18130_L
  1

  0
ARC
  5
10C
330
10A
100
AcDbEntity
  8
0
100
AcDbCircle
 10
186.232993054673
 20
35.00000000000023
 30
0.0
 40
5.0
100
AcDbArc
 50
270.0
 51
0.0
  0
LINE
  5
10D
330
10A
100
AcDbEntity
  8
0
100
AcDbLine
 10
104.4294789172454
 20
30.00000000000023
 30
0.0
 11
186.232993054673
 21
30.00000000000023
 31
0.0
  0
LINE
  5
10E
330
10A
100
AcDbEntity
  8
0
100
AcDbLine
 10
191.232993054673
 20
35.00000000000023
 30
0.0
 11
191.232993054673
 21
194.2398327229896
 31
0.0
  0
ARC
  5
10F
330
10A
100
AcDbEntity
  8
0
100
AcDbCircle
 10
160.9160025374658
 20
333.7797716753121
 30
0.0
 40
5.0
100
AcDbArc
 50
0.0
 51
89.1778865405867
  0
LINE
  5
110
330
10A
100
AcDbEntity
  8
0
100
AcDbLine
 10
245.9160025374659
 20
317.5585138526076
 30
0.0
 11
170.8442620657406
 21
318.6357611585263
 31
0.0
  0
LINE
  5
111
330
10A
100
AcDbEntity
  8
0
100
AcDbLine
 10
165.9160025374658
 20
323.6352464625089
 30
0.0
 11
165.9160025374658
 21
333.7797716753121
 31
0.0
  0
ARC
  5
112
330
10A
100
AcDbEntity
  8
0
100
AcDbCircle
 10
170.9160025374658
 20
323.6352464625089
 30
0.0
 40
5.0
100
AcDbArc
 50
180.0
 51
269.1778865405867
  0
LINE
  5
113
330
10A
100
AcDbEntity
  8
0
100
AcDbLine
 10
120.9160025374658
 20
226.0774468059826
 30
0.0
 11
120.9160025374658
 21
303.0
 31
0.0
  0
LINE
  5
114
330
10A
100
AcDbEntity
  8
0
100
AcDbLine
 10
0.0
 20
0.0
 30
0.0
 11
410.9160025374658
 21
0.0
 31
0.0
  0
LINE
  5
115
330
10A
100
AcDbEntity
  8
0
100
AcDbLine
 10
410.9160025374658
 20
0.0
 30
0.0
 11
404.5263820923391
 21
171.6069490976952
 31
0.0
  0
LINE
  5
116
330
10A
100
AcDbEntity
  8
0
100
AcDbLine
 10
83.91600253746583
 20
380.0000000000001
 30
0.0
 11
536.7529168237852
 21
380.0000000000001
 31
0.0
  0
ARC
  5
117
330
10A
100
AcDbEntity
  8
0
100
AcDbCircle
 10
429.5090704165414
 20
172.5371555778547
 30
0.0
 40
25.0
100
AcDbArc
 50
117.4061287676973
 51
182.1323684365528
  0
ARC
  5
118
330
10A
100
AcDbEntity
  8
0
100
AcDbCircle
 10
536.7529168237852
 20
372.0000000000001
 30
0.0
 40
8.0
100
AcDbArc
 50
351.1244024997448
 51
90.0
  0
LINE
  5
119
330
10A
100
AcDbEntity
  8
0
100
AcDbLine
 10
75.91600253746583
 20
300.0
 30
0.0
 11
75.91600253746583
 21
372.0000000000001
 31
0.0
  0
ARC
  5
11A
330
10A
100
AcDbEntity
  8
0
100
AcDbCircle
 10
83.91600253746583
 20
372.0000000000001
 30
0.0
 40
8.0
100
AcDbArc
 50
88.75345692163993
 51
180.0
  0
LINE
  5
11B
330
10A
100
AcDbEntity
  8
0
100
AcDbLine
 10
77.91600253746583
 20
298.0
 30
0.0
 11
107.8333387502717
 21
298.0
 31
0.0
  0
ARC
  5
11C
330
10A
100
AcDbEntity
  8
0
100
AcDbCircle
 10
77.91600253746583
 20
300.0
 30
0.0
 40
2.0
100
AcDbArc
 50
180.0
 51
270.0
  0
LINE
  5
11D
330
10A
100
AcDbEntity
  8
0
100
AcDbLine
 10
2.097713651146477
 20
60.07065942930058
 30
0.0
 11
0.0
 21
0.0
 31
0.0
  0
ARC
  5
11E
330
10A
100
AcDbEntity
  8
0
100
AcDbCircle
 10
20.08674853749107
 20
59.44246848865441
 30
0.0
 40
18.0
100
AcDbArc
 50
119.9999999999997
 51
177.9999999999963
  0
LINE
  5
11F
330
10A
100
AcDbEntity
  8
0
100
AcDbLine
 10
11.08674853749107
 20
75.03092575677874
 30
0.0
 11
39.84964990448498
 21
91.63719460368884
 31
0.0
  0
LINE
  5
120
330
10A
100
AcDbEntity
  8
0
100
AcDbLine
 10
116.4935927881161
 20
303.0
 30
0.0
 11
137.9470485128113
 21
303.0
 31
0.0
  0
ARC
  5
121
330
10A
100
AcDbEntity
  8
0
100
AcDbCircle
 10
107.8333387502717
 20
303.0
 30
0.0
 40
5.0
100
AcDbArc
 50
270.0
 51
329.9999999999645
  0
ARC
  5
122
330
10A
100
AcDbEntity
  8
0
100
AcDbCircle
 10
116.4935927881161
 20
298.0
 30
0.0
 40
5.0
100
AcDbArc
 50
90.0
 51
149.9999999999645
  0
ARC
  5
123
330
10A
100
AcDbEntity
  8
0
100
AcDbCircle
 10
37.34964990448498
 20
95.96732162260741
 30
0.0
 40
5.0
100
AcDbArc
 50
299.9999999999997
 51
355.1232286749059
  0
ARC
  5
124
330
10A
100
AcDbEntity
  8
0
100
AcDbCircle
 10
307.5309618641695
 20
407.7951863312918
 30
0.0
 40
240.0
100
AcDbArc
 50
297.4061287676973
 51
351.1244024997448
  0
ARC
  5
125
330
10A
100
AcDbEntity
  8
0
100
AcDbCircle
 10
351.0688383212546
 20
326.3567048305268
 30
0.0
 40
210.0
100
AcDbArc
 50
187.5789172561438
 51
201.6669927810527
  0
ARC
  5
126
330
10A
100
AcDbEntity
  8
0
100
AcDbCircle
 10
137.9470485128113
 20
298.0
 30
0.0
 40
5.0
100
AcDbArc
 50
7.578917256143827
 51
90.0
  0
ARC
  5
127
330
10A
100
AcDbEntity
  8
0
100
AcDbCircle
 10
151.259572424573
 20
246.976245888618
 30
0.0
 40
5.0
100
AcDbArc
 50
290.8203885554409
 51
21.66699278105273
  0
ARC
  5
128
330
10A
100
AcDbEntity
  8
0
100
AcDbCircle
 10
214.4294183573038
 20
80.85854651431146
 30
0.0
 40
172.7231540362062
100
AcDbArc
 50
110.8203885554409
 51
175.1232286749059
  0
ARC
  5
129
330
10A
100
AcDbEntity
  8
0
100
AcDbCircle
 10
299.8598350716747
 20
415.2872383461944
 30
0.0
 40
250.0
100
AcDbArc
 50
254.448662254712
 51
290.2990917357014
  0
ARC
  5
12A
330
10A
100
AcDbEntity
  8
0
100
AcDbCircle
 10
526.1189432720491
 20
405.9999999999976
 30
0.0
 40
1.0
100
AcDbArc
 50
270.0
 51
0.0
1001
ACAD
1000
ASC_BOUNDS
1002
{
1070
    19
1002
}
  0
LINE
  5
12B
330
10A
100
AcDbEntity
  8
0
100
AcDbLine
 10
441.8556857949654
 20
402.9999999999978
 30
0.0
 11
441.8556857949654
 21
400.6274606680603
 31
0.0
  0
LINE
  5
12C
330
10A
100
AcDbEntity
  8
0
100
AcDbLine
 10
441.8556857949649
 20
402.9999999999978
 30
0.0
 11
442.4957571540874
 21
412.9205683914935
 31
0.0
  0
ARC
  5
12D
330
10A
100
AcDbEntity
  8
0
100
AcDbCircle
 10
443.493682238861
 20
412.8561826385702
 30
0.0
 40
1.0
100
AcDbArc
 50
99.69992962541056
 51
176.3084145010453
  0
LINE
  5
12E
330
10A
100
AcDbEntity
  8
0
100
AcDbLine
 10
421.8556857949654
 20
402.9999999999978
 30
0.0
 11
421.215614435843
 21
412.9205683914935
 31
0.0
  0
ARC
  5
12F
330
10A
100
AcDbEntity
  8
0
100
AcDbCircle
 10
420.2176893510693
 20
412.8561826385702
 30
0.0
 40
1.0
100
AcDbArc
 50
3.691585498954691
 51
80.30007037458943
  0
LINE
  5
130
330
10A
100
AcDbEntity
  8
0
100
AcDbLine
 10
421.8556857949654
 20
402.9999999999978
 30
0.0
 11
421.8556857949654
 21
400.6274606680603
 31
0.0
  0
ARC
  5
131
330
10A
100
AcDbEntity
  8
0
100
AcDbCircle
 10
431.8556857949622
 20
479.9999999999974
 30
0.0
 40
80.0
100
AcDbArc
 50
262.8192442185417
 51
277.1807557814583
  0
LINE
  5
132
330
10A
100
AcDbEntity
  8
0
100
AcDbLine
 10
421.8556857949649
 20
400.6274606680601
 30
0.0
 11
441.8556857949654
 21
400.6274606680601
 31
0.0
  0
ARC
  5
133
330
10A
100
AcDbEntity
  8
0
100
AcDbCircle
 10
431.8556857949636
 20
479.9999999999383
 30
0.0
 40
79.99999999994082
100
AcDbArc
 50
262.8192442185417
 51
277.1807557814583
  0
ARC
  5
134
330
10A
100
AcDbEntity
  8
0
100
AcDbCircle
 10
434.9466393000855
 20
65.11839259975812
 30
0.0
 40
359.8816074002396
100
AcDbArc
 50
76.28820863090424
 51
90.0
1001
ACAD
1000
ASC_BOUNDS
1002
{
1070
    19
1002
}
  0
ARC
  5
135
330
10A
100
AcDbEntity
  8
0
100
AcDbCircle
 10
518.1189432720491
 20
405.9999999999976
 30
0.0
 40
9.0
100
AcDbArc
 50
0.0
 51
76.28820863090424
1001
ACAD
1000
ASC_BOUNDS
1002
{
1070
    19
1002
}
  0
LINE
  5
136
330
10A
100
AcDbEntity
  8
0
100
AcDbLine
 10
491.3218243938707
 20
399.9999999999975
 30
0.0
 11
524.9966928112778
 21
399.9999999999975
 31
0.0
1001
ACAD
1000
ASC_BOUNDS
1002
{
1070
    19
1002
}
  0
LINE
  5
137
330
10A
100
AcDbEntity
  8
0
100
AcDbLine
 10
441.9847250463187
 20
404.9999999999976
 30
0.0
 11
526.1189432720491
 21
404.9999999999976
 31
0.0
1001
ACAD
1000
ASC_BOUNDS
1002
{
1070
    19
1002
}
  0
LINE
  5
138
330
10A
100
AcDbEntity
  8
0
100
AcDbLine
 10
537.221841865037
 20
386.0912406355389
 30
0.0
 11
536.9466393000855
 21
389.0948876264922
 31
0.0
1001
ACAD
1000
ASC_BOUNDS
1002
{
1070
    19
1002
}
  0
ARC
  5
139
330
10A
100
AcDbEntity
  8
0
100
AcDbCircle
 10
536.2260129909698
 20
385.9999999999977
 30
0.0
 40
1.0
100
AcDbArc
 50
270.0
 51
5.234983955055374
1001
ACAD
1000
ASC_BOUNDS
1002
{
1070
    19
1002
}
  0
LINE
  5
13A
330
10A
100
AcDbEntity
  8
0
100
AcDbLine
 10
485.1059950196006
 20
380.9356142470769
 30
0.0
 11
485.3973066797277
 21
385.4507002704604
 31
0.0
1001
ACAD
1000
ASC_BOUNDS
1002
{
1070
    19
1005
0
1005
0
1002
}
  0
ARC
  5
13B
330
10A
100
AcDbEntity
  8
0
100
AcDbCircle
 10
484.1080699348269
 20
381.0
 30
0.0
 40
1.0
100
AcDbArc
 50
270.0
 51
356.3084145010584
1001
ACAD
1000
ASC_BOUNDS
1002
{
1070
    19
1005
0
1005
0
1002
}
  0
LINE
  5
13C
330
10A
100
AcDbEntity
  8
0
100
AcDbLine
 10
485.3682276669849
 20
384.9999999999977
 30
0.0
 11
536.2260129909698
 21
384.9999999999977
 31
0.0
1001
ACAD
1000
ASC_BOUNDS
1002
{
1070
    19
1002
}
  0
ARC
  5
13D
330
10A
100
AcDbEntity
  8
0
100
AcDbCircle
 10
524.9966928112778
 20
387.9999999999977
 30
0.0
 40
12.0
100
AcDbArc
 50
5.234983955055374
 51
90.0
1001
ACAD
1000
ASC_BOUNDS
1002
{
1070
    19
1002
}
  0
ARC
  5
13E
330
10A
100
AcDbEntity
  8
0
100
AcDbCircle
 10
132.7321642083205
 20
697.5204928919701
 30
0.0
 40
292.5207806986128
100
AcDbArc
 50
267.8554643813525
 51
269.9196270870494
  0
ARC
  5
13F
330
10A
100
AcDbEntity
  8
0
100
AcDbCircle
 10
112.3218243938707
 20
361.0020223379981
 30
0.0
 40
44.5
100
AcDbArc
 50
83.31433879264926
 51
90.0
1001
ACAD
1000
ASC_BOUNDS
1002
{
1070
    19
1002
}
  0
LINE
  5
140
330
10A
100
AcDbEntity
  8
0
100
AcDbLine
 10
121.4571325863351
 20
399.2172539367047
 30
0.0
 11
121.3082868299905
 21
396.5065500185355
 31
0.0
  0
ARC
  5
141
330
10A
100
AcDbEntity
  8
0
100
AcDbCircle
 10
109.3482665350828
 20
399.4999999999974
 30
0.0
 40
6.0
100
AcDbArc
 50
90.0
 51
178.4242238671761
1001
ACAD
1000
ASC_BOUNDS
1002
{
1070
    19
1002
}
  0
LINE
  5
142
330
10A
100
AcDbEntity
  8
0
100
AcDbLine
 10
102.322975704539
 20
406.4999999999974
 30
0.0
 11
102.3218243938707
 21
404.9999999999976
 31
0.0
  0
ARC
  5
143
330
10A
100
AcDbEntity
  8
0
100
AcDbCircle
 10
106.9747660867149
 20
407.0125987953931
 30
0.0
 40
2.0
100
AcDbArc
 50
270.0
 51
270.1347785445022
  0
LINE
  5
144
330
10A
100
AcDbEntity
  8
0
100
AcDbLine
 10
102.3218243938707
 20
404.9999999999976
 30
0.0
 11
103.3830974566852
 21
395.9515913285158
 31
0.0
  0
LINE
  5
145
330
10A
100
AcDbEntity
  8
0
100
AcDbLine
 10
103.3505355515697
 20
399.6649940890311
 30
0.0
 11
103.2772231150491
 21
396.9999999999974
 31
0.0
  0
ARC
  5
146
330
10A
100
AcDbEntity
  8
0
100
AcDbCircle
 10
132.7321642083205
 20
697.5204928919701
 30
0.0
 40
292.5207806986128
100
AcDbArc
 50
264.0342458986717
 51
264.7297460690354
1001
ACAD
1000
ASC_BOUNDS
1002
{
1070
    19
1002
}
  0
LINE
  5
147
330
10A
100
AcDbEntity
  8
0
100
AcDbLine
 10
102.322975704539
 20
406.4999999999974
 30
0.0
 11
103.0903328685997
 21
416.6778478722882
 31
0.0
1001
ACAD
1000
ASC_BOUNDS
1002
{
1070
    19
1002
}
  0
LINE
  5
148
330
10A
100
AcDbEntity
  8
0
100
AcDbLine
 10
103.6921276967803
 20
401.5020223379982
 30
0.0
 11
112.3218243938707
 21
401.502022337998
 31
0.0
1001
ACAD
1000
ASC_BOUNDS
1002
{
1070
    19
1002
}
  0
LINE
  5
149
330
10A
100
AcDbEntity
  8
0
100
AcDbLine
 10
109.3482665350828
 20
405.4999999999974
 30
0.0
 11
112.3218243938707
 21
405.4999999999974
 31
0.0
1001
ACAD
1000
ASC_BOUNDS
1002
{
1070
    19
1002
}
  0
ARC
  5
14A
330
10A
100
AcDbEntity
  8
0
100
AcDbCircle
 10
112.0648616928536
 20
416.0012147496702
 30
0.0
 40
9.0
100
AcDbArc
 50
90.0
 51
175.6883514775356
1001
ACAD
1000
ASC_BOUNDS
1002
{
1070
    19
1002
}
  0
ARC
  5
14B
330
10A
100
AcDbEntity
  8
0
100
AcDbCircle
 10
122.4556284125708
 20
399.1624261609867
 30
0.0
 40
1.0
100
AcDbArc
 50
74.93936450491455
 51
176.8570238324249
  0
ARC
  5
14C
330
10A
100
AcDbEntity
  8
0
100
AcDbCircle
 10
112.3218243938707
 20
361.5020223379981
 30
0.0
 40
40.0
100
AcDbArc
 50
66.82093297998858
 51
90.0
1001
ACAD
1000
ASC_BOUNDS
1002
{
1070
    19
1002
}
  0
ARC
  5
14D
330
10A
100
AcDbEntity
  8
0
100
AcDbCircle
 10
132.7321642083205
 20
697.5204928919701
 30
0.0
 40
292.5207806986128
100
AcDbArc
 50
264.7297460690354
 51
267.8554643813525
  0
ARC
  5
14E
330
10A
100
AcDbEntity
  8
0
100
AcDbCircle
 10
251.3881224811501
 20
1547.379202975041
 30
0.0
 40
1150.0
100
AcDbArc
 50
263.3143387926493
 51
266.133269072167
1001
ACAD
1000
ASC_BOUNDS
1002
{
1070
    19
1002
}
  0
LINE
  5
14F
330
10A
100
AcDbEntity
  8
0
100
AcDbLine
 10
179.6221525726398
 20
380.8781306565945
 30
0.0
 11
179.1016302689466
 21
385.117444621359
 31
0.0
1001
ACAD
1000
ASC_BOUNDS
1002
{
1070
    19
1002
}
  0
ARC
  5
150
330
10A
100
AcDbEntity
  8
0
100
AcDbCircle
 10
180.6146987242812
 20
380.9999999999997
 30
0.0
 40
1.0
100
AcDbArc
 50
187.000000000006
 51
270.0
1001
ACAD
1000
ASC_BOUNDS
1002
{
1070
    19
1002
}
  0
ARC
  5
151
330
10A
100
AcDbEntity
  8
0
100
AcDbCircle
 10
251.3881224811501
 20
1547.379202975041
 30
0.0
 40
1158.0
100
AcDbArc
 50
264.6327357776938
 51
266.0546353379999
1001
ACAD
1000
ASC_BOUNDS
1002
{
1070
    19
1002
}
  0
ARC
  5
152
330
10A
100
AcDbEntity
  8
0
 48
0.75
100
AcDbCircle
 10
115.3218243938707
 20
396.9999999999977
 30
0.0
 40
12.0
100
AcDbArc
 50
242.181860715344
 51
270.0
  0
ARC
  5
153
330
10A
100
AcDbEntity
  8
0
100
AcDbCircle
 10
171.1612610558161
 20
384.1424898741179
 30
0.0
 40
8.0
100
AcDbArc
 50
6.999999999992874
 51
86.05463533799991
1001
ACAD
1000
ASC_BOUNDS
1002
{
1070
    19
1002
}
  0
LINE
  5
154
330
10A
100
AcDbEntity
  8
0
100
AcDbLine
 10
115.3218243938707
 20
384.9999999999977
 30
0.0
 11
179.1160506552108
 21
384.9999999999977
 31
0.0
  0
ARC
  5
155
330
10A
100
AcDbEntity
  8
0
100
AcDbCircle
 10
147.7463713905388
 20
444.2371507302404
 30
0.0
 40
50.0
100
AcDbArc
 50
246.8209329799886
 51
264.6327357776938
1001
ACAD
1000
ASC_BOUNDS
1002
{
1070
    19
1002
}
  0
ARC
  5
156
330
10A
100
AcDbEntity
  8
0
100
AcDbCircle
 10
115.3218243938707
 20
396.9999999999977
 30
0.0
 40
12.0
100
AcDbArc
 50
180.0
 51
242.181860715344
  0
ARC
  5
157
330
10A
100
AcDbEntity
  8
0
100
AcDbCircle
 10
112.3218243938707
 20
396.9999999999974
 30
0.0
 40
9.0
100
AcDbArc
 50
185.692397280442
 51
356.8570238324249
  0
LINE
  5
158
330
10A
100
AcDbEntity
  8
0
100
AcDbLine
 10
132.3218243940125
 20
404.9999999999976
 30
0.0
 11
421.7266465436112
 21
404.9999999999976
 31
0.0
  0
LINE
  5
159
330
10A
100
AcDbEntity
  8
0
100
AcDbLine
 10
111.9169968272124
 20
424.9999999999974
 30
0.0
 11
434.9466393000855
 21
424.9999999999976
 31
0.0
1001
ACAD
1000
ASC_BOUNDS
1002
{
1070
    19
1005
0
1005
0
1002
}
  0
LINE
  5
15A
330
10A
100
AcDbEntity
  8
0
100
AcDbLine
 10
180.6146987242812
 20
379.9999999999999
 30
0.0
 11
484.1080699348269
 21
379.9999999999999
 31
0.0
1001
ACAD
1000
ASC_BOUNDS
1002
{
1070
    19
1002
}
  0
LINE
  5
15B
330
10A
100
AcDbEntity
  8
0
100
AcDbLine
 10
175.2573509085303
 20
399.9999999999977
 30
0.0
 11
524.9966928112778
 21
399.9999999999977
 31
0.0
  0
LINE
  5
15C
330
10A
100
AcDbEntity
  8
0
100
AcDbLine
 10
173.7932477769989
 20
399.9999999999975
 30
0.0
 11
491.3218243938707
 21
399.9999999999977
 31
0.0
1001
ACAD
1000
ASC_BOUNDS
1002
{
1070
    19
1002
}
  0
ENDBLK
  5
15D
330
10A
100
AcDbEntity
  8
0
100
AcDbBlockEnd
  0
ENDSEC
  0
SECTION
  2
ENTITIES
  0
MTEXT
  5
C0
330
1F
100
AcDbEntity
  8
0
100
AcDbMText
 10
99.8487310420286
 20
58.11088395934422
 30
0.0
 40
20.0
 41
1133.185185185185
 71
     1
 72
     5
  1
{\fTimes New Roman|b0|i0|c0|p18;\C0;INODORO DE TANQUE ALTO O FLUXOR CON SALIDA HORIZONTAL\PSERIE ELIA}
 73
     1
 44
1.0
  0
INSERT
  5
35D
330
1F
100
AcDbEntity
  8
0
100
AcDbBlockReference
  2
18170_L
 10
317.7632874264108
 20
290.9091538280161
 30
0.0
  0
ENDSEC
  0
SECTION
  2
OBJECTS
  0
DICTIONARY
  5
C
330
0
100
AcDbDictionary
281
     1
  3
ACAD_COLOR
350
73
  3
ACAD_GROUP
350
D
  3
ACAD_LAYOUT
350
1A
  3
ACAD_MATERIAL
350
72
  3
ACAD_MLINESTYLE
350
17
  3
ACAD_PLOTSETTINGS
350
19
  3
ACAD_PLOTSTYLENAME
350
E
  3
AcDbVariableDictionary
350
66
  0
DICTIONARY
  5
96
330
2
100
AcDbDictionary
280
     1
281
     1
  3
ACAD_LAYERSTATES
360
97
  0
DICTIONARY
  5
73
102
{ACAD_REACTORS
330
C
102
}
330
C
100
AcDbDictionary
281
     1
  0
DICTIONARY
  5
D
102
{ACAD_REACTORS
330
C
102
}
330
C
100
AcDbDictionary
281
     1
  0
DICTIONARY
  5
1A
102
{ACAD_REACTORS
330
C
102
}
330
C
100
AcDbDictionary
281
     1
  3
Model
350
22
  3
Presentación1
350
59
  3
Presentación2
350
5E
  0
DICTIONARY
  5
72
102
{ACAD_REACTORS
330
C
102
}
330
C
100
AcDbDictionary
281
     1
  0
DICTIONARY
  5
17
102
{ACAD_REACTORS
330
C
102
}
330
C
100
AcDbDictionary
281
     1
  3
Standard
350
18
  0
DICTIONARY
  5
19
102
{ACAD_REACTORS
330
C
102
}
330
C
100
AcDbDictionary
281
     1
  0
ACDBDICTIONARYWDFLT
  5
E
102
{ACAD_REACTORS
330
C
102
}
330
C
100
AcDbDictionary
281
     1
  3
Normal
350
F
100
AcDbDictionaryWithDefault
340
F
  0
DICTIONARY
  5
66
102
{ACAD_REACTORS
330
C
102
}
330
C
100
AcDbDictionary
281
     1
  3
DIMASSOC
350
67
  3
HIDETEXT
350
6B
  0
DICTIONARY
  5
97
102
{ACAD_REACTORS
330
96
102
}
330
96
100
AcDbDictionary
281
     1
  0
LAYOUT
  5
22
102
{ACAD_REACTORS
330
1A
102
}
330
1A
100
AcDbPlotSettings
  1

  2
none_device
  4
ANSI_A_(8.50_x_11.00_Inches)
  6

 40
6.349999904632567
 41
19.04999923706055
 42
6.350006103515625
 43
19.04998779296875
 44
215.8999938964844
 45
279.3999938964844
 46
0.0
 47
0.0
 48
0.0
 49
0.0
140
0.0
141
0.0
142
1.0
143
2.584895464708373
 70
 11952
 72
     0
 73
     1
 74
     0
  7

 75
     0
147
0.3868628397755418
 76
     0
 77
     2
 78
   300
148
0.0
149
0.0
100
AcDbLayout
  1
Model
 70
     1
 71
     0
 10
0.0
 20
0.0
 11
12.0
 21
9.0
 12
0.0
 22
0.0
 32
0.0
 14
0.0
 24
0.0
 34
0.0
 15
0.0
 25
0.0
 35
0.0
146
0.0
 13
0.0
 23
0.0
 33
0.0
 16
1.0
 26
0.0
 36
0.0
 17
0.0
 27
1.0
 37
0.0
 76
     0
330
1F
  0
LAYOUT
  5
59
102
{ACAD_REACTORS
330
1A
102
}
330
1A
100
AcDbPlotSettings
  1

  2
None
  4

  6

 40
0.0
 41
0.0
 42
0.0
 43
0.0
 44
0.0
 45
0.0
 46
0.0
 47
0.0
 48
0.0
 49
0.0
140
0.0
141
0.0
142
1.0
143
1.0
 70
   688
 72
     0
 73
     0
 74
     5
  7

 75
    16
147
1.0
 76
     0
 77
     2
 78
   300
148
0.0
149
0.0
100
AcDbLayout
  1
Presentación1
 70
     1
 71
     1
 10
0.0
 20
0.0
 11
12.0
 21
9.0
 12
0.0
 22
0.0
 32
0.0
 14
0.0
 24
0.0
 34
0.0
 15
0.0
 25
0.0
 35
0.0
146
0.0
 13
0.0
 23
0.0
 33
0.0
 16
1.0
 26
0.0
 36
0.0
 17
0.0
 27
1.0
 37
0.0
 76
     0
330
58
  0
LAYOUT
  5
5E
102
{ACAD_REACTORS
330
1A
102
}
330
1A
100
AcDbPlotSettings
  1

  2
None
  4

  6

 40
0.0
 41
0.0
 42
0.0
 43
0.0
 44
0.0
 45
0.0
 46
0.0
 47
0.0
 48
0.0
 49
0.0
140
0.0
141
0.0
142
1.0
143
1.0
 70
   688
 72
     0
 73
     0
 74
     5
  7

 75
    16
147
1.0
 76
     0
 77
     2
 78
   300
148
0.0
149
0.0
100
AcDbLayout
  1
Presentación2
 70
     1
 71
     2
 10
0.0
 20
0.0
 11
12.0
 21
9.0
 12
0.0
 22
0.0
 32
0.0
 14
0.0
 24
0.0
 34
0.0
 15
0.0
 25
0.0
 35
0.0
146
0.0
 13
0.0
 23
0.0
 33
0.0
 16
1.0
 26
0.0
 36
0.0
 17
0.0
 27
1.0
 37
0.0
 76
     0
330
5D
  0
MLINESTYLE
  5
18
102
{ACAD_REACTORS
330
17
102
}
330
17
100
AcDbMlineStyle
  2
STANDARD
 70
     0
  3

 62
   256
 51
90.0
 52
90.0
 71
     2
 49
0.5
 62
   256
  6
BYLAYER
 49
-0.5
 62
   256
  6
BYLAYER
  0
ACDBPLACEHOLDER
  5
F
102
{ACAD_REACTORS
330
E
102
}
330
E
  0
DICTIONARYVAR
  5
67
102
{ACAD_REACTORS
330
66
102
}
330
66
100
DictionaryVariables
280
     0
  1
2
  0
DICTIONARYVAR
  5
6B
102
{ACAD_REACTORS
330
66
102
}
330
66
100
DictionaryVariables
280
     0
  1
1
  0
ENDSEC
  0
EOF
