  0
SECTION
  2
HEADER
  9
$ACADVER
  1
AC1018
  9
$ACADMAINTVER
 70
     0
  9
$DWGCODEPAGE
  3
ANSI_1252
  9
$INSBASE
 10
0.0
 20
0.0
 30
0.0
  9
$EXTMIN
 10
63.37471953187748
 20
4.944691142881308
 30
0.0
  9
$EXTMAX
 10
999.5679423148622
 20
508.3903096066946
 30
0.0
  9
$LIMMIN
 10
0.0
 20
0.0
  9
$LIMMAX
 10
12.0
 20
9.0
  9
$ORTHOMODE
 70
     0
  9
$REGENMODE
 70
     1
  9
$FILLMODE
 70
     1
  9
$QTEXTMODE
 70
     0
  9
$MIRRTEXT
 70
     0
  9
$LTSCALE
 40
1.0
  9
$ATTMODE
 70
     1
  9
$TEXTSIZE
 40
0.2
  9
$TRACEWID
 40
0.05
  9
$TEXTSTYLE
  7
Standard
  9
$CLAYER
  8
0
  9
$CELTYPE
  6
ByLayer
  9
$CECOLOR
 62
   256
  9
$CELTSCALE
 40
1.0
  9
$DISPSILH
 70
     0
  9
$DIMSCALE
 40
1.0
  9
$DIMASZ
 40
0.18
  9
$DIMEXO
 40
0.0625
  9
$DIMDLI
 40
0.38
  9
$DIMRND
 40
0.0
  9
$DIMDLE
 40
0.0
  9
$DIMEXE
 40
0.18
  9
$DIMTP
 40
0.0
  9
$DIMTM
 40
0.0
  9
$DIMTXT
 40
0.18
  9
$DIMCEN
 40
0.09
  9
$DIMTSZ
 40
0.0
  9
$DIMTOL
 70
     0
  9
$DIMLIM
 70
     0
  9
$DIMTIH
 70
     1
  9
$DIMTOH
 70
     1
  9
$DIMSE1
 70
     0
  9
$DIMSE2
 70
     0
  9
$DIMTAD
 70
     0
  9
$DIMZIN
 70
     0
  9
$DIMBLK
  1

  9
$DIMASO
 70
     1
  9
$DIMSHO
 70
     1
  9
$DIMPOST
  1

  9
$DIMAPOST
  1

  9
$DIMALT
 70
     0
  9
$DIMALTD
 70
     2
  9
$DIMALTF
 40
25.4
  9
$DIMLFAC
 40
1.0
  9
$DIMTOFL
 70
     0
  9
$DIMTVP
 40
0.0
  9
$DIMTIX
 70
     0
  9
$DIMSOXD
 70
     0
  9
$DIMSAH
 70
     0
  9
$DIMBLK1
  1

  9
$DIMBLK2
  1

  9
$DIMSTYLE
  2
Standard
  9
$DIMCLRD
 70
     0
  9
$DIMCLRE
 70
     0
  9
$DIMCLRT
 70
     0
  9
$DIMTFAC
 40
1.0
  9
$DIMGAP
 40
0.09
  9
$DIMJUST
 70
     0
  9
$DIMSD1
 70
     0
  9
$DIMSD2
 70
     0
  9
$DIMTOLJ
 70
     1
  9
$DIMTZIN
 70
     0
  9
$DIMALTZ
 70
     0
  9
$DIMALTTZ
 70
     0
  9
$DIMUPT
 70
     0
  9
$DIMDEC
 70
     4
  9
$DIMTDEC
 70
     4
  9
$DIMALTU
 70
     2
  9
$DIMALTTD
 70
     2
  9
$DIMTXSTY
  7
Standard
  9
$DIMAUNIT
 70
     0
  9
$DIMADEC
 70
     0
  9
$DIMALTRND
 40
0.0
  9
$DIMAZIN
 70
     0
  9
$DIMDSEP
 70
    46
  9
$DIMATFIT
 70
     3
  9
$DIMFRAC
 70
     0
  9
$DIMLDRBLK
  1

  9
$DIMLUNIT
 70
     2
  9
$DIMLWD
 70
    -2
  9
$DIMLWE
 70
    -2
  9
$DIMTMOVE
 70
     0
  9
$LUNITS
 70
     2
  9
$LUPREC
 70
     4
  9
$SKETCHINC
 40
0.1
  9
$FILLETRAD
 40
0.0
  9
$AUNITS
 70
     0
  9
$AUPREC
 70
     0
  9
$MENU
  1
.
  9
$ELEVATION
 40
0.0
  9
$PELEVATION
 40
0.0
  9
$THICKNESS
 40
0.0
  9
$LIMCHECK
 70
     0
  9
$CHAMFERA
 40
0.0
  9
$CHAMFERB
 40
0.0
  9
$CHAMFERC
 40
0.0
  9
$CHAMFERD
 40
0.0
  9
$SKPOLY
 70
     0
  9
$TDCREATE
 40
2454473.059824352
  9
$TDUCREATE
 40
2454473.018157685
  9
$TDUPDATE
 40
2454551.545068148
  9
$TDUUPDATE
 40
2454551.503401482
  9
$TDINDWG
 40
0.0010821759
  9
$TDUSRTIMER
 40
0.0010821759
  9
$USRTIMER
 70
     1
  9
$ANGBASE
 50
0.0
  9
$ANGDIR
 70
     0
  9
$PDMODE
 70
     0
  9
$PDSIZE
 40
0.0
  9
$PLINEWID
 40
0.0
  9
$SPLFRAME
 70
     0
  9
$SPLINETYPE
 70
     6
  9
$SPLINESEGS
 70
     8
  9
$HANDSEED
  5
123
  9
$SURFTAB1
 70
     6
  9
$SURFTAB2
 70
     6
  9
$SURFTYPE
 70
     6
  9
$SURFU
 70
     6
  9
$SURFV
 70
     6
  9
$UCSBASE
  2

  9
$UCSNAME
  2

  9
$UCSORG
 10
0.0
 20
0.0
 30
0.0
  9
$UCSXDIR
 10
1.0
 20
0.0
 30
0.0
  9
$UCSYDIR
 10
0.0
 20
1.0
 30
0.0
  9
$UCSORTHOREF
  2

  9
$UCSORTHOVIEW
 70
     0
  9
$UCSORGTOP
 10
0.0
 20
0.0
 30
0.0
  9
$UCSORGBOTTOM
 10
0.0
 20
0.0
 30
0.0
  9
$UCSORGLEFT
 10
0.0
 20
0.0
 30
0.0
  9
$UCSORGRIGHT
 10
0.0
 20
0.0
 30
0.0
  9
$UCSORGFRONT
 10
0.0
 20
0.0
 30
0.0
  9
$UCSORGBACK
 10
0.0
 20
0.0
 30
0.0
  9
$PUCSBASE
  2

  9
$PUCSNAME
  2

  9
$PUCSORG
 10
0.0
 20
0.0
 30
0.0
  9
$PUCSXDIR
 10
1.0
 20
0.0
 30
0.0
  9
$PUCSYDIR
 10
0.0
 20
1.0
 30
0.0
  9
$PUCSORTHOREF
  2

  9
$PUCSORTHOVIEW
 70
     0
  9
$PUCSORGTOP
 10
0.0
 20
0.0
 30
0.0
  9
$PUCSORGBOTTOM
 10
0.0
 20
0.0
 30
0.0
  9
$PUCSORGLEFT
 10
0.0
 20
0.0
 30
0.0
  9
$PUCSORGRIGHT
 10
0.0
 20
0.0
 30
0.0
  9
$PUCSORGFRONT
 10
0.0
 20
0.0
 30
0.0
  9
$PUCSORGBACK
 10
0.0
 20
0.0
 30
0.0
  9
$USERI1
 70
     0
  9
$USERI2
 70
     0
  9
$USERI3
 70
     0
  9
$USERI4
 70
     0
  9
$USERI5
 70
     0
  9
$USERR1
 40
0.0
  9
$USERR2
 40
0.0
  9
$USERR3
 40
0.0
  9
$USERR4
 40
0.0
  9
$USERR5
 40
0.0
  9
$WORLDVIEW
 70
     1
  9
$SHADEDGE
 70
     3
  9
$SHADEDIF
 70
    70
  9
$TILEMODE
 70
     1
  9
$MAXACTVP
 70
    64
  9
$PINSBASE
 10
0.0
 20
0.0
 30
0.0
  9
$PLIMCHECK
 70
     0
  9
$PEXTMIN
 10
0.0
 20
0.0
 30
0.0
  9
$PEXTMAX
 10
0.0
 20
0.0
 30
0.0
  9
$PLIMMIN
 10
0.0
 20
0.0
  9
$PLIMMAX
 10
12.0
 20
9.0
  9
$UNITMODE
 70
     0
  9
$VISRETAIN
 70
     1
  9
$PLINEGEN
 70
     0
  9
$PSLTSCALE
 70
     1
  9
$TREEDEPTH
 70
  3020
  9
$CMLSTYLE
  2
Standard
  9
$CMLJUST
 70
     0
  9
$CMLSCALE
 40
1.0
  9
$PROXYGRAPHICS
 70
     1
  9
$MEASUREMENT
 70
     0
  9
$CELWEIGHT
370
    -1
  9
$ENDCAPS
280
     0
  9
$JOINSTYLE
280
     0
  9
$LWDISPLAY
290
     0
  9
$INSUNITS
 70
     1
  9
$HYPERLINKBASE
  1

  9
$STYLESHEET
  1

  9
$XEDIT
290
     1
  9
$CEPSNTYPE
380
     0
  9
$PSTYLEMODE
290
     1
  9
$FINGERPRINTGUID
  2
{FDEAD576-A652-11D2-9A35-0060089B3A3F}
  9
$VERSIONGUID
  2
{B8522D76-27D2-4D1D-8286-E38DE261956A}
  9
$EXTNAMES
290
     1
  9
$PSVPSCALE
 40
0.0
  9
$OLESTARTUP
290
     0
  9
$SORTENTS
280
   127
  9
$INDEXCTL
280
     0
  9
$HIDETEXT
280
     1
  9
$XCLIPFRAME
290
     0
  9
$HALOGAP
280
     0
  9
$OBSCOLOR
 70
   257
  9
$OBSLTYPE
280
     0
  9
$INTERSECTIONDISPLAY
280
     0
  9
$INTERSECTIONCOLOR
 70
   257
  9
$DIMASSOC
280
     2
  9
$PROJECTNAME
  1

  0
ENDSEC
  0
SECTION
  2
CLASSES
  0
CLASS
  1
ACDBDICTIONARYWDFLT
  2
AcDbDictionaryWithDefault
  3
ObjectDBX Classes
 90
        0
 91
        1
280
     0
281
     0
  0
CLASS
  1
DICTIONARYVAR
  2
AcDbDictionaryVar
  3
ObjectDBX Classes
 90
        0
 91
        2
280
     0
281
     0
  0
CLASS
  1
SORTENTSTABLE
  2
AcDbSortentsTable
  3
ObjectDBX Classes
 90
        0
 91
        0
280
     0
281
     0
  0
ENDSEC
  0
SECTION
  2
TABLES
  0
TABLE
  2
VPORT
  5
8
330
0
100
AcDbSymbolTable
 70
     3
  0
VPORT
  5
122
330
8
100
AcDbSymbolTableRecord
100
AcDbViewportTableRecord
  2
*Active
 70
     0
 10
0.0
 20
0.0
 11
1.0
 21
1.0
 12
413.6318649887675
 22
284.1174443700853
 13
0.0
 23
0.0
 14
0.5
 24
0.5
 15
0.5
 25
0.5
 16
0.0
 26
0.0
 36
1.0
 17
0.0
 27
0.0
 37
0.0
 40
864.3119751605233
 41
1.642184557438794
 42
50.0
 43
0.0
 44
0.0
 50
0.0
 51
0.0
 71
     0
 72
  1000
 73
     1
 74
     3
 75
     0
 76
     0
 77
     0
 78
     0
281
     0
 65
     1
110
0.0
120
0.0
130
0.0
111
1.0
121
0.0
131
0.0
112
0.0
122
1.0
132
0.0
 79
     0
146
0.0
  0
ENDTAB
  0
TABLE
  2
LTYPE
  5
5
330
0
100
AcDbSymbolTable
 70
     1
  0
LTYPE
  5
14
330
5
100
AcDbSymbolTableRecord
100
AcDbLinetypeTableRecord
  2
ByBlock
 70
     0
  3

 72
    65
 73
     0
 40
0.0
  0
LTYPE
  5
15
330
5
100
AcDbSymbolTableRecord
100
AcDbLinetypeTableRecord
  2
ByLayer
 70
     0
  3

 72
    65
 73
     0
 40
0.0
  0
LTYPE
  5
16
330
5
100
AcDbSymbolTableRecord
100
AcDbLinetypeTableRecord
  2
Continuous
 70
     0
  3
Solid line
 72
    65
 73
     0
 40
0.0
  0
ENDTAB
  0
TABLE
  2
LAYER
  5
2
102
{ACAD_XDICTIONARY
360
96
102
}
330
0
100
AcDbSymbolTable
 70
     1
  0
LAYER
  5
10
330
2
100
AcDbSymbolTableRecord
100
AcDbLayerTableRecord
  2
0
 70
     0
 62
     7
  6
Continuous
370
    -3
390
F
  0
ENDTAB
  0
TABLE
  2
STYLE
  5
3
330
0
100
AcDbSymbolTable
 70
     3
  0
STYLE
  5
11
330
3
100
AcDbSymbolTableRecord
100
AcDbTextStyleTableRecord
  2
Standard
 70
     0
 40
0.0
 41
1.0
 50
0.0
 71
     0
 42
0.2
  3
txt
  4

  0
STYLE
  5
93
330
3
100
AcDbSymbolTableRecord
100
AcDbTextStyleTableRecord
  2
ROMANS
 70
     0
 40
0.0
 41
1.0
 50
0.0
 71
     0
 42
25.0
  3
romans
  4

  0
STYLE
  5
94
330
3
100
AcDbSymbolTableRecord
100
AcDbTextStyleTableRecord
  2
SANSSERIFBOLD
 70
     0
 40
0.0
 41
1.0
 50
0.0
 71
     0
 42
87.71704489347758
  3
ARIALBD.TTF
  4

1001
ACAD
1000
Arial
1071
 33554466
  0
ENDTAB
  0
TABLE
  2
VIEW
  5
6
330
0
100
AcDbSymbolTable
 70
     0
  0
ENDTAB
  0
TABLE
  2
UCS
  5
7
330
0
100
AcDbSymbolTable
 70
     0
  0
ENDTAB
  0
TABLE
  2
APPID
  5
9
330
0
100
AcDbSymbolTable
 70
     2
  0
APPID
  5
12
330
9
100
AcDbSymbolTableRecord
100
AcDbRegAppTableRecord
  2
ACAD
 70
     0
  0
APPID
  5
95
330
9
100
AcDbSymbolTableRecord
100
AcDbRegAppTableRecord
  2
ACAD_PSEXT
 70
     0
  0
ENDTAB
  0
TABLE
  2
DIMSTYLE
  5
A
330
0
100
AcDbSymbolTable
 70
     1
100
AcDbDimStyleTable
 71
     0
  0
DIMSTYLE
105
27
330
A
100
AcDbSymbolTableRecord
100
AcDbDimStyleTableRecord
  2
Standard
 70
     0
340
11
  0
ENDTAB
  0
TABLE
  2
BLOCK_RECORD
  5
1
330
0
100
AcDbSymbolTable
 70
     3
  0
BLOCK_RECORD
  5
1F
330
1
100
AcDbSymbolTableRecord
100
AcDbBlockTableRecord
  2
*Model_Space
340
22
  0
BLOCK_RECORD
  5
58
330
1
100
AcDbSymbolTableRecord
100
AcDbBlockTableRecord
  2
*Paper_Space
340
59
  0
BLOCK_RECORD
  5
5D
330
1
100
AcDbSymbolTableRecord
100
AcDbBlockTableRecord
  2
*Paper_Space0
340
5E
  0
BLOCK_RECORD
  5
BF
330
1
100
AcDbSymbolTableRecord
100
AcDbBlockTableRecord
  2
18170_A
340
0
1001
ACAD
1000
DesignCenter Data
1002
{
1070
     1
1070
     1
1002
}
  0
BLOCK_RECORD
  5
DA
330
1
100
AcDbSymbolTableRecord
100
AcDbBlockTableRecord
  2
18130_A
340
0
102
{BLKREFS
331
118
102
}
1001
ACAD
1000
DesignCenter Data
1002
{
1070
     1
1070
     4
1002
}
  0
ENDTAB
  0
ENDSEC
  0
SECTION
  2
BLOCKS
  0
BLOCK
  5
20
330
1F
100
AcDbEntity
  8
0
100
AcDbBlockBegin
  2
*Model_Space
 70
     0
 10
0.0
 20
0.0
 30
0.0
  3
*Model_Space
  1

  0
ENDBLK
  5
21
330
1F
100
AcDbEntity
  8
0
100
AcDbBlockEnd
  0
BLOCK
  5
5A
330
58
100
AcDbEntity
 67
     1
  8
0
100
AcDbBlockBegin
  2
*Paper_Space
 70
     0
 10
0.0
 20
0.0
 30
0.0
  3
*Paper_Space
  1

  0
ENDBLK
  5
5B
330
58
100
AcDbEntity
 67
     1
  8
0
100
AcDbBlockEnd
  0
BLOCK
  5
5F
330
5D
100
AcDbEntity
  8
0
100
AcDbBlockBegin
  2
*Paper_Space0
 70
     0
 10
0.0
 20
0.0
 30
0.0
  3
*Paper_Space0
  1

  0
ENDBLK
  5
60
330
5D
100
AcDbEntity
  8
0
100
AcDbBlockEnd
  0
BLOCK
  5
C0
330
BF
100
AcDbEntity
  8
0
100
AcDbBlockBegin
  2
18170_A
 70
     0
 10
0.0
 20
0.0
 30
0.0
  3
18170_A
  1

  0
ARC
  5
C2
330
BF
100
AcDbEntity
  8
0
100
AcDbCircle
 10
166.8620279390343
 20
372.0
 30
0.0
 40
8.0
100
AcDbArc
 50
358.0238917142839
 51
90.0
  0
LINE
  5
C3
330
BF
100
AcDbEntity
  8
0
100
AcDbLine
 10
0.0
 20
380.0
 30
0.0
 11
166.8903903865285
 21
380.0
 31
0.0
  0
ARC
  5
C4
330
BF
100
AcDbEntity
  8
0
100
AcDbCircle
 10
125.6720184898477
 20
195.9641845590685
 30
0.0
 40
25.0
100
AcDbArc
 50
136.0146216500396
 51
182.0000000000036
  0
ARC
  5
C5
330
BF
100
AcDbEntity
  8
0
100
AcDbCircle
 10
-64.99999999999636
 20
380.0
 30
0.0
 40
240.0
100
AcDbArc
 50
316.0146216500397
 51
358.0238917142839
  0
ARC
  5
C6
330
BF
100
AcDbEntity
  8
0
100
AcDbCircle
 10
-166.8620279390306
 20
372.0
 30
0.0
 40
8.0
100
AcDbArc
 50
90.0
 51
181.976108285716
  0
ARC
  5
C7
330
BF
100
AcDbEntity
  8
0
100
AcDbCircle
 10
-125.672018489844
 20
195.9641845590685
 30
0.0
 40
25.0
100
AcDbArc
 50
357.9999999999964
 51
43.98537834996031
  0
ARC
  5
C8
330
BF
100
AcDbEntity
  8
0
100
AcDbCircle
 10
65.0
 20
380.0
 30
0.0
 40
240.0
100
AcDbArc
 50
181.976108285716
 51
223.9853783499603
  0
LINE
  5
C9
330
BF
100
AcDbEntity
  8
0
100
AcDbLine
 10
0.0
 20
380.0
 30
0.0
 11
-166.8903903865284
 21
380.0
 31
0.0
  0
LINE
  5
CA
330
BF
100
AcDbEntity
  8
0
100
AcDbLine
 10
0.0
 20
0.0
 30
0.0
 11
107.5
 21
0.0
 31
0.0
  0
LINE
  5
CB
330
BF
100
AcDbEntity
  8
0
100
AcDbLine
 10
0.0
 20
0.0
 30
0.0
 11
-107.5
 21
0.0
 31
0.0
  0
LINE
  5
CC
330
BF
100
AcDbEntity
  8
0
100
AcDbLine
 10
107.5
 20
0.0
 30
0.0
 11
100.6872478143669
 21
195.0916971415063
 31
0.0
  0
LINE
  5
CD
330
BF
100
AcDbEntity
  8
0
100
AcDbLine
 10
-107.5
 20
0.0
 30
0.0
 11
-100.6872478143668
 21
195.0916971415063
 31
0.0
  0
ARC
  5
CE
330
BF
100
AcDbEntity
  8
0
100
AcDbCircle
 10
0.0
 20
398.6928542803799
 30
0.0
 40
218.604078403651
100
AcDbArc
 50
249.7712553190293
 51
270.0
  0
ARC
  5
CF
330
BF
100
AcDbEntity
  8
0
100
AcDbCircle
 10
0.0
 20
398.6928542803799
 30
0.0
 40
218.604078403651
100
AcDbArc
 50
270.0
 51
290.2287446809708
  0
ENDBLK
  5
C1
330
BF
100
AcDbEntity
  8
0
100
AcDbBlockEnd
  0
BLOCK
  5
DB
330
DA
100
AcDbEntity
  8
0
100
AcDbBlockBegin
  2
18130_A
 70
     0
 10
0.0
 20
0.0
 30
0.0
  3
18130_A
  1

  0
ARC
  5
DC
330
DA
100
AcDbEntity
  8
0
100
AcDbCircle
 10
65.0
 20
380.0
 30
0.0
 40
240.0
100
AcDbArc
 50
181.976108285716
 51
223.9853783500351
  0
ARC
  5
DD
330
DA
100
AcDbEntity
  8
0
100
AcDbCircle
 10
-64.99999999999545
 20
380.0
 30
0.0
 40
240.0
100
AcDbArc
 50
316.0146216499648
 51
358.0238917142839
  0
ARC
  5
DE
330
DA
100
AcDbEntity
  8
0
100
AcDbCircle
 10
0.0
 20
398.6928542803798
 30
0.0
 40
218.604078403651
100
AcDbArc
 50
270.0
 51
290.2287446809708
  0
LINE
  5
DF
330
DA
100
AcDbEntity
  8
0
100
AcDbLine
 10
0.0
 20
0.0
 30
0.0
 11
107.5
 21
0.0
 31
0.0
  0
ARC
  5
E0
330
DA
100
AcDbEntity
  8
0
100
AcDbCircle
 10
0.0
 20
398.6928542803798
 30
0.0
 40
218.604078403651
100
AcDbArc
 50
249.7712553190293
 51
270.0
  0
LINE
  5
E1
330
DA
100
AcDbEntity
  8
0
100
AcDbLine
 10
-107.4999999999991
 20
0.0
 30
0.0
 11
-100.6872478143659
 21
195.0916971415063
 31
0.0
  0
ARC
  5
E2
330
DA
100
AcDbEntity
  8
0
100
AcDbCircle
 10
-125.6720184898431
 20
195.9641845590686
 30
0.0
 40
25.0
100
AcDbArc
 50
357.9999999999964
 51
43.98537835003518
  0
LINE
  5
E3
330
DA
100
AcDbEntity
  8
0
100
AcDbLine
 10
0.0
 20
0.0
 30
0.0
 11
-107.4999999999991
 21
0.0
 31
0.0
  0
ARC
  5
E4
330
DA
100
AcDbEntity
  8
0
100
AcDbCircle
 10
125.6720184898477
 20
195.9641845590686
 30
0.0
 40
25.0
100
AcDbArc
 50
136.0146216499648
 51
182.0000000000036
  0
LINE
  5
E5
330
DA
100
AcDbEntity
  8
0
100
AcDbLine
 10
107.5
 20
0.0
 30
0.0
 11
100.6872478143668
 21
195.0916971415063
 31
0.0
  0
LINE
  5
E6
330
DA
100
AcDbEntity
  8
0
100
AcDbLine
 10
0.0
 20
380.0
 30
0.0
 11
166.8903903865284
 21
380.0
 31
0.0
  0
LINE
  5
E7
330
DA
100
AcDbEntity
  8
0
100
AcDbLine
 10
0.0
 20
380.0
 30
0.0
 11
-166.8903903865275
 21
380.0
 31
0.0
  0
ARC
  5
E8
330
DA
100
AcDbEntity
  8
0
100
AcDbCircle
 10
-166.8620279390297
 20
372.0
 30
0.0
 40
8.0
100
AcDbArc
 50
90.0
 51
181.976108285716
  0
ARC
  5
E9
330
DA
100
AcDbEntity
  8
0
100
AcDbCircle
 10
166.8620279390343
 20
372.0
 30
0.0
 40
8.0
100
AcDbArc
 50
358.0238917142839
 51
90.0
  0
ARC
  5
EA
330
DA
100
AcDbEntity
  8
0
 62
     0
100
AcDbCircle
 10
-144.3976307329593
 20
460.0
 30
0.0
 40
80.0
100
AcDbArc
 50
262.8192442185418
 51
277.1807557814582
  0
ARC
  5
EB
330
DA
100
AcDbEntity
  8
0
 62
     0
100
AcDbCircle
 10
-107.3976307329593
 20
460.0
 30
0.0
 40
80.0
100
AcDbArc
 50
262.8192442185418
 51
277.1807557814582
  0
ARC
  5
EC
330
DA
100
AcDbEntity
  8
0
 62
     0
100
AcDbCircle
 10
145.054186595715
 20
460.0000000000004
 30
0.0
 40
80.0
100
AcDbArc
 50
262.8192442185418
 51
277.1807557814582
  0
ARC
  5
ED
330
DA
100
AcDbEntity
  8
0
 62
     0
100
AcDbCircle
 10
108.054186595715
 20
460.0000000000004
 30
0.0
 40
80.0
100
AcDbArc
 50
262.8192442185418
 51
277.1807557814582
  0
ARC
  5
EE
330
DA
100
AcDbEntity
  8
0
 62
     0
100
AcDbCircle
 10
155.554186595715
 20
384.0000000000005
 30
0.0
 40
0.5
100
AcDbArc
 50
90.0
 51
180.0
  0
ARC
  5
EF
330
DA
100
AcDbEntity
  8
0
 62
     0
100
AcDbCircle
 10
134.554186595715
 20
384.0000000000005
 30
0.0
 40
0.5
100
AcDbArc
 50
0.0
 51
90.0
  0
LINE
  5
F0
330
DA
100
AcDbEntity
  8
0
 62
     0
100
AcDbLine
 10
135.054186595715
 20
380.6274606680628
 30
0.0
 11
135.054186595715
 21
384.0000000000005
 31
0.0
  0
LINE
  5
F1
330
DA
100
AcDbEntity
  8
0
 62
     0
100
AcDbLine
 10
155.054186595715
 20
380.6274606680628
 30
0.0
 11
155.054186595715
 21
384.0000000000005
 31
0.0
  0
ARC
  5
F2
330
DA
100
AcDbEntity
  8
0
 62
     0
100
AcDbCircle
 10
118.554186595715
 20
384.0000000000005
 30
0.0
 40
0.5
100
AcDbArc
 50
90.0
 51
180.0
  0
ARC
  5
F3
330
DA
100
AcDbEntity
  8
0
 62
     0
100
AcDbCircle
 10
97.55418659571502
 20
384.0000000000005
 30
0.0
 40
0.5
100
AcDbArc
 50
0.0
 51
90.0
  0
LINE
  5
F4
330
DA
100
AcDbEntity
  8
0
 62
     0
100
AcDbLine
 10
98.054186595715
 20
380.6274606680628
 30
0.0
 11
98.054186595715
 21
384.0000000000005
 31
0.0
  0
LINE
  5
F5
330
DA
100
AcDbEntity
  8
0
 62
     0
100
AcDbLine
 10
118.054186595715
 20
380.6274606680628
 30
0.0
 11
118.054186595715
 21
384.0000000000005
 31
0.0
  0
LINE
  5
F6
330
DA
100
AcDbEntity
  8
0
 62
     0
100
AcDbLine
 10
82.55418659571489
 20
396.5000000000001
 30
0.0
 11
82.55418659571489
 21
400.0
 31
0.0
  0
LINE
  5
F7
330
DA
100
AcDbEntity
  8
0
 62
     0
100
AcDbLine
 10
92.55418659571502
 20
396.4999999999998
 30
0.0
 11
92.55418659571455
 21
400.0
 31
0.0
  0
ARC
  5
F8
330
DA
100
AcDbEntity
  8
0
 62
     0
100
AcDbCircle
 10
160.7945062017727
 20
386.5
 30
0.0
 40
10.0
100
AcDbArc
 50
0.0
 51
90.0
  0
ARC
  5
F9
330
DA
100
AcDbEntity
  8
0
 62
     0
100
AcDbCircle
 10
168.7945062017727
 20
386.5
 30
0.0
 40
2.0
100
AcDbArc
 50
270.0
 51
0.0
  0
ARC
  5
FA
330
DA
100
AcDbEntity
  8
0
 62
     0
100
AcDbCircle
 10
109.554186595715
 20
398.0000000000001
 30
0.0
 40
2.0
100
AcDbArc
 50
90.0
 51
180.0
  0
LINE
  5
FB
330
DA
100
AcDbEntity
  8
0
 62
     0
100
AcDbLine
 10
107.554186595715
 20
396.4999999999998
 30
0.0
 11
107.554186595715
 21
398.0000000000001
 31
0.0
  0
ARC
  5
FC
330
DA
100
AcDbEntity
  8
0
 62
     0
100
AcDbCircle
 10
158.0541865957154
 20
402.0
 30
0.0
 40
10.0
100
AcDbArc
 50
0.0
 51
90.0
  0
ARC
  5
FD
330
DA
100
AcDbEntity
  8
0
 62
     0
100
AcDbCircle
 10
166.0541865957154
 20
402.0
 30
0.0
 40
2.0
100
AcDbArc
 50
270.0
 51
0.0
  0
ARC
  5
FE
330
DA
100
AcDbEntity
  8
0
 62
     0
100
AcDbCircle
 10
-154.8976307329593
 20
384.0
 30
0.0
 40
0.5
100
AcDbArc
 50
0.0
 51
90.0
  0
ARC
  5
FF
330
DA
100
AcDbEntity
  8
0
 62
     0
100
AcDbCircle
 10
-133.8976307329593
 20
384.0
 30
0.0
 40
0.5
100
AcDbArc
 50
90.0
 51
180.0
  0
LINE
  5
100
330
DA
100
AcDbEntity
  8
0
 62
     0
100
AcDbLine
 10
-134.3976307329593
 20
380.6274606680623
 30
0.0
 11
-134.3976307329593
 21
384.0
 31
0.0
  0
LINE
  5
101
330
DA
100
AcDbEntity
  8
0
 62
     0
100
AcDbLine
 10
-154.3976307329593
 20
380.6274606680623
 30
0.0
 11
-154.3976307329593
 21
384.0
 31
0.0
  0
ARC
  5
102
330
DA
100
AcDbEntity
  8
0
 62
     0
100
AcDbCircle
 10
-117.8976307329591
 20
384.0
 30
0.0
 40
0.5
100
AcDbArc
 50
0.0
 51
90.0
  0
ARC
  5
103
330
DA
100
AcDbEntity
  8
0
 62
     0
100
AcDbCircle
 10
-96.8976307329591
 20
384.0
 30
0.0
 40
0.5
100
AcDbArc
 50
90.0
 51
180.0
  0
LINE
  5
104
330
DA
100
AcDbEntity
  8
0
 62
     0
100
AcDbLine
 10
-97.39763073295932
 20
380.6274606680623
 30
0.0
 11
-97.39763073295932
 21
384.0
 31
0.0
  0
LINE
  5
105
330
DA
100
AcDbEntity
  8
0
 62
     0
100
AcDbLine
 10
-117.3976307329593
 20
380.6274606680623
 30
0.0
 11
-117.3976307329593
 21
384.0
 31
0.0
  0
LINE
  5
106
330
DA
100
AcDbEntity
  8
0
 62
     0
100
AcDbLine
 10
-81.8976307329591
 20
396.4999999999996
 30
0.0
 11
-81.8976307329591
 21
399.9999999999996
 31
0.0
  0
LINE
  5
107
330
DA
100
AcDbEntity
  8
0
 62
     0
100
AcDbLine
 10
-91.89763073295933
 20
396.4999999999994
 30
0.0
 11
-91.89763073295887
 21
399.9999999999996
 31
0.0
  0
LINE
  5
108
330
DA
100
AcDbEntity
  8
0
 62
     0
100
AcDbLine
 10
-168.137950339017
 20
384.5000000000011
 30
0.0
 11
168.7945062017727
 21
384.4999999999939
 31
0.0
  0
LINE
  5
109
330
DA
100
AcDbEntity
  8
0
 62
     0
100
AcDbLine
 10
-160.137950339017
 20
396.4999999999996
 30
0.0
 11
160.7945062017727
 21
396.4999999999996
 31
0.0
  0
ARC
  5
10A
330
DA
100
AcDbEntity
  8
0
 62
     0
100
AcDbCircle
 10
-160.137950339017
 20
386.4999999999995
 30
0.0
 40
10.0
100
AcDbArc
 50
90.0
 51
180.0
  0
ARC
  5
10B
330
DA
100
AcDbEntity
  8
0
 62
     0
100
AcDbCircle
 10
-168.137950339017
 20
386.4999999999995
 30
0.0
 40
2.0
100
AcDbArc
 50
180.0
 51
270.0
  0
ARC
  5
10C
330
DA
100
AcDbEntity
  8
0
 62
     0
100
AcDbCircle
 10
-108.8976307329593
 20
397.9999999999996
 30
0.0
 40
2.0
100
AcDbArc
 50
0.0
 51
90.0
  0
LINE
  5
10D
330
DA
100
AcDbEntity
  8
0
 62
     0
100
AcDbLine
 10
166.0541865957154
 20
400.0000000000002
 30
0.0
 11
-165.3976307329595
 21
399.9999999999996
 31
0.0
  0
LINE
  5
10E
330
DA
100
AcDbEntity
  8
0
 62
     0
100
AcDbLine
 10
-106.8976307329593
 20
396.4999999999994
 30
0.0
 11
-106.8976307329593
 21
397.9999999999996
 31
0.0
  0
ARC
  5
10F
330
DA
100
AcDbEntity
  8
0
 62
     0
100
AcDbCircle
 10
-157.3976307329595
 20
401.9999999999996
 30
0.0
 40
10.0
100
AcDbArc
 50
90.0
 51
180.0
  0
ARC
  5
110
330
DA
100
AcDbEntity
  8
0
 62
     0
100
AcDbCircle
 10
-165.3976307329595
 20
401.9999999999996
 30
0.0
 40
2.0
100
AcDbArc
 50
180.0
 51
270.0
  0
LINE
  5
111
330
DA
100
AcDbEntity
  8
0
 62
     0
100
AcDbLine
 10
158.0541865957154
 20
412.0
 30
0.0
 11
-157.3976307329595
 21
411.9999999999995
 31
0.0
  0
ENDBLK
  5
112
330
DA
100
AcDbEntity
  8
0
100
AcDbBlockEnd
  0
ENDSEC
  0
SECTION
  2
ENTITIES
  0
MTEXT
  5
B0
330
1F
100
AcDbEntity
  8
0
100
AcDbMText
 10
65.220429697703
 20
64.6659120032514
 30
0.0
 40
20.0
 41
1133.185185185185
 71
     1
 72
     5
  1
{\fTimes New Roman|b0|i0|c0|p18;\C0;INODORO DE TANQUE ALTO O FLUXOR CON SALIDA HORIZONTAL\PSERIE ELIA}
 73
     1
 44
1.0
  0
INSERT
  5
118
330
1F
100
AcDbEntity
  8
0
100
AcDbBlockReference
  2
18130_A
 10
461.3410355596996
 20
94.3192417948291
 30
0.0
  0
ENDSEC
  0
SECTION
  2
OBJECTS
  0
DICTIONARY
  5
C
330
0
100
AcDbDictionary
281
     1
  3
ACAD_COLOR
350
73
  3
ACAD_GROUP
350
D
  3
ACAD_LAYOUT
350
1A
  3
ACAD_MATERIAL
350
72
  3
ACAD_MLINESTYLE
350
17
  3
ACAD_PLOTSETTINGS
350
19
  3
ACAD_PLOTSTYLENAME
350
E
  3
AcDbVariableDictionary
350
66
  0
DICTIONARY
  5
96
330
2
100
AcDbDictionary
280
     1
281
     1
  3
ACAD_LAYERSTATES
360
97
  0
DICTIONARY
  5
73
102
{ACAD_REACTORS
330
C
102
}
330
C
100
AcDbDictionary
281
     1
  0
DICTIONARY
  5
D
102
{ACAD_REACTORS
330
C
102
}
330
C
100
AcDbDictionary
281
     1
  0
DICTIONARY
  5
1A
102
{ACAD_REACTORS
330
C
102
}
330
C
100
AcDbDictionary
281
     1
  3
Model
350
22
  3
Presentación1
350
59
  3
Presentación2
350
5E
  0
DICTIONARY
  5
72
102
{ACAD_REACTORS
330
C
102
}
330
C
100
AcDbDictionary
281
     1
  0
DICTIONARY
  5
17
102
{ACAD_REACTORS
330
C
102
}
330
C
100
AcDbDictionary
281
     1
  3
Standard
350
18
  0
DICTIONARY
  5
19
102
{ACAD_REACTORS
330
C
102
}
330
C
100
AcDbDictionary
281
     1
  0
ACDBDICTIONARYWDFLT
  5
E
102
{ACAD_REACTORS
330
C
102
}
330
C
100
AcDbDictionary
281
     1
  3
Normal
350
F
100
AcDbDictionaryWithDefault
340
F
  0
DICTIONARY
  5
66
102
{ACAD_REACTORS
330
C
102
}
330
C
100
AcDbDictionary
281
     1
  3
DIMASSOC
350
67
  3
HIDETEXT
350
6B
  0
DICTIONARY
  5
97
102
{ACAD_REACTORS
330
96
102
}
330
96
100
AcDbDictionary
281
     1
  0
LAYOUT
  5
22
102
{ACAD_REACTORS
330
1A
102
}
330
1A
100
AcDbPlotSettings
  1

  2
none_device
  4
ANSI_A_(8.50_x_11.00_Inches)
  6

 40
6.349999904632567
 41
19.04999923706055
 42
6.350006103515625
 43
19.04998779296875
 44
215.8999938964844
 45
279.3999938964844
 46
0.0
 47
0.0
 48
0.0
 49
0.0
140
0.0
141
0.0
142
1.0
143
2.584895464708373
 70
 11952
 72
     0
 73
     1
 74
     0
  7

 75
     0
147
0.3868628397755418
 76
     0
 77
     2
 78
   300
148
0.0
149
0.0
100
AcDbLayout
  1
Model
 70
     1
 71
     0
 10
0.0
 20
0.0
 11
12.0
 21
9.0
 12
0.0
 22
0.0
 32
0.0
 14
0.0
 24
0.0
 34
0.0
 15
0.0
 25
0.0
 35
0.0
146
0.0
 13
0.0
 23
0.0
 33
0.0
 16
1.0
 26
0.0
 36
0.0
 17
0.0
 27
1.0
 37
0.0
 76
     0
330
1F
  0
LAYOUT
  5
59
102
{ACAD_REACTORS
330
1A
102
}
330
1A
100
AcDbPlotSettings
  1

  2
None
  4

  6

 40
0.0
 41
0.0
 42
0.0
 43
0.0
 44
0.0
 45
0.0
 46
0.0
 47
0.0
 48
0.0
 49
0.0
140
0.0
141
0.0
142
1.0
143
1.0
 70
   688
 72
     0
 73
     0
 74
     5
  7

 75
    16
147
1.0
 76
     0
 77
     2
 78
   300
148
0.0
149
0.0
100
AcDbLayout
  1
Presentación1
 70
     1
 71
     1
 10
0.0
 20
0.0
 11
12.0
 21
9.0
 12
0.0
 22
0.0
 32
0.0
 14
0.0
 24
0.0
 34
0.0
 15
0.0
 25
0.0
 35
0.0
146
0.0
 13
0.0
 23
0.0
 33
0.0
 16
1.0
 26
0.0
 36
0.0
 17
0.0
 27
1.0
 37
0.0
 76
     0
330
58
  0
LAYOUT
  5
5E
102
{ACAD_REACTORS
330
1A
102
}
330
1A
100
AcDbPlotSettings
  1

  2
None
  4

  6

 40
0.0
 41
0.0
 42
0.0
 43
0.0
 44
0.0
 45
0.0
 46
0.0
 47
0.0
 48
0.0
 49
0.0
140
0.0
141
0.0
142
1.0
143
1.0
 70
   688
 72
     0
 73
     0
 74
     5
  7

 75
    16
147
1.0
 76
     0
 77
     2
 78
   300
148
0.0
149
0.0
100
AcDbLayout
  1
Presentación2
 70
     1
 71
     2
 10
0.0
 20
0.0
 11
12.0
 21
9.0
 12
0.0
 22
0.0
 32
0.0
 14
0.0
 24
0.0
 34
0.0
 15
0.0
 25
0.0
 35
0.0
146
0.0
 13
0.0
 23
0.0
 33
0.0
 16
1.0
 26
0.0
 36
0.0
 17
0.0
 27
1.0
 37
0.0
 76
     0
330
5D
  0
MLINESTYLE
  5
18
102
{ACAD_REACTORS
330
17
102
}
330
17
100
AcDbMlineStyle
  2
STANDARD
 70
     0
  3

 62
   256
 51
90.0
 52
90.0
 71
     2
 49
0.5
 62
   256
  6
BYLAYER
 49
-0.5
 62
   256
  6
BYLAYER
  0
ACDBPLACEHOLDER
  5
F
102
{ACAD_REACTORS
330
E
102
}
330
E
  0
DICTIONARYVAR
  5
67
102
{ACAD_REACTORS
330
66
102
}
330
66
100
DictionaryVariables
280
     0
  1
2
  0
DICTIONARYVAR
  5
6B
102
{ACAD_REACTORS
330
66
102
}
330
66
100
DictionaryVariables
280
     0
  1
1
  0
ENDSEC
  0
EOF
