  0
SECTION
  2
HEADER
  9
$ACADVER
  1
AC1018
  9
$ACADMAINTVER
 70
     0
  9
$DWGCODEPAGE
  3
ASCII
  9
$INSBASE
 10
0.0
 20
0.0
 30
0.0
  9
$EXTMIN
 10
1.000000000000000E+20
 20
1.000000000000000E+20
 30
1.000000000000000E+20
  9
$EXTMAX
 10
-1.000000000000000E+20
 20
-1.000000000000000E+20
 30
-1.000000000000000E+20
  9
$LIMMIN
 10
0.0
 20
0.0
  9
$LIMMAX
 10
12.0
 20
9.0
  9
$ORTHOMODE
 70
     0
  9
$REGENMODE
 70
     1
  9
$FILLMODE
 70
     1
  9
$QTEXTMODE
 70
     0
  9
$MIRRTEXT
 70
     1
  9
$LTSCALE
 40
1.0
  9
$ATTMODE
 70
     1
  9
$TEXTSIZE
 40
0.2
  9
$TRACEWID
 40
0.05
  9
$TEXTSTYLE
  7
Standard
  9
$CLAYER
  8
0
  9
$CELTYPE
  6
ByLayer
  9
$CECOLOR
 62
   256
  9
$CELTSCALE
 40
1.0
  9
$DISPSILH
 70
     0
  9
$DIMSCALE
 40
1.0
  9
$DIMASZ
 40
0.18
  9
$DIMEXO
 40
0.0625
  9
$DIMDLI
 40
0.38
  9
$DIMRND
 40
0.0
  9
$DIMDLE
 40
0.0
  9
$DIMEXE
 40
0.18
  9
$DIMTP
 40
0.0
  9
$DIMTM
 40
0.0
  9
$DIMTXT
 40
0.18
  9
$DIMCEN
 40
0.09
  9
$DIMTSZ
 40
0.0
  9
$DIMTOL
 70
     0
  9
$DIMLIM
 70
     0
  9
$DIMTIH
 70
     1
  9
$DIMTOH
 70
     1
  9
$DIMSE1
 70
     0
  9
$DIMSE2
 70
     0
  9
$DIMTAD
 70
     0
  9
$DIMZIN
 70
     0
  9
$DIMBLK
  1

  9
$DIMASO
 70
     1
  9
$DIMSHO
 70
     1
  9
$DIMPOST
  1

  9
$DIMAPOST
  1

  9
$DIMALT
 70
     0
  9
$DIMALTD
 70
     2
  9
$DIMALTF
 40
25.4
  9
$DIMLFAC
 40
1.0
  9
$DIMTOFL
 70
     0
  9
$DIMTVP
 40
0.0
  9
$DIMTIX
 70
     0
  9
$DIMSOXD
 70
     0
  9
$DIMSAH
 70
     0
  9
$DIMBLK1
  1

  9
$DIMBLK2
  1

  9
$DIMSTYLE
  2
Standard
  9
$DIMCLRD
 70
     0
  9
$DIMCLRE
 70
     0
  9
$DIMCLRT
 70
     0
  9
$DIMTFAC
 40
1.0
  9
$DIMGAP
 40
0.09
  9
$DIMJUST
 70
     0
  9
$DIMSD1
 70
     0
  9
$DIMSD2
 70
     0
  9
$DIMTOLJ
 70
     1
  9
$DIMTZIN
 70
     0
  9
$DIMALTZ
 70
     0
  9
$DIMALTTZ
 70
     0
  9
$DIMUPT
 70
     0
  9
$DIMDEC
 70
     4
  9
$DIMTDEC
 70
     4
  9
$DIMALTU
 70
     2
  9
$DIMALTTD
 70
     2
  9
$DIMTXSTY
  7
Standard
  9
$DIMAUNIT
 70
     0
  9
$DIMADEC
 70
     0
  9
$DIMALTRND
 40
0.0
  9
$DIMAZIN
 70
     0
  9
$DIMDSEP
 70
    46
  9
$DIMATFIT
 70
     3
  9
$DIMFRAC
 70
     0
  9
$DIMLDRBLK
  1

  9
$DIMLUNIT
 70
     2
  9
$DIMLWD
 70
    -2
  9
$DIMLWE
 70
    -2
  9
$DIMTMOVE
 70
     0
  9
$LUNITS
 70
     2
  9
$LUPREC
 70
     4
  9
$SKETCHINC
 40
0.1
  9
$FILLETRAD
 40
0.5
  9
$AUNITS
 70
     0
  9
$AUPREC
 70
     0
  9
$MENU
  1
.
  9
$ELEVATION
 40
0.0
  9
$PELEVATION
 40
0.0
  9
$THICKNESS
 40
0.0
  9
$LIMCHECK
 70
     0
  9
$CHAMFERA
 40
0.5
  9
$CHAMFERB
 40
0.5
  9
$CHAMFERC
 40
1.0
  9
$CHAMFERD
 40
0.0
  9
$SKPOLY
 70
     0
  9
$TDCREATE
 40
2456989.75057544
  9
$TDUCREATE
 40
2456989.708908773
  9
$TDUPDATE
 40
2456989.750575451
  9
$TDUUPDATE
 40
2456989.708908785
  9
$TDINDWG
 40
0.0000000116
  9
$TDUSRTIMER
 40
0.0000000116
  9
$USRTIMER
 70
     1
  9
$ANGBASE
 50
0.0
  9
$ANGDIR
 70
     0
  9
$PDMODE
 70
     0
  9
$PDSIZE
 40
0.0
  9
$PLINEWID
 40
0.0
  9
$SPLFRAME
 70
     0
  9
$SPLINETYPE
 70
     6
  9
$SPLINESEGS
 70
     8
  9
$HANDSEED
  5
8E4
  9
$SURFTAB1
 70
     6
  9
$SURFTAB2
 70
     6
  9
$SURFTYPE
 70
     6
  9
$SURFU
 70
     6
  9
$SURFV
 70
     6
  9
$UCSBASE
  2

  9
$UCSNAME
  2

  9
$UCSORG
 10
0.0
 20
0.0
 30
0.0
  9
$UCSXDIR
 10
1.0
 20
0.0
 30
0.0
  9
$UCSYDIR
 10
0.0
 20
1.0
 30
0.0
  9
$UCSORTHOREF
  2

  9
$UCSORTHOVIEW
 70
     0
  9
$UCSORGTOP
 10
0.0
 20
0.0
 30
0.0
  9
$UCSORGBOTTOM
 10
0.0
 20
0.0
 30
0.0
  9
$UCSORGLEFT
 10
0.0
 20
0.0
 30
0.0
  9
$UCSORGRIGHT
 10
0.0
 20
0.0
 30
0.0
  9
$UCSORGFRONT
 10
0.0
 20
0.0
 30
0.0
  9
$UCSORGBACK
 10
0.0
 20
0.0
 30
0.0
  9
$PUCSBASE
  2

  9
$PUCSNAME
  2

  9
$PUCSORG
 10
0.0
 20
0.0
 30
0.0
  9
$PUCSXDIR
 10
1.0
 20
0.0
 30
0.0
  9
$PUCSYDIR
 10
0.0
 20
1.0
 30
0.0
  9
$PUCSORTHOREF
  2

  9
$PUCSORTHOVIEW
 70
     0
  9
$PUCSORGTOP
 10
0.0
 20
0.0
 30
0.0
  9
$PUCSORGBOTTOM
 10
0.0
 20
0.0
 30
0.0
  9
$PUCSORGLEFT
 10
0.0
 20
0.0
 30
0.0
  9
$PUCSORGRIGHT
 10
0.0
 20
0.0
 30
0.0
  9
$PUCSORGFRONT
 10
0.0
 20
0.0
 30
0.0
  9
$PUCSORGBACK
 10
0.0
 20
0.0
 30
0.0
  9
$USERI1
 70
     0
  9
$USERI2
 70
     0
  9
$USERI3
 70
     0
  9
$USERI4
 70
     0
  9
$USERI5
 70
     0
  9
$USERR1
 40
0.0
  9
$USERR2
 40
0.0
  9
$USERR3
 40
0.0
  9
$USERR4
 40
0.0
  9
$USERR5
 40
0.0
  9
$WORLDVIEW
 70
     1
  9
$SHADEDGE
 70
     3
  9
$SHADEDIF
 70
    70
  9
$TILEMODE
 70
     1
  9
$MAXACTVP
 70
    64
  9
$PINSBASE
 10
0.0
 20
0.0
 30
0.0
  9
$PLIMCHECK
 70
     0
  9
$PEXTMIN
 10
1.000000000000000E+20
 20
1.000000000000000E+20
 30
1.000000000000000E+20
  9
$PEXTMAX
 10
-1.000000000000000E+20
 20
-1.000000000000000E+20
 30
-1.000000000000000E+20
  9
$PLIMMIN
 10
0.0
 20
0.0
  9
$PLIMMAX
 10
12.0
 20
9.0
  9
$UNITMODE
 70
     0
  9
$VISRETAIN
 70
     1
  9
$PLINEGEN
 70
     0
  9
$PSLTSCALE
 70
     1
  9
$TREEDEPTH
 70
  3020
  9
$CMLSTYLE
  2
Standard
  9
$CMLJUST
 70
     0
  9
$CMLSCALE
 40
1.0
  9
$PROXYGRAPHICS
 70
     1
  9
$MEASUREMENT
 70
     0
  9
$CELWEIGHT
370
    -1
  9
$ENDCAPS
280
     0
  9
$JOINSTYLE
280
     0
  9
$LWDISPLAY
290
     1
  9
$INSUNITS
 70
     1
  9
$HYPERLINKBASE
  1

  9
$STYLESHEET
  1

  9
$XEDIT
290
     1
  9
$CEPSNTYPE
380
     0
  9
$PSTYLEMODE
290
     1
  9
$FINGERPRINTGUID
  2
{3213A30D-3E8D-432D-89AF-D4AD73E1874B}
  9
$VERSIONGUID
  2
{FAEB1C32-E019-11D5-929B-00C0DF256EC4}
  9
$EXTNAMES
290
     1
  9
$PSVPSCALE
 40
0.0
  9
$OLESTARTUP
290
     0
  9
$SORTENTS
280
   127
  9
$INDEXCTL
280
     0
  9
$HIDETEXT
280
     1
  9
$XCLIPFRAME
290
     0
  9
$HALOGAP
280
     0
  9
$OBSCOLOR
 70
   257
  9
$OBSLTYPE
280
     0
  9
$INTERSECTIONDISPLAY
280
     0
  9
$INTERSECTIONCOLOR
 70
   257
  9
$DIMASSOC
280
     2
  9
$PROJECTNAME
  1

  0
ENDSEC
  0
SECTION
  2
CLASSES
  0
CLASS
  1
ACDBDICTIONARYWDFLT
  2
AcDbDictionaryWithDefault
  3
ObjectDBX Classes
 90
        0
 91
        3
280
     0
281
     0
  0
CLASS
  1
VISUALSTYLE
  2
AcDbVisualStyle
  3
ObjectDBX Classes
 90
     4095
 91
        3
280
     0
281
     0
  0
ENDSEC
  0
SECTION
  2
TABLES
  0
TABLE
  2
VPORT
  5
8
330
0
100
AcDbSymbolTable
 70
     1
  0
VPORT
  5
29
330
8
100
AcDbSymbolTableRecord
100
AcDbViewportTableRecord
  2
*Active
 70
     0
 10
0.0
 20
0.0
 11
1.0
 21
1.0
 12
0.0
 22
0.0
 13
0.0
 23
0.0
 14
0.5
 24
0.5
 15
0.5
 25
0.5
 16
0.0
 26
0.0
 36
1.0
 17
108.1264601922824
 27
128.0584177807455
 37
0.0
 40
296.6863067592478
 41
0.7086801426872772
 42
50.0
 43
0.0
 44
0.0
 50
0.0
 51
0.0
 71
     0
 72
   100
 73
     1
 74
     3
 75
     0
 76
     0
 77
     0
 78
     0
281
     0
 65
     1
110
0.0
120
0.0
130
0.0
111
1.0
121
0.0
131
0.0
112
0.0
122
1.0
132
0.0
 79
     0
146
0.0
  0
ENDTAB
  0
TABLE
  2
LTYPE
  5
5
330
0
100
AcDbSymbolTable
 70
    23
  0
LTYPE
  5
14
330
5
100
AcDbSymbolTableRecord
100
AcDbLinetypeTableRecord
  2
ByBlock
 70
     0
  3

 72
    65
 73
     0
 40
0.0
  0
LTYPE
  5
15
330
5
100
AcDbSymbolTableRecord
100
AcDbLinetypeTableRecord
  2
ByLayer
 70
     0
  3

 72
    65
 73
     0
 40
0.0
  0
LTYPE
  5
16
330
5
100
AcDbSymbolTableRecord
100
AcDbLinetypeTableRecord
  2
Continuous
 70
     0
  3
Solid line
 72
    65
 73
     0
 40
0.0
  0
LTYPE
  5
223
330
5
100
AcDbSymbolTableRecord
100
AcDbLinetypeTableRecord
  2
AI-Linetype-1
 70
     0
  3
Adobe Illustrator Linetype No. 1
 72
    65
 73
     4
 40
606.8284494267162
 49
352.7780104152769
 74
     0
 49
-84.6834796704798
 74
     0
 49
84.6834796704798
 74
     0
 49
-84.6834796704798
 74
     0
  0
LTYPE
  5
22C
330
5
100
AcDbSymbolTableRecord
100
AcDbLinetypeTableRecord
  2
AI-Linetype-2
 70
     0
  3
Adobe Illustrator Linetype No. 2
 72
    65
 73
     4
 40
338.7339752030543
 49
211.7087072506473
 74
     0
 49
-42.34175598413564
 74
     0
 49
42.34175598413564
 74
     0
 49
-42.34175598413564
 74
     0
  0
LTYPE
  5
235
330
5
100
AcDbSymbolTableRecord
100
AcDbLinetypeTableRecord
  2
AI-Linetype-3
 70
     0
  3
Adobe Illustrator Linetype No. 3
 72
    65
 73
     4
 40
338.7339752030543
 49
211.7087072506473
 74
     0
 49
-42.34175598413564
 74
     0
 49
42.34175598413564
 74
     0
 49
-42.34175598413564
 74
     0
  0
LTYPE
  5
23E
330
5
100
AcDbSymbolTableRecord
100
AcDbLinetypeTableRecord
  2
AI-Linetype-4
 70
     0
  3
Adobe Illustrator Linetype No. 4
 72
    65
 73
     4
 40
606.8284494267162
 49
352.7780104152769
 74
     0
 49
-84.6834796704798
 74
     0
 49
84.6834796704798
 74
     0
 49
-84.6834796704798
 74
     0
  0
LTYPE
  5
247
330
5
100
AcDbSymbolTableRecord
100
AcDbLinetypeTableRecord
  2
AI-Linetype-5
 70
     0
  3
Adobe Illustrator Linetype No. 5
 72
    65
 73
     4
 40
606.8284494267162
 49
352.7780104152769
 74
     0
 49
-84.6834796704798
 74
     0
 49
84.6834796704798
 74
     0
 49
-84.6834796704798
 74
     0
  0
LTYPE
  5
250
330
5
100
AcDbSymbolTableRecord
100
AcDbLinetypeTableRecord
  2
AI-Linetype-6
 70
     0
  3
Adobe Illustrator Linetype No. 6
 72
    65
 73
     4
 40
606.8284494267162
 49
352.7780104152769
 74
     0
 49
-84.6834796704798
 74
     0
 49
84.6834796704798
 74
     0
 49
-84.6834796704798
 74
     0
  0
LTYPE
  5
259
330
5
100
AcDbSymbolTableRecord
100
AcDbLinetypeTableRecord
  2
AI-Linetype-7
 70
     0
  3
Adobe Illustrator Linetype No. 7
 72
    65
 73
     4
 40
338.7339752030543
 49
211.7087072506473
 74
     0
 49
-42.34175598413564
 74
     0
 49
42.34175598413564
 74
     0
 49
-42.34175598413564
 74
     0
  0
LTYPE
  5
262
330
5
100
AcDbSymbolTableRecord
100
AcDbLinetypeTableRecord
  2
AI-Linetype-8
 70
     0
  3
Adobe Illustrator Linetype No. 8
 72
    65
 73
     4
 40
338.7339752030543
 49
211.7087072506473
 74
     0
 49
-42.34175598413564
 74
     0
 49
42.34175598413564
 74
     0
 49
-42.34175598413564
 74
     0
  0
LTYPE
  5
26C
330
5
100
AcDbSymbolTableRecord
100
AcDbLinetypeTableRecord
  2
AI-Linetype-9
 70
     0
  3
Adobe Illustrator Linetype No. 9
 72
    65
 73
     2
 40
127.0252356546154
 49
84.6834796704798
 74
     0
 49
-42.34175598413564
 74
     0
  0
LTYPE
  5
275
330
5
100
AcDbSymbolTableRecord
100
AcDbLinetypeTableRecord
  2
AI-Linetype-10
 70
     0
  3
Adobe Illustrator Linetype No. 10
 72
    65
 73
     2
 40
127.0252356546154
 49
84.6834796704798
 74
     0
 49
-42.34175598413564
 74
     0
  0
LTYPE
  5
27E
330
5
100
AcDbSymbolTableRecord
100
AcDbLinetypeTableRecord
  2
AI-Linetype-11
 70
     0
  3
Adobe Illustrator Linetype No. 11
 72
    65
 73
     2
 40
127.0252356546154
 49
84.6834796704798
 74
     0
 49
-42.34175598413564
 74
     0
  0
LTYPE
  5
287
330
5
100
AcDbSymbolTableRecord
100
AcDbLinetypeTableRecord
  2
AI-Linetype-12
 70
     0
  3
Adobe Illustrator Linetype No. 12
 72
    65
 73
     2
 40
127.0252356546154
 49
84.6834796704798
 74
     0
 49
-42.34175598413564
 74
     0
  0
LTYPE
  5
290
330
5
100
AcDbSymbolTableRecord
100
AcDbLinetypeTableRecord
  2
AI-Linetype-13
 70
     0
  3
Adobe Illustrator Linetype No. 13
 72
    65
 73
     2
 40
127.0252356546154
 49
84.6834796704798
 74
     0
 49
-42.34175598413564
 74
     0
  0
LTYPE
  5
296
330
5
100
AcDbSymbolTableRecord
100
AcDbLinetypeTableRecord
  2
AI-Linetype-14
 70
     0
  3
Adobe Illustrator Linetype No. 14
 72
    65
 73
     2
 40
127.0252356546154
 49
84.6834796704798
 74
     0
 49
-42.34175598413564
 74
     0
  0
LTYPE
  5
29C
330
5
100
AcDbSymbolTableRecord
100
AcDbLinetypeTableRecord
  2
AI-Linetype-15
 70
     0
  3
Adobe Illustrator Linetype No. 15
 72
    65
 73
     2
 40
127.0252356546154
 49
84.6834796704798
 74
     0
 49
-42.34175598413564
 74
     0
  0
LTYPE
  5
2A5
330
5
100
AcDbSymbolTableRecord
100
AcDbLinetypeTableRecord
  2
AI-Linetype-16
 70
     0
  3
Adobe Illustrator Linetype No. 16
 72
    65
 73
     2
 40
127.0252356546154
 49
84.6834796704798
 74
     0
 49
-42.34175598413564
 74
     0
  0
LTYPE
  5
2AE
330
5
100
AcDbSymbolTableRecord
100
AcDbLinetypeTableRecord
  2
AI-Linetype-17
 70
     0
  3
Adobe Illustrator Linetype No. 17
 72
    65
 73
     2
 40
127.0252356546154
 49
84.6834796704798
 74
     0
 49
-42.34175598413564
 74
     0
  0
LTYPE
  5
2B4
330
5
100
AcDbSymbolTableRecord
100
AcDbLinetypeTableRecord
  2
AI-Linetype-18
 70
     0
  3
Adobe Illustrator Linetype No. 18
 72
    65
 73
     2
 40
127.0252356546154
 49
84.6834796704798
 74
     0
 49
-42.34175598413564
 74
     0
  0
LTYPE
  5
2BD
330
5
100
AcDbSymbolTableRecord
100
AcDbLinetypeTableRecord
  2
AI-Linetype-19
 70
     0
  3
Adobe Illustrator Linetype No. 19
 72
    65
 73
     2
 40
127.0252356546154
 49
84.6834796704798
 74
     0
 49
-42.34175598413564
 74
     0
  0
LTYPE
  5
2C6
330
5
100
AcDbSymbolTableRecord
100
AcDbLinetypeTableRecord
  2
AI-Linetype-20
 70
     0
  3
Adobe Illustrator Linetype No. 20
 72
    65
 73
     2
 40
127.0252356546154
 49
84.6834796704798
 74
     0
 49
-42.34175598413564
 74
     0
  0
LTYPE
  5
2CC
330
5
100
AcDbSymbolTableRecord
100
AcDbLinetypeTableRecord
  2
AI-Linetype-21
 70
     0
  3
Adobe Illustrator Linetype No. 21
 72
    65
 73
     2
 40
127.0252356546154
 49
84.6834796704798
 74
     0
 49
-42.34175598413564
 74
     0
  0
LTYPE
  5
2D5
330
5
100
AcDbSymbolTableRecord
100
AcDbLinetypeTableRecord
  2
AI-Linetype-22
 70
     0
  3
Adobe Illustrator Linetype No. 22
 72
    65
 73
     2
 40
127.0252356546154
 49
84.6834796704798
 74
     0
 49
-42.34175598413564
 74
     0
  0
ENDTAB
  0
TABLE
  2
LAYER
  5
2
330
0
100
AcDbSymbolTable
 70
     7
  0
LAYER
  5
10
330
2
100
AcDbSymbolTableRecord
100
AcDbLayerTableRecord
  2
0
 70
     0
 62
     7
  6
Continuous
370
    -3
390
F
  0
LAYER
  5
3B
330
2
100
AcDbSymbolTableRecord
100
AcDbLayerTableRecord
  2
CAJETIN
 70
     0
 62
     7
  6
Continuous
370
    -3
390
F
  0
LAYER
  5
4C
330
2
100
AcDbSymbolTableRecord
100
AcDbLayerTableRecord
  2
1
 70
     0
 62
     7
  6
Continuous
370
    -3
390
F
  0
LAYER
  5
21A
330
2
100
AcDbSymbolTableRecord
100
AcDbLayerTableRecord
  2
EJES
 70
     0
 62
     7
  6
Continuous
370
    -3
390
F
  0
LAYER
  5
263
330
2
100
AcDbSymbolTableRecord
100
AcDbLayerTableRecord
  2
OCULTO
 70
     0
 62
     7
  6
Continuous
370
    -3
390
F
  0
LAYER
  5
2D6
330
2
100
AcDbSymbolTableRecord
100
AcDbLayerTableRecord
  2
SOMBREA
 70
     0
 62
     7
  6
Continuous
370
    -3
390
F
  0
LAYER
  5
2DF
330
2
100
AcDbSymbolTableRecord
100
AcDbLayerTableRecord
  2
COTAS
 70
     0
 62
     7
  6
Continuous
370
    -3
390
F
  0
ENDTAB
  0
TABLE
  2
STYLE
  5
3
330
0
100
AcDbSymbolTable
 70
     1
  0
STYLE
  5
11
330
3
100
AcDbSymbolTableRecord
100
AcDbTextStyleTableRecord
  2
Standard
 70
     0
 40
0.0
 41
1.0
 50
0.0
 71
     0
 42
0.2
  3
txt
  4

  0
ENDTAB
  0
TABLE
  2
VIEW
  5
6
330
0
100
AcDbSymbolTable
 70
     0
  0
ENDTAB
  0
TABLE
  2
UCS
  5
7
330
0
100
AcDbSymbolTable
 70
     0
  0
ENDTAB
  0
TABLE
  2
APPID
  5
9
330
0
100
AcDbSymbolTable
 70
     1
  0
APPID
  5
12
330
9
100
AcDbSymbolTableRecord
100
AcDbRegAppTableRecord
  2
ACAD
 70
     0
  0
ENDTAB
  0
TABLE
  2
DIMSTYLE
  5
A
330
0
100
AcDbSymbolTable
 70
     1
100
AcDbDimStyleTable
  0
DIMSTYLE
105
27
330
A
100
AcDbSymbolTableRecord
100
AcDbDimStyleTableRecord
  2
Standard
 70
     0
340
11
  0
ENDTAB
  0
TABLE
  2
BLOCK_RECORD
  5
1
330
0
100
AcDbSymbolTable
 70
   306
  0
BLOCK_RECORD
  5
1F
330
1
100
AcDbSymbolTableRecord
100
AcDbBlockTableRecord
  2
*Model_Space
340
22
  0
BLOCK_RECORD
  5
1B
330
1
100
AcDbSymbolTableRecord
100
AcDbBlockTableRecord
  2
*Paper_Space
340
1E
  0
BLOCK_RECORD
  5
23
330
1
100
AcDbSymbolTableRecord
100
AcDbBlockTableRecord
  2
*Paper_Space0
340
26
  0
BLOCK_RECORD
  5
3C
330
1
100
AcDbSymbolTableRecord
100
AcDbBlockTableRecord
  2
block 2
340
0
102
{BLKREFS
331
3D
102
}
  0
BLOCK_RECORD
  5
40
330
1
100
AcDbSymbolTableRecord
100
AcDbBlockTableRecord
  2
block 3
340
0
102
{BLKREFS
331
41
102
}
  0
BLOCK_RECORD
  5
44
330
1
100
AcDbSymbolTableRecord
100
AcDbBlockTableRecord
  2
block 4
340
0
102
{BLKREFS
331
45
102
}
  0
BLOCK_RECORD
  5
48
330
1
100
AcDbSymbolTableRecord
100
AcDbBlockTableRecord
  2
block 5
340
0
102
{BLKREFS
331
49
102
}
  0
BLOCK_RECORD
  5
4D
330
1
100
AcDbSymbolTableRecord
100
AcDbBlockTableRecord
  2
block 6
340
0
102
{BLKREFS
331
4E
102
}
  0
BLOCK_RECORD
  5
52
330
1
100
AcDbSymbolTableRecord
100
AcDbBlockTableRecord
  2
block 7
340
0
102
{BLKREFS
331
53
102
}
  0
BLOCK_RECORD
  5
5A
330
1
100
AcDbSymbolTableRecord
100
AcDbBlockTableRecord
  2
block 8
340
0
102
{BLKREFS
331
5B
102
}
  0
BLOCK_RECORD
  5
5F
330
1
100
AcDbSymbolTableRecord
100
AcDbBlockTableRecord
  2
block 9
340
0
102
{BLKREFS
331
60
102
}
  0
BLOCK_RECORD
  5
64
330
1
100
AcDbSymbolTableRecord
100
AcDbBlockTableRecord
  2
block 10
340
0
102
{BLKREFS
331
65
102
}
  0
BLOCK_RECORD
  5
69
330
1
100
AcDbSymbolTableRecord
100
AcDbBlockTableRecord
  2
block 11
340
0
102
{BLKREFS
331
6A
102
}
  0
BLOCK_RECORD
  5
6E
330
1
100
AcDbSymbolTableRecord
100
AcDbBlockTableRecord
  2
block 12
340
0
102
{BLKREFS
331
6F
102
}
  0
BLOCK_RECORD
  5
76
330
1
100
AcDbSymbolTableRecord
100
AcDbBlockTableRecord
  2
block 13
340
0
102
{BLKREFS
331
77
102
}
  0
BLOCK_RECORD
  5
7B
330
1
100
AcDbSymbolTableRecord
100
AcDbBlockTableRecord
  2
block 14
340
0
102
{BLKREFS
331
7C
102
}
  0
BLOCK_RECORD
  5
80
330
1
100
AcDbSymbolTableRecord
100
AcDbBlockTableRecord
  2
block 15
340
0
102
{BLKREFS
331
81
102
}
  0
BLOCK_RECORD
  5
85
330
1
100
AcDbSymbolTableRecord
100
AcDbBlockTableRecord
  2
block 16
340
0
102
{BLKREFS
331
86
102
}
  0
BLOCK_RECORD
  5
8A
330
1
100
AcDbSymbolTableRecord
100
AcDbBlockTableRecord
  2
block 17
340
0
102
{BLKREFS
331
8B
102
}
  0
BLOCK_RECORD
  5
8F
330
1
100
AcDbSymbolTableRecord
100
AcDbBlockTableRecord
  2
block 18
340
0
102
{BLKREFS
331
90
102
}
  0
BLOCK_RECORD
  5
94
330
1
100
AcDbSymbolTableRecord
100
AcDbBlockTableRecord
  2
block 19
340
0
102
{BLKREFS
331
95
102
}
  0
BLOCK_RECORD
  5
99
330
1
100
AcDbSymbolTableRecord
100
AcDbBlockTableRecord
  2
block 20
340
0
102
{BLKREFS
331
9A
102
}
  0
BLOCK_RECORD
  5
A1
330
1
100
AcDbSymbolTableRecord
100
AcDbBlockTableRecord
  2
block 21
340
0
102
{BLKREFS
331
A2
102
}
  0
BLOCK_RECORD
  5
A6
330
1
100
AcDbSymbolTableRecord
100
AcDbBlockTableRecord
  2
block 22
340
0
102
{BLKREFS
331
A7
102
}
  0
BLOCK_RECORD
  5
AB
330
1
100
AcDbSymbolTableRecord
100
AcDbBlockTableRecord
  2
block 23
340
0
102
{BLKREFS
331
AC
102
}
  0
BLOCK_RECORD
  5
B3
330
1
100
AcDbSymbolTableRecord
100
AcDbBlockTableRecord
  2
block 24
340
0
102
{BLKREFS
331
B4
102
}
  0
BLOCK_RECORD
  5
B8
330
1
100
AcDbSymbolTableRecord
100
AcDbBlockTableRecord
  2
block 25
340
0
102
{BLKREFS
331
B9
102
}
  0
BLOCK_RECORD
  5
BD
330
1
100
AcDbSymbolTableRecord
100
AcDbBlockTableRecord
  2
block 26
340
0
102
{BLKREFS
331
BE
102
}
  0
BLOCK_RECORD
  5
C2
330
1
100
AcDbSymbolTableRecord
100
AcDbBlockTableRecord
  2
block 27
340
0
102
{BLKREFS
331
C3
102
}
  0
BLOCK_RECORD
  5
CA
330
1
100
AcDbSymbolTableRecord
100
AcDbBlockTableRecord
  2
block 28
340
0
102
{BLKREFS
331
CB
102
}
  0
BLOCK_RECORD
  5
D2
330
1
100
AcDbSymbolTableRecord
100
AcDbBlockTableRecord
  2
block 29
340
0
102
{BLKREFS
331
D3
102
}
  0
BLOCK_RECORD
  5
D7
330
1
100
AcDbSymbolTableRecord
100
AcDbBlockTableRecord
  2
block 30
340
0
102
{BLKREFS
331
D8
102
}
  0
BLOCK_RECORD
  5
DF
330
1
100
AcDbSymbolTableRecord
100
AcDbBlockTableRecord
  2
block 31
340
0
102
{BLKREFS
331
E0
102
}
  0
BLOCK_RECORD
  5
E4
330
1
100
AcDbSymbolTableRecord
100
AcDbBlockTableRecord
  2
block 32
340
0
102
{BLKREFS
331
E5
102
}
  0
BLOCK_RECORD
  5
E9
330
1
100
AcDbSymbolTableRecord
100
AcDbBlockTableRecord
  2
block 33
340
0
102
{BLKREFS
331
EA
102
}
  0
BLOCK_RECORD
  5
EE
330
1
100
AcDbSymbolTableRecord
100
AcDbBlockTableRecord
  2
block 34
340
0
102
{BLKREFS
331
EF
102
}
  0
BLOCK_RECORD
  5
F3
330
1
100
AcDbSymbolTableRecord
100
AcDbBlockTableRecord
  2
block 35
340
0
102
{BLKREFS
331
F4
102
}
  0
BLOCK_RECORD
  5
FB
330
1
100
AcDbSymbolTableRecord
100
AcDbBlockTableRecord
  2
block 36
340
0
102
{BLKREFS
331
FC
102
}
  0
BLOCK_RECORD
  5
100
330
1
100
AcDbSymbolTableRecord
100
AcDbBlockTableRecord
  2
block 37
340
0
102
{BLKREFS
331
101
102
}
  0
BLOCK_RECORD
  5
105
330
1
100
AcDbSymbolTableRecord
100
AcDbBlockTableRecord
  2
block 38
340
0
102
{BLKREFS
331
106
102
}
  0
BLOCK_RECORD
  5
10D
330
1
100
AcDbSymbolTableRecord
100
AcDbBlockTableRecord
  2
block 39
340
0
102
{BLKREFS
331
10E
102
}
  0
BLOCK_RECORD
  5
112
330
1
100
AcDbSymbolTableRecord
100
AcDbBlockTableRecord
  2
block 40
340
0
102
{BLKREFS
331
113
102
}
  0
BLOCK_RECORD
  5
117
330
1
100
AcDbSymbolTableRecord
100
AcDbBlockTableRecord
  2
block 41
340
0
102
{BLKREFS
331
118
102
}
  0
BLOCK_RECORD
  5
11C
330
1
100
AcDbSymbolTableRecord
100
AcDbBlockTableRecord
  2
block 42
340
0
102
{BLKREFS
331
11D
102
}
  0
BLOCK_RECORD
  5
121
330
1
100
AcDbSymbolTableRecord
100
AcDbBlockTableRecord
  2
block 43
340
0
102
{BLKREFS
331
122
102
}
  0
BLOCK_RECORD
  5
129
330
1
100
AcDbSymbolTableRecord
100
AcDbBlockTableRecord
  2
block 44
340
0
102
{BLKREFS
331
12A
102
}
  0
BLOCK_RECORD
  5
131
330
1
100
AcDbSymbolTableRecord
100
AcDbBlockTableRecord
  2
block 45
340
0
102
{BLKREFS
331
132
102
}
  0
BLOCK_RECORD
  5
136
330
1
100
AcDbSymbolTableRecord
100
AcDbBlockTableRecord
  2
block 46
340
0
102
{BLKREFS
331
137
102
}
  0
BLOCK_RECORD
  5
13B
330
1
100
AcDbSymbolTableRecord
100
AcDbBlockTableRecord
  2
block 47
340
0
102
{BLKREFS
331
13C
102
}
  0
BLOCK_RECORD
  5
140
330
1
100
AcDbSymbolTableRecord
100
AcDbBlockTableRecord
  2
block 48
340
0
102
{BLKREFS
331
141
102
}
  0
BLOCK_RECORD
  5
148
330
1
100
AcDbSymbolTableRecord
100
AcDbBlockTableRecord
  2
block 49
340
0
102
{BLKREFS
331
149
102
}
  0
BLOCK_RECORD
  5
150
330
1
100
AcDbSymbolTableRecord
100
AcDbBlockTableRecord
  2
block 50
340
0
102
{BLKREFS
331
151
102
}
  0
BLOCK_RECORD
  5
155
330
1
100
AcDbSymbolTableRecord
100
AcDbBlockTableRecord
  2
block 51
340
0
102
{BLKREFS
331
156
102
}
  0
BLOCK_RECORD
  5
15D
330
1
100
AcDbSymbolTableRecord
100
AcDbBlockTableRecord
  2
block 52
340
0
102
{BLKREFS
331
15E
102
}
  0
BLOCK_RECORD
  5
165
330
1
100
AcDbSymbolTableRecord
100
AcDbBlockTableRecord
  2
block 53
340
0
102
{BLKREFS
331
166
102
}
  0
BLOCK_RECORD
  5
16A
330
1
100
AcDbSymbolTableRecord
100
AcDbBlockTableRecord
  2
block 54
340
0
102
{BLKREFS
331
16B
102
}
  0
BLOCK_RECORD
  5
16F
330
1
100
AcDbSymbolTableRecord
100
AcDbBlockTableRecord
  2
block 55
340
0
102
{BLKREFS
331
170
102
}
  0
BLOCK_RECORD
  5
177
330
1
100
AcDbSymbolTableRecord
100
AcDbBlockTableRecord
  2
block 56
340
0
102
{BLKREFS
331
178
102
}
  0
BLOCK_RECORD
  5
17C
330
1
100
AcDbSymbolTableRecord
100
AcDbBlockTableRecord
  2
block 57
340
0
102
{BLKREFS
331
17D
102
}
  0
BLOCK_RECORD
  5
181
330
1
100
AcDbSymbolTableRecord
100
AcDbBlockTableRecord
  2
block 58
340
0
102
{BLKREFS
331
182
102
}
  0
BLOCK_RECORD
  5
186
330
1
100
AcDbSymbolTableRecord
100
AcDbBlockTableRecord
  2
block 59
340
0
102
{BLKREFS
331
187
102
}
  0
BLOCK_RECORD
  5
18E
330
1
100
AcDbSymbolTableRecord
100
AcDbBlockTableRecord
  2
block 60
340
0
102
{BLKREFS
331
18F
102
}
  0
BLOCK_RECORD
  5
193
330
1
100
AcDbSymbolTableRecord
100
AcDbBlockTableRecord
  2
block 61
340
0
102
{BLKREFS
331
194
102
}
  0
BLOCK_RECORD
  5
198
330
1
100
AcDbSymbolTableRecord
100
AcDbBlockTableRecord
  2
block 62
340
0
102
{BLKREFS
331
199
102
}
  0
BLOCK_RECORD
  5
19D
330
1
100
AcDbSymbolTableRecord
100
AcDbBlockTableRecord
  2
block 63
340
0
102
{BLKREFS
331
19E
102
}
  0
BLOCK_RECORD
  5
1A5
330
1
100
AcDbSymbolTableRecord
100
AcDbBlockTableRecord
  2
block 64
340
0
102
{BLKREFS
331
1A6
102
}
  0
BLOCK_RECORD
  5
1AA
330
1
100
AcDbSymbolTableRecord
100
AcDbBlockTableRecord
  2
block 65
340
0
102
{BLKREFS
331
1AB
102
}
  0
BLOCK_RECORD
  5
1B2
330
1
100
AcDbSymbolTableRecord
100
AcDbBlockTableRecord
  2
block 66
340
0
102
{BLKREFS
331
1B3
102
}
  0
BLOCK_RECORD
  5
1B7
330
1
100
AcDbSymbolTableRecord
100
AcDbBlockTableRecord
  2
block 67
340
0
102
{BLKREFS
331
1B8
102
}
  0
BLOCK_RECORD
  5
1BF
330
1
100
AcDbSymbolTableRecord
100
AcDbBlockTableRecord
  2
block 68
340
0
102
{BLKREFS
331
1C0
102
}
  0
BLOCK_RECORD
  5
1C4
330
1
100
AcDbSymbolTableRecord
100
AcDbBlockTableRecord
  2
block 69
340
0
102
{BLKREFS
331
1C5
102
}
  0
BLOCK_RECORD
  5
1C9
330
1
100
AcDbSymbolTableRecord
100
AcDbBlockTableRecord
  2
block 70
340
0
102
{BLKREFS
331
1CA
102
}
  0
BLOCK_RECORD
  5
1CE
330
1
100
AcDbSymbolTableRecord
100
AcDbBlockTableRecord
  2
block 71
340
0
102
{BLKREFS
331
1CF
102
}
  0
BLOCK_RECORD
  5
1D3
330
1
100
AcDbSymbolTableRecord
100
AcDbBlockTableRecord
  2
block 72
340
0
102
{BLKREFS
331
1D4
102
}
  0
BLOCK_RECORD
  5
1D8
330
1
100
AcDbSymbolTableRecord
100
AcDbBlockTableRecord
  2
block 73
340
0
102
{BLKREFS
331
1D9
102
}
  0
BLOCK_RECORD
  5
1DD
330
1
100
AcDbSymbolTableRecord
100
AcDbBlockTableRecord
  2
block 74
340
0
102
{BLKREFS
331
1DE
102
}
  0
BLOCK_RECORD
  5
1E2
330
1
100
AcDbSymbolTableRecord
100
AcDbBlockTableRecord
  2
block 75
340
0
102
{BLKREFS
331
1E3
102
}
  0
BLOCK_RECORD
  5
1E7
330
1
100
AcDbSymbolTableRecord
100
AcDbBlockTableRecord
  2
block 76
340
0
102
{BLKREFS
331
1E8
102
}
  0
BLOCK_RECORD
  5
1EC
330
1
100
AcDbSymbolTableRecord
100
AcDbBlockTableRecord
  2
block 77
340
0
102
{BLKREFS
331
1ED
102
}
  0
BLOCK_RECORD
  5
1F4
330
1
100
AcDbSymbolTableRecord
100
AcDbBlockTableRecord
  2
block 78
340
0
102
{BLKREFS
331
1F5
102
}
  0
BLOCK_RECORD
  5
1F9
330
1
100
AcDbSymbolTableRecord
100
AcDbBlockTableRecord
  2
block 79
340
0
102
{BLKREFS
331
1FA
102
}
  0
BLOCK_RECORD
  5
1FE
330
1
100
AcDbSymbolTableRecord
100
AcDbBlockTableRecord
  2
block 80
340
0
102
{BLKREFS
331
1FF
102
}
  0
BLOCK_RECORD
  5
203
330
1
100
AcDbSymbolTableRecord
100
AcDbBlockTableRecord
  2
block 81
340
0
102
{BLKREFS
331
204
102
}
  0
BLOCK_RECORD
  5
20B
330
1
100
AcDbSymbolTableRecord
100
AcDbBlockTableRecord
  2
block 82
340
0
102
{BLKREFS
331
20C
102
}
  0
BLOCK_RECORD
  5
210
330
1
100
AcDbSymbolTableRecord
100
AcDbBlockTableRecord
  2
block 83
340
0
102
{BLKREFS
331
211
102
}
  0
BLOCK_RECORD
  5
215
330
1
100
AcDbSymbolTableRecord
100
AcDbBlockTableRecord
  2
block 84
340
0
102
{BLKREFS
331
216
102
}
  0
BLOCK_RECORD
  5
21B
330
1
100
AcDbSymbolTableRecord
100
AcDbBlockTableRecord
  2
block 85
340
0
102
{BLKREFS
331
21C
102
}
  0
BLOCK_RECORD
  5
224
330
1
100
AcDbSymbolTableRecord
100
AcDbBlockTableRecord
  2
block 86
340
0
102
{BLKREFS
331
225
102
}
  0
BLOCK_RECORD
  5
22D
330
1
100
AcDbSymbolTableRecord
100
AcDbBlockTableRecord
  2
block 87
340
0
102
{BLKREFS
331
22E
102
}
  0
BLOCK_RECORD
  5
236
330
1
100
AcDbSymbolTableRecord
100
AcDbBlockTableRecord
  2
block 88
340
0
102
{BLKREFS
331
237
102
}
  0
BLOCK_RECORD
  5
23F
330
1
100
AcDbSymbolTableRecord
100
AcDbBlockTableRecord
  2
block 89
340
0
102
{BLKREFS
331
240
102
}
  0
BLOCK_RECORD
  5
248
330
1
100
AcDbSymbolTableRecord
100
AcDbBlockTableRecord
  2
block 90
340
0
102
{BLKREFS
331
249
102
}
  0
BLOCK_RECORD
  5
251
330
1
100
AcDbSymbolTableRecord
100
AcDbBlockTableRecord
  2
block 91
340
0
102
{BLKREFS
331
252
102
}
  0
BLOCK_RECORD
  5
25A
330
1
100
AcDbSymbolTableRecord
100
AcDbBlockTableRecord
  2
block 92
340
0
102
{BLKREFS
331
25B
102
}
  0
BLOCK_RECORD
  5
264
330
1
100
AcDbSymbolTableRecord
100
AcDbBlockTableRecord
  2
block 93
340
0
102
{BLKREFS
331
265
102
}
  0
BLOCK_RECORD
  5
26D
330
1
100
AcDbSymbolTableRecord
100
AcDbBlockTableRecord
  2
block 94
340
0
102
{BLKREFS
331
26E
102
}
  0
BLOCK_RECORD
  5
276
330
1
100
AcDbSymbolTableRecord
100
AcDbBlockTableRecord
  2
block 95
340
0
102
{BLKREFS
331
277
102
}
  0
BLOCK_RECORD
  5
27F
330
1
100
AcDbSymbolTableRecord
100
AcDbBlockTableRecord
  2
block 96
340
0
102
{BLKREFS
331
280
102
}
  0
BLOCK_RECORD
  5
288
330
1
100
AcDbSymbolTableRecord
100
AcDbBlockTableRecord
  2
block 97
340
0
102
{BLKREFS
331
289
102
}
  0
BLOCK_RECORD
  5
291
330
1
100
AcDbSymbolTableRecord
100
AcDbBlockTableRecord
  2
block 98
340
0
102
{BLKREFS
331
292
102
}
  0
BLOCK_RECORD
  5
297
330
1
100
AcDbSymbolTableRecord
100
AcDbBlockTableRecord
  2
block 99
340
0
102
{BLKREFS
331
298
102
}
  0
BLOCK_RECORD
  5
29D
330
1
100
AcDbSymbolTableRecord
100
AcDbBlockTableRecord
  2
block 100
340
0
102
{BLKREFS
331
29E
102
}
  0
BLOCK_RECORD
  5
2A6
330
1
100
AcDbSymbolTableRecord
100
AcDbBlockTableRecord
  2
block 101
340
0
102
{BLKREFS
331
2A7
102
}
  0
BLOCK_RECORD
  5
2AF
330
1
100
AcDbSymbolTableRecord
100
AcDbBlockTableRecord
  2
block 102
340
0
102
{BLKREFS
331
2B0
102
}
  0
BLOCK_RECORD
  5
2B5
330
1
100
AcDbSymbolTableRecord
100
AcDbBlockTableRecord
  2
block 103
340
0
102
{BLKREFS
331
2B6
102
}
  0
BLOCK_RECORD
  5
2BE
330
1
100
AcDbSymbolTableRecord
100
AcDbBlockTableRecord
  2
block 104
340
0
102
{BLKREFS
331
2BF
102
}
  0
BLOCK_RECORD
  5
2C7
330
1
100
AcDbSymbolTableRecord
100
AcDbBlockTableRecord
  2
block 105
340
0
102
{BLKREFS
331
2C8
102
}
  0
BLOCK_RECORD
  5
2CD
330
1
100
AcDbSymbolTableRecord
100
AcDbBlockTableRecord
  2
block 106
340
0
102
{BLKREFS
331
2CE
102
}
  0
BLOCK_RECORD
  5
2D7
330
1
100
AcDbSymbolTableRecord
100
AcDbBlockTableRecord
  2
block 107
340
0
102
{BLKREFS
331
2D8
102
}
  0
BLOCK_RECORD
  5
2E0
330
1
100
AcDbSymbolTableRecord
100
AcDbBlockTableRecord
  2
block 108
340
0
102
{BLKREFS
331
2E1
102
}
  0
BLOCK_RECORD
  5
2E5
330
1
100
AcDbSymbolTableRecord
100
AcDbBlockTableRecord
  2
block 109
340
0
102
{BLKREFS
331
2E6
102
}
  0
BLOCK_RECORD
  5
2EA
330
1
100
AcDbSymbolTableRecord
100
AcDbBlockTableRecord
  2
block 110
340
0
102
{BLKREFS
331
2EB
102
}
  0
BLOCK_RECORD
  5
2EE
330
1
100
AcDbSymbolTableRecord
100
AcDbBlockTableRecord
  2
block 111
340
0
102
{BLKREFS
331
2EF
102
}
  0
BLOCK_RECORD
  5
2F6
330
1
100
AcDbSymbolTableRecord
100
AcDbBlockTableRecord
  2
block 112
340
0
102
{BLKREFS
331
2F7
102
}
  0
BLOCK_RECORD
  5
2FE
330
1
100
AcDbSymbolTableRecord
100
AcDbBlockTableRecord
  2
block 113
340
0
102
{BLKREFS
331
2FF
102
}
  0
BLOCK_RECORD
  5
306
330
1
100
AcDbSymbolTableRecord
100
AcDbBlockTableRecord
  2
block 114
340
0
102
{BLKREFS
331
307
102
}
  0
BLOCK_RECORD
  5
311
330
1
100
AcDbSymbolTableRecord
100
AcDbBlockTableRecord
  2
block 115
340
0
102
{BLKREFS
331
312
102
}
  0
BLOCK_RECORD
  5
31C
330
1
100
AcDbSymbolTableRecord
100
AcDbBlockTableRecord
  2
block 116
340
0
102
{BLKREFS
331
31D
102
}
  0
BLOCK_RECORD
  5
321
330
1
100
AcDbSymbolTableRecord
100
AcDbBlockTableRecord
  2
block 117
340
0
102
{BLKREFS
331
322
102
}
  0
BLOCK_RECORD
  5
329
330
1
100
AcDbSymbolTableRecord
100
AcDbBlockTableRecord
  2
block 118
340
0
102
{BLKREFS
331
32A
102
}
  0
BLOCK_RECORD
  5
331
330
1
100
AcDbSymbolTableRecord
100
AcDbBlockTableRecord
  2
block 119
340
0
102
{BLKREFS
331
332
102
}
  0
BLOCK_RECORD
  5
339
330
1
100
AcDbSymbolTableRecord
100
AcDbBlockTableRecord
  2
block 120
340
0
102
{BLKREFS
331
33A
102
}
  0
BLOCK_RECORD
  5
33D
330
1
100
AcDbSymbolTableRecord
100
AcDbBlockTableRecord
  2
block 121
340
0
102
{BLKREFS
331
33E
102
}
  0
BLOCK_RECORD
  5
345
330
1
100
AcDbSymbolTableRecord
100
AcDbBlockTableRecord
  2
block 122
340
0
102
{BLKREFS
331
346
102
}
  0
BLOCK_RECORD
  5
34D
330
1
100
AcDbSymbolTableRecord
100
AcDbBlockTableRecord
  2
block 123
340
0
102
{BLKREFS
331
34E
102
}
  0
BLOCK_RECORD
  5
355
330
1
100
AcDbSymbolTableRecord
100
AcDbBlockTableRecord
  2
block 124
340
0
102
{BLKREFS
331
356
102
}
  0
BLOCK_RECORD
  5
35D
330
1
100
AcDbSymbolTableRecord
100
AcDbBlockTableRecord
  2
block 125
340
0
102
{BLKREFS
331
35E
102
}
  0
BLOCK_RECORD
  5
365
330
1
100
AcDbSymbolTableRecord
100
AcDbBlockTableRecord
  2
block 126
340
0
102
{BLKREFS
331
366
102
}
  0
BLOCK_RECORD
  5
370
330
1
100
AcDbSymbolTableRecord
100
AcDbBlockTableRecord
  2
block 127
340
0
102
{BLKREFS
331
371
102
}
  0
BLOCK_RECORD
  5
37B
330
1
100
AcDbSymbolTableRecord
100
AcDbBlockTableRecord
  2
block 128
340
0
102
{BLKREFS
331
37C
102
}
  0
BLOCK_RECORD
  5
380
330
1
100
AcDbSymbolTableRecord
100
AcDbBlockTableRecord
  2
block 129
340
0
102
{BLKREFS
331
381
102
}
  0
BLOCK_RECORD
  5
388
330
1
100
AcDbSymbolTableRecord
100
AcDbBlockTableRecord
  2
block 130
340
0
102
{BLKREFS
331
389
102
}
  0
BLOCK_RECORD
  5
390
330
1
100
AcDbSymbolTableRecord
100
AcDbBlockTableRecord
  2
block 131
340
0
102
{BLKREFS
331
391
102
}
  0
BLOCK_RECORD
  5
398
330
1
100
AcDbSymbolTableRecord
100
AcDbBlockTableRecord
  2
block 132
340
0
102
{BLKREFS
331
399
102
}
  0
BLOCK_RECORD
  5
39C
330
1
100
AcDbSymbolTableRecord
100
AcDbBlockTableRecord
  2
block 133
340
0
102
{BLKREFS
331
39D
102
}
  0
BLOCK_RECORD
  5
3A4
330
1
100
AcDbSymbolTableRecord
100
AcDbBlockTableRecord
  2
block 134
340
0
102
{BLKREFS
331
3A5
102
}
  0
BLOCK_RECORD
  5
3AC
330
1
100
AcDbSymbolTableRecord
100
AcDbBlockTableRecord
  2
block 135
340
0
102
{BLKREFS
331
3AD
102
}
  0
BLOCK_RECORD
  5
3B4
330
1
100
AcDbSymbolTableRecord
100
AcDbBlockTableRecord
  2
block 136
340
0
102
{BLKREFS
331
3B5
102
}
  0
BLOCK_RECORD
  5
3BC
330
1
100
AcDbSymbolTableRecord
100
AcDbBlockTableRecord
  2
block 137
340
0
102
{BLKREFS
331
3BD
102
}
  0
BLOCK_RECORD
  5
3C4
330
1
100
AcDbSymbolTableRecord
100
AcDbBlockTableRecord
  2
block 138
340
0
102
{BLKREFS
331
3C5
102
}
  0
BLOCK_RECORD
  5
3CF
330
1
100
AcDbSymbolTableRecord
100
AcDbBlockTableRecord
  2
block 139
340
0
102
{BLKREFS
331
3D0
102
}
  0
BLOCK_RECORD
  5
3DA
330
1
100
AcDbSymbolTableRecord
100
AcDbBlockTableRecord
  2
block 140
340
0
102
{BLKREFS
331
3DB
102
}
  0
BLOCK_RECORD
  5
3DF
330
1
100
AcDbSymbolTableRecord
100
AcDbBlockTableRecord
  2
block 141
340
0
102
{BLKREFS
331
3E0
102
}
  0
BLOCK_RECORD
  5
3E7
330
1
100
AcDbSymbolTableRecord
100
AcDbBlockTableRecord
  2
block 142
340
0
102
{BLKREFS
331
3E8
102
}
  0
BLOCK_RECORD
  5
3EF
330
1
100
AcDbSymbolTableRecord
100
AcDbBlockTableRecord
  2
block 143
340
0
102
{BLKREFS
331
3F0
102
}
  0
BLOCK_RECORD
  5
3F7
330
1
100
AcDbSymbolTableRecord
100
AcDbBlockTableRecord
  2
block 144
340
0
102
{BLKREFS
331
3F8
102
}
  0
BLOCK_RECORD
  5
3FB
330
1
100
AcDbSymbolTableRecord
100
AcDbBlockTableRecord
  2
block 145
340
0
102
{BLKREFS
331
3FC
102
}
  0
BLOCK_RECORD
  5
403
330
1
100
AcDbSymbolTableRecord
100
AcDbBlockTableRecord
  2
block 146
340
0
102
{BLKREFS
331
404
102
}
  0
BLOCK_RECORD
  5
40B
330
1
100
AcDbSymbolTableRecord
100
AcDbBlockTableRecord
  2
block 147
340
0
102
{BLKREFS
331
40C
102
}
  0
BLOCK_RECORD
  5
413
330
1
100
AcDbSymbolTableRecord
100
AcDbBlockTableRecord
  2
block 148
340
0
102
{BLKREFS
331
414
102
}
  0
BLOCK_RECORD
  5
41E
330
1
100
AcDbSymbolTableRecord
100
AcDbBlockTableRecord
  2
block 149
340
0
102
{BLKREFS
331
41F
102
}
  0
BLOCK_RECORD
  5
429
330
1
100
AcDbSymbolTableRecord
100
AcDbBlockTableRecord
  2
block 150
340
0
102
{BLKREFS
331
42A
102
}
  0
BLOCK_RECORD
  5
42E
330
1
100
AcDbSymbolTableRecord
100
AcDbBlockTableRecord
  2
block 151
340
0
102
{BLKREFS
331
42F
102
}
  0
BLOCK_RECORD
  5
436
330
1
100
AcDbSymbolTableRecord
100
AcDbBlockTableRecord
  2
block 152
340
0
102
{BLKREFS
331
437
102
}
  0
BLOCK_RECORD
  5
43E
330
1
100
AcDbSymbolTableRecord
100
AcDbBlockTableRecord
  2
block 153
340
0
102
{BLKREFS
331
43F
102
}
  0
BLOCK_RECORD
  5
446
330
1
100
AcDbSymbolTableRecord
100
AcDbBlockTableRecord
  2
block 154
340
0
102
{BLKREFS
331
447
102
}
  0
BLOCK_RECORD
  5
44A
330
1
100
AcDbSymbolTableRecord
100
AcDbBlockTableRecord
  2
block 155
340
0
102
{BLKREFS
331
44B
102
}
  0
BLOCK_RECORD
  5
452
330
1
100
AcDbSymbolTableRecord
100
AcDbBlockTableRecord
  2
block 156
340
0
102
{BLKREFS
331
453
102
}
  0
BLOCK_RECORD
  5
45A
330
1
100
AcDbSymbolTableRecord
100
AcDbBlockTableRecord
  2
block 157
340
0
102
{BLKREFS
331
45B
102
}
  0
BLOCK_RECORD
  5
462
330
1
100
AcDbSymbolTableRecord
100
AcDbBlockTableRecord
  2
block 158
340
0
102
{BLKREFS
331
463
102
}
  0
BLOCK_RECORD
  5
46D
330
1
100
AcDbSymbolTableRecord
100
AcDbBlockTableRecord
  2
block 159
340
0
102
{BLKREFS
331
46E
102
}
  0
BLOCK_RECORD
  5
478
330
1
100
AcDbSymbolTableRecord
100
AcDbBlockTableRecord
  2
block 160
340
0
102
{BLKREFS
331
479
102
}
  0
BLOCK_RECORD
  5
47D
330
1
100
AcDbSymbolTableRecord
100
AcDbBlockTableRecord
  2
block 161
340
0
102
{BLKREFS
331
47E
102
}
  0
BLOCK_RECORD
  5
485
330
1
100
AcDbSymbolTableRecord
100
AcDbBlockTableRecord
  2
block 162
340
0
102
{BLKREFS
331
486
102
}
  0
BLOCK_RECORD
  5
48D
330
1
100
AcDbSymbolTableRecord
100
AcDbBlockTableRecord
  2
block 163
340
0
102
{BLKREFS
331
48E
102
}
  0
BLOCK_RECORD
  5
495
330
1
100
AcDbSymbolTableRecord
100
AcDbBlockTableRecord
  2
block 164
340
0
102
{BLKREFS
331
496
102
}
  0
BLOCK_RECORD
  5
499
330
1
100
AcDbSymbolTableRecord
100
AcDbBlockTableRecord
  2
block 165
340
0
102
{BLKREFS
331
49A
102
}
  0
BLOCK_RECORD
  5
4A1
330
1
100
AcDbSymbolTableRecord
100
AcDbBlockTableRecord
  2
block 166
340
0
102
{BLKREFS
331
4A2
102
}
  0
BLOCK_RECORD
  5
4A9
330
1
100
AcDbSymbolTableRecord
100
AcDbBlockTableRecord
  2
block 167
340
0
102
{BLKREFS
331
4AA
102
}
  0
BLOCK_RECORD
  5
4B1
330
1
100
AcDbSymbolTableRecord
100
AcDbBlockTableRecord
  2
block 168
340
0
102
{BLKREFS
331
4B2
102
}
  0
BLOCK_RECORD
  5
4BC
330
1
100
AcDbSymbolTableRecord
100
AcDbBlockTableRecord
  2
block 169
340
0
102
{BLKREFS
331
4BD
102
}
  0
BLOCK_RECORD
  5
4C7
330
1
100
AcDbSymbolTableRecord
100
AcDbBlockTableRecord
  2
block 170
340
0
102
{BLKREFS
331
4C8
102
}
  0
BLOCK_RECORD
  5
4CC
330
1
100
AcDbSymbolTableRecord
100
AcDbBlockTableRecord
  2
block 171
340
0
102
{BLKREFS
331
4CD
102
}
  0
BLOCK_RECORD
  5
4D4
330
1
100
AcDbSymbolTableRecord
100
AcDbBlockTableRecord
  2
block 172
340
0
102
{BLKREFS
331
4D5
102
}
  0
BLOCK_RECORD
  5
4DC
330
1
100
AcDbSymbolTableRecord
100
AcDbBlockTableRecord
  2
block 173
340
0
102
{BLKREFS
331
4DD
102
}
  0
BLOCK_RECORD
  5
4E4
330
1
100
AcDbSymbolTableRecord
100
AcDbBlockTableRecord
  2
block 174
340
0
102
{BLKREFS
331
4E5
102
}
  0
BLOCK_RECORD
  5
4E8
330
1
100
AcDbSymbolTableRecord
100
AcDbBlockTableRecord
  2
block 175
340
0
102
{BLKREFS
331
4E9
102
}
  0
BLOCK_RECORD
  5
4F0
330
1
100
AcDbSymbolTableRecord
100
AcDbBlockTableRecord
  2
block 176
340
0
102
{BLKREFS
331
4F1
102
}
  0
BLOCK_RECORD
  5
4F8
330
1
100
AcDbSymbolTableRecord
100
AcDbBlockTableRecord
  2
block 177
340
0
102
{BLKREFS
331
4F9
102
}
  0
BLOCK_RECORD
  5
500
330
1
100
AcDbSymbolTableRecord
100
AcDbBlockTableRecord
  2
block 178
340
0
102
{BLKREFS
331
501
102
}
  0
BLOCK_RECORD
  5
50B
330
1
100
AcDbSymbolTableRecord
100
AcDbBlockTableRecord
  2
block 179
340
0
102
{BLKREFS
331
50C
102
}
  0
BLOCK_RECORD
  5
516
330
1
100
AcDbSymbolTableRecord
100
AcDbBlockTableRecord
  2
block 180
340
0
102
{BLKREFS
331
517
102
}
  0
BLOCK_RECORD
  5
51B
330
1
100
AcDbSymbolTableRecord
100
AcDbBlockTableRecord
  2
block 181
340
0
102
{BLKREFS
331
51C
102
}
  0
BLOCK_RECORD
  5
523
330
1
100
AcDbSymbolTableRecord
100
AcDbBlockTableRecord
  2
block 182
340
0
102
{BLKREFS
331
524
102
}
  0
BLOCK_RECORD
  5
52B
330
1
100
AcDbSymbolTableRecord
100
AcDbBlockTableRecord
  2
block 183
340
0
102
{BLKREFS
331
52C
102
}
  0
BLOCK_RECORD
  5
533
330
1
100
AcDbSymbolTableRecord
100
AcDbBlockTableRecord
  2
block 184
340
0
102
{BLKREFS
331
534
102
}
  0
BLOCK_RECORD
  5
537
330
1
100
AcDbSymbolTableRecord
100
AcDbBlockTableRecord
  2
block 185
340
0
102
{BLKREFS
331
538
102
}
  0
BLOCK_RECORD
  5
53F
330
1
100
AcDbSymbolTableRecord
100
AcDbBlockTableRecord
  2
block 186
340
0
102
{BLKREFS
331
540
102
}
  0
BLOCK_RECORD
  5
547
330
1
100
AcDbSymbolTableRecord
100
AcDbBlockTableRecord
  2
block 187
340
0
102
{BLKREFS
331
548
102
}
  0
BLOCK_RECORD
  5
54F
330
1
100
AcDbSymbolTableRecord
100
AcDbBlockTableRecord
  2
block 188
340
0
102
{BLKREFS
331
550
102
}
  0
BLOCK_RECORD
  5
55A
330
1
100
AcDbSymbolTableRecord
100
AcDbBlockTableRecord
  2
block 189
340
0
102
{BLKREFS
331
55B
102
}
  0
BLOCK_RECORD
  5
565
330
1
100
AcDbSymbolTableRecord
100
AcDbBlockTableRecord
  2
block 190
340
0
102
{BLKREFS
331
566
102
}
  0
BLOCK_RECORD
  5
56A
330
1
100
AcDbSymbolTableRecord
100
AcDbBlockTableRecord
  2
block 191
340
0
102
{BLKREFS
331
56B
102
}
  0
BLOCK_RECORD
  5
572
330
1
100
AcDbSymbolTableRecord
100
AcDbBlockTableRecord
  2
block 192
340
0
102
{BLKREFS
331
573
102
}
  0
BLOCK_RECORD
  5
57A
330
1
100
AcDbSymbolTableRecord
100
AcDbBlockTableRecord
  2
block 193
340
0
102
{BLKREFS
331
57B
102
}
  0
BLOCK_RECORD
  5
582
330
1
100
AcDbSymbolTableRecord
100
AcDbBlockTableRecord
  2
block 194
340
0
102
{BLKREFS
331
583
102
}
  0
BLOCK_RECORD
  5
586
330
1
100
AcDbSymbolTableRecord
100
AcDbBlockTableRecord
  2
block 195
340
0
102
{BLKREFS
331
587
102
}
  0
BLOCK_RECORD
  5
58E
330
1
100
AcDbSymbolTableRecord
100
AcDbBlockTableRecord
  2
block 196
340
0
102
{BLKREFS
331
58F
102
}
  0
BLOCK_RECORD
  5
596
330
1
100
AcDbSymbolTableRecord
100
AcDbBlockTableRecord
  2
block 197
340
0
102
{BLKREFS
331
597
102
}
  0
BLOCK_RECORD
  5
59E
330
1
100
AcDbSymbolTableRecord
100
AcDbBlockTableRecord
  2
block 198
340
0
102
{BLKREFS
331
59F
102
}
  0
BLOCK_RECORD
  5
5A9
330
1
100
AcDbSymbolTableRecord
100
AcDbBlockTableRecord
  2
block 199
340
0
102
{BLKREFS
331
5AA
102
}
  0
BLOCK_RECORD
  5
5B4
330
1
100
AcDbSymbolTableRecord
100
AcDbBlockTableRecord
  2
block 200
340
0
102
{BLKREFS
331
5B5
102
}
  0
BLOCK_RECORD
  5
5B9
330
1
100
AcDbSymbolTableRecord
100
AcDbBlockTableRecord
  2
block 201
340
0
102
{BLKREFS
331
5BA
102
}
  0
BLOCK_RECORD
  5
5C1
330
1
100
AcDbSymbolTableRecord
100
AcDbBlockTableRecord
  2
block 202
340
0
102
{BLKREFS
331
5C2
102
}
  0
BLOCK_RECORD
  5
5C9
330
1
100
AcDbSymbolTableRecord
100
AcDbBlockTableRecord
  2
block 203
340
0
102
{BLKREFS
331
5CA
102
}
  0
BLOCK_RECORD
  5
5D1
330
1
100
AcDbSymbolTableRecord
100
AcDbBlockTableRecord
  2
block 204
340
0
102
{BLKREFS
331
5D2
102
}
  0
BLOCK_RECORD
  5
5D5
330
1
100
AcDbSymbolTableRecord
100
AcDbBlockTableRecord
  2
block 205
340
0
102
{BLKREFS
331
5D6
102
}
  0
BLOCK_RECORD
  5
5DD
330
1
100
AcDbSymbolTableRecord
100
AcDbBlockTableRecord
  2
block 206
340
0
102
{BLKREFS
331
5DE
102
}
  0
BLOCK_RECORD
  5
5E5
330
1
100
AcDbSymbolTableRecord
100
AcDbBlockTableRecord
  2
block 207
340
0
102
{BLKREFS
331
5E6
102
}
  0
BLOCK_RECORD
  5
5ED
330
1
100
AcDbSymbolTableRecord
100
AcDbBlockTableRecord
  2
block 208
340
0
102
{BLKREFS
331
5EE
102
}
  0
BLOCK_RECORD
  5
5F8
330
1
100
AcDbSymbolTableRecord
100
AcDbBlockTableRecord
  2
block 209
340
0
102
{BLKREFS
331
5F9
102
}
  0
BLOCK_RECORD
  5
603
330
1
100
AcDbSymbolTableRecord
100
AcDbBlockTableRecord
  2
block 210
340
0
102
{BLKREFS
331
604
102
}
  0
BLOCK_RECORD
  5
608
330
1
100
AcDbSymbolTableRecord
100
AcDbBlockTableRecord
  2
block 211
340
0
102
{BLKREFS
331
609
102
}
  0
BLOCK_RECORD
  5
610
330
1
100
AcDbSymbolTableRecord
100
AcDbBlockTableRecord
  2
block 212
340
0
102
{BLKREFS
331
611
102
}
  0
BLOCK_RECORD
  5
618
330
1
100
AcDbSymbolTableRecord
100
AcDbBlockTableRecord
  2
block 213
340
0
102
{BLKREFS
331
619
102
}
  0
BLOCK_RECORD
  5
620
330
1
100
AcDbSymbolTableRecord
100
AcDbBlockTableRecord
  2
block 214
340
0
102
{BLKREFS
331
621
102
}
  0
BLOCK_RECORD
  5
624
330
1
100
AcDbSymbolTableRecord
100
AcDbBlockTableRecord
  2
block 215
340
0
102
{BLKREFS
331
625
102
}
  0
BLOCK_RECORD
  5
62C
330
1
100
AcDbSymbolTableRecord
100
AcDbBlockTableRecord
  2
block 216
340
0
102
{BLKREFS
331
62D
102
}
  0
BLOCK_RECORD
  5
634
330
1
100
AcDbSymbolTableRecord
100
AcDbBlockTableRecord
  2
block 217
340
0
102
{BLKREFS
331
635
102
}
  0
BLOCK_RECORD
  5
63C
330
1
100
AcDbSymbolTableRecord
100
AcDbBlockTableRecord
  2
block 218
340
0
102
{BLKREFS
331
63D
102
}
  0
BLOCK_RECORD
  5
641
330
1
100
AcDbSymbolTableRecord
100
AcDbBlockTableRecord
  2
block 219
340
0
102
{BLKREFS
331
642
102
}
  0
BLOCK_RECORD
  5
649
330
1
100
AcDbSymbolTableRecord
100
AcDbBlockTableRecord
  2
block 220
340
0
102
{BLKREFS
331
64A
102
}
  0
BLOCK_RECORD
  5
654
330
1
100
AcDbSymbolTableRecord
100
AcDbBlockTableRecord
  2
block 221
340
0
102
{BLKREFS
331
655
102
}
  0
BLOCK_RECORD
  5
65F
330
1
100
AcDbSymbolTableRecord
100
AcDbBlockTableRecord
  2
block 222
340
0
102
{BLKREFS
331
660
102
}
  0
BLOCK_RECORD
  5
667
330
1
100
AcDbSymbolTableRecord
100
AcDbBlockTableRecord
  2
block 223
340
0
102
{BLKREFS
331
668
102
}
  0
BLOCK_RECORD
  5
66F
330
1
100
AcDbSymbolTableRecord
100
AcDbBlockTableRecord
  2
block 224
340
0
102
{BLKREFS
331
670
102
}
  0
BLOCK_RECORD
  5
673
330
1
100
AcDbSymbolTableRecord
100
AcDbBlockTableRecord
  2
block 225
340
0
102
{BLKREFS
331
674
102
}
  0
BLOCK_RECORD
  5
67B
330
1
100
AcDbSymbolTableRecord
100
AcDbBlockTableRecord
  2
block 226
340
0
102
{BLKREFS
331
67C
102
}
  0
BLOCK_RECORD
  5
683
330
1
100
AcDbSymbolTableRecord
100
AcDbBlockTableRecord
  2
block 227
340
0
102
{BLKREFS
331
684
102
}
  0
BLOCK_RECORD
  5
68B
330
1
100
AcDbSymbolTableRecord
100
AcDbBlockTableRecord
  2
block 228
340
0
102
{BLKREFS
331
68C
102
}
  0
BLOCK_RECORD
  5
696
330
1
100
AcDbSymbolTableRecord
100
AcDbBlockTableRecord
  2
block 229
340
0
102
{BLKREFS
331
697
102
}
  0
BLOCK_RECORD
  5
6A1
330
1
100
AcDbSymbolTableRecord
100
AcDbBlockTableRecord
  2
block 230
340
0
102
{BLKREFS
331
6A2
102
}
  0
BLOCK_RECORD
  5
6A6
330
1
100
AcDbSymbolTableRecord
100
AcDbBlockTableRecord
  2
block 231
340
0
102
{BLKREFS
331
6A7
102
}
  0
BLOCK_RECORD
  5
6AE
330
1
100
AcDbSymbolTableRecord
100
AcDbBlockTableRecord
  2
block 232
340
0
102
{BLKREFS
331
6AF
102
}
  0
BLOCK_RECORD
  5
6B6
330
1
100
AcDbSymbolTableRecord
100
AcDbBlockTableRecord
  2
block 233
340
0
102
{BLKREFS
331
6B7
102
}
  0
BLOCK_RECORD
  5
6BE
330
1
100
AcDbSymbolTableRecord
100
AcDbBlockTableRecord
  2
block 234
340
0
102
{BLKREFS
331
6BF
102
}
  0
BLOCK_RECORD
  5
6C2
330
1
100
AcDbSymbolTableRecord
100
AcDbBlockTableRecord
  2
block 235
340
0
102
{BLKREFS
331
6C3
102
}
  0
BLOCK_RECORD
  5
6CA
330
1
100
AcDbSymbolTableRecord
100
AcDbBlockTableRecord
  2
block 236
340
0
102
{BLKREFS
331
6CB
102
}
  0
BLOCK_RECORD
  5
6D2
330
1
100
AcDbSymbolTableRecord
100
AcDbBlockTableRecord
  2
block 237
340
0
102
{BLKREFS
331
6D3
102
}
  0
BLOCK_RECORD
  5
6DA
330
1
100
AcDbSymbolTableRecord
100
AcDbBlockTableRecord
  2
block 238
340
0
102
{BLKREFS
331
6DB
102
}
  0
BLOCK_RECORD
  5
6E2
330
1
100
AcDbSymbolTableRecord
100
AcDbBlockTableRecord
  2
block 239
340
0
102
{BLKREFS
331
6E3
102
}
  0
BLOCK_RECORD
  5
6EA
330
1
100
AcDbSymbolTableRecord
100
AcDbBlockTableRecord
  2
block 240
340
0
102
{BLKREFS
331
6EB
102
}
  0
BLOCK_RECORD
  5
6F5
330
1
100
AcDbSymbolTableRecord
100
AcDbBlockTableRecord
  2
block 241
340
0
102
{BLKREFS
331
6F6
102
}
  0
BLOCK_RECORD
  5
700
330
1
100
AcDbSymbolTableRecord
100
AcDbBlockTableRecord
  2
block 242
340
0
102
{BLKREFS
331
701
102
}
  0
BLOCK_RECORD
  5
705
330
1
100
AcDbSymbolTableRecord
100
AcDbBlockTableRecord
  2
block 243
340
0
102
{BLKREFS
331
706
102
}
  0
BLOCK_RECORD
  5
70D
330
1
100
AcDbSymbolTableRecord
100
AcDbBlockTableRecord
  2
block 244
340
0
102
{BLKREFS
331
70E
102
}
  0
BLOCK_RECORD
  5
715
330
1
100
AcDbSymbolTableRecord
100
AcDbBlockTableRecord
  2
block 245
340
0
102
{BLKREFS
331
716
102
}
  0
BLOCK_RECORD
  5
71D
330
1
100
AcDbSymbolTableRecord
100
AcDbBlockTableRecord
  2
block 246
340
0
102
{BLKREFS
331
71E
102
}
  0
BLOCK_RECORD
  5
721
330
1
100
AcDbSymbolTableRecord
100
AcDbBlockTableRecord
  2
block 247
340
0
102
{BLKREFS
331
722
102
}
  0
BLOCK_RECORD
  5
729
330
1
100
AcDbSymbolTableRecord
100
AcDbBlockTableRecord
  2
block 248
340
0
102
{BLKREFS
331
72A
102
}
  0
BLOCK_RECORD
  5
731
330
1
100
AcDbSymbolTableRecord
100
AcDbBlockTableRecord
  2
block 249
340
0
102
{BLKREFS
331
732
102
}
  0
BLOCK_RECORD
  5
739
330
1
100
AcDbSymbolTableRecord
100
AcDbBlockTableRecord
  2
block 250
340
0
102
{BLKREFS
331
73A
102
}
  0
BLOCK_RECORD
  5
744
330
1
100
AcDbSymbolTableRecord
100
AcDbBlockTableRecord
  2
block 251
340
0
102
{BLKREFS
331
745
102
}
  0
BLOCK_RECORD
  5
74F
330
1
100
AcDbSymbolTableRecord
100
AcDbBlockTableRecord
  2
block 252
340
0
102
{BLKREFS
331
750
102
}
  0
BLOCK_RECORD
  5
754
330
1
100
AcDbSymbolTableRecord
100
AcDbBlockTableRecord
  2
block 253
340
0
102
{BLKREFS
331
755
102
}
  0
BLOCK_RECORD
  5
75C
330
1
100
AcDbSymbolTableRecord
100
AcDbBlockTableRecord
  2
block 254
340
0
102
{BLKREFS
331
75D
102
}
  0
BLOCK_RECORD
  5
764
330
1
100
AcDbSymbolTableRecord
100
AcDbBlockTableRecord
  2
block 255
340
0
102
{BLKREFS
331
765
102
}
  0
BLOCK_RECORD
  5
76C
330
1
100
AcDbSymbolTableRecord
100
AcDbBlockTableRecord
  2
block 256
340
0
102
{BLKREFS
331
76D
102
}
  0
BLOCK_RECORD
  5
770
330
1
100
AcDbSymbolTableRecord
100
AcDbBlockTableRecord
  2
block 257
340
0
102
{BLKREFS
331
771
102
}
  0
BLOCK_RECORD
  5
778
330
1
100
AcDbSymbolTableRecord
100
AcDbBlockTableRecord
  2
block 258
340
0
102
{BLKREFS
331
779
102
}
  0
BLOCK_RECORD
  5
780
330
1
100
AcDbSymbolTableRecord
100
AcDbBlockTableRecord
  2
block 259
340
0
102
{BLKREFS
331
781
102
}
  0
BLOCK_RECORD
  5
788
330
1
100
AcDbSymbolTableRecord
100
AcDbBlockTableRecord
  2
block 260
340
0
102
{BLKREFS
331
789
102
}
  0
BLOCK_RECORD
  5
793
330
1
100
AcDbSymbolTableRecord
100
AcDbBlockTableRecord
  2
block 261
340
0
102
{BLKREFS
331
794
102
}
  0
BLOCK_RECORD
  5
79E
330
1
100
AcDbSymbolTableRecord
100
AcDbBlockTableRecord
  2
block 262
340
0
102
{BLKREFS
331
79F
102
}
  0
BLOCK_RECORD
  5
7A3
330
1
100
AcDbSymbolTableRecord
100
AcDbBlockTableRecord
  2
block 263
340
0
102
{BLKREFS
331
7A4
102
}
  0
BLOCK_RECORD
  5
7AB
330
1
100
AcDbSymbolTableRecord
100
AcDbBlockTableRecord
  2
block 264
340
0
102
{BLKREFS
331
7AC
102
}
  0
BLOCK_RECORD
  5
7B3
330
1
100
AcDbSymbolTableRecord
100
AcDbBlockTableRecord
  2
block 265
340
0
102
{BLKREFS
331
7B4
102
}
  0
BLOCK_RECORD
  5
7BB
330
1
100
AcDbSymbolTableRecord
100
AcDbBlockTableRecord
  2
block 266
340
0
102
{BLKREFS
331
7BC
102
}
  0
BLOCK_RECORD
  5
7BF
330
1
100
AcDbSymbolTableRecord
100
AcDbBlockTableRecord
  2
block 267
340
0
102
{BLKREFS
331
7C0
102
}
  0
BLOCK_RECORD
  5
7C7
330
1
100
AcDbSymbolTableRecord
100
AcDbBlockTableRecord
  2
block 268
340
0
102
{BLKREFS
331
7C8
102
}
  0
BLOCK_RECORD
  5
7CF
330
1
100
AcDbSymbolTableRecord
100
AcDbBlockTableRecord
  2
block 269
340
0
102
{BLKREFS
331
7D0
102
}
  0
BLOCK_RECORD
  5
7D7
330
1
100
AcDbSymbolTableRecord
100
AcDbBlockTableRecord
  2
block 270
340
0
102
{BLKREFS
331
7D8
102
}
  0
BLOCK_RECORD
  5
7E2
330
1
100
AcDbSymbolTableRecord
100
AcDbBlockTableRecord
  2
block 271
340
0
102
{BLKREFS
331
7E3
102
}
  0
BLOCK_RECORD
  5
7ED
330
1
100
AcDbSymbolTableRecord
100
AcDbBlockTableRecord
  2
block 272
340
0
102
{BLKREFS
331
7EE
102
}
  0
BLOCK_RECORD
  5
7F2
330
1
100
AcDbSymbolTableRecord
100
AcDbBlockTableRecord
  2
block 273
340
0
102
{BLKREFS
331
7F3
102
}
  0
BLOCK_RECORD
  5
7FA
330
1
100
AcDbSymbolTableRecord
100
AcDbBlockTableRecord
  2
block 274
340
0
102
{BLKREFS
331
7FB
102
}
  0
BLOCK_RECORD
  5
802
330
1
100
AcDbSymbolTableRecord
100
AcDbBlockTableRecord
  2
block 275
340
0
102
{BLKREFS
331
803
102
}
  0
BLOCK_RECORD
  5
80A
330
1
100
AcDbSymbolTableRecord
100
AcDbBlockTableRecord
  2
block 276
340
0
102
{BLKREFS
331
80B
102
}
  0
BLOCK_RECORD
  5
80E
330
1
100
AcDbSymbolTableRecord
100
AcDbBlockTableRecord
  2
block 277
340
0
102
{BLKREFS
331
80F
102
}
  0
BLOCK_RECORD
  5
816
330
1
100
AcDbSymbolTableRecord
100
AcDbBlockTableRecord
  2
block 278
340
0
102
{BLKREFS
331
817
102
}
  0
BLOCK_RECORD
  5
81E
330
1
100
AcDbSymbolTableRecord
100
AcDbBlockTableRecord
  2
block 279
340
0
102
{BLKREFS
331
81F
102
}
  0
BLOCK_RECORD
  5
826
330
1
100
AcDbSymbolTableRecord
100
AcDbBlockTableRecord
  2
block 280
340
0
102
{BLKREFS
331
827
102
}
  0
BLOCK_RECORD
  5
831
330
1
100
AcDbSymbolTableRecord
100
AcDbBlockTableRecord
  2
block 281
340
0
102
{BLKREFS
331
832
102
}
  0
BLOCK_RECORD
  5
83C
330
1
100
AcDbSymbolTableRecord
100
AcDbBlockTableRecord
  2
block 282
340
0
102
{BLKREFS
331
83D
102
}
  0
BLOCK_RECORD
  5
841
330
1
100
AcDbSymbolTableRecord
100
AcDbBlockTableRecord
  2
block 283
340
0
102
{BLKREFS
331
842
102
}
  0
BLOCK_RECORD
  5
849
330
1
100
AcDbSymbolTableRecord
100
AcDbBlockTableRecord
  2
block 284
340
0
102
{BLKREFS
331
84A
102
}
  0
BLOCK_RECORD
  5
851
330
1
100
AcDbSymbolTableRecord
100
AcDbBlockTableRecord
  2
block 285
340
0
102
{BLKREFS
331
852
102
}
  0
BLOCK_RECORD
  5
859
330
1
100
AcDbSymbolTableRecord
100
AcDbBlockTableRecord
  2
block 286
340
0
102
{BLKREFS
331
85A
102
}
  0
BLOCK_RECORD
  5
85D
330
1
100
AcDbSymbolTableRecord
100
AcDbBlockTableRecord
  2
block 287
340
0
102
{BLKREFS
331
85E
102
}
  0
BLOCK_RECORD
  5
865
330
1
100
AcDbSymbolTableRecord
100
AcDbBlockTableRecord
  2
block 288
340
0
102
{BLKREFS
331
866
102
}
  0
BLOCK_RECORD
  5
86D
330
1
100
AcDbSymbolTableRecord
100
AcDbBlockTableRecord
  2
block 289
340
0
102
{BLKREFS
331
86E
102
}
  0
BLOCK_RECORD
  5
875
330
1
100
AcDbSymbolTableRecord
100
AcDbBlockTableRecord
  2
block 290
340
0
102
{BLKREFS
331
876
102
}
  0
BLOCK_RECORD
  5
880
330
1
100
AcDbSymbolTableRecord
100
AcDbBlockTableRecord
  2
block 291
340
0
102
{BLKREFS
331
881
102
}
  0
BLOCK_RECORD
  5
88B
330
1
100
AcDbSymbolTableRecord
100
AcDbBlockTableRecord
  2
block 292
340
0
102
{BLKREFS
331
88C
102
}
  0
BLOCK_RECORD
  5
890
330
1
100
AcDbSymbolTableRecord
100
AcDbBlockTableRecord
  2
block 293
340
0
102
{BLKREFS
331
891
102
}
  0
BLOCK_RECORD
  5
898
330
1
100
AcDbSymbolTableRecord
100
AcDbBlockTableRecord
  2
block 294
340
0
102
{BLKREFS
331
899
102
}
  0
BLOCK_RECORD
  5
8A0
330
1
100
AcDbSymbolTableRecord
100
AcDbBlockTableRecord
  2
block 295
340
0
102
{BLKREFS
331
8A1
102
}
  0
BLOCK_RECORD
  5
8A8
330
1
100
AcDbSymbolTableRecord
100
AcDbBlockTableRecord
  2
block 296
340
0
102
{BLKREFS
331
8A9
102
}
  0
BLOCK_RECORD
  5
8AD
330
1
100
AcDbSymbolTableRecord
100
AcDbBlockTableRecord
  2
block 297
340
0
102
{BLKREFS
331
8AE
102
}
  0
BLOCK_RECORD
  5
8B1
330
1
100
AcDbSymbolTableRecord
100
AcDbBlockTableRecord
  2
block 298
340
0
102
{BLKREFS
331
8B2
102
}
  0
BLOCK_RECORD
  5
8B9
330
1
100
AcDbSymbolTableRecord
100
AcDbBlockTableRecord
  2
block 299
340
0
102
{BLKREFS
331
8BA
102
}
  0
BLOCK_RECORD
  5
8BE
330
1
100
AcDbSymbolTableRecord
100
AcDbBlockTableRecord
  2
block 300
340
0
102
{BLKREFS
331
8BF
102
}
  0
BLOCK_RECORD
  5
8C3
330
1
100
AcDbSymbolTableRecord
100
AcDbBlockTableRecord
  2
block 301
340
0
102
{BLKREFS
331
8C4
102
}
  0
BLOCK_RECORD
  5
8C8
330
1
100
AcDbSymbolTableRecord
100
AcDbBlockTableRecord
  2
block 302
340
0
102
{BLKREFS
331
8C9
102
}
  0
BLOCK_RECORD
  5
8CC
330
1
100
AcDbSymbolTableRecord
100
AcDbBlockTableRecord
  2
block 303
340
0
102
{BLKREFS
331
8CD
102
}
  0
BLOCK_RECORD
  5
8D4
330
1
100
AcDbSymbolTableRecord
100
AcDbBlockTableRecord
  2
block 304
340
0
102
{BLKREFS
331
8D5
102
}
  0
BLOCK_RECORD
  5
8D9
330
1
100
AcDbSymbolTableRecord
100
AcDbBlockTableRecord
  2
block 305
340
0
102
{BLKREFS
331
8DA
102
}
  0
BLOCK_RECORD
  5
8DE
330
1
100
AcDbSymbolTableRecord
100
AcDbBlockTableRecord
  2
block 306
340
0
102
{BLKREFS
331
8DF
102
}
  0
ENDTAB
  0
ENDSEC
  0
SECTION
  2
BLOCKS
  0
BLOCK
  5
20
330
1F
100
AcDbEntity
  8
0
100
AcDbBlockBegin
  2
*Model_Space
 70
     0
 71
     0
 10
0.0
 20
0.0
 30
0.0
  3
*Model_Space
  1

  0
ENDBLK
  5
21
330
1F
100
AcDbEntity
  8
0
100
AcDbBlockEnd
  0
BLOCK
  5
1C
330
1B
100
AcDbEntity
 67
     1
  8
0
100
AcDbBlockBegin
  2
*Paper_Space
 70
     0
 71
     0
 10
0.0
 20
0.0
 30
0.0
  3
*Paper_Space
  1

  0
ENDBLK
  5
1D
330
1B
100
AcDbEntity
 67
     1
  8
0
100
AcDbBlockEnd
  0
BLOCK
  5
24
330
23
100
AcDbEntity
  8
0
100
AcDbBlockBegin
  2
*Paper_Space0
 70
     0
 71
     0
 10
0.0
 20
0.0
 30
0.0
  3
*Paper_Space0
  1

  0
ENDBLK
  5
25
330
23
100
AcDbEntity
  8
0
100
AcDbBlockEnd
  0
BLOCK
  5
3E
330
3C
100
AcDbEntity
  8
0
100
AcDbBlockBegin
  2
block 2
 70
     0
 71
     0
 10
0.0
 20
0.0
 30
0.0
  3
block 2
  1

  0
ENDBLK
  5
3F
330
3C
100
AcDbEntity
  8
0
100
AcDbBlockEnd
  0
BLOCK
  5
42
330
40
100
AcDbEntity
  8
0
100
AcDbBlockBegin
  2
block 3
 70
     0
 71
     0
 10
0.0
 20
0.0
 30
0.0
  3
block 3
  1

  0
ENDBLK
  5
43
330
40
100
AcDbEntity
  8
0
100
AcDbBlockEnd
  0
BLOCK
  5
46
330
44
100
AcDbEntity
  8
0
100
AcDbBlockBegin
  2
block 4
 70
     0
 71
     0
 10
0.0
 20
0.0
 30
0.0
  3
block 4
  1

  0
ENDBLK
  5
47
330
44
100
AcDbEntity
  8
0
100
AcDbBlockEnd
  0
BLOCK
  5
4A
330
48
100
AcDbEntity
  8
0
100
AcDbBlockBegin
  2
block 5
 70
     0
 71
     0
 10
0.0
 20
0.0
 30
0.0
  3
block 5
  1

  0
ENDBLK
  5
4B
330
48
100
AcDbEntity
  8
0
100
AcDbBlockEnd
  0
BLOCK
  5
4F
330
4D
100
AcDbEntity
  8
0
100
AcDbBlockBegin
  2
block 6
 70
     0
 71
     0
 10
0.0
 20
0.0
 30
0.0
  3
block 6
  1

  0
SPLINE
  5
51
330
4D
100
AcDbEntity
  8
1
 62
     7
370
     9
100
AcDbSpline
210
0.0
220
0.0
230
1.0
 70
     8
 71
     3
 72
     8
 73
     4
 74
     0
 42
0.0000000001
 43
0.0000000001
 40
0.0
 40
0.0
 40
0.0
 40
0.0
 40
1.0
 40
1.0
 40
1.0
 40
1.0
 10
65.47597769382877
 20
99.48822207396923
 30
0.0
 10
61.67069496527218
 20
97.31057578116165
 30
0.0
 10
58.774056770378
 20
92.00030209703951
 30
0.0
 10
59.00332802617035
 20
87.621927356446
 30
0.0
  0
ENDBLK
  5
50
330
4D
100
AcDbEntity
  8
0
100
AcDbBlockEnd
  0
BLOCK
  5
54
330
52
100
AcDbEntity
  8
0
100
AcDbBlockBegin
  2
block 7
 70
     0
 71
     0
 10
0.0
 20
0.0
 30
0.0
  3
block 7
  1

  0
POLYLINE
  5
56
330
52
100
AcDbEntity
  8
1
 62
     7
370
     9
100
AcDb2dPolyline
 66
     1
 10
0.0
 20
0.0
 30
0.0
  0
VERTEX
  5
57
330
56
100
AcDbEntity
  8
1
 62
     7
370
     9
100
AcDbVertex
100
AcDb2dVertex
 10
106.0063470320327
 20
92.42060402351083
 30
0.0
  0
VERTEX
  5
58
330
56
100
AcDbEntity
  8
1
 62
     7
370
     9
100
AcDbVertex
100
AcDb2dVertex
 10
106.0063470320327
 20
87.621927356446
 30
0.0
  0
SEQEND
  5
59
330
56
100
AcDbEntity
  8
1
370
     9
  0
ENDBLK
  5
55
330
52
100
AcDbEntity
  8
0
100
AcDbBlockEnd
  0
BLOCK
  5
5C
330
5A
100
AcDbEntity
  8
0
100
AcDbBlockBegin
  2
block 8
 70
     0
 71
     0
 10
0.0
 20
0.0
 30
0.0
  3
block 8
  1

  0
SPLINE
  5
5E
330
5A
100
AcDbEntity
  8
1
 62
     7
370
     9
100
AcDbSpline
210
0.0
220
0.0
230
1.0
 70
     8
 71
     3
 72
     8
 73
     4
 74
     0
 42
0.0000000001
 43
0.0000000001
 40
0.0
 40
0.0
 40
0.0
 40
0.0
 40
1.0
 40
1.0
 40
1.0
 40
1.0
 10
88.8256445130778
 20
103.4518070445042
 30
0.0
 10
86.8657283985734
 20
103.8266336805704
 30
0.0
 10
83.10988282284357
 20
104.1366924787869
 30
0.0
 10
81.11517122098375
 20
104.0881166003997
 30
0.0
  0
ENDBLK
  5
5D
330
5A
100
AcDbEntity
  8
0
100
AcDbBlockEnd
  0
BLOCK
  5
61
330
5F
100
AcDbEntity
  8
0
100
AcDbBlockBegin
  2
block 9
 70
     0
 71
     0
 10
0.0
 20
0.0
 30
0.0
  3
block 9
  1

  0
SPLINE
  5
63
330
5F
100
AcDbEntity
  8
1
 62
     7
370
     9
100
AcDbSpline
210
0.0
220
0.0
230
1.0
 70
     8
 71
     3
 72
     8
 73
     4
 74
     0
 42
0.0000000001
 43
0.0000000001
 40
0.0
 40
0.0
 40
0.0
 40
0.0
 40
1.0
 40
1.0
 40
1.0
 40
1.0
 10
93.52596363915283
 20
91.08493962274908
 30
0.0
 10
92.77992771966623
 20
96.21847979188779
 30
0.0
 10
88.02931016632496
 20
100.3953163136405
 30
0.0
 10
82.84271549171363
 20
100.4779986598316
 30
0.0
  0
ENDBLK
  5
62
330
5F
100
AcDbEntity
  8
0
100
AcDbBlockEnd
  0
BLOCK
  5
66
330
64
100
AcDbEntity
  8
0
100
AcDbBlockBegin
  2
block 10
 70
     0
 71
     0
 10
0.0
 20
0.0
 30
0.0
  3
block 10
  1

  0
SPLINE
  5
68
330
64
100
AcDbEntity
  8
1
 62
     7
370
     9
100
AcDbSpline
210
0.0
220
0.0
230
1.0
 70
     8
 71
     3
 72
     8
 73
     4
 74
     0
 42
0.0000000001
 43
0.0000000001
 40
0.0
 40
0.0
 40
0.0
 40
0.0
 40
1.0
 40
1.0
 40
1.0
 40
1.0
 10
100.7269069728444
 20
101.0781346892686
 30
0.0
 10
97.7458638828801
 20
101.8057393357501
 30
0.0
 10
91.85767504985989
 20
102.9801731614392
 30
0.0
 10
88.8256445130778
 20
103.4518070445042
 30
0.0
  0
ENDBLK
  5
67
330
64
100
AcDbEntity
  8
0
100
AcDbBlockEnd
  0
BLOCK
  5
6B
330
69
100
AcDbEntity
  8
0
100
AcDbBlockBegin
  2
block 11
 70
     0
 71
     0
 10
0.0
 20
0.0
 30
0.0
  3
block 11
  1

  0
SPLINE
  5
6D
330
69
100
AcDbEntity
  8
1
 62
     7
370
     9
100
AcDbSpline
210
0.0
220
0.0
230
1.0
 70
     8
 71
     3
 72
     8
 73
     4
 74
     0
 42
0.0000000001
 43
0.0000000001
 40
0.0
 40
0.0
 40
0.0
 40
0.0
 40
1.0
 40
1.0
 40
1.0
 40
1.0
 10
103.2270144157972
 20
87.621927356446
 30
0.0
 10
103.2816192152608
 20
90.55439456802299
 30
0.0
 10
102.9386597334558
 20
96.16921489394895
 30
0.0
 10
102.527487316043
 20
99.07343230391065
 30
0.0
  0
ENDBLK
  5
6C
330
69
100
AcDbEntity
  8
0
100
AcDbBlockEnd
  0
BLOCK
  5
70
330
6E
100
AcDbEntity
  8
0
100
AcDbBlockBegin
  2
block 12
 70
     0
 71
     0
 10
0.0
 20
0.0
 30
0.0
  3
block 12
  1

  0
POLYLINE
  5
72
330
6E
100
AcDbEntity
  8
1
 62
     7
370
     9
100
AcDb2dPolyline
 66
     1
 10
0.0
 20
0.0
 30
0.0
  0
VERTEX
  5
73
330
72
100
AcDbEntity
  8
1
 62
     7
370
     9
100
AcDbVertex
100
AcDb2dVertex
 10
106.0063470320327
 20
92.42060402351083
 30
0.0
  0
VERTEX
  5
74
330
72
100
AcDbEntity
  8
1
 62
     7
370
     9
100
AcDbVertex
100
AcDb2dVertex
 10
103.1045411905016
 20
92.42060402351083
 30
0.0
  0
SEQEND
  5
75
330
72
100
AcDbEntity
  8
1
370
     9
  0
ENDBLK
  5
71
330
6E
100
AcDbEntity
  8
0
100
AcDbBlockEnd
  0
BLOCK
  5
78
330
76
100
AcDbEntity
  8
0
100
AcDbBlockBegin
  2
block 13
 70
     0
 71
     0
 10
0.0
 20
0.0
 30
0.0
  3
block 13
  1

  0
SPLINE
  5
7A
330
76
100
AcDbEntity
  8
1
 62
     7
370
     9
100
AcDbSpline
210
0.0
220
0.0
230
1.0
 70
     8
 71
     3
 72
     8
 73
     4
 74
     0
 42
0.0000000001
 43
0.0000000001
 40
0.0
 40
0.0
 40
0.0
 40
0.0
 40
1.0
 40
1.0
 40
1.0
 40
1.0
 10
102.527487316043
 20
99.07343230391065
 30
0.0
 10
102.448077812722
 20
100.0077428158699
 30
0.0
 10
101.6476093486596
 20
100.8989896058545
 30
0.0
 10
100.7269069728444
 20
101.0781346892686
 30
0.0
  0
ENDBLK
  5
79
330
76
100
AcDbEntity
  8
0
100
AcDbBlockEnd
  0
BLOCK
  5
7D
330
7B
100
AcDbEntity
  8
0
100
AcDbBlockBegin
  2
block 14
 70
     0
 71
     0
 10
0.0
 20
0.0
 30
0.0
  3
block 14
  1

  0
SPLINE
  5
7F
330
7B
100
AcDbEntity
  8
1
 62
     7
370
     9
100
AcDbSpline
210
0.0
220
0.0
230
1.0
 70
    11
 71
     3
 72
    23
 73
    19
 74
     0
 42
0.0000000001
 43
0.0000000001
 40
0.0
 40
0.0
 40
0.0
 40
0.0
 40
1.0
 40
1.0
 40
1.0
 40
2.0
 40
2.0
 40
2.0
 40
3.0
 40
3.0
 40
3.0
 40
4.0
 40
4.0
 40
4.0
 40
5.0
 40
5.0
 40
5.0
 40
6.0
 40
6.0
 40
6.0
 40
6.0
 10
99.69854529209279
 20
95.14912144781648
 30
0.0
 10
99.69854529209279
 20
95.53910651401775
 30
0.0
 10
99.38245757279981
 20
95.85502197842284
 30
0.0
 10
98.99281701637435
 20
95.85502197842284
 30
0.0
 10
98.60300420506097
 20
95.85502197842284
 30
0.0
 10
98.28708874065589
 20
95.53910651401775
 30
0.0
 10
98.28708874065589
 20
95.14912144781648
 30
0.0
 10
98.28708874065589
 20
94.75948089139102
 30
0.0
 10
98.60300420506097
 20
94.44356542698593
 30
0.0
 10
98.99281701637435
 20
94.44356542698593
 30
0.0
 10
99.38245757279981
 20
94.44356542698593
 30
0.0
 10
99.69854529209279
 20
94.75948089139102
 30
0.0
 10
99.69854529209279
 20
95.14912144781648
 30
0.0
 10
99.69854529209279
 20
95.14912144781648
 30
0.0
 10
99.69854529209279
 20
95.14912144781648
 30
0.0
 10
99.69854529209279
 20
95.14912144781648
 30
0.0
 10
99.69854529209279
 20
95.14912144781648
 30
0.0
 10
99.69854529209279
 20
95.14912144781648
 30
0.0
 10
99.69854529209279
 20
95.14912144781648
 30
0.0
  0
ENDBLK
  5
7E
330
7B
100
AcDbEntity
  8
0
100
AcDbBlockEnd
  0
BLOCK
  5
82
330
80
100
AcDbEntity
  8
0
100
AcDbBlockBegin
  2
block 15
 70
     0
 71
     0
 10
0.0
 20
0.0
 30
0.0
  3
block 15
  1

  0
SPLINE
  5
84
330
80
100
AcDbEntity
  8
1
 62
     7
370
     9
100
AcDbSpline
210
0.0
220
0.0
230
1.0
 70
     8
 71
     3
 72
     8
 73
     4
 74
     0
 42
0.0000000001
 43
0.0000000001
 40
0.0
 40
0.0
 40
0.0
 40
0.0
 40
1.0
 40
1.0
 40
1.0
 40
1.0
 10
93.81776341925219
 20
87.621927356446
 30
0.0
 10
93.83998429979104
 20
88.51834179306762
 30
0.0
 10
93.69787401727513
 20
90.20471714558987
 30
0.0
 10
93.52596363915283
 20
91.08493962274908
 30
0.0
  0
ENDBLK
  5
83
330
80
100
AcDbEntity
  8
0
100
AcDbBlockEnd
  0
BLOCK
  5
87
330
85
100
AcDbEntity
  8
0
100
AcDbBlockBegin
  2
block 16
 70
     0
 71
     0
 10
0.0
 20
0.0
 30
0.0
  3
block 16
  1

  0
SPLINE
  5
89
330
85
100
AcDbEntity
  8
1
 62
     7
370
     9
100
AcDbSpline
210
0.0
220
0.0
230
1.0
 70
     8
 71
     3
 72
     8
 73
     4
 74
     0
 42
0.0000000001
 43
0.0000000001
 40
0.0
 40
0.0
 40
0.0
 40
0.0
 40
1.0
 40
1.0
 40
1.0
 40
1.0
 10
81.11517122098375
 20
104.0881166003997
 30
0.0
 10
76.46945689437241
 20
104.3530446179869
 30
0.0
 10
69.23854121018663
 20
102.2263857719972
 30
0.0
 10
65.47597769382877
 20
99.48822207396923
 30
0.0
  0
ENDBLK
  5
88
330
85
100
AcDbEntity
  8
0
100
AcDbBlockEnd
  0
BLOCK
  5
8C
330
8A
100
AcDbEntity
  8
0
100
AcDbBlockBegin
  2
block 17
 70
     0
 71
     0
 10
0.0
 20
0.0
 30
0.0
  3
block 17
  1

  0
SPLINE
  5
8E
330
8A
100
AcDbEntity
  8
1
 62
     7
370
     9
100
AcDbSpline
210
0.0
220
0.0
230
1.0
 70
     8
 71
     3
 72
     8
 73
     4
 74
     0
 42
0.0000000001
 43
0.0000000001
 40
0.0
 40
0.0
 40
0.0
 40
0.0
 40
1.0
 40
1.0
 40
1.0
 40
1.0
 10
81.11517122098375
 20
100.5124496374112
 30
0.0
 10
77.04444371017622
 20
100.7446492262979
 30
0.0
 10
70.70856442350888
 20
98.88119584901638
 30
0.0
 10
67.41177812402744
 20
96.48202977037187
 30
0.0
  0
ENDBLK
  5
8D
330
8A
100
AcDbEntity
  8
0
100
AcDbBlockEnd
  0
BLOCK
  5
91
330
8F
100
AcDbEntity
  8
0
100
AcDbBlockBegin
  2
block 18
 70
     0
 71
     0
 10
0.0
 20
0.0
 30
0.0
  3
block 18
  1

  0
SPLINE
  5
93
330
8F
100
AcDbEntity
  8
1
 62
     7
370
     9
100
AcDbSpline
210
0.0
220
0.0
230
1.0
 70
     8
 71
     3
 72
     8
 73
     4
 74
     0
 42
0.0000000001
 43
0.0000000001
 40
0.0
 40
0.0
 40
0.0
 40
0.0
 40
1.0
 40
1.0
 40
1.0
 40
1.0
 10
82.84271549171363
 20
100.4779986598316
 30
0.0
 10
82.40811640954678
 20
100.4983247366036
 30
0.0
 10
81.55011481292641
 20
100.5152057156176
 30
0.0
 10
81.11517122098375
 20
100.5124496374112
 30
0.0
  0
ENDBLK
  5
92
330
8F
100
AcDbEntity
  8
0
100
AcDbBlockEnd
  0
BLOCK
  5
96
330
94
100
AcDbEntity
  8
0
100
AcDbBlockBegin
  2
block 19
 70
     0
 71
     0
 10
0.0
 20
0.0
 30
0.0
  3
block 19
  1

  0
SPLINE
  5
98
330
94
100
AcDbEntity
  8
1
 62
     7
370
     9
100
AcDbSpline
210
0.0
220
0.0
230
1.0
 70
     8
 71
     3
 72
     8
 73
     4
 74
     0
 42
0.0000000001
 43
0.0000000001
 40
0.0
 40
0.0
 40
0.0
 40
0.0
 40
1.0
 40
1.0
 40
1.0
 40
1.0
 10
67.41177812402744
 20
96.48202977037187
 30
0.0
 10
64.57043374814855
 20
94.85594362861394
 30
0.0
 10
62.40777363058809
 20
90.89098061897583
 30
0.0
 10
62.57882273427089
 20
87.621927356446
 30
0.0
  0
ENDBLK
  5
97
330
94
100
AcDbEntity
  8
0
100
AcDbBlockEnd
  0
BLOCK
  5
9B
330
99
100
AcDbEntity
  8
0
100
AcDbBlockBegin
  2
block 20
 70
     0
 71
     0
 10
0.0
 20
0.0
 30
0.0
  3
block 20
  1

  0
POLYLINE
  5
9D
330
99
100
AcDbEntity
  8
1
 62
     7
370
     9
100
AcDb2dPolyline
 66
     1
 10
0.0
 20
0.0
 30
0.0
  0
VERTEX
  5
9E
330
9D
100
AcDbEntity
  8
1
 62
     7
370
     9
100
AcDbVertex
100
AcDb2dVertex
 10
170.5288939213456
 20
180.956688070032
 30
0.0
  0
VERTEX
  5
9F
330
9D
100
AcDbEntity
  8
1
 62
     7
370
     9
100
AcDbVertex
100
AcDb2dVertex
 10
186.229926953256
 20
180.956688070032
 30
0.0
  0
SEQEND
  5
A0
330
9D
100
AcDbEntity
  8
1
370
     9
  0
ENDBLK
  5
9C
330
99
100
AcDbEntity
  8
0
100
AcDbBlockEnd
  0
BLOCK
  5
A3
330
A1
100
AcDbEntity
  8
0
100
AcDbBlockBegin
  2
block 21
 70
     0
 71
     0
 10
0.0
 20
0.0
 30
0.0
  3
block 21
  1

  0
SPLINE
  5
A5
330
A1
100
AcDbEntity
  8
1
 62
     7
370
     9
100
AcDbSpline
210
0.0
220
0.0
230
1.0
 70
     8
 71
     3
 72
     8
 73
     4
 74
     0
 42
0.0000000001
 43
0.0000000001
 40
0.0
 40
0.0
 40
0.0
 40
0.0
 40
1.0
 40
1.0
 40
1.0
 40
1.0
 10
186.6130218239414
 20
176.8168863491773
 30
0.0
 10
186.7914778878038
 20
177.6678254953938
 30
0.0
 10
186.972001010321
 20
179.308725557511
 30
0.0
 10
186.9823363035948
 20
180.1779237218447
 30
0.0
  0
ENDBLK
  5
A4
330
A1
100
AcDbEntity
  8
0
100
AcDbBlockEnd
  0
BLOCK
  5
A8
330
A6
100
AcDbEntity
  8
0
100
AcDbBlockBegin
  2
block 22
 70
     0
 71
     0
 10
0.0
 20
0.0
 30
0.0
  3
block 22
  1

  0
SPLINE
  5
AA
330
A6
100
AcDbEntity
  8
1
 62
     7
370
     9
100
AcDbSpline
210
0.0
220
0.0
230
1.0
 70
     8
 71
     3
 72
    11
 73
     7
 74
     0
 42
0.0000000001
 43
0.0000000001
 40
0.0
 40
0.0
 40
0.0
 40
0.0
 40
1.0
 40
1.0
 40
1.0
 40
2.0
 40
2.0
 40
2.0
 40
2.0
 10
186.9823363035948
 20
180.1779237218447
 30
0.0
 10
186.9968057141783
 20
180.5934025114549
 30
0.0
 10
186.6715884858267
 20
180.9418741496727
 30
0.0
 10
186.2561096962165
 20
180.9561713053683
 30
0.0
 10
186.2495640104764
 20
180.9565158151441
 30
0.0
 10
186.2364726389961
 20
180.956688070032
 30
0.0
 10
186.229926953256
 20
180.956688070032
 30
0.0
  0
ENDBLK
  5
A9
330
A6
100
AcDbEntity
  8
0
100
AcDbBlockEnd
  0
BLOCK
  5
AD
330
AB
100
AcDbEntity
  8
0
100
AcDbBlockBegin
  2
block 23
 70
     0
 71
     0
 10
0.0
 20
0.0
 30
0.0
  3
block 23
  1

  0
POLYLINE
  5
AF
330
AB
100
AcDbEntity
  8
1
 62
     7
370
     9
100
AcDb2dPolyline
 66
     1
 10
0.0
 20
0.0
 30
0.0
  0
VERTEX
  5
B0
330
AF
100
AcDbEntity
  8
1
 62
     7
370
     9
100
AcDbVertex
100
AcDb2dVertex
 10
170.5288939213456
 20
145.2013964792508
 30
0.0
  0
VERTEX
  5
B1
330
AF
100
AcDbEntity
  8
1
 62
     7
370
     9
100
AcDbVertex
100
AcDb2dVertex
 10
179.9381449178906
 20
145.2013964792508
 30
0.0
  0
SEQEND
  5
B2
330
AF
100
AcDbEntity
  8
1
370
     9
  0
ENDBLK
  5
AE
330
AB
100
AcDbEntity
  8
0
100
AcDbBlockEnd
  0
BLOCK
  5
B5
330
B3
100
AcDbEntity
  8
0
100
AcDbBlockBegin
  2
block 24
 70
     0
 71
     0
 10
0.0
 20
0.0
 30
0.0
  3
block 24
  1

  0
SPLINE
  5
B7
330
B3
100
AcDbEntity
  8
1
 62
     7
370
     9
100
AcDbSpline
210
0.0
220
0.0
230
1.0
 70
     8
 71
     3
 72
     8
 73
     4
 74
     0
 42
0.0000000001
 43
0.0000000001
 40
0.0
 40
0.0
 40
0.0
 40
0.0
 40
1.0
 40
1.0
 40
1.0
 40
1.0
 10
179.9381449178906
 20
145.2013964792508
 30
0.0
 10
180.0573453003161
 20
149.3477438858456
 30
0.0
 10
179.2856434025326
 20
157.044092277132
 30
0.0
 10
178.3454762243849
 20
161.0839861630058
 30
0.0
  0
ENDBLK
  5
B6
330
B3
100
AcDbEntity
  8
0
100
AcDbBlockEnd
  0
BLOCK
  5
BA
330
B8
100
AcDbEntity
  8
0
100
AcDbBlockBegin
  2
block 25
 70
     0
 71
     0
 10
0.0
 20
0.0
 30
0.0
  3
block 25
  1

  0
SPLINE
  5
BC
330
B8
100
AcDbEntity
  8
1
 62
     7
370
     9
100
AcDbSpline
210
0.0
220
0.0
230
1.0
 70
     8
 71
     3
 72
     8
 73
     4
 74
     0
 42
0.0000000001
 43
0.0000000001
 40
0.0
 40
0.0
 40
0.0
 40
0.0
 40
1.0
 40
1.0
 40
1.0
 40
1.0
 10
179.5564280863084
 20
164.9731570219687
 30
0.0
 10
178.5573497364995
 20
164.1055091516261
 30
0.0
 10
178.0154358591722
 20
162.3655625289675
 30
0.0
 10
178.3454762243849
 20
161.0839861630058
 30
0.0
  0
ENDBLK
  5
BB
330
B8
100
AcDbEntity
  8
0
100
AcDbBlockEnd
  0
BLOCK
  5
BF
330
BD
100
AcDbEntity
  8
0
100
AcDbBlockBegin
  2
block 26
 70
     0
 71
     0
 10
0.0
 20
0.0
 30
0.0
  3
block 26
  1

  0
SPLINE
  5
C1
330
BD
100
AcDbEntity
  8
1
 62
     7
370
     9
100
AcDbSpline
210
0.0
220
0.0
230
1.0
 70
     8
 71
     3
 72
     8
 73
     4
 74
     0
 42
0.0000000001
 43
0.0000000001
 40
0.0
 40
0.0
 40
0.0
 40
0.0
 40
1.0
 40
1.0
 40
1.0
 40
1.0
 10
179.5564280863084
 20
164.9731570219687
 30
0.0
 10
182.4454870661351
 20
167.4567279956833
 30
0.0
 10
185.4885419157426
 20
172.8181613815111
 30
0.0
 10
186.1396653919974
 20
176.5721121534741
 30
0.0
  0
ENDBLK
  5
C0
330
BD
100
AcDbEntity
  8
0
100
AcDbBlockEnd
  0
BLOCK
  5
C4
330
C2
100
AcDbEntity
  8
0
100
AcDbBlockBegin
  2
block 27
 70
     0
 71
     0
 10
0.0
 20
0.0
 30
0.0
  3
block 27
  1

  0
POLYLINE
  5
C6
330
C2
100
AcDbEntity
  8
1
 62
     7
370
     9
100
AcDb2dPolyline
 66
     1
 10
0.0
 20
0.0
 30
0.0
  0
VERTEX
  5
C7
330
C6
100
AcDbEntity
  8
1
 62
     7
370
     9
100
AcDbVertex
100
AcDb2dVertex
 10
101.8925557992507
 20
145.2013964792508
 30
0.0
  0
VERTEX
  5
C8
330
C6
100
AcDbEntity
  8
1
 62
     7
370
     9
100
AcDbVertex
100
AcDb2dVertex
 10
71.70592022443878
 20
145.2013964792508
 30
0.0
  0
SEQEND
  5
C9
330
C6
100
AcDbEntity
  8
1
370
     9
  0
ENDBLK
  5
C5
330
C2
100
AcDbEntity
  8
0
100
AcDbBlockEnd
  0
BLOCK
  5
CC
330
CA
100
AcDbEntity
  8
0
100
AcDbBlockBegin
  2
block 28
 70
     0
 71
     0
 10
0.0
 20
0.0
 30
0.0
  3
block 28
  1

  0
POLYLINE
  5
CE
330
CA
100
AcDbEntity
  8
1
 62
     7
370
     9
100
AcDb2dPolyline
 66
     1
 10
0.0
 20
0.0
 30
0.0
  0
VERTEX
  5
CF
330
CE
100
AcDbEntity
  8
1
 62
     7
370
     9
100
AcDbVertex
100
AcDb2dVertex
 10
102.4742605556825
 20
180.956688070032
 30
0.0
  0
VERTEX
  5
D0
330
CE
100
AcDbEntity
  8
1
 62
     7
370
     9
100
AcDbVertex
100
AcDb2dVertex
 10
59.86546374010026
 20
180.956688070032
 30
0.0
  0
SEQEND
  5
D1
330
CE
100
AcDbEntity
  8
1
370
     9
  0
ENDBLK
  5
CD
330
CA
100
AcDbEntity
  8
0
100
AcDbBlockEnd
  0
BLOCK
  5
D4
330
D2
100
AcDbEntity
  8
0
100
AcDbBlockBegin
  2
block 29
 70
     0
 71
     0
 10
0.0
 20
0.0
 30
0.0
  3
block 29
  1

  0
SPLINE
  5
D6
330
D2
100
AcDbEntity
  8
1
 62
     7
370
     9
100
AcDbSpline
210
0.0
220
0.0
230
1.0
 70
     8
 71
     3
 72
     8
 73
     4
 74
     0
 42
0.0000000001
 43
0.0000000001
 40
0.0
 40
0.0
 40
0.0
 40
0.0
 40
1.0
 40
1.0
 40
1.0
 40
1.0
 10
73.99484317482853
 20
162.2146672471688
 30
0.0
 10
77.83888325316218
 20
160.5315647375166
 30
0.0
 10
84.4918837884499
 20
160.2557846619918
 30
0.0
 10
88.46201444472494
 20
161.6148757275076
 30
0.0
  0
ENDBLK
  5
D5
330
D2
100
AcDbEntity
  8
0
100
AcDbBlockEnd
  0
BLOCK
  5
D9
330
D7
100
AcDbEntity
  8
0
100
AcDbBlockBegin
  2
block 30
 70
     0
 71
     0
 10
0.0
 20
0.0
 30
0.0
  3
block 30
  1

  0
POLYLINE
  5
DB
330
D7
100
AcDbEntity
  8
1
 62
     7
370
     9
100
AcDb2dPolyline
 66
     1
 10
0.0
 20
0.0
 30
0.0
  0
VERTEX
  5
DC
330
DB
100
AcDbEntity
  8
1
 62
     7
370
     9
100
AcDbVertex
100
AcDb2dVertex
 10
70.17422976124902
 20
176.7187010630754
 30
0.0
  0
VERTEX
  5
DD
330
DB
100
AcDbEntity
  8
1
 62
     7
370
     9
100
AcDbVertex
100
AcDb2dVertex
 10
103.2270144157972
 20
177.1929187694588
 30
0.0
  0
SEQEND
  5
DE
330
DB
100
AcDbEntity
  8
1
370
     9
  0
ENDBLK
  5
DA
330
D7
100
AcDbEntity
  8
0
100
AcDbBlockEnd
  0
BLOCK
  5
E1
330
DF
100
AcDbEntity
  8
0
100
AcDbBlockBegin
  2
block 31
 70
     0
 71
     0
 10
0.0
 20
0.0
 30
0.0
  3
block 31
  1

  0
SPLINE
  5
E3
330
DF
100
AcDbEntity
  8
1
 62
     7
370
     9
100
AcDbSpline
210
0.0
220
0.0
230
1.0
 70
     8
 71
     3
 72
     8
 73
     4
 74
     0
 42
0.0000000001
 43
0.0000000001
 40
0.0
 40
0.0
 40
0.0
 40
0.0
 40
1.0
 40
1.0
 40
1.0
 40
1.0
 10
73.03417766502092
 20
159.7171436275345
 30
0.0
 10
72.25093468974832
 20
156.0257213798785
 30
0.0
 10
71.6054956247942
 20
148.9736062693309
 30
0.0
 10
71.70592022443878
 20
145.2013964792508
 30
0.0
  0
ENDBLK
  5
E2
330
DF
100
AcDbEntity
  8
0
100
AcDbBlockEnd
  0
BLOCK
  5
E6
330
E4
100
AcDbEntity
  8
0
100
AcDbBlockBegin
  2
block 32
 70
     0
 71
     0
 10
0.0
 20
0.0
 30
0.0
  3
block 32
  1

  0
SPLINE
  5
E8
330
E4
100
AcDbEntity
  8
1
 62
     7
370
     9
100
AcDbSpline
210
0.0
220
0.0
230
1.0
 70
     8
 71
     3
 72
     8
 73
     4
 74
     0
 42
0.0000000001
 43
0.0000000001
 40
0.0
 40
0.0
 40
0.0
 40
0.0
 40
1.0
 40
1.0
 40
1.0
 40
1.0
 10
59.12872958456015
 20
180.0501105950243
 30
0.0
 10
60.03634058889516
 20
173.9738194244194
 30
0.0
 10
65.34230790081986
 20
166.8288589292948
 30
0.0
 10
70.89683901598148
 20
164.2033499279522
 30
0.0
  0
ENDBLK
  5
E7
330
E4
100
AcDbEntity
  8
0
100
AcDbBlockEnd
  0
BLOCK
  5
EB
330
E9
100
AcDbEntity
  8
0
100
AcDbBlockBegin
  2
block 33
 70
     0
 71
     0
 10
0.0
 20
0.0
 30
0.0
  3
block 33
  1

  0
SPLINE
  5
ED
330
E9
100
AcDbEntity
  8
1
 62
     7
370
     9
100
AcDbSpline
210
0.0
220
0.0
230
1.0
 70
     8
 71
     3
 72
    11
 73
     7
 74
     0
 42
0.0000000001
 43
0.0000000001
 40
0.0
 40
0.0
 40
0.0
 40
0.0
 40
1.0
 40
1.0
 40
1.0
 40
2.0
 40
2.0
 40
2.0
 40
2.0
 10
59.86546374010026
 20
180.956688070032
 30
0.0
 10
59.44981269560218
 20
180.956688070032
 30
0.0
 10
59.11288213487353
 20
180.6197575093033
 30
0.0
 10
59.11288213487353
 20
180.2039342099173
 30
0.0
 10
59.11167635065824
 20
180.1637988210371
 30
0.0
 10
59.11925556572576
 20
180.0892124545772
 30
0.0
 10
59.12872958456015
 20
180.0501105950243
 30
0.0
  0
ENDBLK
  5
EC
330
E9
100
AcDbEntity
  8
0
100
AcDbBlockEnd
  0
BLOCK
  5
F0
330
EE
100
AcDbEntity
  8
0
100
AcDbBlockBegin
  2
block 34
 70
     0
 71
     0
 10
0.0
 20
0.0
 30
0.0
  3
block 34
  1

  0
SPLINE
  5
F2
330
EE
100
AcDbEntity
  8
1
 62
     7
370
     9
100
AcDbSpline
210
0.0
220
0.0
230
1.0
 70
     8
 71
     3
 72
     8
 73
     4
 74
     0
 42
0.0000000001
 43
0.0000000001
 40
0.0
 40
0.0
 40
0.0
 40
0.0
 40
1.0
 40
1.0
 40
1.0
 40
1.0
 10
73.03417766502092
 20
159.7171436275345
 30
0.0
 10
73.41021008530244
 20
161.4252230959319
 30
0.0
 10
72.4602243785445
 20
163.4192456782401
 30
0.0
 10
70.89683901598148
 20
164.2033499279522
 30
0.0
  0
ENDBLK
  5
F1
330
EE
100
AcDbEntity
  8
0
100
AcDbBlockEnd
  0
BLOCK
  5
F5
330
F3
100
AcDbEntity
  8
0
100
AcDbBlockBegin
  2
block 35
 70
     0
 71
     0
 10
0.0
 20
0.0
 30
0.0
  3
block 35
  1

  0
POLYLINE
  5
F7
330
F3
100
AcDbEntity
  8
1
 62
     7
370
     9
100
AcDb2dPolyline
 66
     1
 10
0.0
 20
0.0
 30
0.0
  0
VERTEX
  5
F8
330
F7
100
AcDbEntity
  8
1
 62
     7
370
     9
100
AcDbVertex
100
AcDb2dVertex
 10
99.80017567595266
 20
166.9368627440069
 30
0.0
  0
VERTEX
  5
F9
330
F7
100
AcDbEntity
  8
1
 62
     7
370
     9
100
AcDbVertex
100
AcDb2dVertex
 10
94.62822266681268
 20
152.6753638102608
 30
0.0
  0
SEQEND
  5
FA
330
F7
100
AcDbEntity
  8
1
370
     9
  0
ENDBLK
  5
F6
330
F3
100
AcDbEntity
  8
0
100
AcDbBlockEnd
  0
BLOCK
  5
FD
330
FB
100
AcDbEntity
  8
0
100
AcDbBlockBegin
  2
block 36
 70
     0
 71
     0
 10
0.0
 20
0.0
 30
0.0
  3
block 36
  1

  0
SPLINE
  5
FF
330
FB
100
AcDbEntity
  8
1
 62
     7
370
     9
100
AcDbSpline
210
0.0
220
0.0
230
1.0
 70
     8
 71
     3
 72
     8
 73
     4
 74
     0
 42
0.0000000001
 43
0.0000000001
 40
0.0
 40
0.0
 40
0.0
 40
0.0
 40
1.0
 40
1.0
 40
1.0
 40
1.0
 10
86.56221528609697
 20
154.2969713249333
 30
0.0
 10
88.88731176294532
 20
156.2808308688556
 30
0.0
 10
92.25661737023185
 20
160.5758342437064
 30
0.0
 10
93.62966108166748
 20
163.3065909815547
 30
0.0
  0
ENDBLK
  5
FE
330
FB
100
AcDbEntity
  8
0
100
AcDbBlockEnd
  0
BLOCK
  5
102
330
100
100
AcDbEntity
  8
0
100
AcDbBlockBegin
  2
block 37
 70
     0
 71
     0
 10
0.0
 20
0.0
 30
0.0
  3
block 37
  1

  0
SPLINE
  5
104
330
100
100
AcDbEntity
  8
1
 62
     7
370
     9
100
AcDbSpline
210
0.0
220
0.0
230
1.0
 70
     8
 71
     3
 72
     8
 73
     4
 74
     0
 42
0.0000000001
 43
0.0000000001
 40
0.0
 40
0.0
 40
0.0
 40
0.0
 40
1.0
 40
1.0
 40
1.0
 40
1.0
 10
85.2828782336779
 20
155.6772497416607
 30
0.0
 10
89.60371984171346
 20
159.2455097444695
 30
0.0
 10
94.22290691558848
 20
167.0403879316336
 30
0.0
 10
95.27814035885216
 20
172.5439315999774
 30
0.0
  0
ENDBLK
  5
103
330
100
100
AcDbEntity
  8
0
100
AcDbBlockEnd
  0
BLOCK
  5
107
330
105
100
AcDbEntity
  8
0
100
AcDbBlockBegin
  2
block 38
 70
     0
 71
     0
 10
0.0
 20
0.0
 30
0.0
  3
block 38
  1

  0
POLYLINE
  5
109
330
105
100
AcDbEntity
  8
1
 62
     7
370
     9
100
AcDb2dPolyline
 66
     1
 10
0.0
 20
0.0
 30
0.0
  0
VERTEX
  5
10A
330
109
100
AcDbEntity
  8
1
 62
     7
370
     9
100
AcDbVertex
100
AcDb2dVertex
 10
106.0063470320327
 20
166.9368627440069
 30
0.0
  0
VERTEX
  5
10B
330
109
100
AcDbEntity
  8
1
 62
     7
370
     9
100
AcDbVertex
100
AcDb2dVertex
 10
106.0063470320327
 20
157.3393371549893
 30
0.0
  0
SEQEND
  5
10C
330
109
100
AcDbEntity
  8
1
370
     9
  0
ENDBLK
  5
108
330
105
100
AcDbEntity
  8
0
100
AcDbBlockEnd
  0
BLOCK
  5
10F
330
10D
100
AcDbEntity
  8
0
100
AcDbBlockBegin
  2
block 39
 70
     0
 71
     0
 10
0.0
 20
0.0
 30
0.0
  3
block 39
  1

  0
SPLINE
  5
111
330
10D
100
AcDbEntity
  8
1
 62
     7
370
     9
100
AcDbSpline
210
0.0
220
0.0
230
1.0
 70
     8
 71
     3
 72
    11
 73
     7
 74
     0
 42
0.0000000001
 43
0.0000000001
 40
0.0
 40
0.0
 40
0.0
 40
0.0
 40
1.0
 40
1.0
 40
1.0
 40
2.0
 40
2.0
 40
2.0
 40
2.0
 10
84.39611007077856
 20
149.0102965604532
 30
0.0
 10
87.74887920882688
 20
147.0231641736609
 30
0.0
 10
92.07781679659364
 20
148.1304185930698
 30
0.0
 10
94.06494918338595
 20
151.4831877311181
 30
0.0
 10
94.24702259989422
 20
151.7722314330111
 30
0.0
 10
94.52056336187637
 20
152.3510078563487
 30
0.0
 10
94.62822266681268
 20
152.6753638102608
 30
0.0
  0
ENDBLK
  5
110
330
10D
100
AcDbEntity
  8
0
100
AcDbBlockEnd
  0
BLOCK
  5
114
330
112
100
AcDbEntity
  8
0
100
AcDbBlockBegin
  2
block 40
 70
     0
 71
     0
 10
0.0
 20
0.0
 30
0.0
  3
block 40
  1

  0
SPLINE
  5
116
330
112
100
AcDbEntity
  8
1
 62
     7
370
     9
100
AcDbSpline
210
0.0
220
0.0
230
1.0
 70
     8
 71
     3
 72
     8
 73
     4
 74
     0
 42
0.0000000001
 43
0.0000000001
 40
0.0
 40
0.0
 40
0.0
 40
0.0
 40
1.0
 40
1.0
 40
1.0
 40
1.0
 10
82.12871898137608
 20
153.658594710383
 30
0.0
 10
81.8298567508729
 20
151.916064264406
 30
0.0
 10
82.83892588417989
 20
149.8474553156379
 30
0.0
 10
84.39611007077856
 20
149.0102965604532
 30
0.0
  0
ENDBLK
  5
115
330
112
100
AcDbEntity
  8
0
100
AcDbBlockEnd
  0
BLOCK
  5
119
330
117
100
AcDbEntity
  8
0
100
AcDbBlockBegin
  2
block 41
 70
     0
 71
     0
 10
0.0
 20
0.0
 30
0.0
  3
block 41
  1

  0
SPLINE
  5
11B
330
117
100
AcDbEntity
  8
1
 62
     7
370
     9
100
AcDbSpline
210
0.0
220
0.0
230
1.0
 70
     8
 71
     3
 72
    14
 73
    10
 74
     0
 42
0.0000000001
 43
0.0000000001
 40
0.0
 40
0.0
 40
0.0
 40
0.0
 40
1.0
 40
1.0
 40
1.0
 40
2.0
 40
2.0
 40
2.0
 40
3.0
 40
3.0
 40
3.0
 40
3.0
 10
85.2828782336779
 20
155.6772497416607
 30
0.0
 10
84.90185042164734
 20
155.3239549665817
 30
0.0
 10
84.8791127764448
 20
154.7286420740059
 30
0.0
 10
85.23240755152376
 20
154.3474420070875
 30
0.0
 10
85.58570232660274
 20
153.9664141950569
 30
0.0
 10
86.18101521917852
 20
153.9436765498544
 30
0.0
 10
86.56221528609697
 20
154.2969713249333
 30
0.0
 10
86.58529744107533
 20
154.3176419114811
 30
0.0
 10
86.62612184950717
 20
154.3607056334556
 30
0.0
 10
86.64558665183965
 20
154.3848213177614
 30
0.0
  0
ENDBLK
  5
11A
330
117
100
AcDbEntity
  8
0
100
AcDbBlockEnd
  0
BLOCK
  5
11E
330
11C
100
AcDbEntity
  8
0
100
AcDbBlockBegin
  2
block 42
 70
     0
 71
     0
 10
0.0
 20
0.0
 30
0.0
  3
block 42
  1

  0
SPLINE
  5
120
330
11C
100
AcDbEntity
  8
1
 62
     7
370
     9
100
AcDbSpline
210
0.0
220
0.0
230
1.0
 70
     8
 71
     3
 72
    11
 73
     7
 74
     0
 42
0.0000000001
 43
0.0000000001
 40
0.0
 40
0.0
 40
0.0
 40
0.0
 40
1.0
 40
1.0
 40
1.0
 40
2.0
 40
2.0
 40
2.0
 40
2.0
 10
101.9289015805972
 20
157.3393371549893
 30
0.0
 10
101.6691412096469
 20
157.3393371549893
 30
0.0
 10
101.4584734817475
 20
157.1288416819778
 30
0.0
 10
101.4584734817475
 20
156.8689090561396
 30
0.0
 10
101.4584734817475
 20
156.8646026839422
 30
0.0
 10
101.4586457366354
 20
156.8558176846594
 30
0.0
 10
101.4588179915233
 20
156.8515113124619
 30
0.0
  0
ENDBLK
  5
11F
330
11C
100
AcDbEntity
  8
0
100
AcDbBlockEnd
  0
BLOCK
  5
123
330
121
100
AcDbEntity
  8
0
100
AcDbBlockBegin
  2
block 43
 70
     0
 71
     0
 10
0.0
 20
0.0
 30
0.0
  3
block 43
  1

  0
POLYLINE
  5
125
330
121
100
AcDbEntity
  8
1
 62
     7
370
     9
100
AcDb2dPolyline
 66
     1
 10
0.0
 20
0.0
 30
0.0
  0
VERTEX
  5
126
330
125
100
AcDbEntity
  8
1
 62
     7
370
     9
100
AcDbVertex
100
AcDb2dVertex
 10
101.8925557992507
 20
145.2013964792508
 30
0.0
  0
VERTEX
  5
127
330
125
100
AcDbEntity
  8
1
 62
     7
370
     9
100
AcDbVertex
100
AcDb2dVertex
 10
101.4588179915233
 20
156.8515113124619
 30
0.0
  0
SEQEND
  5
128
330
125
100
AcDbEntity
  8
1
370
     9
  0
ENDBLK
  5
124
330
121
100
AcDbEntity
  8
0
100
AcDbBlockEnd
  0
BLOCK
  5
12B
330
129
100
AcDbEntity
  8
0
100
AcDbBlockBegin
  2
block 44
 70
     0
 71
     0
 10
0.0
 20
0.0
 30
0.0
  3
block 44
  1

  0
POLYLINE
  5
12D
330
129
100
AcDbEntity
  8
1
 62
     7
370
     9
100
AcDb2dPolyline
 66
     1
 10
0.0
 20
0.0
 30
0.0
  0
VERTEX
  5
12E
330
12D
100
AcDbEntity
  8
1
 62
     7
370
     9
100
AcDbVertex
100
AcDb2dVertex
 10
106.0063470320327
 20
157.3393371549893
 30
0.0
  0
VERTEX
  5
12F
330
12D
100
AcDbEntity
  8
1
 62
     7
370
     9
100
AcDbVertex
100
AcDb2dVertex
 10
101.9289015805972
 20
157.3393371549893
 30
0.0
  0
SEQEND
  5
130
330
12D
100
AcDbEntity
  8
1
370
     9
  0
ENDBLK
  5
12C
330
129
100
AcDbEntity
  8
0
100
AcDbBlockEnd
  0
BLOCK
  5
133
330
131
100
AcDbEntity
  8
0
100
AcDbBlockBegin
  2
block 45
 70
     0
 71
     0
 10
0.0
 20
0.0
 30
0.0
  3
block 45
  1

  0
SPLINE
  5
135
330
131
100
AcDbEntity
  8
1
 62
     7
370
     9
100
AcDbSpline
210
0.0
220
0.0
230
1.0
 70
     8
 71
     3
 72
    14
 73
    10
 74
     0
 42
0.0000000001
 43
0.0000000001
 40
0.0
 40
0.0
 40
0.0
 40
0.0
 40
1.0
 40
1.0
 40
1.0
 40
2.0
 40
2.0
 40
2.0
 40
3.0
 40
3.0
 40
3.0
 40
3.0
 10
96.24604057395149
 20
165.9772307635266
 30
0.0
 10
97.0542605079693
 20
166.44817562704
 30
0.0
 10
97.32762901506356
 20
167.4851500521865
 30
0.0
 10
96.8566841515502
 20
168.2933699862043
 30
0.0
 10
96.38591154292473
 20
169.1015899202221
 30
0.0
 10
95.34893711777826
 20
169.3749584273164
 30
0.0
 10
94.54071718376045
 20
168.904013563803
 30
0.0
 10
94.25408505029804
 20
168.7589749481928
 30
0.0
 10
93.9247337046369
 20
168.378291645938
 30
0.0
 10
93.82241430122544
 20
168.0737450041342
 30
0.0
  0
ENDBLK
  5
134
330
131
100
AcDbEntity
  8
0
100
AcDbBlockEnd
  0
BLOCK
  5
138
330
136
100
AcDbEntity
  8
0
100
AcDbBlockBegin
  2
block 46
 70
     0
 71
     0
 10
0.0
 20
0.0
 30
0.0
  3
block 46
  1

  0
SPLINE
  5
13A
330
136
100
AcDbEntity
  8
1
 62
     7
370
     9
100
AcDbSpline
210
0.0
220
0.0
230
1.0
 70
     8
 71
     3
 72
    11
 73
     7
 74
     0
 42
0.0000000001
 43
0.0000000001
 40
0.0
 40
0.0
 40
0.0
 40
0.0
 40
1.0
 40
1.0
 40
1.0
 40
2.0
 40
2.0
 40
2.0
 40
2.0
 10
99.98707222932208
 20
167.5454392629508
 30
0.0
 10
99.91076331398324
 20
167.2972199694896
 30
0.0
 10
100.0502897731807
 20
167.0340145007814
 30
0.0
 10
100.2986813215297
 20
166.9577055854425
 30
0.0
 10
100.333649063773
 20
166.9453032335139
 30
0.0
 10
100.3997949407259
 20
166.9354847049037
 30
0.0
 10
100.436829741624
 20
166.9368627440069
 30
0.0
  0
ENDBLK
  5
139
330
136
100
AcDbEntity
  8
0
100
AcDbBlockEnd
  0
BLOCK
  5
13D
330
13B
100
AcDbEntity
  8
0
100
AcDbBlockBegin
  2
block 47
 70
     0
 71
     0
 10
0.0
 20
0.0
 30
0.0
  3
block 47
  1

  0
SPLINE
  5
13F
330
13B
100
AcDbEntity
  8
1
 62
     7
370
     9
100
AcDbSpline
210
0.0
220
0.0
230
1.0
 70
     8
 71
     3
 72
     8
 73
     4
 74
     0
 42
0.0000000001
 43
0.0000000001
 40
0.0
 40
0.0
 40
0.0
 40
0.0
 40
1.0
 40
1.0
 40
1.0
 40
1.0
 10
102.0849645090329
 20
173.2410471313009
 30
0.0
 10
101.887043642838
 20
173.2475928170411
 30
0.0
 10
101.6872279728762
 20
173.0997981232245
 30
0.0
 10
101.635206996731
 20
172.9087674525456
 30
0.0
  0
ENDBLK
  5
13E
330
13B
100
AcDbEntity
  8
0
100
AcDbBlockEnd
  0
BLOCK
  5
142
330
140
100
AcDbEntity
  8
0
100
AcDbBlockBegin
  2
block 48
 70
     0
 71
     0
 10
0.0
 20
0.0
 30
0.0
  3
block 48
  1

  0
POLYLINE
  5
144
330
140
100
AcDbEntity
  8
1
 62
     7
370
     9
100
AcDb2dPolyline
 66
     1
 10
0.0
 20
0.0
 30
0.0
  0
VERTEX
  5
145
330
144
100
AcDbEntity
  8
1
 62
     7
370
     9
100
AcDbVertex
100
AcDb2dVertex
 10
99.80017567595266
 20
166.9368627440069
 30
0.0
  0
VERTEX
  5
146
330
144
100
AcDbEntity
  8
1
 62
     7
370
     9
100
AcDbVertex
100
AcDb2dVertex
 10
101.635206996731
 20
172.9087674525456
 30
0.0
  0
SEQEND
  5
147
330
144
100
AcDbEntity
  8
1
370
     9
  0
ENDBLK
  5
143
330
140
100
AcDbEntity
  8
0
100
AcDbBlockEnd
  0
BLOCK
  5
14A
330
148
100
AcDbEntity
  8
0
100
AcDbBlockBegin
  2
block 49
 70
     0
 71
     0
 10
0.0
 20
0.0
 30
0.0
  3
block 49
  1

  0
POLYLINE
  5
14C
330
148
100
AcDbEntity
  8
1
 62
     7
370
     9
100
AcDb2dPolyline
 66
     1
 10
0.0
 20
0.0
 30
0.0
  0
VERTEX
  5
14D
330
14C
100
AcDbEntity
  8
1
 62
     7
370
     9
100
AcDbVertex
100
AcDb2dVertex
 10
103.2270144157972
 20
173.4293217237736
 30
0.0
  0
VERTEX
  5
14E
330
14C
100
AcDbEntity
  8
1
 62
     7
370
     9
100
AcDbVertex
100
AcDb2dVertex
 10
103.2270144157972
 20
180.2039342099173
 30
0.0
  0
SEQEND
  5
14F
330
14C
100
AcDbEntity
  8
1
370
     9
  0
ENDBLK
  5
14B
330
148
100
AcDbEntity
  8
0
100
AcDbBlockEnd
  0
BLOCK
  5
152
330
150
100
AcDbEntity
  8
0
100
AcDbBlockBegin
  2
block 50
 70
     0
 71
     0
 10
0.0
 20
0.0
 30
0.0
  3
block 50
  1

  0
SPLINE
  5
154
330
150
100
AcDbEntity
  8
1
 62
     7
370
     9
100
AcDbSpline
210
0.0
220
0.0
230
1.0
 70
     8
 71
     3
 72
     8
 73
     4
 74
     0
 42
0.0000000001
 43
0.0000000001
 40
0.0
 40
0.0
 40
0.0
 40
0.0
 40
1.0
 40
1.0
 40
1.0
 40
1.0
 10
96.18712940229034
 20
173.2410471313009
 30
0.0
 10
95.776990514205
 20
173.2531049734538
 30
0.0
 10
95.37305280208399
 20
172.9432184301252
 30
0.0
 10
95.27831261374004
 20
172.5439315999774
 30
0.0
  0
ENDBLK
  5
153
330
150
100
AcDbEntity
  8
0
100
AcDbBlockEnd
  0
BLOCK
  5
157
330
155
100
AcDbEntity
  8
0
100
AcDbBlockBegin
  2
block 51
 70
     0
 71
     0
 10
0.0
 20
0.0
 30
0.0
  3
block 51
  1

  0
POLYLINE
  5
159
330
155
100
AcDbEntity
  8
1
 62
     7
370
     9
100
AcDb2dPolyline
 66
     1
 10
0.0
 20
0.0
 30
0.0
  0
VERTEX
  5
15A
330
159
100
AcDbEntity
  8
1
 62
     7
370
     9
100
AcDbVertex
100
AcDb2dVertex
 10
103.0387398233245
 20
173.2410471313009
 30
0.0
  0
VERTEX
  5
15B
330
159
100
AcDbEntity
  8
1
 62
     7
370
     9
100
AcDbVertex
100
AcDb2dVertex
 10
96.18712940229034
 20
173.2410471313009
 30
0.0
  0
SEQEND
  5
15C
330
159
100
AcDbEntity
  8
1
370
     9
  0
ENDBLK
  5
158
330
155
100
AcDbEntity
  8
0
100
AcDbBlockEnd
  0
BLOCK
  5
15F
330
15D
100
AcDbEntity
  8
0
100
AcDbBlockBegin
  2
block 52
 70
     0
 71
     0
 10
0.0
 20
0.0
 30
0.0
  3
block 52
  1

  0
POLYLINE
  5
161
330
15D
100
AcDbEntity
  8
1
 62
     7
370
     9
100
AcDb2dPolyline
 66
     1
 10
0.0
 20
0.0
 30
0.0
  0
VERTEX
  5
162
330
161
100
AcDbEntity
  8
1
 62
     7
370
     9
100
AcDbVertex
100
AcDb2dVertex
 10
106.0063470320327
 20
166.9368627440069
 30
0.0
  0
VERTEX
  5
163
330
161
100
AcDbEntity
  8
1
 62
     7
370
     9
100
AcDbVertex
100
AcDb2dVertex
 10
100.436829741624
 20
166.9368627440069
 30
0.0
  0
SEQEND
  5
164
330
161
100
AcDbEntity
  8
1
370
     9
  0
ENDBLK
  5
160
330
15D
100
AcDbEntity
  8
0
100
AcDbBlockEnd
  0
BLOCK
  5
167
330
165
100
AcDbEntity
  8
0
100
AcDbBlockBegin
  2
block 53
 70
     0
 71
     0
 10
0.0
 20
0.0
 30
0.0
  3
block 53
  1

  0
SPLINE
  5
169
330
165
100
AcDbEntity
  8
1
 62
     7
370
     9
100
AcDbSpline
210
0.0
220
0.0
230
1.0
 70
     8
 71
     3
 72
    11
 73
     7
 74
     0
 42
0.0000000001
 43
0.0000000001
 40
0.0
 40
0.0
 40
0.0
 40
0.0
 40
1.0
 40
1.0
 40
1.0
 40
2.0
 40
2.0
 40
2.0
 40
2.0
 10
103.0387398233245
 20
173.2410471313009
 30
0.0
 10
103.142781775615
 20
173.2410471313009
 30
0.0
 10
103.2270144157972
 20
173.3252797714831
 30
0.0
 10
103.2270144157972
 20
173.4293217237736
 30
0.0
 10
103.2270144157972
 20
173.4293217237736
 30
0.0
 10
103.2270144157972
 20
173.4293217237736
 30
0.0
 10
103.2270144157972
 20
173.4293217237736
 30
0.0
  0
ENDBLK
  5
168
330
165
100
AcDbEntity
  8
0
100
AcDbBlockEnd
  0
BLOCK
  5
16C
330
16A
100
AcDbEntity
  8
0
100
AcDbBlockBegin
  2
block 54
 70
     0
 71
     0
 10
0.0
 20
0.0
 30
0.0
  3
block 54
  1

  0
SPLINE
  5
16E
330
16A
100
AcDbEntity
  8
1
 62
     7
370
     9
100
AcDbSpline
210
0.0
220
0.0
230
1.0
 70
     8
 71
     3
 72
    11
 73
     7
 74
     0
 42
0.0000000001
 43
0.0000000001
 40
0.0
 40
0.0
 40
0.0
 40
0.0
 40
1.0
 40
1.0
 40
1.0
 40
2.0
 40
2.0
 40
2.0
 40
2.0
 10
103.2270144157972
 20
180.2039342099173
 30
0.0
 10
103.2270144157972
 20
180.6197575093033
 30
0.0
 10
102.8899116001806
 20
180.956688070032
 30
0.0
 10
102.4742605556825
 20
180.956688070032
 30
0.0
 10
102.470126438373
 20
180.956688070032
 30
0.0
 10
102.4620304586418
 20
180.956688070032
 30
0.0
 10
102.4578963413322
 20
180.9565158151441
 30
0.0
  0
ENDBLK
  5
16D
330
16A
100
AcDbEntity
  8
0
100
AcDbBlockEnd
  0
BLOCK
  5
171
330
16F
100
AcDbEntity
  8
0
100
AcDbBlockBegin
  2
block 55
 70
     0
 71
     0
 10
0.0
 20
0.0
 30
0.0
  3
block 55
  1

  0
POLYLINE
  5
173
330
16F
100
AcDbEntity
  8
1
 62
     7
370
     9
100
AcDb2dPolyline
 66
     1
 10
0.0
 20
0.0
 30
0.0
  0
VERTEX
  5
174
330
173
100
AcDbEntity
  8
1
 62
     7
370
     9
100
AcDbVertex
100
AcDb2dVertex
 10
99.80017567595266
 20
166.9368627440069
 30
0.0
  0
VERTEX
  5
175
330
173
100
AcDbEntity
  8
1
 62
     7
370
     9
100
AcDbVertex
100
AcDb2dVertex
 10
99.79879763684947
 20
166.9368627440069
 30
0.0
  0
SEQEND
  5
176
330
173
100
AcDbEntity
  8
1
370
     9
  0
ENDBLK
  5
172
330
16F
100
AcDbEntity
  8
0
100
AcDbBlockEnd
  0
BLOCK
  5
179
330
177
100
AcDbEntity
  8
0
100
AcDbBlockBegin
  2
block 56
 70
     0
 71
     0
 10
0.0
 20
0.0
 30
0.0
  3
block 56
  1

  0
SPLINE
  5
17B
330
177
100
AcDbEntity
  8
1
 62
     7
370
     9
100
AcDbSpline
210
0.0
220
0.0
230
1.0
 70
     8
 71
     3
 72
     8
 73
     4
 74
     0
 42
0.0000000001
 43
0.0000000001
 40
0.0
 40
0.0
 40
0.0
 40
0.0
 40
1.0
 40
1.0
 40
1.0
 40
1.0
 10
99.79879763684947
 20
166.9368627440069
 30
0.0
 10
97.43167096735401
 20
167.0521012640107
 30
0.0
 10
94.67834883919102
 20
165.4318717884413
 30
0.0
 10
93.62966108166748
 20
163.3065909815547
 30
0.0
  0
ENDBLK
  5
17A
330
177
100
AcDbEntity
  8
0
100
AcDbBlockEnd
  0
BLOCK
  5
17E
330
17C
100
AcDbEntity
  8
0
100
AcDbBlockBegin
  2
block 57
 70
     0
 71
     0
 10
0.0
 20
0.0
 30
0.0
  3
block 57
  1

  0
SPLINE
  5
180
330
17C
100
AcDbEntity
  8
1
 62
     7
370
     9
100
AcDbSpline
210
0.0
220
0.0
230
1.0
 70
     8
 71
     3
 72
     8
 73
     4
 74
     0
 42
0.0000000001
 43
0.0000000001
 40
0.0
 40
0.0
 40
0.0
 40
0.0
 40
1.0
 40
1.0
 40
1.0
 40
1.0
 10
154.9181224506938
 20
176.5721121534741
 30
0.0
 10
155.5692459269486
 20
172.8181613815111
 30
0.0
 10
158.6123007765561
 20
167.4567279956833
 30
0.0
 10
161.5013597563828
 20
164.9731570219687
 30
0.0
  0
ENDBLK
  5
17F
330
17C
100
AcDbEntity
  8
0
100
AcDbBlockEnd
  0
BLOCK
  5
183
330
181
100
AcDbEntity
  8
0
100
AcDbBlockBegin
  2
block 58
 70
     0
 71
     0
 10
0.0
 20
0.0
 30
0.0
  3
block 58
  1

  0
SPLINE
  5
185
330
181
100
AcDbEntity
  8
1
 62
     7
370
     9
100
AcDbSpline
210
0.0
220
0.0
230
1.0
 70
     8
 71
     3
 72
     8
 73
     4
 74
     0
 42
0.0000000001
 43
0.0000000001
 40
0.0
 40
0.0
 40
0.0
 40
0.0
 40
1.0
 40
1.0
 40
1.0
 40
1.0
 10
162.7126561280821
 20
161.0839861630058
 30
0.0
 10
161.7724889499344
 20
157.044092277132
 30
0.0
 10
161.0004425423752
 20
149.3477438858456
 30
0.0
 10
161.1196429248006
 20
145.2013964792508
 30
0.0
  0
ENDBLK
  5
184
330
181
100
AcDbEntity
  8
0
100
AcDbBlockEnd
  0
BLOCK
  5
188
330
186
100
AcDbEntity
  8
0
100
AcDbBlockBegin
  2
block 59
 70
     0
 71
     0
 10
0.0
 20
0.0
 30
0.0
  3
block 59
  1

  0
POLYLINE
  5
18A
330
186
100
AcDbEntity
  8
1
 62
     7
370
     9
100
AcDb2dPolyline
 66
     1
 10
0.0
 20
0.0
 30
0.0
  0
VERTEX
  5
18B
330
18A
100
AcDbEntity
  8
1
 62
     7
370
     9
100
AcDbVertex
100
AcDb2dVertex
 10
170.5288939213456
 20
145.2013964792508
 30
0.0
  0
VERTEX
  5
18C
330
18A
100
AcDbEntity
  8
1
 62
     7
370
     9
100
AcDbVertex
100
AcDb2dVertex
 10
161.1196429248006
 20
145.2013964792508
 30
0.0
  0
SEQEND
  5
18D
330
18A
100
AcDbEntity
  8
1
370
     9
  0
ENDBLK
  5
189
330
186
100
AcDbEntity
  8
0
100
AcDbBlockEnd
  0
BLOCK
  5
190
330
18E
100
AcDbEntity
  8
0
100
AcDbBlockBegin
  2
block 60
 70
     0
 71
     0
 10
0.0
 20
0.0
 30
0.0
  3
block 60
  1

  0
SPLINE
  5
192
330
18E
100
AcDbEntity
  8
1
 62
     7
370
     9
100
AcDbSpline
210
0.0
220
0.0
230
1.0
 70
     8
 71
     3
 72
     8
 73
     4
 74
     0
 42
0.0000000001
 43
0.0000000001
 40
0.0
 40
0.0
 40
0.0
 40
0.0
 40
1.0
 40
1.0
 40
1.0
 40
1.0
 10
162.7126561280821
 20
161.0839861630058
 30
0.0
 10
163.0423519835191
 20
162.3655625289675
 30
0.0
 10
162.5007826159675
 20
164.1055091516261
 30
0.0
 10
161.5013597563828
 20
164.9731570219687
 30
0.0
  0
ENDBLK
  5
191
330
18E
100
AcDbEntity
  8
0
100
AcDbBlockEnd
  0
BLOCK
  5
195
330
193
100
AcDbEntity
  8
0
100
AcDbBlockBegin
  2
block 61
 70
     0
 71
     0
 10
0.0
 20
0.0
 30
0.0
  3
block 61
  1

  0
SPLINE
  5
197
330
193
100
AcDbEntity
  8
1
 62
     7
370
     9
100
AcDbSpline
210
0.0
220
0.0
230
1.0
 70
     8
 71
     3
 72
     8
 73
     4
 74
     0
 42
0.0000000001
 43
0.0000000001
 40
0.0
 40
0.0
 40
0.0
 40
0.0
 40
1.0
 40
1.0
 40
1.0
 40
1.0
 10
154.0754515390964
 20
180.1779237218447
 30
0.0
 10
154.0861313421461
 20
179.308725557511
 30
0.0
 10
154.2663099548875
 20
177.6678254953938
 30
0.0
 10
154.4447660187499
 20
176.8168863491773
 30
0.0
  0
ENDBLK
  5
196
330
193
100
AcDbEntity
  8
0
100
AcDbBlockEnd
  0
BLOCK
  5
19A
330
198
100
AcDbEntity
  8
0
100
AcDbBlockBegin
  2
block 62
 70
     0
 71
     0
 10
0.0
 20
0.0
 30
0.0
  3
block 62
  1

  0
SPLINE
  5
19C
330
198
100
AcDbEntity
  8
1
 62
     7
370
     9
100
AcDbSpline
210
0.0
220
0.0
230
1.0
 70
     8
 71
     3
 72
     8
 73
     4
 74
     0
 42
0.0000000001
 43
0.0000000001
 40
0.0
 40
0.0
 40
0.0
 40
0.0
 40
1.0
 40
1.0
 40
1.0
 40
1.0
 10
154.9181224506938
 20
176.5721121534741
 30
0.0
 10
154.9015859814556
 20
176.6537609703378
 30
0.0
 10
154.8213152036951
 20
176.7183565532996
 30
0.0
 10
154.7379438379524
 20
176.7174952788601
 30
0.0
  0
ENDBLK
  5
19B
330
198
100
AcDbEntity
  8
0
100
AcDbBlockEnd
  0
BLOCK
  5
19F
330
19D
100
AcDbEntity
  8
0
100
AcDbBlockBegin
  2
block 63
 70
     0
 71
     0
 10
0.0
 20
0.0
 30
0.0
  3
block 63
  1

  0
POLYLINE
  5
1A1
330
19D
100
AcDbEntity
  8
1
 62
     7
370
     9
100
AcDb2dPolyline
 66
     1
 10
0.0
 20
0.0
 30
0.0
  0
VERTEX
  5
1A2
330
1A1
100
AcDbEntity
  8
1
 62
     7
370
     9
100
AcDbVertex
100
AcDb2dVertex
 10
154.6063411035983
 20
176.7199068472907
 30
0.0
  0
VERTEX
  5
1A3
330
1A1
100
AcDbEntity
  8
1
 62
     7
370
     9
100
AcDbVertex
100
AcDb2dVertex
 10
156.2148572467906
 20
176.6918293005633
 30
0.0
  0
SEQEND
  5
1A4
330
1A1
100
AcDbEntity
  8
1
370
     9
  0
ENDBLK
  5
1A0
330
19D
100
AcDbEntity
  8
0
100
AcDbBlockEnd
  0
BLOCK
  5
1A7
330
1A5
100
AcDbEntity
  8
0
100
AcDbBlockBegin
  2
block 64
 70
     0
 71
     0
 10
0.0
 20
0.0
 30
0.0
  3
block 64
  1

  0
SPLINE
  5
1A9
330
1A5
100
AcDbEntity
  8
1
 62
     7
370
     9
100
AcDbSpline
210
0.0
220
0.0
230
1.0
 70
     8
 71
     3
 72
     8
 73
     4
 74
     0
 42
0.0000000001
 43
0.0000000001
 40
0.0
 40
0.0
 40
0.0
 40
0.0
 40
1.0
 40
1.0
 40
1.0
 40
1.0
 10
154.4447660187499
 20
176.8168863491773
 30
0.0
 10
154.4719822910378
 20
176.7612480203862
 30
0.0
 10
154.544329343955
 20
176.7178397886359
 30
0.0
 10
154.6063411035983
 20
176.7199068472907
 30
0.0
  0
ENDBLK
  5
1A8
330
1A5
100
AcDbEntity
  8
0
100
AcDbBlockEnd
  0
BLOCK
  5
1AC
330
1AA
100
AcDbEntity
  8
0
100
AcDbBlockBegin
  2
block 65
 70
     0
 71
     0
 10
0.0
 20
0.0
 30
0.0
  3
block 65
  1

  0
POLYLINE
  5
1AE
330
1AA
100
AcDbEntity
  8
1
 62
     7
370
     9
100
AcDb2dPolyline
 66
     1
 10
0.0
 20
0.0
 30
0.0
  0
VERTEX
  5
1AF
330
1AE
100
AcDbEntity
  8
1
 62
     7
370
     9
100
AcDbVertex
100
AcDb2dVertex
 10
170.5288939213456
 20
180.956688070032
 30
0.0
  0
VERTEX
  5
1B0
330
1AE
100
AcDbEntity
  8
1
 62
     7
370
     9
100
AcDbVertex
100
AcDb2dVertex
 10
154.8278608894352
 20
180.956688070032
 30
0.0
  0
SEQEND
  5
1B1
330
1AE
100
AcDbEntity
  8
1
370
     9
  0
ENDBLK
  5
1AD
330
1AA
100
AcDbEntity
  8
0
100
AcDbBlockEnd
  0
BLOCK
  5
1B4
330
1B2
100
AcDbEntity
  8
0
100
AcDbBlockBegin
  2
block 66
 70
     0
 71
     0
 10
0.0
 20
0.0
 30
0.0
  3
block 66
  1

  0
SPLINE
  5
1B6
330
1B2
100
AcDbEntity
  8
1
 62
     7
370
     9
100
AcDbSpline
210
0.0
220
0.0
230
1.0
 70
     8
 71
     3
 72
    11
 73
     7
 74
     0
 42
0.0000000001
 43
0.0000000001
 40
0.0
 40
0.0
 40
0.0
 40
0.0
 40
1.0
 40
1.0
 40
1.0
 40
2.0
 40
2.0
 40
2.0
 40
2.0
 10
154.8278608894352
 20
180.956688070032
 30
0.0
 10
154.4120375900492
 20
180.956688070032
 30
0.0
 10
154.0751070293206
 20
180.6197575093033
 30
0.0
 10
154.0751070293206
 20
180.2039342099173
 30
0.0
 10
154.0751070293206
 20
180.1973885241772
 30
0.0
 10
154.0751070293206
 20
180.1844694075848
 30
0.0
 10
154.0754515390964
 20
180.1779237218447
 30
0.0
  0
ENDBLK
  5
1B5
330
1B2
100
AcDbEntity
  8
0
100
AcDbBlockEnd
  0
BLOCK
  5
1B9
330
1B7
100
AcDbEntity
  8
0
100
AcDbBlockBegin
  2
block 67
 70
     0
 71
     0
 10
0.0
 20
0.0
 30
0.0
  3
block 67
  1

  0
POLYLINE
  5
1BB
330
1B7
100
AcDbEntity
  8
1
 62
     7
370
     9
100
AcDb2dPolyline
 66
     1
 10
0.0
 20
0.0
 30
0.0
  0
VERTEX
  5
1BC
330
1BB
100
AcDbEntity
  8
1
 62
     7
370
     9
100
AcDbVertex
100
AcDb2dVertex
 10
186.4517912488687
 20
176.7199068472907
 30
0.0
  0
VERTEX
  5
1BD
330
1BB
100
AcDbEntity
  8
1
 62
     7
370
     9
100
AcDbVertex
100
AcDb2dVertex
 10
184.8429305959006
 20
176.6918293005633
 30
0.0
  0
SEQEND
  5
1BE
330
1BB
100
AcDbEntity
  8
1
370
     9
  0
ENDBLK
  5
1BA
330
1B7
100
AcDbEntity
  8
0
100
AcDbBlockEnd
  0
BLOCK
  5
1C1
330
1BF
100
AcDbEntity
  8
0
100
AcDbBlockBegin
  2
block 68
 70
     0
 71
     0
 10
0.0
 20
0.0
 30
0.0
  3
block 68
  1

  0
SPLINE
  5
1C3
330
1BF
100
AcDbEntity
  8
1
 62
     7
370
     9
100
AcDbSpline
210
0.0
220
0.0
230
1.0
 70
     8
 71
     3
 72
     8
 73
     4
 74
     0
 42
0.0000000001
 43
0.0000000001
 40
0.0
 40
0.0
 40
0.0
 40
0.0
 40
1.0
 40
1.0
 40
1.0
 40
1.0
 10
186.4517912488687
 20
176.7199068472907
 30
0.0
 10
186.513803008512
 20
176.7178397886359
 30
0.0
 10
186.5858055516535
 20
176.7612480203862
 30
0.0
 10
186.6130218239414
 20
176.8168863491773
 30
0.0
  0
ENDBLK
  5
1C2
330
1BF
100
AcDbEntity
  8
0
100
AcDbBlockEnd
  0
BLOCK
  5
1C6
330
1C4
100
AcDbEntity
  8
0
100
AcDbBlockBegin
  2
block 69
 70
     0
 71
     0
 10
0.0
 20
0.0
 30
0.0
  3
block 69
  1

  0
SPLINE
  5
1C8
330
1C4
100
AcDbEntity
  8
1
 62
     7
370
     9
100
AcDbSpline
210
0.0
220
0.0
230
1.0
 70
     8
 71
     3
 72
     8
 73
     4
 74
     0
 42
0.0000000001
 43
0.0000000001
 40
0.0
 40
0.0
 40
0.0
 40
0.0
 40
1.0
 40
1.0
 40
1.0
 40
1.0
 10
186.3198440047388
 20
176.7174952788601
 30
0.0
 10
186.2364726389961
 20
176.7183565532996
 30
0.0
 10
186.1565463710114
 20
176.6537609703378
 30
0.0
 10
186.1396653919974
 20
176.5721121534741
 30
0.0
  0
ENDBLK
  5
1C7
330
1C4
100
AcDbEntity
  8
0
100
AcDbBlockEnd
  0
BLOCK
  5
1CB
330
1C9
100
AcDbEntity
  8
0
100
AcDbBlockBegin
  2
block 70
 70
     0
 71
     0
 10
0.0
 20
0.0
 30
0.0
  3
block 70
  1

  0
SPLINE
  5
1CD
330
1C9
100
AcDbEntity
  8
1
 62
     7
370
     9
100
AcDbSpline
210
0.0
220
0.0
230
1.0
 70
     8
 71
     3
 72
     8
 73
     4
 74
     0
 42
0.0000000001
 43
0.0000000001
 40
0.0
 40
0.0
 40
0.0
 40
0.0
 40
1.0
 40
1.0
 40
1.0
 40
1.0
 10
82.84271549171363
 20
74.76551154328456
 30
0.0
 10
88.02931016632496
 20
74.84819388947564
 30
0.0
 10
92.77992771966623
 20
79.0250304112284
 30
0.0
 10
93.52596363915283
 20
84.15857058036711
 30
0.0
  0
ENDBLK
  5
1CC
330
1C9
100
AcDbEntity
  8
0
100
AcDbBlockEnd
  0
BLOCK
  5
1D0
330
1CE
100
AcDbEntity
  8
0
100
AcDbBlockBegin
  2
block 71
 70
     0
 71
     0
 10
0.0
 20
0.0
 30
0.0
  3
block 71
  1

  0
SPLINE
  5
1D2
330
1CE
100
AcDbEntity
  8
1
 62
     7
370
     9
100
AcDbSpline
210
0.0
220
0.0
230
1.0
 70
     8
 71
     3
 72
     8
 73
     4
 74
     0
 42
0.0000000001
 43
0.0000000001
 40
0.0
 40
0.0
 40
0.0
 40
0.0
 40
1.0
 40
1.0
 40
1.0
 40
1.0
 10
81.11517122098375
 20
71.15539360271652
 30
0.0
 10
83.10988282284357
 20
71.10716223410505
 30
0.0
 10
86.8657283985734
 20
71.4168765225458
 30
0.0
 10
88.8256445130778
 20
71.79170315861204
 30
0.0
  0
ENDBLK
  5
1D1
330
1CE
100
AcDbEntity
  8
0
100
AcDbBlockEnd
  0
BLOCK
  5
1D5
330
1D3
100
AcDbEntity
  8
0
100
AcDbBlockBegin
  2
block 72
 70
     0
 71
     0
 10
0.0
 20
0.0
 30
0.0
  3
block 72
  1

  0
SPLINE
  5
1D7
330
1D3
100
AcDbEntity
  8
1
 62
     7
370
     9
100
AcDbSpline
210
0.0
220
0.0
230
1.0
 70
     8
 71
     3
 72
     8
 73
     4
 74
     0
 42
0.0000000001
 43
0.0000000001
 40
0.0
 40
0.0
 40
0.0
 40
0.0
 40
1.0
 40
1.0
 40
1.0
 40
1.0
 10
62.57882273427089
 20
87.621927356446
 30
0.0
 10
62.40777363058809
 20
84.35252958414036
 30
0.0
 10
64.57043374814855
 20
80.38756657450224
 30
0.0
 10
67.41177812402744
 20
78.76148043274432
 30
0.0
  0
ENDBLK
  5
1D6
330
1D3
100
AcDbEntity
  8
0
100
AcDbBlockEnd
  0
BLOCK
  5
1DA
330
1D8
100
AcDbEntity
  8
0
100
AcDbBlockBegin
  2
block 73
 70
     0
 71
     0
 10
0.0
 20
0.0
 30
0.0
  3
block 73
  1

  0
SPLINE
  5
1DC
330
1D8
100
AcDbEntity
  8
1
 62
     7
370
     9
100
AcDbSpline
210
0.0
220
0.0
230
1.0
 70
     8
 71
     3
 72
     8
 73
     4
 74
     0
 42
0.0000000001
 43
0.0000000001
 40
0.0
 40
0.0
 40
0.0
 40
0.0
 40
1.0
 40
1.0
 40
1.0
 40
1.0
 10
59.00332802617035
 20
87.621927356446
 30
0.0
 10
58.774056770378
 20
83.24355261585248
 30
0.0
 10
61.67069496527218
 20
77.93293442195454
 30
0.0
 10
65.47597769382877
 20
75.75528812914696
 30
0.0
  0
ENDBLK
  5
1DB
330
1D8
100
AcDbEntity
  8
0
100
AcDbBlockEnd
  0
BLOCK
  5
1DF
330
1DD
100
AcDbEntity
  8
0
100
AcDbBlockBegin
  2
block 74
 70
     0
 71
     0
 10
0.0
 20
0.0
 30
0.0
  3
block 74
  1

  0
SPLINE
  5
1E1
330
1DD
100
AcDbEntity
  8
1
 62
     7
370
     9
100
AcDbSpline
210
0.0
220
0.0
230
1.0
 70
     8
 71
     3
 72
     8
 73
     4
 74
     0
 42
0.0000000001
 43
0.0000000001
 40
0.0
 40
0.0
 40
0.0
 40
0.0
 40
1.0
 40
1.0
 40
1.0
 40
1.0
 10
67.41177812402744
 20
78.76148043274432
 30
0.0
 10
70.70856442350888
 20
76.36231435409981
 30
0.0
 10
77.04444371017622
 20
74.49886097681834
 30
0.0
 10
81.11517122098375
 20
74.73106056570495
 30
0.0
  0
ENDBLK
  5
1E0
330
1DD
100
AcDbEntity
  8
0
100
AcDbBlockEnd
  0
BLOCK
  5
1E4
330
1E2
100
AcDbEntity
  8
0
100
AcDbBlockBegin
  2
block 75
 70
     0
 71
     0
 10
0.0
 20
0.0
 30
0.0
  3
block 75
  1

  0
SPLINE
  5
1E6
330
1E2
100
AcDbEntity
  8
1
 62
     7
370
     9
100
AcDbSpline
210
0.0
220
0.0
230
1.0
 70
     8
 71
     3
 72
     8
 73
     4
 74
     0
 42
0.0000000001
 43
0.0000000001
 40
0.0
 40
0.0
 40
0.0
 40
0.0
 40
1.0
 40
1.0
 40
1.0
 40
1.0
 10
65.47597769382877
 20
75.75528812914696
 30
0.0
 10
69.23854121018663
 20
73.0174689408948
 30
0.0
 10
76.46945689437241
 20
70.89046558512925
 30
0.0
 10
81.11517122098375
 20
71.15539360271652
 30
0.0
  0
ENDBLK
  5
1E5
330
1E2
100
AcDbEntity
  8
0
100
AcDbBlockEnd
  0
BLOCK
  5
1E9
330
1E7
100
AcDbEntity
  8
0
100
AcDbBlockBegin
  2
block 76
 70
     0
 71
     0
 10
0.0
 20
0.0
 30
0.0
  3
block 76
  1

  0
SPLINE
  5
1EB
330
1E7
100
AcDbEntity
  8
1
 62
     7
370
     9
100
AcDbSpline
210
0.0
220
0.0
230
1.0
 70
     8
 71
     3
 72
     8
 73
     4
 74
     0
 42
0.0000000001
 43
0.0000000001
 40
0.0
 40
0.0
 40
0.0
 40
0.0
 40
1.0
 40
1.0
 40
1.0
 40
1.0
 10
81.11517122098375
 20
74.73106056570495
 30
0.0
 10
81.55011481292641
 20
74.72830448749858
 30
0.0
 10
82.40811640954678
 20
74.7451854665126
 30
0.0
 10
82.84271549171363
 20
74.76551154328456
 30
0.0
  0
ENDBLK
  5
1EA
330
1E7
100
AcDbEntity
  8
0
100
AcDbBlockEnd
  0
BLOCK
  5
1EE
330
1EC
100
AcDbEntity
  8
0
100
AcDbBlockBegin
  2
block 77
 70
     0
 71
     0
 10
0.0
 20
0.0
 30
0.0
  3
block 77
  1

  0
POLYLINE
  5
1F0
330
1EC
100
AcDbEntity
  8
1
 62
     7
370
     9
100
AcDb2dPolyline
 66
     1
 10
0.0
 20
0.0
 30
0.0
  0
VERTEX
  5
1F1
330
1F0
100
AcDbEntity
  8
1
 62
     7
370
     9
100
AcDbVertex
100
AcDb2dVertex
 10
106.0063470320327
 20
82.82290617960535
 30
0.0
  0
VERTEX
  5
1F2
330
1F0
100
AcDbEntity
  8
1
 62
     7
370
     9
100
AcDbVertex
100
AcDb2dVertex
 10
106.0063470320327
 20
87.621927356446
 30
0.0
  0
SEQEND
  5
1F3
330
1F0
100
AcDbEntity
  8
1
370
     9
  0
ENDBLK
  5
1EF
330
1EC
100
AcDbEntity
  8
0
100
AcDbBlockEnd
  0
BLOCK
  5
1F6
330
1F4
100
AcDbEntity
  8
0
100
AcDbBlockBegin
  2
block 78
 70
     0
 71
     0
 10
0.0
 20
0.0
 30
0.0
  3
block 78
  1

  0
SPLINE
  5
1F8
330
1F4
100
AcDbEntity
  8
1
 62
     7
370
     9
100
AcDbSpline
210
0.0
220
0.0
230
1.0
 70
     8
 71
     3
 72
     8
 73
     4
 74
     0
 42
0.0000000001
 43
0.0000000001
 40
0.0
 40
0.0
 40
0.0
 40
0.0
 40
1.0
 40
1.0
 40
1.0
 40
1.0
 10
93.52596363915283
 20
84.15857058036711
 30
0.0
 10
93.69787401727513
 20
85.03913756730212
 30
0.0
 10
93.83998429979104
 20
86.72516841004857
 30
0.0
 10
93.81776341925219
 20
87.621927356446
 30
0.0
  0
ENDBLK
  5
1F7
330
1F4
100
AcDbEntity
  8
0
100
AcDbBlockEnd
  0
BLOCK
  5
1FB
330
1F9
100
AcDbEntity
  8
0
100
AcDbBlockBegin
  2
block 79
 70
     0
 71
     0
 10
0.0
 20
0.0
 30
0.0
  3
block 79
  1

  0
SPLINE
  5
1FD
330
1F9
100
AcDbEntity
  8
1
 62
     7
370
     9
100
AcDbSpline
210
0.0
220
0.0
230
1.0
 70
     8
 71
     3
 72
     8
 73
     4
 74
     0
 42
0.0000000001
 43
0.0000000001
 40
0.0
 40
0.0
 40
0.0
 40
0.0
 40
1.0
 40
1.0
 40
1.0
 40
1.0
 10
102.527487316043
 20
76.17007789920554
 30
0.0
 10
102.9386597334558
 20
79.07429530916724
 30
0.0
 10
103.2816192152608
 20
84.6891156350932
 30
0.0
 10
103.2270144157972
 20
87.621927356446
 30
0.0
  0
ENDBLK
  5
1FC
330
1F9
100
AcDbEntity
  8
0
100
AcDbBlockEnd
  0
BLOCK
  5
200
330
1FE
100
AcDbEntity
  8
0
100
AcDbBlockBegin
  2
block 80
 70
     0
 71
     0
 10
0.0
 20
0.0
 30
0.0
  3
block 80
  1

  0
SPLINE
  5
202
330
1FE
100
AcDbEntity
  8
1
 62
     7
370
     9
100
AcDbSpline
210
0.0
220
0.0
230
1.0
 70
     8
 71
     3
 72
     8
 73
     4
 74
     0
 42
0.0000000001
 43
0.0000000001
 40
0.0
 40
0.0
 40
0.0
 40
0.0
 40
1.0
 40
1.0
 40
1.0
 40
1.0
 10
100.7269069728444
 20
74.16572002362344
 30
0.0
 10
101.6476093486596
 20
74.34452059726165
 30
0.0
 10
102.448077812722
 20
75.23576738724633
 30
0.0
 10
102.527487316043
 20
76.17007789920554
 30
0.0
  0
ENDBLK
  5
201
330
1FE
100
AcDbEntity
  8
0
100
AcDbBlockEnd
  0
BLOCK
  5
205
330
203
100
AcDbEntity
  8
0
100
AcDbBlockBegin
  2
block 81
 70
     0
 71
     0
 10
0.0
 20
0.0
 30
0.0
  3
block 81
  1

  0
POLYLINE
  5
207
330
203
100
AcDbEntity
  8
1
 62
     7
370
     9
100
AcDb2dPolyline
 66
     1
 10
0.0
 20
0.0
 30
0.0
  0
VERTEX
  5
208
330
207
100
AcDbEntity
  8
1
 62
     7
370
     9
100
AcDbVertex
100
AcDb2dVertex
 10
106.0063470320327
 20
82.82290617960535
 30
0.0
  0
VERTEX
  5
209
330
207
100
AcDbEntity
  8
1
 62
     7
370
     9
100
AcDbVertex
100
AcDb2dVertex
 10
103.1045411905016
 20
82.82290617960535
 30
0.0
  0
SEQEND
  5
20A
330
207
100
AcDbEntity
  8
1
370
     9
  0
ENDBLK
  5
206
330
203
100
AcDbEntity
  8
0
100
AcDbBlockEnd
  0
BLOCK
  5
20D
330
20B
100
AcDbEntity
  8
0
100
AcDbBlockBegin
  2
block 82
 70
     0
 71
     0
 10
0.0
 20
0.0
 30
0.0
  3
block 82
  1

  0
SPLINE
  5
20F
330
20B
100
AcDbEntity
  8
1
 62
     7
370
     9
100
AcDbSpline
210
0.0
220
0.0
230
1.0
 70
    11
 71
     3
 72
    23
 73
    19
 74
     0
 42
0.0000000001
 43
0.0000000001
 40
0.0
 40
0.0
 40
0.0
 40
0.0
 40
1.0
 40
1.0
 40
1.0
 40
2.0
 40
2.0
 40
2.0
 40
3.0
 40
3.0
 40
3.0
 40
4.0
 40
4.0
 40
4.0
 40
5.0
 40
5.0
 40
5.0
 40
6.0
 40
6.0
 40
6.0
 40
6.0
 10
99.69854529209279
 20
80.0943887552997
 30
0.0
 10
99.69854529209279
 20
80.48402931172517
 30
0.0
 10
99.38245757279981
 20
80.79994477613026
 30
0.0
 10
98.99281701637435
 20
80.79994477613026
 30
0.0
 10
98.60300420506097
 20
80.79994477613026
 30
0.0
 10
98.28708874065589
 20
80.48402931172517
 30
0.0
 10
98.28708874065589
 20
80.0943887552997
 30
0.0
 10
98.28708874065589
 20
79.70474819887424
 30
0.0
 10
98.60300420506097
 20
79.38883273446915
 30
0.0
 10
98.99281701637435
 20
79.38883273446915
 30
0.0
 10
99.38245757279981
 20
79.38883273446915
 30
0.0
 10
99.69854529209279
 20
79.70474819887424
 30
0.0
 10
99.69854529209279
 20
80.0943887552997
 30
0.0
 10
99.69854529209279
 20
80.0943887552997
 30
0.0
 10
99.69854529209279
 20
80.0943887552997
 30
0.0
 10
99.69854529209279
 20
80.0943887552997
 30
0.0
 10
99.69854529209279
 20
80.0943887552997
 30
0.0
 10
99.69854529209279
 20
80.0943887552997
 30
0.0
 10
99.69854529209279
 20
80.0943887552997
 30
0.0
  0
ENDBLK
  5
20E
330
20B
100
AcDbEntity
  8
0
100
AcDbBlockEnd
  0
BLOCK
  5
212
330
210
100
AcDbEntity
  8
0
100
AcDbBlockBegin
  2
block 83
 70
     0
 71
     0
 10
0.0
 20
0.0
 30
0.0
  3
block 83
  1

  0
SPLINE
  5
214
330
210
100
AcDbEntity
  8
1
 62
     7
370
     9
100
AcDbSpline
210
0.0
220
0.0
230
1.0
 70
     8
 71
     3
 72
     8
 73
     4
 74
     0
 42
0.0000000001
 43
0.0000000001
 40
0.0
 40
0.0
 40
0.0
 40
0.0
 40
1.0
 40
1.0
 40
1.0
 40
1.0
 10
88.8256445130778
 20
71.79170315861204
 30
0.0
 10
91.85767504985989
 20
72.26333704167699
 30
0.0
 10
97.7458638828801
 20
73.43777086736613
 30
0.0
 10
100.7269069728444
 20
74.16572002362344
 30
0.0
  0
ENDBLK
  5
213
330
210
100
AcDbEntity
  8
0
100
AcDbBlockEnd
  0
BLOCK
  5
217
330
215
100
AcDbEntity
  8
0
100
AcDbBlockBegin
  2
block 84
 70
     0
 71
     0
 10
0.0
 20
0.0
 30
0.0
  3
block 84
  1

  0
SPLINE
  5
219
330
215
100
AcDbEntity
  8
1
 62
     7
370
     9
100
AcDbSpline
210
0.0
220
0.0
230
1.0
 70
     8
 71
     3
 72
     8
 73
     4
 74
     0
 42
0.0000000001
 43
0.0000000001
 40
0.0
 40
0.0
 40
0.0
 40
0.0
 40
1.0
 40
1.0
 40
1.0
 40
1.0
 10
95.56425572765087
 20
173.775037283785
 30
0.0
 10
95.68948503115277
 20
174.3341766499022
 30
0.0
 10
95.88671687779609
 20
175.4372969520015
 30
0.0
 10
95.96319804802283
 20
176.0052213174015
 30
0.0
  0
ENDBLK
  5
218
330
215
100
AcDbEntity
  8
0
100
AcDbBlockEnd
  0
BLOCK
  5
21D
330
21B
100
AcDbEntity
  8
0
100
AcDbBlockBegin
  2
block 85
 70
     0
 71
     0
 10
0.0
 20
0.0
 30
0.0
  3
block 85
  1

  0
POLYLINE
  5
21F
330
21B
100
AcDbEntity
  8
EJES
  6
AI-Linetype-1
 62
     7
370
     9
100
AcDb2dPolyline
 66
     1
 10
0.0
 20
0.0
 30
0.0
  0
VERTEX
  5
220
330
21F
100
AcDbEntity
  8
EJES
  6
AI-Linetype-1
 62
     7
370
     9
100
AcDbVertex
100
AcDb2dVertex
 10
109.1686022640658
 20
87.621927356446
 30
0.0
  0
VERTEX
  5
221
330
21F
100
AcDbEntity
  8
EJES
  6
AI-Linetype-1
 62
     7
370
     9
100
AcDbVertex
100
AcDb2dVertex
 10
55.60628938193223
 20
87.621927356446
 30
0.0
  0
SEQEND
  5
222
330
21F
100
AcDbEntity
  8
EJES
  6
AI-Linetype-1
370
     9
  0
ENDBLK
  5
21E
330
21B
100
AcDbEntity
  8
0
100
AcDbBlockEnd
  0
BLOCK
  5
226
330
224
100
AcDbEntity
  8
0
100
AcDbBlockBegin
  2
block 86
 70
     0
 71
     0
 10
0.0
 20
0.0
 30
0.0
  3
block 86
  1

  0
POLYLINE
  5
228
330
224
100
AcDbEntity
  8
EJES
  6
AI-Linetype-2
 62
     7
370
     9
100
AcDb2dPolyline
 66
     1
 10
0.0
 20
0.0
 30
0.0
  0
VERTEX
  5
229
330
228
100
AcDbEntity
  8
EJES
  6
AI-Linetype-2
 62
     7
370
     9
100
AcDbVertex
100
AcDb2dVertex
 10
101.6319341538609
 20
95.14912144781648
 30
0.0
  0
VERTEX
  5
22A
330
228
100
AcDbEntity
  8
EJES
  6
AI-Linetype-2
 62
     7
370
     9
100
AcDbVertex
100
AcDb2dVertex
 10
96.3536998788878
 20
95.14912144781648
 30
0.0
  0
SEQEND
  5
22B
330
228
100
AcDbEntity
  8
EJES
  6
AI-Linetype-2
370
     9
  0
ENDBLK
  5
227
330
224
100
AcDbEntity
  8
0
100
AcDbBlockEnd
  0
BLOCK
  5
22F
330
22D
100
AcDbEntity
  8
0
100
AcDbBlockBegin
  2
block 87
 70
     0
 71
     0
 10
0.0
 20
0.0
 30
0.0
  3
block 87
  1

  0
POLYLINE
  5
231
330
22D
100
AcDbEntity
  8
EJES
  6
AI-Linetype-3
 62
     7
370
     9
100
AcDb2dPolyline
 66
     1
 10
0.0
 20
0.0
 30
0.0
  0
VERTEX
  5
232
330
231
100
AcDbEntity
  8
EJES
  6
AI-Linetype-3
 62
     7
370
     9
100
AcDbVertex
100
AcDb2dVertex
 10
98.99281701637435
 20
97.78841084019093
 30
0.0
  0
VERTEX
  5
233
330
231
100
AcDbEntity
  8
EJES
  6
AI-Linetype-3
 62
     7
370
     9
100
AcDbVertex
100
AcDb2dVertex
 10
98.99281701637435
 20
92.51017656521783
 30
0.0
  0
SEQEND
  5
234
330
231
100
AcDbEntity
  8
EJES
  6
AI-Linetype-3
370
     9
  0
ENDBLK
  5
230
330
22D
100
AcDbEntity
  8
0
100
AcDbBlockEnd
  0
BLOCK
  5
238
330
236
100
AcDbEntity
  8
0
100
AcDbBlockBegin
  2
block 88
 70
     0
 71
     0
 10
0.0
 20
0.0
 30
0.0
  3
block 88
  1

  0
POLYLINE
  5
23A
330
236
100
AcDbEntity
  8
EJES
  6
AI-Linetype-4
 62
     7
370
     9
100
AcDb2dPolyline
 66
     1
 10
0.0
 20
0.0
 30
0.0
  0
VERTEX
  5
23B
330
23A
100
AcDbEntity
  8
EJES
  6
AI-Linetype-4
 62
     7
370
     9
100
AcDbVertex
100
AcDb2dVertex
 10
170.5288939213456
 20
183.1477702440956
 30
0.0
  0
VERTEX
  5
23C
330
23A
100
AcDbEntity
  8
EJES
  6
AI-Linetype-4
 62
     7
370
     9
100
AcDbVertex
100
AcDb2dVertex
 10
170.5288939213456
 20
142.6208460036496
 30
0.0
  0
SEQEND
  5
23D
330
23A
100
AcDbEntity
  8
EJES
  6
AI-Linetype-4
370
     9
  0
ENDBLK
  5
239
330
236
100
AcDbEntity
  8
0
100
AcDbBlockEnd
  0
BLOCK
  5
241
330
23F
100
AcDbEntity
  8
0
100
AcDbBlockBegin
  2
block 89
 70
     0
 71
     0
 10
0.0
 20
0.0
 30
0.0
  3
block 89
  1

  0
POLYLINE
  5
243
330
23F
100
AcDbEntity
  8
EJES
  6
AI-Linetype-5
 62
     7
370
     9
100
AcDb2dPolyline
 66
     1
 10
0.0
 20
0.0
 30
0.0
  0
VERTEX
  5
244
330
243
100
AcDbEntity
  8
EJES
  6
AI-Linetype-5
 62
     7
370
     9
100
AcDbVertex
100
AcDb2dVertex
 10
109.8266159358365
 20
162.138186076942
 30
0.0
  0
VERTEX
  5
245
330
243
100
AcDbEntity
  8
EJES
  6
AI-Linetype-5
 62
     7
370
     9
100
AcDbVertex
100
AcDb2dVertex
 10
98.49930676254633
 20
162.138186076942
 30
0.0
  0
SEQEND
  5
246
330
243
100
AcDbEntity
  8
EJES
  6
AI-Linetype-5
370
     9
  0
ENDBLK
  5
242
330
23F
100
AcDbEntity
  8
0
100
AcDbBlockEnd
  0
BLOCK
  5
24A
330
248
100
AcDbEntity
  8
0
100
AcDbBlockBegin
  2
block 90
 70
     0
 71
     0
 10
0.0
 20
0.0
 30
0.0
  3
block 90
  1

  0
POLYLINE
  5
24C
330
248
100
AcDbEntity
  8
EJES
  6
AI-Linetype-6
 62
     7
370
     9
100
AcDb2dPolyline
 66
     1
 10
0.0
 20
0.0
 30
0.0
  0
VERTEX
  5
24D
330
24C
100
AcDbEntity
  8
EJES
  6
AI-Linetype-6
 62
     7
370
     9
100
AcDbVertex
100
AcDb2dVertex
 10
95.97336108640881
 20
176.9577908474779
 30
0.0
  0
VERTEX
  5
24E
330
24C
100
AcDbEntity
  8
EJES
  6
AI-Linetype-6
 62
     7
370
     9
100
AcDbVertex
100
AcDb2dVertex
 10
103.9926873925041
 20
176.9577908474779
 30
0.0
  0
SEQEND
  5
24F
330
24C
100
AcDbEntity
  8
EJES
  6
AI-Linetype-6
370
     9
  0
ENDBLK
  5
24B
330
248
100
AcDbEntity
  8
0
100
AcDbBlockEnd
  0
BLOCK
  5
253
330
251
100
AcDbEntity
  8
0
100
AcDbBlockBegin
  2
block 91
 70
     0
 71
     0
 10
0.0
 20
0.0
 30
0.0
  3
block 91
  1

  0
POLYLINE
  5
255
330
251
100
AcDbEntity
  8
EJES
  6
AI-Linetype-7
 62
     7
370
     9
100
AcDb2dPolyline
 66
     1
 10
0.0
 20
0.0
 30
0.0
  0
VERTEX
  5
256
330
255
100
AcDbEntity
  8
EJES
  6
AI-Linetype-7
 62
     7
370
     9
100
AcDbVertex
100
AcDb2dVertex
 10
98.99281701637435
 20
77.45544387270105
 30
0.0
  0
VERTEX
  5
257
330
255
100
AcDbEntity
  8
EJES
  6
AI-Linetype-7
 62
     7
370
     9
100
AcDbVertex
100
AcDb2dVertex
 10
98.99281701637435
 20
82.73333363789835
 30
0.0
  0
SEQEND
  5
258
330
255
100
AcDbEntity
  8
EJES
  6
AI-Linetype-7
370
     9
  0
ENDBLK
  5
254
330
251
100
AcDbEntity
  8
0
100
AcDbBlockEnd
  0
BLOCK
  5
25C
330
25A
100
AcDbEntity
  8
0
100
AcDbBlockBegin
  2
block 92
 70
     0
 71
     0
 10
0.0
 20
0.0
 30
0.0
  3
block 92
  1

  0
POLYLINE
  5
25E
330
25A
100
AcDbEntity
  8
EJES
  6
AI-Linetype-8
 62
     7
370
     9
100
AcDb2dPolyline
 66
     1
 10
0.0
 20
0.0
 30
0.0
  0
VERTEX
  5
25F
330
25E
100
AcDbEntity
  8
EJES
  6
AI-Linetype-8
 62
     7
370
     9
100
AcDbVertex
100
AcDb2dVertex
 10
101.6319341538609
 20
80.0943887552997
 30
0.0
  0
VERTEX
  5
260
330
25E
100
AcDbEntity
  8
EJES
  6
AI-Linetype-8
 62
     7
370
     9
100
AcDbVertex
100
AcDb2dVertex
 10
96.3536998788878
 20
80.0943887552997
 30
0.0
  0
SEQEND
  5
261
330
25E
100
AcDbEntity
  8
EJES
  6
AI-Linetype-8
370
     9
  0
ENDBLK
  5
25D
330
25A
100
AcDbEntity
  8
0
100
AcDbBlockEnd
  0
BLOCK
  5
266
330
264
100
AcDbEntity
  8
0
100
AcDbBlockBegin
  2
block 93
 70
     0
 71
     0
 10
0.0
 20
0.0
 30
0.0
  3
block 93
  1

  0
POLYLINE
  5
268
330
264
100
AcDbEntity
  8
OCULTO
  6
AI-Linetype-9
 62
     7
370
     9
100
AcDb2dPolyline
 66
     1
 10
0.0
 20
0.0
 30
0.0
  0
VERTEX
  5
269
330
268
100
AcDbEntity
  8
OCULTO
  6
AI-Linetype-9
 62
     7
370
     9
100
AcDbVertex
100
AcDb2dVertex
 10
100.4042735678112
 20
174.5584525139455
 30
0.0
  0
VERTEX
  5
26A
330
268
100
AcDbEntity
  8
OCULTO
  6
AI-Linetype-9
 62
     7
370
     9
100
AcDbVertex
100
AcDb2dVertex
 10
100.4042735678112
 20
179.3571291810104
 30
0.0
  0
SEQEND
  5
26B
330
268
100
AcDbEntity
  8
OCULTO
  6
AI-Linetype-9
370
     9
  0
ENDBLK
  5
267
330
264
100
AcDbEntity
  8
0
100
AcDbBlockEnd
  0
BLOCK
  5
26F
330
26D
100
AcDbEntity
  8
0
100
AcDbBlockBegin
  2
block 94
 70
     0
 71
     0
 10
0.0
 20
0.0
 30
0.0
  3
block 94
  1

  0
POLYLINE
  5
271
330
26D
100
AcDbEntity
  8
OCULTO
  6
AI-Linetype-10
 62
     7
370
     9
100
AcDb2dPolyline
 66
     1
 10
0.0
 20
0.0
 30
0.0
  0
VERTEX
  5
272
330
271
100
AcDbEntity
  8
OCULTO
  6
AI-Linetype-10
 62
     7
370
     9
100
AcDbVertex
100
AcDb2dVertex
 10
103.2270144157972
 20
174.3701779214729
 30
0.0
  0
VERTEX
  5
273
330
271
100
AcDbEntity
  8
OCULTO
  6
AI-Linetype-10
 62
     7
370
     9
100
AcDbVertex
100
AcDb2dVertex
 10
100.592375905396
 20
174.3701779214729
 30
0.0
  0
SEQEND
  5
274
330
271
100
AcDbEntity
  8
OCULTO
  6
AI-Linetype-10
370
     9
  0
ENDBLK
  5
270
330
26D
100
AcDbEntity
  8
0
100
AcDbBlockEnd
  0
BLOCK
  5
278
330
276
100
AcDbEntity
  8
0
100
AcDbBlockBegin
  2
block 95
 70
     0
 71
     0
 10
0.0
 20
0.0
 30
0.0
  3
block 95
  1

  0
POLYLINE
  5
27A
330
276
100
AcDbEntity
  8
OCULTO
  6
AI-Linetype-11
 62
     7
370
     9
100
AcDb2dPolyline
 66
     1
 10
0.0
 20
0.0
 30
0.0
  0
VERTEX
  5
27B
330
27A
100
AcDbEntity
  8
OCULTO
  6
AI-Linetype-11
 62
     7
370
     9
100
AcDbVertex
100
AcDb2dVertex
 10
103.2270144157972
 20
179.545231518595
 30
0.0
  0
VERTEX
  5
27C
330
27A
100
AcDbEntity
  8
OCULTO
  6
AI-Linetype-11
 62
     7
370
     9
100
AcDbVertex
100
AcDb2dVertex
 10
100.592375905396
 20
179.545231518595
 30
0.0
  0
SEQEND
  5
27D
330
27A
100
AcDbEntity
  8
OCULTO
  6
AI-Linetype-11
370
     9
  0
ENDBLK
  5
279
330
276
100
AcDbEntity
  8
0
100
AcDbBlockEnd
  0
BLOCK
  5
281
330
27F
100
AcDbEntity
  8
0
100
AcDbBlockBegin
  2
block 96
 70
     0
 71
     0
 10
0.0
 20
0.0
 30
0.0
  3
block 96
  1

  0
POLYLINE
  5
283
330
27F
100
AcDbEntity
  8
OCULTO
  6
AI-Linetype-12
 62
     7
370
     9
100
AcDb2dPolyline
 66
     1
 10
0.0
 20
0.0
 30
0.0
  0
VERTEX
  5
284
330
283
100
AcDbEntity
  8
OCULTO
  6
AI-Linetype-12
 62
     7
370
     9
100
AcDbVertex
100
AcDb2dVertex
 10
100.4042735678112
 20
174.8406060203226
 30
0.0
  0
VERTEX
  5
285
330
283
100
AcDbEntity
  8
OCULTO
  6
AI-Linetype-12
 62
     7
370
     9
100
AcDbVertex
100
AcDb2dVertex
 10
98.99281701637435
 20
174.8406060203226
 30
0.0
  0
SEQEND
  5
286
330
283
100
AcDbEntity
  8
OCULTO
  6
AI-Linetype-12
370
     9
  0
ENDBLK
  5
282
330
27F
100
AcDbEntity
  8
0
100
AcDbBlockEnd
  0
BLOCK
  5
28A
330
288
100
AcDbEntity
  8
0
100
AcDbBlockBegin
  2
block 97
 70
     0
 71
     0
 10
0.0
 20
0.0
 30
0.0
  3
block 97
  1

  0
POLYLINE
  5
28C
330
288
100
AcDbEntity
  8
OCULTO
  6
AI-Linetype-13
 62
     7
370
     9
100
AcDb2dPolyline
 66
     1
 10
0.0
 20
0.0
 30
0.0
  0
VERTEX
  5
28D
330
28C
100
AcDbEntity
  8
OCULTO
  6
AI-Linetype-13
 62
     7
370
     9
100
AcDbVertex
100
AcDb2dVertex
 10
100.4042735678112
 20
179.0748034197454
 30
0.0
  0
VERTEX
  5
28E
330
28C
100
AcDbEntity
  8
OCULTO
  6
AI-Linetype-13
 62
     7
370
     9
100
AcDbVertex
100
AcDb2dVertex
 10
98.99281701637435
 20
179.0506877354397
 30
0.0
  0
SEQEND
  5
28F
330
28C
100
AcDbEntity
  8
OCULTO
  6
AI-Linetype-13
370
     9
  0
ENDBLK
  5
28B
330
288
100
AcDbEntity
  8
0
100
AcDbBlockEnd
  0
BLOCK
  5
293
330
291
100
AcDbEntity
  8
0
100
AcDbBlockBegin
  2
block 98
 70
     0
 71
     0
 10
0.0
 20
0.0
 30
0.0
  3
block 98
  1

  0
SPLINE
  5
295
330
291
100
AcDbEntity
  8
OCULTO
  6
AI-Linetype-14
 62
     7
370
     9
100
AcDbSpline
210
0.0
220
0.0
230
1.0
 70
     8
 71
     3
 72
    11
 73
     7
 74
     0
 42
0.0000000001
 43
0.0000000001
 40
0.0
 40
0.0
 40
0.0
 40
0.0
 40
1.0
 40
1.0
 40
1.0
 40
2.0
 40
2.0
 40
2.0
 40
2.0
 10
100.4042735678112
 20
174.5584525139455
 30
0.0
 10
100.4042735678112
 20
174.4544105616551
 30
0.0
 10
100.4885062079934
 20
174.3701779214729
 30
0.0
 10
100.592375905396
 20
174.3701779214729
 30
0.0
 10
100.592375905396
 20
174.3701779214729
 30
0.0
 10
100.592375905396
 20
174.3701779214729
 30
0.0
 10
100.592375905396
 20
174.3701779214729
 30
0.0
  0
ENDBLK
  5
294
330
291
100
AcDbEntity
  8
0
100
AcDbBlockEnd
  0
BLOCK
  5
299
330
297
100
AcDbEntity
  8
0
100
AcDbBlockBegin
  2
block 99
 70
     0
 71
     0
 10
0.0
 20
0.0
 30
0.0
  3
block 99
  1

  0
SPLINE
  5
29B
330
297
100
AcDbEntity
  8
OCULTO
  6
AI-Linetype-15
 62
     7
370
     9
100
AcDbSpline
210
0.0
220
0.0
230
1.0
 70
     8
 71
     3
 72
    11
 73
     7
 74
     0
 42
0.0000000001
 43
0.0000000001
 40
0.0
 40
0.0
 40
0.0
 40
0.0
 40
1.0
 40
1.0
 40
1.0
 40
2.0
 40
2.0
 40
2.0
 40
2.0
 10
100.592375905396
 20
179.545231518595
 30
0.0
 10
100.4885062079934
 20
179.545231518595
 30
0.0
 10
100.4042735678112
 20
179.4609988784129
 30
0.0
 10
100.4042735678112
 20
179.3571291810104
 30
0.0
 10
100.4042735678112
 20
179.3571291810104
 30
0.0
 10
100.4042735678112
 20
179.3571291810104
 30
0.0
 10
100.4042735678112
 20
179.3571291810104
 30
0.0
  0
ENDBLK
  5
29A
330
297
100
AcDbEntity
  8
0
100
AcDbBlockEnd
  0
BLOCK
  5
29F
330
29D
100
AcDbEntity
  8
0
100
AcDbBlockBegin
  2
block 100
 70
     0
 71
     0
 10
0.0
 20
0.0
 30
0.0
  3
block 100
  1

  0
POLYLINE
  5
2A1
330
29D
100
AcDbEntity
  8
OCULTO
  6
AI-Linetype-16
 62
     7
370
     9
100
AcDb2dPolyline
 66
     1
 10
0.0
 20
0.0
 30
0.0
  0
VERTEX
  5
2A2
330
2A1
100
AcDbEntity
  8
OCULTO
  6
AI-Linetype-16
 62
     7
370
     9
100
AcDbVertex
100
AcDb2dVertex
 10
100.4042735678112
 20
85.22241676802568
 30
0.0
  0
VERTEX
  5
2A3
330
2A1
100
AcDbEntity
  8
OCULTO
  6
AI-Linetype-16
 62
     7
370
     9
100
AcDbVertex
100
AcDb2dVertex
 10
100.4042735678112
 20
90.0210934350905
 30
0.0
  0
SEQEND
  5
2A4
330
2A1
100
AcDbEntity
  8
OCULTO
  6
AI-Linetype-16
370
     9
  0
ENDBLK
  5
2A0
330
29D
100
AcDbEntity
  8
0
100
AcDbBlockEnd
  0
BLOCK
  5
2A8
330
2A6
100
AcDbEntity
  8
0
100
AcDbBlockBegin
  2
block 101
 70
     0
 71
     0
 10
0.0
 20
0.0
 30
0.0
  3
block 101
  1

  0
POLYLINE
  5
2AA
330
2A6
100
AcDbEntity
  8
OCULTO
  6
AI-Linetype-17
 62
     7
370
     9
100
AcDb2dPolyline
 66
     1
 10
0.0
 20
0.0
 30
0.0
  0
VERTEX
  5
2AB
330
2AA
100
AcDbEntity
  8
OCULTO
  6
AI-Linetype-17
 62
     7
370
     9
100
AcDbVertex
100
AcDb2dVertex
 10
103.1913576540022
 20
85.03431443044097
 30
0.0
  0
VERTEX
  5
2AC
330
2AA
100
AcDbEntity
  8
OCULTO
  6
AI-Linetype-17
 62
     7
370
     9
100
AcDbVertex
100
AcDb2dVertex
 10
100.592375905396
 20
85.03431443044097
 30
0.0
  0
SEQEND
  5
2AD
330
2AA
100
AcDbEntity
  8
OCULTO
  6
AI-Linetype-17
370
     9
  0
ENDBLK
  5
2A9
330
2A6
100
AcDbEntity
  8
0
100
AcDbBlockEnd
  0
BLOCK
  5
2B1
330
2AF
100
AcDbEntity
  8
0
100
AcDbBlockBegin
  2
block 102
 70
     0
 71
     0
 10
0.0
 20
0.0
 30
0.0
  3
block 102
  1

  0
SPLINE
  5
2B3
330
2AF
100
AcDbEntity
  8
OCULTO
  6
AI-Linetype-18
 62
     7
370
     9
100
AcDbSpline
210
0.0
220
0.0
230
1.0
 70
     8
 71
     3
 72
    11
 73
     7
 74
     0
 42
0.0000000001
 43
0.0000000001
 40
0.0
 40
0.0
 40
0.0
 40
0.0
 40
1.0
 40
1.0
 40
1.0
 40
2.0
 40
2.0
 40
2.0
 40
2.0
 10
100.4042735678112
 20
85.22241676802568
 30
0.0
 10
100.4042735678112
 20
85.11837481573524
 30
0.0
 10
100.4885062079934
 20
85.03431443044097
 30
0.0
 10
100.592375905396
 20
85.03431443044097
 30
0.0
 10
100.592375905396
 20
85.03431443044097
 30
0.0
 10
100.592375905396
 20
85.03431443044097
 30
0.0
 10
100.592375905396
 20
85.03431443044097
 30
0.0
  0
ENDBLK
  5
2B2
330
2AF
100
AcDbEntity
  8
0
100
AcDbBlockEnd
  0
BLOCK
  5
2B7
330
2B5
100
AcDbEntity
  8
0
100
AcDbBlockBegin
  2
block 103
 70
     0
 71
     0
 10
0.0
 20
0.0
 30
0.0
  3
block 103
  1

  0
POLYLINE
  5
2B9
330
2B5
100
AcDbEntity
  8
OCULTO
  6
AI-Linetype-19
 62
     7
370
     9
100
AcDb2dPolyline
 66
     1
 10
0.0
 20
0.0
 30
0.0
  0
VERTEX
  5
2BA
330
2B9
100
AcDbEntity
  8
OCULTO
  6
AI-Linetype-19
 62
     7
370
     9
100
AcDbVertex
100
AcDb2dVertex
 10
100.4042735678112
 20
85.50457027440274
 30
0.0
  0
VERTEX
  5
2BB
330
2B9
100
AcDbEntity
  8
OCULTO
  6
AI-Linetype-19
 62
     7
370
     9
100
AcDbVertex
100
AcDb2dVertex
 10
98.99281701637435
 20
85.50457027440274
 30
0.0
  0
SEQEND
  5
2BC
330
2B9
100
AcDbEntity
  8
OCULTO
  6
AI-Linetype-19
370
     9
  0
ENDBLK
  5
2B8
330
2B5
100
AcDbEntity
  8
0
100
AcDbBlockEnd
  0
BLOCK
  5
2C0
330
2BE
100
AcDbEntity
  8
0
100
AcDbBlockBegin
  2
block 104
 70
     0
 71
     0
 10
0.0
 20
0.0
 30
0.0
  3
block 104
  1

  0
POLYLINE
  5
2C2
330
2BE
100
AcDbEntity
  8
OCULTO
  6
AI-Linetype-20
 62
     7
370
     9
100
AcDb2dPolyline
 66
     1
 10
0.0
 20
0.0
 30
0.0
  0
VERTEX
  5
2C3
330
2C2
100
AcDbEntity
  8
OCULTO
  6
AI-Linetype-20
 62
     7
370
     9
100
AcDbVertex
100
AcDb2dVertex
 10
103.1913576540022
 20
90.20919577267522
 30
0.0
  0
VERTEX
  5
2C4
330
2C2
100
AcDbEntity
  8
OCULTO
  6
AI-Linetype-20
 62
     7
370
     9
100
AcDbVertex
100
AcDb2dVertex
 10
100.592375905396
 20
90.20919577267522
 30
0.0
  0
SEQEND
  5
2C5
330
2C2
100
AcDbEntity
  8
OCULTO
  6
AI-Linetype-20
370
     9
  0
ENDBLK
  5
2C1
330
2BE
100
AcDbEntity
  8
0
100
AcDbBlockEnd
  0
BLOCK
  5
2C9
330
2C7
100
AcDbEntity
  8
0
100
AcDbBlockBegin
  2
block 105
 70
     0
 71
     0
 10
0.0
 20
0.0
 30
0.0
  3
block 105
  1

  0
SPLINE
  5
2CB
330
2C7
100
AcDbEntity
  8
OCULTO
  6
AI-Linetype-21
 62
     7
370
     9
100
AcDbSpline
210
0.0
220
0.0
230
1.0
 70
     8
 71
     3
 72
    11
 73
     7
 74
     0
 42
0.0000000001
 43
0.0000000001
 40
0.0
 40
0.0
 40
0.0
 40
0.0
 40
1.0
 40
1.0
 40
1.0
 40
2.0
 40
2.0
 40
2.0
 40
2.0
 10
100.592375905396
 20
90.20919577267522
 30
0.0
 10
100.4885062079934
 20
90.20919577267522
 30
0.0
 10
100.4042735678112
 20
90.12513538738095
 30
0.0
 10
100.4042735678112
 20
90.0210934350905
 30
0.0
 10
100.4042735678112
 20
90.0210934350905
 30
0.0
 10
100.4042735678112
 20
90.0210934350905
 30
0.0
 10
100.4042735678112
 20
90.0210934350905
 30
0.0
  0
ENDBLK
  5
2CA
330
2C7
100
AcDbEntity
  8
0
100
AcDbBlockEnd
  0
BLOCK
  5
2CF
330
2CD
100
AcDbEntity
  8
0
100
AcDbBlockBegin
  2
block 106
 70
     0
 71
     0
 10
0.0
 20
0.0
 30
0.0
  3
block 106
  1

  0
POLYLINE
  5
2D1
330
2CD
100
AcDbEntity
  8
OCULTO
  6
AI-Linetype-22
 62
     7
370
     9
100
AcDb2dPolyline
 66
     1
 10
0.0
 20
0.0
 30
0.0
  0
VERTEX
  5
2D2
330
2D1
100
AcDbEntity
  8
OCULTO
  6
AI-Linetype-22
 62
     7
370
     9
100
AcDbVertex
100
AcDb2dVertex
 10
100.4042735678112
 20
89.73893992871345
 30
0.0
  0
VERTEX
  5
2D3
330
2D1
100
AcDbEntity
  8
OCULTO
  6
AI-Linetype-22
 62
     7
370
     9
100
AcDbVertex
100
AcDb2dVertex
 10
98.99281701637435
 20
89.71482424440772
 30
0.0
  0
SEQEND
  5
2D4
330
2D1
100
AcDbEntity
  8
OCULTO
  6
AI-Linetype-22
370
     9
  0
ENDBLK
  5
2D0
330
2CD
100
AcDbEntity
  8
0
100
AcDbBlockEnd
  0
BLOCK
  5
2D9
330
2D7
100
AcDbEntity
  8
0
100
AcDbBlockBegin
  2
block 107
 70
     0
 71
     0
 10
0.0
 20
0.0
 30
0.0
  3
block 107
  1

  0
POLYLINE
  5
2DB
330
2D7
100
AcDbEntity
  8
SOMBREA
 62
     7
370
     9
100
AcDb2dPolyline
 66
     1
 10
0.0
 20
0.0
 30
0.0
  0
VERTEX
  5
2DC
330
2DB
100
AcDbEntity
  8
SOMBREA
 62
     7
370
     9
100
AcDbVertex
100
AcDb2dVertex
 10
103.2270144157972
 20
174.3627709612933
 30
0.0
  0
VERTEX
  5
2DD
330
2DB
100
AcDbEntity
  8
SOMBREA
 62
     7
370
     9
100
AcDbVertex
100
AcDb2dVertex
 10
103.2194352007296
 20
174.3701779214729
 30
0.0
  0
SEQEND
  5
2DE
330
2DB
100
AcDbEntity
  8
SOMBREA
370
     9
  0
ENDBLK
  5
2DA
330
2D7
100
AcDbEntity
  8
0
100
AcDbBlockEnd
  0
BLOCK
  5
2E2
330
2E0
100
AcDbEntity
  8
0
100
AcDbBlockBegin
  2
block 108
 70
     0
 71
     0
 10
0.0
 20
0.0
 30
0.0
  3
block 108
  1

  0
SPLINE
  5
2E4
330
2E0
100
AcDbEntity
  8
COTAS
 62
     7
370
     9
100
AcDbSpline
210
0.0
220
0.0
230
1.0
 70
     8
 71
     3
 72
     8
 73
     4
 74
     0
 42
0.0000000001
 43
0.0000000001
 40
0.0
 40
0.0
 40
0.0
 40
0.0
 40
1.0
 40
1.0
 40
1.0
 40
1.0
 10
170.5288939213456
 20
162.3066513573064
 30
0.0
 10
172.0771208537736
 20
162.2336152848376
 30
0.0
 10
174.7205443634576
 20
162.7538250462898
 30
0.0
 10
176.1254552291544
 20
163.4080491105267
 30
0.0
  0
ENDBLK
  5
2E3
330
2E0
100
AcDbEntity
  8
0
100
AcDbBlockEnd
  0
BLOCK
  5
2E7
330
2E5
100
AcDbEntity
  8
0
100
AcDbBlockBegin
  2
block 109
 70
     0
 71
     0
 10
0.0
 20
0.0
 30
0.0
  3
block 109
  1

  0
SPLINE
  5
2E9
330
2E5
100
AcDbEntity
  8
COTAS
 62
     7
370
     9
100
AcDbSpline
210
0.0
220
0.0
230
1.0
 70
     8
 71
     3
 72
     8
 73
     4
 74
     0
 42
0.0000000001
 43
0.0000000001
 40
0.0
 40
0.0
 40
0.0
 40
0.0
 40
1.0
 40
1.0
 40
1.0
 40
1.0
 10
100.3190073983017
 20
165.7682855845063
 30
0.0
 10
100.0843962409845
 20
163.7751242766375
 30
0.0
 10
100.4151256257488
 20
160.2313244679102
 30
0.0
 10
101.0144003807463
 20
158.3160223693714
 30
0.0
  0
ENDBLK
  5
2E8
330
2E5
100
AcDbEntity
  8
0
100
AcDbBlockEnd
  0
BLOCK
  5
2EC
330
2EA
100
AcDbEntity
  8
0
100
AcDbBlockBegin
  2
block 110
 70
     0
 71
     0
 10
0.0
 20
0.0
 30
0.0
  3
block 110
  1

  0
INSERT
  5
2EF
330
2EA
100
AcDbEntity
  8
COTAS
100
AcDbBlockReference
  2
block 111
 10
0.0
 20
0.0
 30
0.0
  0
INSERT
  5
2F7
330
2EA
100
AcDbEntity
  8
COTAS
100
AcDbBlockReference
  2
block 112
 10
0.0
 20
0.0
 30
0.0
  0
INSERT
  5
2FF
330
2EA
100
AcDbEntity
  8
COTAS
100
AcDbBlockReference
  2
block 113
 10
0.0
 20
0.0
 30
0.0
  0
INSERT
  5
307
330
2EA
100
AcDbEntity
  8
COTAS
100
AcDbBlockReference
  2
block 114
 10
0.0
 20
0.0
 30
0.0
  0
INSERT
  5
312
330
2EA
100
AcDbEntity
  8
COTAS
100
AcDbBlockReference
  2
block 115
 10
0.0
 20
0.0
 30
0.0
  0
INSERT
  5
31D
330
2EA
100
AcDbEntity
  8
COTAS
100
AcDbBlockReference
  2
block 116
 10
0.0
 20
0.0
 30
0.0
  0
INSERT
  5
322
330
2EA
100
AcDbEntity
  8
COTAS
100
AcDbBlockReference
  2
block 117
 10
0.0
 20
0.0
 30
0.0
  0
INSERT
  5
32A
330
2EA
100
AcDbEntity
  8
COTAS
100
AcDbBlockReference
  2
block 118
 10
0.0
 20
0.0
 30
0.0
  0
INSERT
  5
332
330
2EA
100
AcDbEntity
  8
COTAS
100
AcDbBlockReference
  2
block 119
 10
0.0
 20
0.0
 30
0.0
  0
ENDBLK
  5
2ED
330
2EA
100
AcDbEntity
  8
0
100
AcDbBlockEnd
  0
BLOCK
  5
2F0
330
2EE
100
AcDbEntity
  8
0
100
AcDbBlockBegin
  2
block 111
 70
     0
 71
     0
 10
0.0
 20
0.0
 30
0.0
  3
block 111
  1

  0
POLYLINE
  5
2F2
330
2EE
100
AcDbEntity
  8
COTAS
 62
     7
370
     9
100
AcDb2dPolyline
 66
     1
 10
0.0
 20
0.0
 30
0.0
  0
VERTEX
  5
2F3
330
2F2
100
AcDbEntity
  8
COTAS
 62
     7
370
     9
100
AcDbVertex
100
AcDb2dVertex
 10
70.76489177185155
 20
145.2013964792508
 30
0.0
  0
VERTEX
  5
2F4
330
2F2
100
AcDbEntity
  8
COTAS
 62
     7
370
     9
100
AcDbVertex
100
AcDb2dVertex
 10
49.1970295130203
 20
145.2013964792508
 30
0.0
  0
SEQEND
  5
2F5
330
2F2
100
AcDbEntity
  8
COTAS
370
     9
  0
ENDBLK
  5
2F1
330
2EE
100
AcDbEntity
  8
0
100
AcDbBlockEnd
  0
BLOCK
  5
2F8
330
2F6
100
AcDbEntity
  8
0
100
AcDbBlockBegin
  2
block 112
 70
     0
 71
     0
 10
0.0
 20
0.0
 30
0.0
  3
block 112
  1

  0
POLYLINE
  5
2FA
330
2F6
100
AcDbEntity
  8
COTAS
 62
     7
370
     9
100
AcDb2dPolyline
 66
     1
 10
0.0
 20
0.0
 30
0.0
  0
VERTEX
  5
2FB
330
2FA
100
AcDbEntity
  8
COTAS
 62
     7
370
     9
100
AcDbVertex
100
AcDb2dVertex
 10
58.92460754240092
 20
180.956688070032
 30
0.0
  0
VERTEX
  5
2FC
330
2FA
100
AcDbEntity
  8
COTAS
 62
     7
370
     9
100
AcDbVertex
100
AcDb2dVertex
 10
49.1970295130203
 20
180.956688070032
 30
0.0
  0
SEQEND
  5
2FD
330
2FA
100
AcDbEntity
  8
COTAS
370
     9
  0
ENDBLK
  5
2F9
330
2F6
100
AcDbEntity
  8
0
100
AcDbBlockEnd
  0
BLOCK
  5
300
330
2FE
100
AcDbEntity
  8
0
100
AcDbBlockBegin
  2
block 113
 70
     0
 71
     0
 10
0.0
 20
0.0
 30
0.0
  3
block 113
  1

  0
POLYLINE
  5
302
330
2FE
100
AcDbEntity
  8
COTAS
 62
     7
370
     9
100
AcDb2dPolyline
 66
     1
 10
0.0
 20
0.0
 30
0.0
  0
VERTEX
  5
303
330
302
100
AcDbEntity
  8
COTAS
 62
     7
370
     9
100
AcDbVertex
100
AcDb2dVertex
 10
51.07891416330687
 20
148.0241373272367
 30
0.0
  0
VERTEX
  5
304
330
302
100
AcDbEntity
  8
COTAS
 62
     7
370
     9
100
AcDbVertex
100
AcDb2dVertex
 10
51.07891416330687
 20
178.133947222046
 30
0.0
  0
SEQEND
  5
305
330
302
100
AcDbEntity
  8
COTAS
370
     9
  0
ENDBLK
  5
301
330
2FE
100
AcDbEntity
  8
0
100
AcDbBlockEnd
  0
BLOCK
  5
308
330
306
100
AcDbEntity
  8
0
100
AcDbBlockBegin
  2
block 114
 70
     0
 71
     0
 10
0.0
 20
0.0
 30
0.0
  3
block 114
  1

  0
POLYLINE
  5
30A
330
306
100
AcDbEntity
  8
COTAS
370
     0
100
AcDb2dPolyline
 66
     1
 10
0.0
 20
0.0
 30
0.0
  0
VERTEX
  5
30B
330
30A
100
AcDbEntity
  8
COTAS
370
     0
100
AcDbVertex
100
AcDb2dVertex
 10
50.6084860644572
 20
148.0241373272367
 30
0.0
  0
VERTEX
  5
30C
330
30A
100
AcDbEntity
  8
COTAS
370
     0
100
AcDbVertex
100
AcDb2dVertex
 10
51.54934226215654
 20
148.0241373272367
 30
0.0
  0
VERTEX
  5
30D
330
30A
100
AcDbEntity
  8
COTAS
370
     0
100
AcDbVertex
100
AcDb2dVertex
 10
51.07891416330687
 20
145.2013964792508
 30
0.0
  0
VERTEX
  5
30E
330
30A
100
AcDbEntity
  8
COTAS
370
     0
100
AcDbVertex
100
AcDb2dVertex
 10
50.6084860644572
 20
148.0241373272367
 30
0.0
  0
SEQEND
  5
30F
330
30A
100
AcDbEntity
  8
COTAS
370
     0
  0
HATCH
  5
310
330
306
100
AcDbEntity
  8
COTAS
 62
     7
100
AcDbHatch
 10
0.0
 20
0.0
 30
0.0
210
0.0
220
0.0
230
1.0
  2
SOLID
 70
     1
 71
     0
 91
        1
 92
        1
 93
        3
 72
     1
 10
50.6084860644572
 20
148.0241373272367
 11
51.54934226215654
 21
148.0241373272367
 72
     1
 10
51.54934226215654
 20
148.0241373272367
 11
51.07891416330687
 21
145.2013964792508
 72
     1
 10
51.07891416330687
 20
145.2013964792508
 11
50.6084860644572
 21
148.0241373272367
 97
        0
 75
     2
 76
     1
 98
        0
  0
ENDBLK
  5
309
330
306
100
AcDbEntity
  8
0
100
AcDbBlockEnd
  0
BLOCK
  5
313
330
311
100
AcDbEntity
  8
0
100
AcDbBlockBegin
  2
block 115
 70
     0
 71
     0
 10
0.0
 20
0.0
 30
0.0
  3
block 115
  1

  0
POLYLINE
  5
315
330
311
100
AcDbEntity
  8
COTAS
370
     0
100
AcDb2dPolyline
 66
     1
 10
0.0
 20
0.0
 30
0.0
  0
VERTEX
  5
316
330
315
100
AcDbEntity
  8
COTAS
370
     0
100
AcDbVertex
100
AcDb2dVertex
 10
50.6084860644572
 20
178.133947222046
 30
0.0
  0
VERTEX
  5
317
330
315
100
AcDbEntity
  8
COTAS
370
     0
100
AcDbVertex
100
AcDb2dVertex
 10
51.54934226215654
 20
178.133947222046
 30
0.0
  0
VERTEX
  5
318
330
315
100
AcDbEntity
  8
COTAS
370
     0
100
AcDbVertex
100
AcDb2dVertex
 10
51.07891416330687
 20
180.956688070032
 30
0.0
  0
VERTEX
  5
319
330
315
100
AcDbEntity
  8
COTAS
370
     0
100
AcDbVertex
100
AcDb2dVertex
 10
50.6084860644572
 20
178.133947222046
 30
0.0
  0
SEQEND
  5
31A
330
315
100
AcDbEntity
  8
COTAS
370
     0
  0
HATCH
  5
31B
330
311
100
AcDbEntity
  8
COTAS
 62
     7
100
AcDbHatch
 10
0.0
 20
0.0
 30
0.0
210
0.0
220
0.0
230
1.0
  2
SOLID
 70
     1
 71
     0
 91
        1
 92
        1
 93
        3
 72
     1
 10
50.6084860644572
 20
178.133947222046
 11
51.54934226215654
 21
178.133947222046
 72
     1
 10
51.54934226215654
 20
178.133947222046
 11
51.07891416330687
 21
180.956688070032
 72
     1
 10
51.07891416330687
 20
180.956688070032
 11
50.6084860644572
 21
178.133947222046
 97
        0
 75
     2
 76
     1
 98
        0
  0
ENDBLK
  5
314
330
311
100
AcDbEntity
  8
0
100
AcDbBlockEnd
  0
BLOCK
  5
31E
330
31C
100
AcDbEntity
  8
0
100
AcDbBlockBegin
  2
block 116
 70
     0
 71
     0
 10
0.0
 20
0.0
 30
0.0
  3
block 116
  1

  0
MTEXT
  5
320
330
31C
100
AcDbEntity
  8
COTAS
 62
     7
100
AcDbMText
 10
50.13788571071964
 20
160.1064396741841
 30
0.0
 40
2.398890470823883
 41
0.0
 71
     7
 72
     1
  1
\fArial|b1|i0|c0|p34;\W1;380
 11
-4.371139000186241E-8
 21
0.999999999999999
 31
0.0
 73
     1
 44
1.0
  0
ENDBLK
  5
31F
330
31C
100
AcDbEntity
  8
0
100
AcDbBlockEnd
  0
BLOCK
  5
323
330
321
100
AcDbEntity
  8
0
100
AcDbBlockBegin
  2
block 117
 70
     0
 71
     0
 10
0.0
 20
0.0
 30
0.0
  3
block 117
  1

  0
POLYLINE
  5
325
330
321
100
AcDbEntity
  8
COTAS
 62
     7
370
     9
100
AcDb2dPolyline
 66
     1
 10
0.0
 20
0.0
 30
0.0
  0
VERTEX
  5
326
330
325
100
AcDbEntity
  8
COTAS
 62
     7
370
     9
100
AcDbVertex
100
AcDb2dVertex
 10
71.70592022443878
 20
145.2013964792508
 30
0.0
  0
VERTEX
  5
327
330
325
100
AcDbEntity
  8
COTAS
 62
     7
370
     9
100
AcDbVertex
100
AcDb2dVertex
 10
71.70592022443878
 20
145.2013964792508
 30
0.0
  0
SEQEND
  5
328
330
325
100
AcDbEntity
  8
COTAS
370
     9
  0
ENDBLK
  5
324
330
321
100
AcDbEntity
  8
0
100
AcDbBlockEnd
  0
BLOCK
  5
32B
330
329
100
AcDbEntity
  8
0
100
AcDbBlockBegin
  2
block 118
 70
     0
 71
     0
 10
0.0
 20
0.0
 30
0.0
  3
block 118
  1

  0
POLYLINE
  5
32D
330
329
100
AcDbEntity
  8
COTAS
 62
     7
370
     9
100
AcDb2dPolyline
 66
     1
 10
0.0
 20
0.0
 30
0.0
  0
VERTEX
  5
32E
330
32D
100
AcDbEntity
  8
COTAS
 62
     7
370
     9
100
AcDbVertex
100
AcDb2dVertex
 10
59.86546374010026
 20
180.956688070032
 30
0.0
  0
VERTEX
  5
32F
330
32D
100
AcDbEntity
  8
COTAS
 62
     7
370
     9
100
AcDbVertex
100
AcDb2dVertex
 10
59.86546374010026
 20
180.956688070032
 30
0.0
  0
SEQEND
  5
330
330
32D
100
AcDbEntity
  8
COTAS
370
     9
  0
ENDBLK
  5
32C
330
329
100
AcDbEntity
  8
0
100
AcDbBlockEnd
  0
BLOCK
  5
333
330
331
100
AcDbEntity
  8
0
100
AcDbBlockBegin
  2
block 119
 70
     0
 71
     0
 10
0.0
 20
0.0
 30
0.0
  3
block 119
  1

  0
POLYLINE
  5
335
330
331
100
AcDbEntity
  8
COTAS
 62
     7
370
     9
100
AcDb2dPolyline
 66
     1
 10
0.0
 20
0.0
 30
0.0
  0
VERTEX
  5
336
330
335
100
AcDbEntity
  8
COTAS
 62
     7
370
     9
100
AcDbVertex
100
AcDb2dVertex
 10
51.07891416330687
 20
180.956688070032
 30
0.0
  0
VERTEX
  5
337
330
335
100
AcDbEntity
  8
COTAS
 62
     7
370
     9
100
AcDbVertex
100
AcDb2dVertex
 10
51.07891416330687
 20
180.956688070032
 30
0.0
  0
SEQEND
  5
338
330
335
100
AcDbEntity
  8
COTAS
370
     9
  0
ENDBLK
  5
334
330
331
100
AcDbEntity
  8
0
100
AcDbBlockEnd
  0
BLOCK
  5
33B
330
339
100
AcDbEntity
  8
0
100
AcDbBlockBegin
  2
block 120
 70
     0
 71
     0
 10
0.0
 20
0.0
 30
0.0
  3
block 120
  1

  0
INSERT
  5
33E
330
339
100
AcDbEntity
  8
COTAS
100
AcDbBlockReference
  2
block 121
 10
0.0
 20
0.0
 30
0.0
  0
INSERT
  5
346
330
339
100
AcDbEntity
  8
COTAS
100
AcDbBlockReference
  2
block 122
 10
0.0
 20
0.0
 30
0.0
  0
INSERT
  5
34E
330
339
100
AcDbEntity
  8
COTAS
100
AcDbBlockReference
  2
block 123
 10
0.0
 20
0.0
 30
0.0
  0
INSERT
  5
356
330
339
100
AcDbEntity
  8
COTAS
100
AcDbBlockReference
  2
block 124
 10
0.0
 20
0.0
 30
0.0
  0
INSERT
  5
35E
330
339
100
AcDbEntity
  8
COTAS
100
AcDbBlockReference
  2
block 125
 10
0.0
 20
0.0
 30
0.0
  0
INSERT
  5
366
330
339
100
AcDbEntity
  8
COTAS
100
AcDbBlockReference
  2
block 126
 10
0.0
 20
0.0
 30
0.0
  0
INSERT
  5
371
330
339
100
AcDbEntity
  8
COTAS
100
AcDbBlockReference
  2
block 127
 10
0.0
 20
0.0
 30
0.0
  0
INSERT
  5
37C
330
339
100
AcDbEntity
  8
COTAS
100
AcDbBlockReference
  2
block 128
 10
0.0
 20
0.0
 30
0.0
  0
INSERT
  5
381
330
339
100
AcDbEntity
  8
COTAS
100
AcDbBlockReference
  2
block 129
 10
0.0
 20
0.0
 30
0.0
  0
INSERT
  5
389
330
339
100
AcDbEntity
  8
COTAS
100
AcDbBlockReference
  2
block 130
 10
0.0
 20
0.0
 30
0.0
  0
INSERT
  5
391
330
339
100
AcDbEntity
  8
COTAS
100
AcDbBlockReference
  2
block 131
 10
0.0
 20
0.0
 30
0.0
  0
ENDBLK
  5
33C
330
339
100
AcDbEntity
  8
0
100
AcDbBlockEnd
  0
BLOCK
  5
33F
330
33D
100
AcDbEntity
  8
0
100
AcDbBlockBegin
  2
block 121
 70
     0
 71
     0
 10
0.0
 20
0.0
 30
0.0
  3
block 121
  1

  0
POLYLINE
  5
341
330
33D
100
AcDbEntity
  8
COTAS
 62
     7
370
     9
100
AcDb2dPolyline
 66
     1
 10
0.0
 20
0.0
 30
0.0
  0
VERTEX
  5
342
330
341
100
AcDbEntity
  8
COTAS
 62
     7
370
     9
100
AcDbVertex
100
AcDb2dVertex
 10
103.2270144157972
 20
180.4862599711823
 30
0.0
  0
VERTEX
  5
343
330
341
100
AcDbEntity
  8
COTAS
 62
     7
370
     9
100
AcDbVertex
100
AcDb2dVertex
 10
103.2270144157972
 20
189.0833291712878
 30
0.0
  0
SEQEND
  5
344
330
341
100
AcDbEntity
  8
COTAS
370
     9
  0
ENDBLK
  5
340
330
33D
100
AcDbEntity
  8
0
100
AcDbBlockEnd
  0
BLOCK
  5
347
330
345
100
AcDbEntity
  8
0
100
AcDbBlockBegin
  2
block 122
 70
     0
 71
     0
 10
0.0
 20
0.0
 30
0.0
  3
block 122
  1

  0
POLYLINE
  5
349
330
345
100
AcDbEntity
  8
COTAS
 62
     7
370
     9
100
AcDb2dPolyline
 66
     1
 10
0.0
 20
0.0
 30
0.0
  0
VERTEX
  5
34A
330
349
100
AcDbEntity
  8
COTAS
 62
     7
370
     9
100
AcDbVertex
100
AcDb2dVertex
 10
100.4042735678112
 20
180.2979853787097
 30
0.0
  0
VERTEX
  5
34B
330
349
100
AcDbEntity
  8
COTAS
 62
     7
370
     9
100
AcDbVertex
100
AcDb2dVertex
 10
100.4042735678112
 20
189.0833291712878
 30
0.0
  0
SEQEND
  5
34C
330
349
100
AcDbEntity
  8
COTAS
370
     9
  0
ENDBLK
  5
348
330
345
100
AcDbEntity
  8
0
100
AcDbBlockEnd
  0
BLOCK
  5
34F
330
34D
100
AcDbEntity
  8
0
100
AcDbBlockBegin
  2
block 123
 70
     0
 71
     0
 10
0.0
 20
0.0
 30
0.0
  3
block 123
  1

  0
POLYLINE
  5
351
330
34D
100
AcDbEntity
  8
COTAS
 62
     7
370
     9
100
AcDb2dPolyline
 66
     1
 10
0.0
 20
0.0
 30
0.0
  0
VERTEX
  5
352
330
351
100
AcDbEntity
  8
COTAS
 62
     7
370
     9
100
AcDbVertex
100
AcDb2dVertex
 10
106.0497552637831
 20
187.2014445210012
 30
0.0
  0
VERTEX
  5
353
330
351
100
AcDbEntity
  8
COTAS
 62
     7
370
     9
100
AcDbVertex
100
AcDb2dVertex
 10
108.8726683666569
 20
187.2014445210012
 30
0.0
  0
SEQEND
  5
354
330
351
100
AcDbEntity
  8
COTAS
370
     9
  0
ENDBLK
  5
350
330
34D
100
AcDbEntity
  8
0
100
AcDbBlockEnd
  0
BLOCK
  5
357
330
355
100
AcDbEntity
  8
0
100
AcDbBlockBegin
  2
block 124
 70
     0
 71
     0
 10
0.0
 20
0.0
 30
0.0
  3
block 124
  1

  0
POLYLINE
  5
359
330
355
100
AcDbEntity
  8
COTAS
 62
     7
370
     9
100
AcDb2dPolyline
 66
     1
 10
0.0
 20
0.0
 30
0.0
  0
VERTEX
  5
35A
330
359
100
AcDbEntity
  8
COTAS
 62
     7
370
     9
100
AcDbVertex
100
AcDb2dVertex
 10
97.58136046493743
 20
187.2014445210012
 30
0.0
  0
VERTEX
  5
35B
330
359
100
AcDbEntity
  8
COTAS
 62
     7
370
     9
100
AcDbVertex
100
AcDb2dVertex
 10
90.28739949178095
 20
187.2014445210012
 30
0.0
  0
SEQEND
  5
35C
330
359
100
AcDbEntity
  8
COTAS
370
     9
  0
ENDBLK
  5
358
330
355
100
AcDbEntity
  8
0
100
AcDbBlockEnd
  0
BLOCK
  5
35F
330
35D
100
AcDbEntity
  8
0
100
AcDbBlockBegin
  2
block 125
 70
     0
 71
     0
 10
0.0
 20
0.0
 30
0.0
  3
block 125
  1

  0
POLYLINE
  5
361
330
35D
100
AcDbEntity
  8
COTAS
 62
     7
370
     9
100
AcDb2dPolyline
 66
     1
 10
0.0
 20
0.0
 30
0.0
  0
VERTEX
  5
362
330
361
100
AcDbEntity
  8
COTAS
 62
     7
370
     9
100
AcDbVertex
100
AcDb2dVertex
 10
103.2270144157972
 20
187.2014445210012
 30
0.0
  0
VERTEX
  5
363
330
361
100
AcDbEntity
  8
COTAS
 62
     7
370
     9
100
AcDbVertex
100
AcDb2dVertex
 10
100.4042735678112
 20
187.2014445210012
 30
0.0
  0
SEQEND
  5
364
330
361
100
AcDbEntity
  8
COTAS
370
     9
  0
ENDBLK
  5
360
330
35D
100
AcDbEntity
  8
0
100
AcDbBlockEnd
  0
BLOCK
  5
367
330
365
100
AcDbEntity
  8
0
100
AcDbBlockBegin
  2
block 126
 70
     0
 71
     0
 10
0.0
 20
0.0
 30
0.0
  3
block 126
  1

  0
POLYLINE
  5
369
330
365
100
AcDbEntity
  8
COTAS
370
     0
100
AcDb2dPolyline
 66
     1
 10
0.0
 20
0.0
 30
0.0
  0
VERTEX
  5
36A
330
369
100
AcDbEntity
  8
COTAS
370
     0
100
AcDbVertex
100
AcDb2dVertex
 10
106.0497552637831
 20
187.6718726198509
 30
0.0
  0
VERTEX
  5
36B
330
369
100
AcDbEntity
  8
COTAS
370
     0
100
AcDbVertex
100
AcDb2dVertex
 10
106.0497552637831
 20
186.7310164221515
 30
0.0
  0
VERTEX
  5
36C
330
369
100
AcDbEntity
  8
COTAS
370
     0
100
AcDbVertex
100
AcDb2dVertex
 10
103.2270144157972
 20
187.2014445210012
 30
0.0
  0
VERTEX
  5
36D
330
369
100
AcDbEntity
  8
COTAS
370
     0
100
AcDbVertex
100
AcDb2dVertex
 10
106.0497552637831
 20
187.6718726198509
 30
0.0
  0
SEQEND
  5
36E
330
369
100
AcDbEntity
  8
COTAS
370
     0
  0
HATCH
  5
36F
330
365
100
AcDbEntity
  8
COTAS
 62
     7
100
AcDbHatch
 10
0.0
 20
0.0
 30
0.0
210
0.0
220
0.0
230
1.0
  2
SOLID
 70
     1
 71
     0
 91
        1
 92
        1
 93
        3
 72
     1
 10
106.0497552637831
 20
187.6718726198509
 11
106.0497552637831
 21
186.7310164221515
 72
     1
 10
106.0497552637831
 20
186.7310164221515
 11
103.2270144157972
 21
187.2014445210012
 72
     1
 10
103.2270144157972
 20
187.2014445210012
 11
106.0497552637831
 21
187.6718726198509
 97
        0
 75
     2
 76
     1
 98
        0
  0
ENDBLK
  5
368
330
365
100
AcDbEntity
  8
0
100
AcDbBlockEnd
  0
BLOCK
  5
372
330
370
100
AcDbEntity
  8
0
100
AcDbBlockBegin
  2
block 127
 70
     0
 71
     0
 10
0.0
 20
0.0
 30
0.0
  3
block 127
  1

  0
POLYLINE
  5
374
330
370
100
AcDbEntity
  8
COTAS
370
     0
100
AcDb2dPolyline
 66
     1
 10
0.0
 20
0.0
 30
0.0
  0
VERTEX
  5
375
330
374
100
AcDbEntity
  8
COTAS
370
     0
100
AcDbVertex
100
AcDb2dVertex
 10
97.58136046493743
 20
187.6718726198509
 30
0.0
  0
VERTEX
  5
376
330
374
100
AcDbEntity
  8
COTAS
370
     0
100
AcDbVertex
100
AcDb2dVertex
 10
97.58136046493743
 20
186.7310164221515
 30
0.0
  0
VERTEX
  5
377
330
374
100
AcDbEntity
  8
COTAS
370
     0
100
AcDbVertex
100
AcDb2dVertex
 10
100.4042735678112
 20
187.2014445210012
 30
0.0
  0
VERTEX
  5
378
330
374
100
AcDbEntity
  8
COTAS
370
     0
100
AcDbVertex
100
AcDb2dVertex
 10
97.58136046493743
 20
187.6718726198509
 30
0.0
  0
SEQEND
  5
379
330
374
100
AcDbEntity
  8
COTAS
370
     0
  0
HATCH
  5
37A
330
370
100
AcDbEntity
  8
COTAS
 62
     7
100
AcDbHatch
 10
0.0
 20
0.0
 30
0.0
210
0.0
220
0.0
230
1.0
  2
SOLID
 70
     1
 71
     0
 91
        1
 92
        1
 93
        3
 72
     1
 10
97.58136046493743
 20
187.6718726198509
 11
97.58136046493743
 21
186.7310164221515
 72
     1
 10
97.58136046493743
 20
186.7310164221515
 11
100.4042735678112
 21
187.2014445210012
 72
     1
 10
100.4042735678112
 20
187.2014445210012
 11
97.58136046493743
 21
187.6718726198509
 97
        0
 75
     2
 76
     1
 98
        0
  0
ENDBLK
  5
373
330
370
100
AcDbEntity
  8
0
100
AcDbBlockEnd
  0
BLOCK
  5
37D
330
37B
100
AcDbEntity
  8
0
100
AcDbBlockBegin
  2
block 128
 70
     0
 71
     0
 10
0.0
 20
0.0
 30
0.0
  3
block 128
  1

  0
MTEXT
  5
37F
330
37B
100
AcDbEntity
  8
COTAS
 62
     7
100
AcDbMText
 10
90.2827486098077
 20
188.1423007187005
 30
0.0
 40
2.398890470823883
 41
0.0
 71
     7
 72
     1
  1
\fArial|b1|i0|c0|p34;\W1;30
 73
     1
 44
1.0
  0
ENDBLK
  5
37E
330
37B
100
AcDbEntity
  8
0
100
AcDbBlockEnd
  0
BLOCK
  5
382
330
380
100
AcDbEntity
  8
0
100
AcDbBlockBegin
  2
block 129
 70
     0
 71
     0
 10
0.0
 20
0.0
 30
0.0
  3
block 129
  1

  0
POLYLINE
  5
384
330
380
100
AcDbEntity
  8
COTAS
 62
     7
370
     9
100
AcDb2dPolyline
 66
     1
 10
0.0
 20
0.0
 30
0.0
  0
VERTEX
  5
385
330
384
100
AcDbEntity
  8
COTAS
 62
     7
370
     9
100
AcDbVertex
100
AcDb2dVertex
 10
103.2270144157972
 20
179.545231518595
 30
0.0
  0
VERTEX
  5
386
330
384
100
AcDbEntity
  8
COTAS
 62
     7
370
     9
100
AcDbVertex
100
AcDb2dVertex
 10
103.2270144157972
 20
179.545231518595
 30
0.0
  0
SEQEND
  5
387
330
384
100
AcDbEntity
  8
COTAS
370
     9
  0
ENDBLK
  5
383
330
380
100
AcDbEntity
  8
0
100
AcDbBlockEnd
  0
BLOCK
  5
38A
330
388
100
AcDbEntity
  8
0
100
AcDbBlockBegin
  2
block 130
 70
     0
 71
     0
 10
0.0
 20
0.0
 30
0.0
  3
block 130
  1

  0
POLYLINE
  5
38C
330
388
100
AcDbEntity
  8
COTAS
 62
     7
370
     9
100
AcDb2dPolyline
 66
     1
 10
0.0
 20
0.0
 30
0.0
  0
VERTEX
  5
38D
330
38C
100
AcDbEntity
  8
COTAS
 62
     7
370
     9
100
AcDbVertex
100
AcDb2dVertex
 10
100.4042735678112
 20
179.3571291810104
 30
0.0
  0
VERTEX
  5
38E
330
38C
100
AcDbEntity
  8
COTAS
 62
     7
370
     9
100
AcDbVertex
100
AcDb2dVertex
 10
100.4042735678112
 20
179.3571291810104
 30
0.0
  0
SEQEND
  5
38F
330
38C
100
AcDbEntity
  8
COTAS
370
     9
  0
ENDBLK
  5
38B
330
388
100
AcDbEntity
  8
0
100
AcDbBlockEnd
  0
BLOCK
  5
392
330
390
100
AcDbEntity
  8
0
100
AcDbBlockBegin
  2
block 131
 70
     0
 71
     0
 10
0.0
 20
0.0
 30
0.0
  3
block 131
  1

  0
POLYLINE
  5
394
330
390
100
AcDbEntity
  8
COTAS
 62
     7
370
     9
100
AcDb2dPolyline
 66
     1
 10
0.0
 20
0.0
 30
0.0
  0
VERTEX
  5
395
330
394
100
AcDbEntity
  8
COTAS
 62
     7
370
     9
100
AcDbVertex
100
AcDb2dVertex
 10
100.4042735678112
 20
187.2014445210012
 30
0.0
  0
VERTEX
  5
396
330
394
100
AcDbEntity
  8
COTAS
 62
     7
370
     9
100
AcDbVertex
100
AcDb2dVertex
 10
100.4042735678112
 20
187.2014445210012
 30
0.0
  0
SEQEND
  5
397
330
394
100
AcDbEntity
  8
COTAS
370
     9
  0
ENDBLK
  5
393
330
390
100
AcDbEntity
  8
0
100
AcDbBlockEnd
  0
BLOCK
  5
39A
330
398
100
AcDbEntity
  8
0
100
AcDbBlockBegin
  2
block 132
 70
     0
 71
     0
 10
0.0
 20
0.0
 30
0.0
  3
block 132
  1

  0
INSERT
  5
39D
330
398
100
AcDbEntity
  8
COTAS
100
AcDbBlockReference
  2
block 133
 10
0.0
 20
0.0
 30
0.0
  0
INSERT
  5
3A5
330
398
100
AcDbEntity
  8
COTAS
100
AcDbBlockReference
  2
block 134
 10
0.0
 20
0.0
 30
0.0
  0
INSERT
  5
3AD
330
398
100
AcDbEntity
  8
COTAS
100
AcDbBlockReference
  2
block 135
 10
0.0
 20
0.0
 30
0.0
  0
INSERT
  5
3B5
330
398
100
AcDbEntity
  8
COTAS
100
AcDbBlockReference
  2
block 136
 10
0.0
 20
0.0
 30
0.0
  0
INSERT
  5
3BD
330
398
100
AcDbEntity
  8
COTAS
100
AcDbBlockReference
  2
block 137
 10
0.0
 20
0.0
 30
0.0
  0
INSERT
  5
3C5
330
398
100
AcDbEntity
  8
COTAS
100
AcDbBlockReference
  2
block 138
 10
0.0
 20
0.0
 30
0.0
  0
INSERT
  5
3D0
330
398
100
AcDbEntity
  8
COTAS
100
AcDbBlockReference
  2
block 139
 10
0.0
 20
0.0
 30
0.0
  0
INSERT
  5
3DB
330
398
100
AcDbEntity
  8
COTAS
100
AcDbBlockReference
  2
block 140
 10
0.0
 20
0.0
 30
0.0
  0
INSERT
  5
3E0
330
398
100
AcDbEntity
  8
COTAS
100
AcDbBlockReference
  2
block 141
 10
0.0
 20
0.0
 30
0.0
  0
INSERT
  5
3E8
330
398
100
AcDbEntity
  8
COTAS
100
AcDbBlockReference
  2
block 142
 10
0.0
 20
0.0
 30
0.0
  0
INSERT
  5
3F0
330
398
100
AcDbEntity
  8
COTAS
100
AcDbBlockReference
  2
block 143
 10
0.0
 20
0.0
 30
0.0
  0
ENDBLK
  5
39B
330
398
100
AcDbEntity
  8
0
100
AcDbBlockEnd
  0
BLOCK
  5
39E
330
39C
100
AcDbEntity
  8
0
100
AcDbBlockBegin
  2
block 133
 70
     0
 71
     0
 10
0.0
 20
0.0
 30
0.0
  3
block 133
  1

  0
POLYLINE
  5
3A0
330
39C
100
AcDbEntity
  8
COTAS
 62
     7
370
     9
100
AcDb2dPolyline
 66
     1
 10
0.0
 20
0.0
 30
0.0
  0
VERTEX
  5
3A1
330
3A0
100
AcDbEntity
  8
COTAS
 62
     7
370
     9
100
AcDbVertex
100
AcDb2dVertex
 10
104.1678706134965
 20
179.545231518595
 30
0.0
  0
VERTEX
  5
3A2
330
3A0
100
AcDbEntity
  8
COTAS
 62
     7
370
     9
100
AcDbVertex
100
AcDb2dVertex
 10
115.7656199607866
 20
179.545231518595
 30
0.0
  0
SEQEND
  5
3A3
330
3A0
100
AcDbEntity
  8
COTAS
370
     9
  0
ENDBLK
  5
39F
330
39C
100
AcDbEntity
  8
0
100
AcDbBlockEnd
  0
BLOCK
  5
3A6
330
3A4
100
AcDbEntity
  8
0
100
AcDbBlockBegin
  2
block 134
 70
     0
 71
     0
 10
0.0
 20
0.0
 30
0.0
  3
block 134
  1

  0
POLYLINE
  5
3A8
330
3A4
100
AcDbEntity
  8
COTAS
 62
     7
370
     9
100
AcDb2dPolyline
 66
     1
 10
0.0
 20
0.0
 30
0.0
  0
VERTEX
  5
3A9
330
3A8
100
AcDbEntity
  8
COTAS
 62
     7
370
     9
100
AcDbVertex
100
AcDb2dVertex
 10
104.1678706134965
 20
174.3701779214729
 30
0.0
  0
VERTEX
  5
3AA
330
3A8
100
AcDbEntity
  8
COTAS
 62
     7
370
     9
100
AcDbVertex
100
AcDb2dVertex
 10
115.7656199607866
 20
174.3701779214729
 30
0.0
  0
SEQEND
  5
3AB
330
3A8
100
AcDbEntity
  8
COTAS
370
     9
  0
ENDBLK
  5
3A7
330
3A4
100
AcDbEntity
  8
0
100
AcDbBlockEnd
  0
BLOCK
  5
3AE
330
3AC
100
AcDbEntity
  8
0
100
AcDbBlockBegin
  2
block 135
 70
     0
 71
     0
 10
0.0
 20
0.0
 30
0.0
  3
block 135
  1

  0
POLYLINE
  5
3B0
330
3AC
100
AcDbEntity
  8
COTAS
 62
     7
370
     9
100
AcDb2dPolyline
 66
     1
 10
0.0
 20
0.0
 30
0.0
  0
VERTEX
  5
3B1
330
3B0
100
AcDbEntity
  8
COTAS
 62
     7
370
     9
100
AcDbVertex
100
AcDb2dVertex
 10
113.8839075653879
 20
171.547437073487
 30
0.0
  0
VERTEX
  5
3B2
330
3B0
100
AcDbEntity
  8
COTAS
 62
     7
370
     9
100
AcDbVertex
100
AcDb2dVertex
 10
113.8839075653879
 20
168.7246962255011
 30
0.0
  0
SEQEND
  5
3B3
330
3B0
100
AcDbEntity
  8
COTAS
370
     9
  0
ENDBLK
  5
3AF
330
3AC
100
AcDbEntity
  8
0
100
AcDbBlockEnd
  0
BLOCK
  5
3B6
330
3B4
100
AcDbEntity
  8
0
100
AcDbBlockBegin
  2
block 136
 70
     0
 71
     0
 10
0.0
 20
0.0
 30
0.0
  3
block 136
  1

  0
POLYLINE
  5
3B8
330
3B4
100
AcDbEntity
  8
COTAS
 62
     7
370
     9
100
AcDb2dPolyline
 66
     1
 10
0.0
 20
0.0
 30
0.0
  0
VERTEX
  5
3B9
330
3B8
100
AcDbEntity
  8
COTAS
 62
     7
370
     9
100
AcDbVertex
100
AcDb2dVertex
 10
113.8839075653879
 20
182.3681446214689
 30
0.0
  0
VERTEX
  5
3BA
330
3B8
100
AcDbEntity
  8
COTAS
 62
     7
370
     9
100
AcDbVertex
100
AcDb2dVertex
 10
113.8839075653879
 20
191.8747196296762
 30
0.0
  0
SEQEND
  5
3BB
330
3B8
100
AcDbEntity
  8
COTAS
370
     9
  0
ENDBLK
  5
3B7
330
3B4
100
AcDbEntity
  8
0
100
AcDbBlockEnd
  0
BLOCK
  5
3BE
330
3BC
100
AcDbEntity
  8
0
100
AcDbBlockBegin
  2
block 137
 70
     0
 71
     0
 10
0.0
 20
0.0
 30
0.0
  3
block 137
  1

  0
POLYLINE
  5
3C0
330
3BC
100
AcDbEntity
  8
COTAS
 62
     7
370
     9
100
AcDb2dPolyline
 66
     1
 10
0.0
 20
0.0
 30
0.0
  0
VERTEX
  5
3C1
330
3C0
100
AcDbEntity
  8
COTAS
 62
     7
370
     9
100
AcDbVertex
100
AcDb2dVertex
 10
113.8839075653879
 20
174.3701779214729
 30
0.0
  0
VERTEX
  5
3C2
330
3C0
100
AcDbEntity
  8
COTAS
 62
     7
370
     9
100
AcDbVertex
100
AcDb2dVertex
 10
113.8839075653879
 20
179.545231518595
 30
0.0
  0
SEQEND
  5
3C3
330
3C0
100
AcDbEntity
  8
COTAS
370
     9
  0
ENDBLK
  5
3BF
330
3BC
100
AcDbEntity
  8
0
100
AcDbBlockEnd
  0
BLOCK
  5
3C6
330
3C4
100
AcDbEntity
  8
0
100
AcDbBlockBegin
  2
block 138
 70
     0
 71
     0
 10
0.0
 20
0.0
 30
0.0
  3
block 138
  1

  0
POLYLINE
  5
3C8
330
3C4
100
AcDbEntity
  8
COTAS
370
     0
100
AcDb2dPolyline
 66
     1
 10
0.0
 20
0.0
 30
0.0
  0
VERTEX
  5
3C9
330
3C8
100
AcDbEntity
  8
COTAS
370
     0
100
AcDbVertex
100
AcDb2dVertex
 10
113.4133072116504
 20
171.547437073487
 30
0.0
  0
VERTEX
  5
3CA
330
3C8
100
AcDbEntity
  8
COTAS
370
     0
100
AcDbVertex
100
AcDb2dVertex
 10
114.3541634093497
 20
171.547437073487
 30
0.0
  0
VERTEX
  5
3CB
330
3C8
100
AcDbEntity
  8
COTAS
370
     0
100
AcDbVertex
100
AcDb2dVertex
 10
113.8839075653879
 20
174.3701779214729
 30
0.0
  0
VERTEX
  5
3CC
330
3C8
100
AcDbEntity
  8
COTAS
370
     0
100
AcDbVertex
100
AcDb2dVertex
 10
113.4133072116504
 20
171.547437073487
 30
0.0
  0
SEQEND
  5
3CD
330
3C8
100
AcDbEntity
  8
COTAS
370
     0
  0
HATCH
  5
3CE
330
3C4
100
AcDbEntity
  8
COTAS
 62
     7
100
AcDbHatch
 10
0.0
 20
0.0
 30
0.0
210
0.0
220
0.0
230
1.0
  2
SOLID
 70
     1
 71
     0
 91
        1
 92
        1
 93
        3
 72
     1
 10
113.4133072116504
 20
171.547437073487
 11
114.3541634093497
 21
171.547437073487
 72
     1
 10
114.3541634093497
 20
171.547437073487
 11
113.8839075653879
 21
174.3701779214729
 72
     1
 10
113.8839075653879
 20
174.3701779214729
 11
113.4133072116504
 21
171.547437073487
 97
        0
 75
     2
 76
     1
 98
        0
  0
ENDBLK
  5
3C7
330
3C4
100
AcDbEntity
  8
0
100
AcDbBlockEnd
  0
BLOCK
  5
3D1
330
3CF
100
AcDbEntity
  8
0
100
AcDbBlockBegin
  2
block 139
 70
     0
 71
     0
 10
0.0
 20
0.0
 30
0.0
  3
block 139
  1

  0
POLYLINE
  5
3D3
330
3CF
100
AcDbEntity
  8
COTAS
370
     0
100
AcDb2dPolyline
 66
     1
 10
0.0
 20
0.0
 30
0.0
  0
VERTEX
  5
3D4
330
3D3
100
AcDbEntity
  8
COTAS
370
     0
100
AcDbVertex
100
AcDb2dVertex
 10
113.4133072116504
 20
182.3681446214689
 30
0.0
  0
VERTEX
  5
3D5
330
3D3
100
AcDbEntity
  8
COTAS
370
     0
100
AcDbVertex
100
AcDb2dVertex
 10
114.3541634093497
 20
182.3681446214689
 30
0.0
  0
VERTEX
  5
3D6
330
3D3
100
AcDbEntity
  8
COTAS
370
     0
100
AcDbVertex
100
AcDb2dVertex
 10
113.8839075653879
 20
179.545231518595
 30
0.0
  0
VERTEX
  5
3D7
330
3D3
100
AcDbEntity
  8
COTAS
370
     0
100
AcDbVertex
100
AcDb2dVertex
 10
113.4133072116504
 20
182.3681446214689
 30
0.0
  0
SEQEND
  5
3D8
330
3D3
100
AcDbEntity
  8
COTAS
370
     0
  0
HATCH
  5
3D9
330
3CF
100
AcDbEntity
  8
COTAS
 62
     7
100
AcDbHatch
 10
0.0
 20
0.0
 30
0.0
210
0.0
220
0.0
230
1.0
  2
SOLID
 70
     1
 71
     0
 91
        1
 92
        1
 93
        3
 72
     1
 10
113.4133072116504
 20
182.3681446214689
 11
114.3541634093497
 21
182.3681446214689
 72
     1
 10
114.3541634093497
 20
182.3681446214689
 11
113.8839075653879
 21
179.545231518595
 72
     1
 10
113.8839075653879
 20
179.545231518595
 11
113.4133072116504
 21
182.3681446214689
 97
        0
 75
     2
 76
     1
 98
        0
  0
ENDBLK
  5
3D2
330
3CF
100
AcDbEntity
  8
0
100
AcDbBlockEnd
  0
BLOCK
  5
3DC
330
3DA
100
AcDbEntity
  8
0
100
AcDbBlockBegin
  2
block 140
 70
     0
 71
     0
 10
0.0
 20
0.0
 30
0.0
  3
block 140
  1

  0
MTEXT
  5
3DE
330
3DA
100
AcDbEntity
  8
COTAS
 62
     7
100
AcDbMText
 10
112.9427068579128
 20
185.2284370350166
 30
0.0
 40
2.398890470823883
 41
0.0
 71
     7
 72
     1
  1
\fMyriad Pro|b0|i0|c0|p34;\W1;\U+00D8\fArial|b1|i0|c0|p34;55
 11
-4.371139000186241E-8
 21
0.999999999999999
 31
0.0
 73
     1
 44
1.0
  0
ENDBLK
  5
3DD
330
3DA
100
AcDbEntity
  8
0
100
AcDbBlockEnd
  0
BLOCK
  5
3E1
330
3DF
100
AcDbEntity
  8
0
100
AcDbBlockBegin
  2
block 141
 70
     0
 71
     0
 10
0.0
 20
0.0
 30
0.0
  3
block 141
  1

  0
POLYLINE
  5
3E3
330
3DF
100
AcDbEntity
  8
COTAS
 62
     7
370
     9
100
AcDb2dPolyline
 66
     1
 10
0.0
 20
0.0
 30
0.0
  0
VERTEX
  5
3E4
330
3E3
100
AcDbEntity
  8
COTAS
 62
     7
370
     9
100
AcDbVertex
100
AcDb2dVertex
 10
103.2270144157972
 20
179.545231518595
 30
0.0
  0
VERTEX
  5
3E5
330
3E3
100
AcDbEntity
  8
COTAS
 62
     7
370
     9
100
AcDbVertex
100
AcDb2dVertex
 10
103.2270144157972
 20
179.545231518595
 30
0.0
  0
SEQEND
  5
3E6
330
3E3
100
AcDbEntity
  8
COTAS
370
     9
  0
ENDBLK
  5
3E2
330
3DF
100
AcDbEntity
  8
0
100
AcDbBlockEnd
  0
BLOCK
  5
3E9
330
3E7
100
AcDbEntity
  8
0
100
AcDbBlockBegin
  2
block 142
 70
     0
 71
     0
 10
0.0
 20
0.0
 30
0.0
  3
block 142
  1

  0
POLYLINE
  5
3EB
330
3E7
100
AcDbEntity
  8
COTAS
 62
     7
370
     9
100
AcDb2dPolyline
 66
     1
 10
0.0
 20
0.0
 30
0.0
  0
VERTEX
  5
3EC
330
3EB
100
AcDbEntity
  8
COTAS
 62
     7
370
     9
100
AcDbVertex
100
AcDb2dVertex
 10
103.2270144157972
 20
174.3701779214729
 30
0.0
  0
VERTEX
  5
3ED
330
3EB
100
AcDbEntity
  8
COTAS
 62
     7
370
     9
100
AcDbVertex
100
AcDb2dVertex
 10
103.2270144157972
 20
174.3701779214729
 30
0.0
  0
SEQEND
  5
3EE
330
3EB
100
AcDbEntity
  8
COTAS
370
     9
  0
ENDBLK
  5
3EA
330
3E7
100
AcDbEntity
  8
0
100
AcDbBlockEnd
  0
BLOCK
  5
3F1
330
3EF
100
AcDbEntity
  8
0
100
AcDbBlockBegin
  2
block 143
 70
     0
 71
     0
 10
0.0
 20
0.0
 30
0.0
  3
block 143
  1

  0
POLYLINE
  5
3F3
330
3EF
100
AcDbEntity
  8
COTAS
 62
     7
370
     9
100
AcDb2dPolyline
 66
     1
 10
0.0
 20
0.0
 30
0.0
  0
VERTEX
  5
3F4
330
3F3
100
AcDbEntity
  8
COTAS
 62
     7
370
     9
100
AcDbVertex
100
AcDb2dVertex
 10
113.8839075653879
 20
174.3701779214729
 30
0.0
  0
VERTEX
  5
3F5
330
3F3
100
AcDbEntity
  8
COTAS
 62
     7
370
     9
100
AcDbVertex
100
AcDb2dVertex
 10
113.8839075653879
 20
174.3701779214729
 30
0.0
  0
SEQEND
  5
3F6
330
3F3
100
AcDbEntity
  8
COTAS
370
     9
  0
ENDBLK
  5
3F2
330
3EF
100
AcDbEntity
  8
0
100
AcDbBlockEnd
  0
BLOCK
  5
3F9
330
3F7
100
AcDbEntity
  8
0
100
AcDbBlockBegin
  2
block 144
 70
     0
 71
     0
 10
0.0
 20
0.0
 30
0.0
  3
block 144
  1

  0
INSERT
  5
3FC
330
3F7
100
AcDbEntity
  8
COTAS
100
AcDbBlockReference
  2
block 145
 10
0.0
 20
0.0
 30
0.0
  0
INSERT
  5
404
330
3F7
100
AcDbEntity
  8
COTAS
100
AcDbBlockReference
  2
block 146
 10
0.0
 20
0.0
 30
0.0
  0
INSERT
  5
40C
330
3F7
100
AcDbEntity
  8
COTAS
100
AcDbBlockReference
  2
block 147
 10
0.0
 20
0.0
 30
0.0
  0
INSERT
  5
414
330
3F7
100
AcDbEntity
  8
COTAS
100
AcDbBlockReference
  2
block 148
 10
0.0
 20
0.0
 30
0.0
  0
INSERT
  5
41F
330
3F7
100
AcDbEntity
  8
COTAS
100
AcDbBlockReference
  2
block 149
 10
0.0
 20
0.0
 30
0.0
  0
INSERT
  5
42A
330
3F7
100
AcDbEntity
  8
COTAS
100
AcDbBlockReference
  2
block 150
 10
0.0
 20
0.0
 30
0.0
  0
INSERT
  5
42F
330
3F7
100
AcDbEntity
  8
COTAS
100
AcDbBlockReference
  2
block 151
 10
0.0
 20
0.0
 30
0.0
  0
INSERT
  5
437
330
3F7
100
AcDbEntity
  8
COTAS
100
AcDbBlockReference
  2
block 152
 10
0.0
 20
0.0
 30
0.0
  0
INSERT
  5
43F
330
3F7
100
AcDbEntity
  8
COTAS
100
AcDbBlockReference
  2
block 153
 10
0.0
 20
0.0
 30
0.0
  0
ENDBLK
  5
3FA
330
3F7
100
AcDbEntity
  8
0
100
AcDbBlockEnd
  0
BLOCK
  5
3FD
330
3FB
100
AcDbEntity
  8
0
100
AcDbBlockBegin
  2
block 145
 70
     0
 71
     0
 10
0.0
 20
0.0
 30
0.0
  3
block 145
  1

  0
POLYLINE
  5
3FF
330
3FB
100
AcDbEntity
  8
COTAS
 62
     7
370
     9
100
AcDb2dPolyline
 66
     1
 10
0.0
 20
0.0
 30
0.0
  0
VERTEX
  5
400
330
3FF
100
AcDbEntity
  8
COTAS
 62
     7
370
     9
100
AcDbVertex
100
AcDb2dVertex
 10
106.94737548462
 20
166.9368627440069
 30
0.0
  0
VERTEX
  5
401
330
3FF
100
AcDbEntity
  8
COTAS
 62
     7
370
     9
100
AcDbVertex
100
AcDb2dVertex
 10
115.7966258406083
 20
166.9368627440069
 30
0.0
  0
SEQEND
  5
402
330
3FF
100
AcDbEntity
  8
COTAS
370
     9
  0
ENDBLK
  5
3FE
330
3FB
100
AcDbEntity
  8
0
100
AcDbBlockEnd
  0
BLOCK
  5
405
330
403
100
AcDbEntity
  8
0
100
AcDbBlockBegin
  2
block 146
 70
     0
 71
     0
 10
0.0
 20
0.0
 30
0.0
  3
block 146
  1

  0
POLYLINE
  5
407
330
403
100
AcDbEntity
  8
COTAS
 62
     7
370
     9
100
AcDb2dPolyline
 66
     1
 10
0.0
 20
0.0
 30
0.0
  0
VERTEX
  5
408
330
407
100
AcDbEntity
  8
COTAS
 62
     7
370
     9
100
AcDbVertex
100
AcDb2dVertex
 10
106.94737548462
 20
157.3393371549893
 30
0.0
  0
VERTEX
  5
409
330
407
100
AcDbEntity
  8
COTAS
 62
     7
370
     9
100
AcDbVertex
100
AcDb2dVertex
 10
115.7966258406083
 20
157.3393371549893
 30
0.0
  0
SEQEND
  5
40A
330
407
100
AcDbEntity
  8
COTAS
370
     9
  0
ENDBLK
  5
406
330
403
100
AcDbEntity
  8
0
100
AcDbBlockEnd
  0
BLOCK
  5
40D
330
40B
100
AcDbEntity
  8
0
100
AcDbBlockBegin
  2
block 147
 70
     0
 71
     0
 10
0.0
 20
0.0
 30
0.0
  3
block 147
  1

  0
POLYLINE
  5
40F
330
40B
100
AcDbEntity
  8
COTAS
 62
     7
370
     9
100
AcDb2dPolyline
 66
     1
 10
0.0
 20
0.0
 30
0.0
  0
VERTEX
  5
410
330
40F
100
AcDbEntity
  8
COTAS
 62
     7
370
     9
100
AcDbVertex
100
AcDb2dVertex
 10
113.9149134452096
 20
164.1141218960209
 30
0.0
  0
VERTEX
  5
411
330
40F
100
AcDbEntity
  8
COTAS
 62
     7
370
     9
100
AcDbVertex
100
AcDb2dVertex
 10
113.9149134452096
 20
160.1622502578631
 30
0.0
  0
SEQEND
  5
412
330
40F
100
AcDbEntity
  8
COTAS
370
     9
  0
ENDBLK
  5
40E
330
40B
100
AcDbEntity
  8
0
100
AcDbBlockEnd
  0
BLOCK
  5
415
330
413
100
AcDbEntity
  8
0
100
AcDbBlockBegin
  2
block 148
 70
     0
 71
     0
 10
0.0
 20
0.0
 30
0.0
  3
block 148
  1

  0
POLYLINE
  5
417
330
413
100
AcDbEntity
  8
COTAS
370
     0
100
AcDb2dPolyline
 66
     1
 10
0.0
 20
0.0
 30
0.0
  0
VERTEX
  5
418
330
417
100
AcDbEntity
  8
COTAS
370
     0
100
AcDbVertex
100
AcDb2dVertex
 10
113.444313091472
 20
164.1141218960209
 30
0.0
  0
VERTEX
  5
419
330
417
100
AcDbEntity
  8
COTAS
370
     0
100
AcDbVertex
100
AcDb2dVertex
 10
114.3851692891714
 20
164.1141218960209
 30
0.0
  0
VERTEX
  5
41A
330
417
100
AcDbEntity
  8
COTAS
370
     0
100
AcDbVertex
100
AcDb2dVertex
 10
113.9149134452096
 20
166.9368627440069
 30
0.0
  0
VERTEX
  5
41B
330
417
100
AcDbEntity
  8
COTAS
370
     0
100
AcDbVertex
100
AcDb2dVertex
 10
113.444313091472
 20
164.1141218960209
 30
0.0
  0
SEQEND
  5
41C
330
417
100
AcDbEntity
  8
COTAS
370
     0
  0
HATCH
  5
41D
330
413
100
AcDbEntity
  8
COTAS
 62
     7
100
AcDbHatch
 10
0.0
 20
0.0
 30
0.0
210
0.0
220
0.0
230
1.0
  2
SOLID
 70
     1
 71
     0
 91
        1
 92
        1
 93
        3
 72
     1
 10
113.444313091472
 20
164.1141218960209
 11
114.3851692891714
 21
164.1141218960209
 72
     1
 10
114.3851692891714
 20
164.1141218960209
 11
113.9149134452096
 21
166.9368627440069
 72
     1
 10
113.9149134452096
 20
166.9368627440069
 11
113.444313091472
 21
164.1141218960209
 97
        0
 75
     2
 76
     1
 98
        0
  0
ENDBLK
  5
416
330
413
100
AcDbEntity
  8
0
100
AcDbBlockEnd
  0
BLOCK
  5
420
330
41E
100
AcDbEntity
  8
0
100
AcDbBlockBegin
  2
block 149
 70
     0
 71
     0
 10
0.0
 20
0.0
 30
0.0
  3
block 149
  1

  0
POLYLINE
  5
422
330
41E
100
AcDbEntity
  8
COTAS
370
     0
100
AcDb2dPolyline
 66
     1
 10
0.0
 20
0.0
 30
0.0
  0
VERTEX
  5
423
330
422
100
AcDbEntity
  8
COTAS
370
     0
100
AcDbVertex
100
AcDb2dVertex
 10
113.444313091472
 20
160.1622502578631
 30
0.0
  0
VERTEX
  5
424
330
422
100
AcDbEntity
  8
COTAS
370
     0
100
AcDbVertex
100
AcDb2dVertex
 10
114.3851692891714
 20
160.1622502578631
 30
0.0
  0
VERTEX
  5
425
330
422
100
AcDbEntity
  8
COTAS
370
     0
100
AcDbVertex
100
AcDb2dVertex
 10
113.9149134452096
 20
157.3393371549893
 30
0.0
  0
VERTEX
  5
426
330
422
100
AcDbEntity
  8
COTAS
370
     0
100
AcDbVertex
100
AcDb2dVertex
 10
113.444313091472
 20
160.1622502578631
 30
0.0
  0
SEQEND
  5
427
330
422
100
AcDbEntity
  8
COTAS
370
     0
  0
HATCH
  5
428
330
41E
100
AcDbEntity
  8
COTAS
 62
     7
100
AcDbHatch
 10
0.0
 20
0.0
 30
0.0
210
0.0
220
0.0
230
1.0
  2
SOLID
 70
     1
 71
     0
 91
        1
 92
        1
 93
        3
 72
     1
 10
113.444313091472
 20
160.1622502578631
 11
114.3851692891714
 21
160.1622502578631
 72
     1
 10
114.3851692891714
 20
160.1622502578631
 11
113.9149134452096
 21
157.3393371549893
 72
     1
 10
113.9149134452096
 20
157.3393371549893
 11
113.444313091472
 21
160.1622502578631
 97
        0
 75
     2
 76
     1
 98
        0
  0
ENDBLK
  5
421
330
41E
100
AcDbEntity
  8
0
100
AcDbBlockEnd
  0
BLOCK
  5
42B
330
429
100
AcDbEntity
  8
0
100
AcDbBlockBegin
  2
block 150
 70
     0
 71
     0
 10
0.0
 20
0.0
 30
0.0
  3
block 150
  1

  0
MTEXT
  5
42D
330
429
100
AcDbEntity
  8
COTAS
 62
     7
100
AcDbMText
 10
112.9737127377345
 20
157.7134747715039
 30
0.0
 40
2.398890470823883
 41
0.0
 71
     7
 72
     1
  1
\fMyriad Pro|b0|i0|c0|p34;\W1;\U+00D8\fArial|b1|i0|c0|p34;102
 11
-4.371139000186241E-8
 21
0.999999999999999
 31
0.0
 73
     1
 44
1.0
  0
ENDBLK
  5
42C
330
429
100
AcDbEntity
  8
0
100
AcDbBlockEnd
  0
BLOCK
  5
430
330
42E
100
AcDbEntity
  8
0
100
AcDbBlockBegin
  2
block 151
 70
     0
 71
     0
 10
0.0
 20
0.0
 30
0.0
  3
block 151
  1

  0
POLYLINE
  5
432
330
42E
100
AcDbEntity
  8
COTAS
 62
     7
370
     9
100
AcDb2dPolyline
 66
     1
 10
0.0
 20
0.0
 30
0.0
  0
VERTEX
  5
433
330
432
100
AcDbEntity
  8
COTAS
 62
     7
370
     9
100
AcDbVertex
100
AcDb2dVertex
 10
106.0063470320327
 20
166.9368627440069
 30
0.0
  0
VERTEX
  5
434
330
432
100
AcDbEntity
  8
COTAS
 62
     7
370
     9
100
AcDbVertex
100
AcDb2dVertex
 10
106.0063470320327
 20
166.9368627440069
 30
0.0
  0
SEQEND
  5
435
330
432
100
AcDbEntity
  8
COTAS
370
     9
  0
ENDBLK
  5
431
330
42E
100
AcDbEntity
  8
0
100
AcDbBlockEnd
  0
BLOCK
  5
438
330
436
100
AcDbEntity
  8
0
100
AcDbBlockBegin
  2
block 152
 70
     0
 71
     0
 10
0.0
 20
0.0
 30
0.0
  3
block 152
  1

  0
POLYLINE
  5
43A
330
436
100
AcDbEntity
  8
COTAS
 62
     7
370
     9
100
AcDb2dPolyline
 66
     1
 10
0.0
 20
0.0
 30
0.0
  0
VERTEX
  5
43B
330
43A
100
AcDbEntity
  8
COTAS
 62
     7
370
     9
100
AcDbVertex
100
AcDb2dVertex
 10
106.0063470320327
 20
157.3393371549893
 30
0.0
  0
VERTEX
  5
43C
330
43A
100
AcDbEntity
  8
COTAS
 62
     7
370
     9
100
AcDbVertex
100
AcDb2dVertex
 10
106.0063470320327
 20
157.3393371549893
 30
0.0
  0
SEQEND
  5
43D
330
43A
100
AcDbEntity
  8
COTAS
370
     9
  0
ENDBLK
  5
439
330
436
100
AcDbEntity
  8
0
100
AcDbBlockEnd
  0
BLOCK
  5
440
330
43E
100
AcDbEntity
  8
0
100
AcDbBlockBegin
  2
block 153
 70
     0
 71
     0
 10
0.0
 20
0.0
 30
0.0
  3
block 153
  1

  0
POLYLINE
  5
442
330
43E
100
AcDbEntity
  8
COTAS
 62
     7
370
     9
100
AcDb2dPolyline
 66
     1
 10
0.0
 20
0.0
 30
0.0
  0
VERTEX
  5
443
330
442
100
AcDbEntity
  8
COTAS
 62
     7
370
     9
100
AcDbVertex
100
AcDb2dVertex
 10
113.9149134452096
 20
157.3393371549893
 30
0.0
  0
VERTEX
  5
444
330
442
100
AcDbEntity
  8
COTAS
 62
     7
370
     9
100
AcDbVertex
100
AcDb2dVertex
 10
113.9149134452096
 20
157.3393371549893
 30
0.0
  0
SEQEND
  5
445
330
442
100
AcDbEntity
  8
COTAS
370
     9
  0
ENDBLK
  5
441
330
43E
100
AcDbEntity
  8
0
100
AcDbBlockEnd
  0
BLOCK
  5
448
330
446
100
AcDbEntity
  8
0
100
AcDbBlockBegin
  2
block 154
 70
     0
 71
     0
 10
0.0
 20
0.0
 30
0.0
  3
block 154
  1

  0
INSERT
  5
44B
330
446
100
AcDbEntity
  8
COTAS
100
AcDbBlockReference
  2
block 155
 10
0.0
 20
0.0
 30
0.0
  0
INSERT
  5
453
330
446
100
AcDbEntity
  8
COTAS
100
AcDbBlockReference
  2
block 156
 10
0.0
 20
0.0
 30
0.0
  0
INSERT
  5
45B
330
446
100
AcDbEntity
  8
COTAS
100
AcDbBlockReference
  2
block 157
 10
0.0
 20
0.0
 30
0.0
  0
INSERT
  5
463
330
446
100
AcDbEntity
  8
COTAS
100
AcDbBlockReference
  2
block 158
 10
0.0
 20
0.0
 30
0.0
  0
INSERT
  5
46E
330
446
100
AcDbEntity
  8
COTAS
100
AcDbBlockReference
  2
block 159
 10
0.0
 20
0.0
 30
0.0
  0
INSERT
  5
479
330
446
100
AcDbEntity
  8
COTAS
100
AcDbBlockReference
  2
block 160
 10
0.0
 20
0.0
 30
0.0
  0
INSERT
  5
47E
330
446
100
AcDbEntity
  8
COTAS
100
AcDbBlockReference
  2
block 161
 10
0.0
 20
0.0
 30
0.0
  0
INSERT
  5
486
330
446
100
AcDbEntity
  8
COTAS
100
AcDbBlockReference
  2
block 162
 10
0.0
 20
0.0
 30
0.0
  0
INSERT
  5
48E
330
446
100
AcDbEntity
  8
COTAS
100
AcDbBlockReference
  2
block 163
 10
0.0
 20
0.0
 30
0.0
  0
ENDBLK
  5
449
330
446
100
AcDbEntity
  8
0
100
AcDbBlockEnd
  0
BLOCK
  5
44C
330
44A
100
AcDbEntity
  8
0
100
AcDbBlockBegin
  2
block 155
 70
     0
 71
     0
 10
0.0
 20
0.0
 30
0.0
  3
block 155
  1

  0
POLYLINE
  5
44E
330
44A
100
AcDbEntity
  8
COTAS
 62
     7
370
     9
100
AcDb2dPolyline
 66
     1
 10
0.0
 20
0.0
 30
0.0
  0
VERTEX
  5
44F
330
44E
100
AcDbEntity
  8
COTAS
 62
     7
370
     9
100
AcDbVertex
100
AcDb2dVertex
 10
102.8335842518379
 20
145.2013964792508
 30
0.0
  0
VERTEX
  5
450
330
44E
100
AcDbEntity
  8
COTAS
 62
     7
370
     9
100
AcDbVertex
100
AcDb2dVertex
 10
122.3636711868348
 20
145.2013964792508
 30
0.0
  0
SEQEND
  5
451
330
44E
100
AcDbEntity
  8
COTAS
370
     9
  0
ENDBLK
  5
44D
330
44A
100
AcDbEntity
  8
0
100
AcDbBlockEnd
  0
BLOCK
  5
454
330
452
100
AcDbEntity
  8
0
100
AcDbBlockBegin
  2
block 156
 70
     0
 71
     0
 10
0.0
 20
0.0
 30
0.0
  3
block 156
  1

  0
POLYLINE
  5
456
330
452
100
AcDbEntity
  8
COTAS
 62
     7
370
     9
100
AcDb2dPolyline
 66
     1
 10
0.0
 20
0.0
 30
0.0
  0
VERTEX
  5
457
330
456
100
AcDbEntity
  8
COTAS
 62
     7
370
     9
100
AcDbVertex
100
AcDb2dVertex
 10
115.7773332931637
 20
162.138186076942
 30
0.0
  0
VERTEX
  5
458
330
456
100
AcDbEntity
  8
COTAS
 62
     7
370
     9
100
AcDbVertex
100
AcDb2dVertex
 10
122.3636711868348
 20
162.138186076942
 30
0.0
  0
SEQEND
  5
459
330
456
100
AcDbEntity
  8
COTAS
370
     9
  0
ENDBLK
  5
455
330
452
100
AcDbEntity
  8
0
100
AcDbBlockEnd
  0
BLOCK
  5
45C
330
45A
100
AcDbEntity
  8
0
100
AcDbBlockBegin
  2
block 157
 70
     0
 71
     0
 10
0.0
 20
0.0
 30
0.0
  3
block 157
  1

  0
POLYLINE
  5
45E
330
45A
100
AcDbEntity
  8
COTAS
 62
     7
370
     9
100
AcDb2dPolyline
 66
     1
 10
0.0
 20
0.0
 30
0.0
  0
VERTEX
  5
45F
330
45E
100
AcDbEntity
  8
COTAS
 62
     7
370
     9
100
AcDbVertex
100
AcDb2dVertex
 10
120.4819587914362
 20
148.0241373272367
 30
0.0
  0
VERTEX
  5
460
330
45E
100
AcDbEntity
  8
COTAS
 62
     7
370
     9
100
AcDbVertex
100
AcDb2dVertex
 10
120.4819587914362
 20
159.3154452289561
 30
0.0
  0
SEQEND
  5
461
330
45E
100
AcDbEntity
  8
COTAS
370
     9
  0
ENDBLK
  5
45D
330
45A
100
AcDbEntity
  8
0
100
AcDbBlockEnd
  0
BLOCK
  5
464
330
462
100
AcDbEntity
  8
0
100
AcDbBlockBegin
  2
block 158
 70
     0
 71
     0
 10
0.0
 20
0.0
 30
0.0
  3
block 158
  1

  0
POLYLINE
  5
466
330
462
100
AcDbEntity
  8
COTAS
370
     0
100
AcDb2dPolyline
 66
     1
 10
0.0
 20
0.0
 30
0.0
  0
VERTEX
  5
467
330
466
100
AcDbEntity
  8
COTAS
370
     0
100
AcDbVertex
100
AcDb2dVertex
 10
120.0113584376986
 20
148.0241373272367
 30
0.0
  0
VERTEX
  5
468
330
466
100
AcDbEntity
  8
COTAS
370
     0
100
AcDbVertex
100
AcDb2dVertex
 10
120.9525591451737
 20
148.0241373272367
 30
0.0
  0
VERTEX
  5
469
330
466
100
AcDbEntity
  8
COTAS
370
     0
100
AcDbVertex
100
AcDb2dVertex
 10
120.4819587914362
 20
145.2013964792508
 30
0.0
  0
VERTEX
  5
46A
330
466
100
AcDbEntity
  8
COTAS
370
     0
100
AcDbVertex
100
AcDb2dVertex
 10
120.0113584376986
 20
148.0241373272367
 30
0.0
  0
SEQEND
  5
46B
330
466
100
AcDbEntity
  8
COTAS
370
     0
  0
HATCH
  5
46C
330
462
100
AcDbEntity
  8
COTAS
 62
     7
100
AcDbHatch
 10
0.0
 20
0.0
 30
0.0
210
0.0
220
0.0
230
1.0
  2
SOLID
 70
     1
 71
     0
 91
        1
 92
        1
 93
        3
 72
     1
 10
120.0113584376986
 20
148.0241373272367
 11
120.9525591451737
 21
148.0241373272367
 72
     1
 10
120.9525591451737
 20
148.0241373272367
 11
120.4819587914362
 21
145.2013964792508
 72
     1
 10
120.4819587914362
 20
145.2013964792508
 11
120.0113584376986
 21
148.0241373272367
 97
        0
 75
     2
 76
     1
 98
        0
  0
ENDBLK
  5
465
330
462
100
AcDbEntity
  8
0
100
AcDbBlockEnd
  0
BLOCK
  5
46F
330
46D
100
AcDbEntity
  8
0
100
AcDbBlockBegin
  2
block 159
 70
     0
 71
     0
 10
0.0
 20
0.0
 30
0.0
  3
block 159
  1

  0
POLYLINE
  5
471
330
46D
100
AcDbEntity
  8
COTAS
370
     0
100
AcDb2dPolyline
 66
     1
 10
0.0
 20
0.0
 30
0.0
  0
VERTEX
  5
472
330
471
100
AcDbEntity
  8
COTAS
370
     0
100
AcDbVertex
100
AcDb2dVertex
 10
120.0113584376986
 20
159.3154452289561
 30
0.0
  0
VERTEX
  5
473
330
471
100
AcDbEntity
  8
COTAS
370
     0
100
AcDbVertex
100
AcDb2dVertex
 10
120.9525591451737
 20
159.3154452289561
 30
0.0
  0
VERTEX
  5
474
330
471
100
AcDbEntity
  8
COTAS
370
     0
100
AcDbVertex
100
AcDb2dVertex
 10
120.4819587914362
 20
162.138186076942
 30
0.0
  0
VERTEX
  5
475
330
471
100
AcDbEntity
  8
COTAS
370
     0
100
AcDbVertex
100
AcDb2dVertex
 10
120.0113584376986
 20
159.3154452289561
 30
0.0
  0
SEQEND
  5
476
330
471
100
AcDbEntity
  8
COTAS
370
     0
  0
HATCH
  5
477
330
46D
100
AcDbEntity
  8
COTAS
 62
     7
100
AcDbHatch
 10
0.0
 20
0.0
 30
0.0
210
0.0
220
0.0
230
1.0
  2
SOLID
 70
     1
 71
     0
 91
        1
 92
        1
 93
        3
 72
     1
 10
120.0113584376986
 20
159.3154452289561
 11
120.9525591451737
 21
159.3154452289561
 72
     1
 10
120.9525591451737
 20
159.3154452289561
 11
120.4819587914362
 21
162.138186076942
 72
     1
 10
120.4819587914362
 20
162.138186076942
 11
120.0113584376986
 21
159.3154452289561
 97
        0
 75
     2
 76
     1
 98
        0
  0
ENDBLK
  5
470
330
46D
100
AcDbEntity
  8
0
100
AcDbBlockEnd
  0
BLOCK
  5
47A
330
478
100
AcDbEntity
  8
0
100
AcDbBlockBegin
  2
block 160
 70
     0
 71
     0
 10
0.0
 20
0.0
 30
0.0
  3
block 160
  1

  0
MTEXT
  5
47C
330
478
100
AcDbEntity
  8
COTAS
 62
     7
100
AcDbMText
 10
119.5411025937368
 20
150.0278061832672
 30
0.0
 40
2.398890470823883
 41
0.0
 71
     7
 72
     1
  1
\fArial|b1|i0|c0|p34;\W1;180
 11
-4.371139000186241E-8
 21
0.999999999999999
 31
0.0
 73
     1
 44
1.0
  0
ENDBLK
  5
47B
330
478
100
AcDbEntity
  8
0
100
AcDbBlockEnd
  0
BLOCK
  5
47F
330
47D
100
AcDbEntity
  8
0
100
AcDbBlockBegin
  2
block 161
 70
     0
 71
     0
 10
0.0
 20
0.0
 30
0.0
  3
block 161
  1

  0
POLYLINE
  5
481
330
47D
100
AcDbEntity
  8
COTAS
 62
     7
370
     9
100
AcDb2dPolyline
 66
     1
 10
0.0
 20
0.0
 30
0.0
  0
VERTEX
  5
482
330
481
100
AcDbEntity
  8
COTAS
 62
     7
370
     9
100
AcDbVertex
100
AcDb2dVertex
 10
101.8925557992507
 20
145.2013964792508
 30
0.0
  0
VERTEX
  5
483
330
481
100
AcDbEntity
  8
COTAS
 62
     7
370
     9
100
AcDbVertex
100
AcDb2dVertex
 10
101.8925557992507
 20
145.2013964792508
 30
0.0
  0
SEQEND
  5
484
330
481
100
AcDbEntity
  8
COTAS
370
     9
  0
ENDBLK
  5
480
330
47D
100
AcDbEntity
  8
0
100
AcDbBlockEnd
  0
BLOCK
  5
487
330
485
100
AcDbEntity
  8
0
100
AcDbBlockBegin
  2
block 162
 70
     0
 71
     0
 10
0.0
 20
0.0
 30
0.0
  3
block 162
  1

  0
POLYLINE
  5
489
330
485
100
AcDbEntity
  8
COTAS
 62
     7
370
     9
100
AcDb2dPolyline
 66
     1
 10
0.0
 20
0.0
 30
0.0
  0
VERTEX
  5
48A
330
489
100
AcDbEntity
  8
COTAS
 62
     7
370
     9
100
AcDbVertex
100
AcDb2dVertex
 10
114.8364770954643
 20
162.138186076942
 30
0.0
  0
VERTEX
  5
48B
330
489
100
AcDbEntity
  8
COTAS
 62
     7
370
     9
100
AcDbVertex
100
AcDb2dVertex
 10
114.8364770954643
 20
162.138186076942
 30
0.0
  0
SEQEND
  5
48C
330
489
100
AcDbEntity
  8
COTAS
370
     9
  0
ENDBLK
  5
488
330
485
100
AcDbEntity
  8
0
100
AcDbBlockEnd
  0
BLOCK
  5
48F
330
48D
100
AcDbEntity
  8
0
100
AcDbBlockBegin
  2
block 163
 70
     0
 71
     0
 10
0.0
 20
0.0
 30
0.0
  3
block 163
  1

  0
POLYLINE
  5
491
330
48D
100
AcDbEntity
  8
COTAS
 62
     7
370
     9
100
AcDb2dPolyline
 66
     1
 10
0.0
 20
0.0
 30
0.0
  0
VERTEX
  5
492
330
491
100
AcDbEntity
  8
COTAS
 62
     7
370
     9
100
AcDbVertex
100
AcDb2dVertex
 10
120.4819587914362
 20
162.138186076942
 30
0.0
  0
VERTEX
  5
493
330
491
100
AcDbEntity
  8
COTAS
 62
     7
370
     9
100
AcDbVertex
100
AcDb2dVertex
 10
120.4819587914362
 20
162.138186076942
 30
0.0
  0
SEQEND
  5
494
330
491
100
AcDbEntity
  8
COTAS
370
     9
  0
ENDBLK
  5
490
330
48D
100
AcDbEntity
  8
0
100
AcDbBlockEnd
  0
BLOCK
  5
497
330
495
100
AcDbEntity
  8
0
100
AcDbBlockBegin
  2
block 164
 70
     0
 71
     0
 10
0.0
 20
0.0
 30
0.0
  3
block 164
  1

  0
INSERT
  5
49A
330
495
100
AcDbEntity
  8
COTAS
100
AcDbBlockReference
  2
block 165
 10
0.0
 20
0.0
 30
0.0
  0
INSERT
  5
4A2
330
495
100
AcDbEntity
  8
COTAS
100
AcDbBlockReference
  2
block 166
 10
0.0
 20
0.0
 30
0.0
  0
INSERT
  5
4AA
330
495
100
AcDbEntity
  8
COTAS
100
AcDbBlockReference
  2
block 167
 10
0.0
 20
0.0
 30
0.0
  0
INSERT
  5
4B2
330
495
100
AcDbEntity
  8
COTAS
100
AcDbBlockReference
  2
block 168
 10
0.0
 20
0.0
 30
0.0
  0
INSERT
  5
4BD
330
495
100
AcDbEntity
  8
COTAS
100
AcDbBlockReference
  2
block 169
 10
0.0
 20
0.0
 30
0.0
  0
INSERT
  5
4C8
330
495
100
AcDbEntity
  8
COTAS
100
AcDbBlockReference
  2
block 170
 10
0.0
 20
0.0
 30
0.0
  0
INSERT
  5
4CD
330
495
100
AcDbEntity
  8
COTAS
100
AcDbBlockReference
  2
block 171
 10
0.0
 20
0.0
 30
0.0
  0
INSERT
  5
4D5
330
495
100
AcDbEntity
  8
COTAS
100
AcDbBlockReference
  2
block 172
 10
0.0
 20
0.0
 30
0.0
  0
INSERT
  5
4DD
330
495
100
AcDbEntity
  8
COTAS
100
AcDbBlockReference
  2
block 173
 10
0.0
 20
0.0
 30
0.0
  0
ENDBLK
  5
498
330
495
100
AcDbEntity
  8
0
100
AcDbBlockEnd
  0
BLOCK
  5
49B
330
499
100
AcDbEntity
  8
0
100
AcDbBlockBegin
  2
block 165
 70
     0
 71
     0
 10
0.0
 20
0.0
 30
0.0
  3
block 165
  1

  0
POLYLINE
  5
49D
330
499
100
AcDbEntity
  8
COTAS
 62
     7
370
     9
100
AcDb2dPolyline
 66
     1
 10
0.0
 20
0.0
 30
0.0
  0
VERTEX
  5
49E
330
49D
100
AcDbEntity
  8
COTAS
 62
     7
370
     9
100
AcDbVertex
100
AcDb2dVertex
 10
121.4228149891355
 20
145.2013964792508
 30
0.0
  0
VERTEX
  5
49F
330
49D
100
AcDbEntity
  8
COTAS
 62
     7
370
     9
100
AcDbVertex
100
AcDb2dVertex
 10
129.6221476530843
 20
145.2013964792508
 30
0.0
  0
SEQEND
  5
4A0
330
49D
100
AcDbEntity
  8
COTAS
370
     9
  0
ENDBLK
  5
49C
330
499
100
AcDbEntity
  8
0
100
AcDbBlockEnd
  0
BLOCK
  5
4A3
330
4A1
100
AcDbEntity
  8
0
100
AcDbBlockBegin
  2
block 166
 70
     0
 71
     0
 10
0.0
 20
0.0
 30
0.0
  3
block 166
  1

  0
POLYLINE
  5
4A5
330
4A1
100
AcDbEntity
  8
COTAS
 62
     7
370
     9
100
AcDb2dPolyline
 66
     1
 10
0.0
 20
0.0
 30
0.0
  0
VERTEX
  5
4A6
330
4A5
100
AcDbEntity
  8
COTAS
 62
     7
370
     9
100
AcDbVertex
100
AcDb2dVertex
 10
104.9335435902035
 20
176.9577908474779
 30
0.0
  0
VERTEX
  5
4A7
330
4A5
100
AcDbEntity
  8
COTAS
 62
     7
370
     9
100
AcDbVertex
100
AcDb2dVertex
 10
129.6221476530843
 20
176.9577908474779
 30
0.0
  0
SEQEND
  5
4A8
330
4A5
100
AcDbEntity
  8
COTAS
370
     9
  0
ENDBLK
  5
4A4
330
4A1
100
AcDbEntity
  8
0
100
AcDbBlockEnd
  0
BLOCK
  5
4AB
330
4A9
100
AcDbEntity
  8
0
100
AcDbBlockBegin
  2
block 167
 70
     0
 71
     0
 10
0.0
 20
0.0
 30
0.0
  3
block 167
  1

  0
POLYLINE
  5
4AD
330
4A9
100
AcDbEntity
  8
COTAS
 62
     7
370
     9
100
AcDb2dPolyline
 66
     1
 10
0.0
 20
0.0
 30
0.0
  0
VERTEX
  5
4AE
330
4AD
100
AcDbEntity
  8
COTAS
 62
     7
370
     9
100
AcDbVertex
100
AcDb2dVertex
 10
127.7400907479099
 20
148.0241373272367
 30
0.0
  0
VERTEX
  5
4AF
330
4AD
100
AcDbEntity
  8
COTAS
 62
     7
370
     9
100
AcDbVertex
100
AcDb2dVertex
 10
127.7400907479099
 20
174.1348777446041
 30
0.0
  0
SEQEND
  5
4B0
330
4AD
100
AcDbEntity
  8
COTAS
370
     9
  0
ENDBLK
  5
4AC
330
4A9
100
AcDbEntity
  8
0
100
AcDbBlockEnd
  0
BLOCK
  5
4B3
330
4B1
100
AcDbEntity
  8
0
100
AcDbBlockBegin
  2
block 168
 70
     0
 71
     0
 10
0.0
 20
0.0
 30
0.0
  3
block 168
  1

  0
POLYLINE
  5
4B5
330
4B1
100
AcDbEntity
  8
COTAS
370
     0
100
AcDb2dPolyline
 66
     1
 10
0.0
 20
0.0
 30
0.0
  0
VERTEX
  5
4B6
330
4B5
100
AcDbEntity
  8
COTAS
370
     0
100
AcDbVertex
100
AcDb2dVertex
 10
127.2698349039481
 20
148.0241373272367
 30
0.0
  0
VERTEX
  5
4B7
330
4B5
100
AcDbEntity
  8
COTAS
370
     0
100
AcDbVertex
100
AcDb2dVertex
 10
128.2106911016474
 20
148.0241373272367
 30
0.0
  0
VERTEX
  5
4B8
330
4B5
100
AcDbEntity
  8
COTAS
370
     0
100
AcDbVertex
100
AcDb2dVertex
 10
127.7400907479099
 20
145.2013964792508
 30
0.0
  0
VERTEX
  5
4B9
330
4B5
100
AcDbEntity
  8
COTAS
370
     0
100
AcDbVertex
100
AcDb2dVertex
 10
127.2698349039481
 20
148.0241373272367
 30
0.0
  0
SEQEND
  5
4BA
330
4B5
100
AcDbEntity
  8
COTAS
370
     0
  0
HATCH
  5
4BB
330
4B1
100
AcDbEntity
  8
COTAS
 62
     7
100
AcDbHatch
 10
0.0
 20
0.0
 30
0.0
210
0.0
220
0.0
230
1.0
  2
SOLID
 70
     1
 71
     0
 91
        1
 92
        1
 93
        3
 72
     1
 10
127.2698349039481
 20
148.0241373272367
 11
128.2106911016474
 21
148.0241373272367
 72
     1
 10
128.2106911016474
 20
148.0241373272367
 11
127.7400907479099
 21
145.2013964792508
 72
     1
 10
127.7400907479099
 20
145.2013964792508
 11
127.2698349039481
 21
148.0241373272367
 97
        0
 75
     2
 76
     1
 98
        0
  0
ENDBLK
  5
4B4
330
4B1
100
AcDbEntity
  8
0
100
AcDbBlockEnd
  0
BLOCK
  5
4BE
330
4BC
100
AcDbEntity
  8
0
100
AcDbBlockBegin
  2
block 169
 70
     0
 71
     0
 10
0.0
 20
0.0
 30
0.0
  3
block 169
  1

  0
POLYLINE
  5
4C0
330
4BC
100
AcDbEntity
  8
COTAS
370
     0
100
AcDb2dPolyline
 66
     1
 10
0.0
 20
0.0
 30
0.0
  0
VERTEX
  5
4C1
330
4C0
100
AcDbEntity
  8
COTAS
370
     0
100
AcDbVertex
100
AcDb2dVertex
 10
127.2698349039481
 20
174.1348777446041
 30
0.0
  0
VERTEX
  5
4C2
330
4C0
100
AcDbEntity
  8
COTAS
370
     0
100
AcDbVertex
100
AcDb2dVertex
 10
128.2106911016474
 20
174.1348777446041
 30
0.0
  0
VERTEX
  5
4C3
330
4C0
100
AcDbEntity
  8
COTAS
370
     0
100
AcDbVertex
100
AcDb2dVertex
 10
127.7400907479099
 20
176.9577908474779
 30
0.0
  0
VERTEX
  5
4C4
330
4C0
100
AcDbEntity
  8
COTAS
370
     0
100
AcDbVertex
100
AcDb2dVertex
 10
127.2698349039481
 20
174.1348777446041
 30
0.0
  0
SEQEND
  5
4C5
330
4C0
100
AcDbEntity
  8
COTAS
370
     0
  0
HATCH
  5
4C6
330
4BC
100
AcDbEntity
  8
COTAS
 62
     7
100
AcDbHatch
 10
0.0
 20
0.0
 30
0.0
210
0.0
220
0.0
230
1.0
  2
SOLID
 70
     1
 71
     0
 91
        1
 92
        1
 93
        3
 72
     1
 10
127.2698349039481
 20
174.1348777446041
 11
128.2106911016474
 21
174.1348777446041
 72
     1
 10
128.2106911016474
 20
174.1348777446041
 11
127.7400907479099
 21
176.9577908474779
 72
     1
 10
127.7400907479099
 20
176.9577908474779
 11
127.2698349039481
 21
174.1348777446041
 97
        0
 75
     2
 76
     1
 98
        0
  0
ENDBLK
  5
4BF
330
4BC
100
AcDbEntity
  8
0
100
AcDbBlockEnd
  0
BLOCK
  5
4C9
330
4C7
100
AcDbEntity
  8
0
100
AcDbBlockBegin
  2
block 170
 70
     0
 71
     0
 10
0.0
 20
0.0
 30
0.0
  3
block 170
  1

  0
MTEXT
  5
4CB
330
4C7
100
AcDbEntity
  8
COTAS
 62
     7
100
AcDbMText
 10
126.7992345502105
 20
157.9101898534836
 30
0.0
 40
2.398890470823883
 41
0.0
 71
     7
 72
     1
  1
\fArial|b1|i0|c0|p34;\W1;338
 11
-4.371139000186241E-8
 21
0.999999999999999
 31
0.0
 73
     1
 44
1.0
  0
ENDBLK
  5
4CA
330
4C7
100
AcDbEntity
  8
0
100
AcDbBlockEnd
  0
BLOCK
  5
4CE
330
4CC
100
AcDbEntity
  8
0
100
AcDbBlockBegin
  2
block 171
 70
     0
 71
     0
 10
0.0
 20
0.0
 30
0.0
  3
block 171
  1

  0
POLYLINE
  5
4D0
330
4CC
100
AcDbEntity
  8
COTAS
 62
     7
370
     9
100
AcDb2dPolyline
 66
     1
 10
0.0
 20
0.0
 30
0.0
  0
VERTEX
  5
4D1
330
4D0
100
AcDbEntity
  8
COTAS
 62
     7
370
     9
100
AcDbVertex
100
AcDb2dVertex
 10
120.4819587914362
 20
145.2013964792508
 30
0.0
  0
VERTEX
  5
4D2
330
4D0
100
AcDbEntity
  8
COTAS
 62
     7
370
     9
100
AcDbVertex
100
AcDb2dVertex
 10
120.4819587914362
 20
145.2013964792508
 30
0.0
  0
SEQEND
  5
4D3
330
4D0
100
AcDbEntity
  8
COTAS
370
     9
  0
ENDBLK
  5
4CF
330
4CC
100
AcDbEntity
  8
0
100
AcDbBlockEnd
  0
BLOCK
  5
4D6
330
4D4
100
AcDbEntity
  8
0
100
AcDbBlockBegin
  2
block 172
 70
     0
 71
     0
 10
0.0
 20
0.0
 30
0.0
  3
block 172
  1

  0
POLYLINE
  5
4D8
330
4D4
100
AcDbEntity
  8
COTAS
 62
     7
370
     9
100
AcDb2dPolyline
 66
     1
 10
0.0
 20
0.0
 30
0.0
  0
VERTEX
  5
4D9
330
4D8
100
AcDbEntity
  8
COTAS
 62
     7
370
     9
100
AcDbVertex
100
AcDb2dVertex
 10
103.9926873925041
 20
176.9577908474779
 30
0.0
  0
VERTEX
  5
4DA
330
4D8
100
AcDbEntity
  8
COTAS
 62
     7
370
     9
100
AcDbVertex
100
AcDb2dVertex
 10
103.9926873925041
 20
176.9577908474779
 30
0.0
  0
SEQEND
  5
4DB
330
4D8
100
AcDbEntity
  8
COTAS
370
     9
  0
ENDBLK
  5
4D7
330
4D4
100
AcDbEntity
  8
0
100
AcDbBlockEnd
  0
BLOCK
  5
4DE
330
4DC
100
AcDbEntity
  8
0
100
AcDbBlockBegin
  2
block 173
 70
     0
 71
     0
 10
0.0
 20
0.0
 30
0.0
  3
block 173
  1

  0
POLYLINE
  5
4E0
330
4DC
100
AcDbEntity
  8
COTAS
 62
     7
370
     9
100
AcDb2dPolyline
 66
     1
 10
0.0
 20
0.0
 30
0.0
  0
VERTEX
  5
4E1
330
4E0
100
AcDbEntity
  8
COTAS
 62
     7
370
     9
100
AcDbVertex
100
AcDb2dVertex
 10
127.7400907479099
 20
176.9577908474779
 30
0.0
  0
VERTEX
  5
4E2
330
4E0
100
AcDbEntity
  8
COTAS
 62
     7
370
     9
100
AcDbVertex
100
AcDb2dVertex
 10
127.7400907479099
 20
176.9577908474779
 30
0.0
  0
SEQEND
  5
4E3
330
4E0
100
AcDbEntity
  8
COTAS
370
     9
  0
ENDBLK
  5
4DF
330
4DC
100
AcDbEntity
  8
0
100
AcDbBlockEnd
  0
BLOCK
  5
4E6
330
4E4
100
AcDbEntity
  8
0
100
AcDbBlockBegin
  2
block 174
 70
     0
 71
     0
 10
0.0
 20
0.0
 30
0.0
  3
block 174
  1

  0
INSERT
  5
4E9
330
4E4
100
AcDbEntity
  8
COTAS
100
AcDbBlockReference
  2
block 175
 10
0.0
 20
0.0
 30
0.0
  0
INSERT
  5
4F1
330
4E4
100
AcDbEntity
  8
COTAS
100
AcDbBlockReference
  2
block 176
 10
0.0
 20
0.0
 30
0.0
  0
INSERT
  5
4F9
330
4E4
100
AcDbEntity
  8
COTAS
100
AcDbBlockReference
  2
block 177
 10
0.0
 20
0.0
 30
0.0
  0
INSERT
  5
501
330
4E4
100
AcDbEntity
  8
COTAS
100
AcDbBlockReference
  2
block 178
 10
0.0
 20
0.0
 30
0.0
  0
INSERT
  5
50C
330
4E4
100
AcDbEntity
  8
COTAS
100
AcDbBlockReference
  2
block 179
 10
0.0
 20
0.0
 30
0.0
  0
INSERT
  5
517
330
4E4
100
AcDbEntity
  8
COTAS
100
AcDbBlockReference
  2
block 180
 10
0.0
 20
0.0
 30
0.0
  0
INSERT
  5
51C
330
4E4
100
AcDbEntity
  8
COTAS
100
AcDbBlockReference
  2
block 181
 10
0.0
 20
0.0
 30
0.0
  0
INSERT
  5
524
330
4E4
100
AcDbEntity
  8
COTAS
100
AcDbBlockReference
  2
block 182
 10
0.0
 20
0.0
 30
0.0
  0
INSERT
  5
52C
330
4E4
100
AcDbEntity
  8
COTAS
100
AcDbBlockReference
  2
block 183
 10
0.0
 20
0.0
 30
0.0
  0
ENDBLK
  5
4E7
330
4E4
100
AcDbEntity
  8
0
100
AcDbBlockEnd
  0
BLOCK
  5
4EA
330
4E8
100
AcDbEntity
  8
0
100
AcDbBlockBegin
  2
block 175
 70
     0
 71
     0
 10
0.0
 20
0.0
 30
0.0
  3
block 175
  1

  0
POLYLINE
  5
4EC
330
4E8
100
AcDbEntity
  8
COTAS
 62
     7
370
     9
100
AcDb2dPolyline
 66
     1
 10
0.0
 20
0.0
 30
0.0
  0
VERTEX
  5
4ED
330
4EC
100
AcDbEntity
  8
COTAS
 62
     7
370
     9
100
AcDbVertex
100
AcDb2dVertex
 10
101.8925557992507
 20
144.2605402815514
 30
0.0
  0
VERTEX
  5
4EE
330
4EC
100
AcDbEntity
  8
COTAS
 62
     7
370
     9
100
AcDbVertex
100
AcDb2dVertex
 10
101.8925557992507
 20
134.6233960683173
 30
0.0
  0
SEQEND
  5
4EF
330
4EC
100
AcDbEntity
  8
COTAS
370
     9
  0
ENDBLK
  5
4EB
330
4E8
100
AcDbEntity
  8
0
100
AcDbBlockEnd
  0
BLOCK
  5
4F2
330
4F0
100
AcDbEntity
  8
0
100
AcDbBlockBegin
  2
block 176
 70
     0
 71
     0
 10
0.0
 20
0.0
 30
0.0
  3
block 176
  1

  0
POLYLINE
  5
4F4
330
4F0
100
AcDbEntity
  8
COTAS
 62
     7
370
     9
100
AcDb2dPolyline
 66
     1
 10
0.0
 20
0.0
 30
0.0
  0
VERTEX
  5
4F5
330
4F4
100
AcDbEntity
  8
COTAS
 62
     7
370
     9
100
AcDbVertex
100
AcDb2dVertex
 10
71.70592022443878
 20
144.2605402815514
 30
0.0
  0
VERTEX
  5
4F6
330
4F4
100
AcDbEntity
  8
COTAS
 62
     7
370
     9
100
AcDbVertex
100
AcDb2dVertex
 10
71.70592022443878
 20
134.6233960683173
 30
0.0
  0
SEQEND
  5
4F7
330
4F4
100
AcDbEntity
  8
COTAS
370
     9
  0
ENDBLK
  5
4F3
330
4F0
100
AcDbEntity
  8
0
100
AcDbBlockEnd
  0
BLOCK
  5
4FA
330
4F8
100
AcDbEntity
  8
0
100
AcDbBlockBegin
  2
block 177
 70
     0
 71
     0
 10
0.0
 20
0.0
 30
0.0
  3
block 177
  1

  0
POLYLINE
  5
4FC
330
4F8
100
AcDbEntity
  8
COTAS
 62
     7
370
     9
100
AcDb2dPolyline
 66
     1
 10
0.0
 20
0.0
 30
0.0
  0
VERTEX
  5
4FD
330
4FC
100
AcDbEntity
  8
COTAS
 62
     7
370
     9
100
AcDbVertex
100
AcDb2dVertex
 10
99.06981495126479
 20
136.505108463716
 30
0.0
  0
VERTEX
  5
4FE
330
4FC
100
AcDbEntity
  8
COTAS
 62
     7
370
     9
100
AcDbVertex
100
AcDb2dVertex
 10
74.5286610724247
 20
136.505108463716
 30
0.0
  0
SEQEND
  5
4FF
330
4FC
100
AcDbEntity
  8
COTAS
370
     9
  0
ENDBLK
  5
4FB
330
4F8
100
AcDbEntity
  8
0
100
AcDbBlockEnd
  0
BLOCK
  5
502
330
500
100
AcDbEntity
  8
0
100
AcDbBlockBegin
  2
block 178
 70
     0
 71
     0
 10
0.0
 20
0.0
 30
0.0
  3
block 178
  1

  0
POLYLINE
  5
504
330
500
100
AcDbEntity
  8
COTAS
370
     0
100
AcDb2dPolyline
 66
     1
 10
0.0
 20
0.0
 30
0.0
  0
VERTEX
  5
505
330
504
100
AcDbEntity
  8
COTAS
370
     0
100
AcDbVertex
100
AcDb2dVertex
 10
99.06981495126479
 20
136.9757088174536
 30
0.0
  0
VERTEX
  5
506
330
504
100
AcDbEntity
  8
COTAS
370
     0
100
AcDbVertex
100
AcDb2dVertex
 10
99.06981495126479
 20
136.0348526197542
 30
0.0
  0
VERTEX
  5
507
330
504
100
AcDbEntity
  8
COTAS
370
     0
100
AcDbVertex
100
AcDb2dVertex
 10
101.8925557992507
 20
136.505108463716
 30
0.0
  0
VERTEX
  5
508
330
504
100
AcDbEntity
  8
COTAS
370
     0
100
AcDbVertex
100
AcDb2dVertex
 10
99.06981495126479
 20
136.9757088174536
 30
0.0
  0
SEQEND
  5
509
330
504
100
AcDbEntity
  8
COTAS
370
     0
  0
HATCH
  5
50A
330
500
100
AcDbEntity
  8
COTAS
 62
     7
100
AcDbHatch
 10
0.0
 20
0.0
 30
0.0
210
0.0
220
0.0
230
1.0
  2
SOLID
 70
     1
 71
     0
 91
        1
 92
        1
 93
        3
 72
     1
 10
99.06981495126479
 20
136.9757088174536
 11
99.06981495126479
 21
136.0348526197542
 72
     1
 10
99.06981495126479
 20
136.0348526197542
 11
101.8925557992507
 21
136.505108463716
 72
     1
 10
101.8925557992507
 20
136.505108463716
 11
99.06981495126479
 21
136.9757088174536
 97
        0
 75
     2
 76
     1
 98
        0
  0
ENDBLK
  5
503
330
500
100
AcDbEntity
  8
0
100
AcDbBlockEnd
  0
BLOCK
  5
50D
330
50B
100
AcDbEntity
  8
0
100
AcDbBlockBegin
  2
block 179
 70
     0
 71
     0
 10
0.0
 20
0.0
 30
0.0
  3
block 179
  1

  0
POLYLINE
  5
50F
330
50B
100
AcDbEntity
  8
COTAS
370
     0
100
AcDb2dPolyline
 66
     1
 10
0.0
 20
0.0
 30
0.0
  0
VERTEX
  5
510
330
50F
100
AcDbEntity
  8
COTAS
370
     0
100
AcDbVertex
100
AcDb2dVertex
 10
74.5286610724247
 20
136.9757088174536
 30
0.0
  0
VERTEX
  5
511
330
50F
100
AcDbEntity
  8
COTAS
370
     0
100
AcDbVertex
100
AcDb2dVertex
 10
74.5286610724247
 20
136.0348526197542
 30
0.0
  0
VERTEX
  5
512
330
50F
100
AcDbEntity
  8
COTAS
370
     0
100
AcDbVertex
100
AcDb2dVertex
 10
71.70592022443878
 20
136.505108463716
 30
0.0
  0
VERTEX
  5
513
330
50F
100
AcDbEntity
  8
COTAS
370
     0
100
AcDbVertex
100
AcDb2dVertex
 10
74.5286610724247
 20
136.9757088174536
 30
0.0
  0
SEQEND
  5
514
330
50F
100
AcDbEntity
  8
COTAS
370
     0
  0
HATCH
  5
515
330
50B
100
AcDbEntity
  8
COTAS
 62
     7
100
AcDbHatch
 10
0.0
 20
0.0
 30
0.0
210
0.0
220
0.0
230
1.0
  2
SOLID
 70
     1
 71
     0
 91
        1
 92
        1
 93
        3
 72
     1
 10
74.5286610724247
 20
136.9757088174536
 11
74.5286610724247
 21
136.0348526197542
 72
     1
 10
74.5286610724247
 20
136.0348526197542
 11
71.70592022443878
 21
136.505108463716
 72
     1
 10
71.70592022443878
 20
136.505108463716
 11
74.5286610724247
 21
136.9757088174536
 97
        0
 75
     2
 76
     1
 98
        0
  0
ENDBLK
  5
50E
330
50B
100
AcDbEntity
  8
0
100
AcDbBlockEnd
  0
BLOCK
  5
518
330
516
100
AcDbEntity
  8
0
100
AcDbBlockBegin
  2
block 180
 70
     0
 71
     0
 10
0.0
 20
0.0
 30
0.0
  3
block 180
  1

  0
MTEXT
  5
51A
330
516
100
AcDbEntity
  8
COTAS
 62
     7
100
AcDbMText
 10
83.10213135288815
 20
137.4463091711911
 30
0.0
 40
2.398890470823883
 41
0.0
 71
     7
 72
     1
  1
\fArial|b1|i0|c0|p34;\W1;320
 73
     1
 44
1.0
  0
ENDBLK
  5
519
330
516
100
AcDbEntity
  8
0
100
AcDbBlockEnd
  0
BLOCK
  5
51D
330
51B
100
AcDbEntity
  8
0
100
AcDbBlockBegin
  2
block 181
 70
     0
 71
     0
 10
0.0
 20
0.0
 30
0.0
  3
block 181
  1

  0
POLYLINE
  5
51F
330
51B
100
AcDbEntity
  8
COTAS
 62
     7
370
     9
100
AcDb2dPolyline
 66
     1
 10
0.0
 20
0.0
 30
0.0
  0
VERTEX
  5
520
330
51F
100
AcDbEntity
  8
COTAS
 62
     7
370
     9
100
AcDbVertex
100
AcDb2dVertex
 10
101.8925557992507
 20
145.2013964792508
 30
0.0
  0
VERTEX
  5
521
330
51F
100
AcDbEntity
  8
COTAS
 62
     7
370
     9
100
AcDbVertex
100
AcDb2dVertex
 10
101.8925557992507
 20
145.2013964792508
 30
0.0
  0
SEQEND
  5
522
330
51F
100
AcDbEntity
  8
COTAS
370
     9
  0
ENDBLK
  5
51E
330
51B
100
AcDbEntity
  8
0
100
AcDbBlockEnd
  0
BLOCK
  5
525
330
523
100
AcDbEntity
  8
0
100
AcDbBlockBegin
  2
block 182
 70
     0
 71
     0
 10
0.0
 20
0.0
 30
0.0
  3
block 182
  1

  0
POLYLINE
  5
527
330
523
100
AcDbEntity
  8
COTAS
 62
     7
370
     9
100
AcDb2dPolyline
 66
     1
 10
0.0
 20
0.0
 30
0.0
  0
VERTEX
  5
528
330
527
100
AcDbEntity
  8
COTAS
 62
     7
370
     9
100
AcDbVertex
100
AcDb2dVertex
 10
71.70592022443878
 20
145.2013964792508
 30
0.0
  0
VERTEX
  5
529
330
527
100
AcDbEntity
  8
COTAS
 62
     7
370
     9
100
AcDbVertex
100
AcDb2dVertex
 10
71.70592022443878
 20
145.2013964792508
 30
0.0
  0
SEQEND
  5
52A
330
527
100
AcDbEntity
  8
COTAS
370
     9
  0
ENDBLK
  5
526
330
523
100
AcDbEntity
  8
0
100
AcDbBlockEnd
  0
BLOCK
  5
52D
330
52B
100
AcDbEntity
  8
0
100
AcDbBlockBegin
  2
block 183
 70
     0
 71
     0
 10
0.0
 20
0.0
 30
0.0
  3
block 183
  1

  0
POLYLINE
  5
52F
330
52B
100
AcDbEntity
  8
COTAS
 62
     7
370
     9
100
AcDb2dPolyline
 66
     1
 10
0.0
 20
0.0
 30
0.0
  0
VERTEX
  5
530
330
52F
100
AcDbEntity
  8
COTAS
 62
     7
370
     9
100
AcDbVertex
100
AcDb2dVertex
 10
71.70592022443878
 20
136.505108463716
 30
0.0
  0
VERTEX
  5
531
330
52F
100
AcDbEntity
  8
COTAS
 62
     7
370
     9
100
AcDbVertex
100
AcDb2dVertex
 10
71.70592022443878
 20
136.505108463716
 30
0.0
  0
SEQEND
  5
532
330
52F
100
AcDbEntity
  8
COTAS
370
     9
  0
ENDBLK
  5
52E
330
52B
100
AcDbEntity
  8
0
100
AcDbBlockEnd
  0
BLOCK
  5
535
330
533
100
AcDbEntity
  8
0
100
AcDbBlockBegin
  2
block 184
 70
     0
 71
     0
 10
0.0
 20
0.0
 30
0.0
  3
block 184
  1

  0
INSERT
  5
538
330
533
100
AcDbEntity
  8
COTAS
100
AcDbBlockReference
  2
block 185
 10
0.0
 20
0.0
 30
0.0
  0
INSERT
  5
540
330
533
100
AcDbEntity
  8
COTAS
100
AcDbBlockReference
  2
block 186
 10
0.0
 20
0.0
 30
0.0
  0
INSERT
  5
548
330
533
100
AcDbEntity
  8
COTAS
100
AcDbBlockReference
  2
block 187
 10
0.0
 20
0.0
 30
0.0
  0
INSERT
  5
550
330
533
100
AcDbEntity
  8
COTAS
100
AcDbBlockReference
  2
block 188
 10
0.0
 20
0.0
 30
0.0
  0
INSERT
  5
55B
330
533
100
AcDbEntity
  8
COTAS
100
AcDbBlockReference
  2
block 189
 10
0.0
 20
0.0
 30
0.0
  0
INSERT
  5
566
330
533
100
AcDbEntity
  8
COTAS
100
AcDbBlockReference
  2
block 190
 10
0.0
 20
0.0
 30
0.0
  0
INSERT
  5
56B
330
533
100
AcDbEntity
  8
COTAS
100
AcDbBlockReference
  2
block 191
 10
0.0
 20
0.0
 30
0.0
  0
INSERT
  5
573
330
533
100
AcDbEntity
  8
COTAS
100
AcDbBlockReference
  2
block 192
 10
0.0
 20
0.0
 30
0.0
  0
INSERT
  5
57B
330
533
100
AcDbEntity
  8
COTAS
100
AcDbBlockReference
  2
block 193
 10
0.0
 20
0.0
 30
0.0
  0
ENDBLK
  5
536
330
533
100
AcDbEntity
  8
0
100
AcDbBlockEnd
  0
BLOCK
  5
539
330
537
100
AcDbEntity
  8
0
100
AcDbBlockBegin
  2
block 185
 70
     0
 71
     0
 10
0.0
 20
0.0
 30
0.0
  3
block 185
  1

  0
POLYLINE
  5
53B
330
537
100
AcDbEntity
  8
COTAS
 62
     7
370
     9
100
AcDb2dPolyline
 66
     1
 10
0.0
 20
0.0
 30
0.0
  0
VERTEX
  5
53C
330
53B
100
AcDbEntity
  8
COTAS
 62
     7
370
     9
100
AcDbVertex
100
AcDb2dVertex
 10
71.70592022443878
 20
137.4459646614153
 30
0.0
  0
VERTEX
  5
53D
330
53B
100
AcDbEntity
  8
COTAS
 62
     7
370
     9
100
AcDbVertex
100
AcDb2dVertex
 10
71.70592022443878
 20
138.3871653688905
 30
0.0
  0
SEQEND
  5
53E
330
53B
100
AcDbEntity
  8
COTAS
370
     9
  0
ENDBLK
  5
53A
330
537
100
AcDbEntity
  8
0
100
AcDbBlockEnd
  0
BLOCK
  5
541
330
53F
100
AcDbEntity
  8
0
100
AcDbBlockBegin
  2
block 186
 70
     0
 71
     0
 10
0.0
 20
0.0
 30
0.0
  3
block 186
  1

  0
POLYLINE
  5
543
330
53F
100
AcDbEntity
  8
COTAS
 62
     7
370
     9
100
AcDb2dPolyline
 66
     1
 10
0.0
 20
0.0
 30
0.0
  0
VERTEX
  5
544
330
543
100
AcDbEntity
  8
COTAS
 62
     7
370
     9
100
AcDbVertex
100
AcDb2dVertex
 10
59.11288213487353
 20
179.263078012218
 30
0.0
  0
VERTEX
  5
545
330
543
100
AcDbEntity
  8
COTAS
 62
     7
370
     9
100
AcDbVertex
100
AcDb2dVertex
 10
59.11288213487353
 20
134.6233960683173
 30
0.0
  0
SEQEND
  5
546
330
543
100
AcDbEntity
  8
COTAS
370
     9
  0
ENDBLK
  5
542
330
53F
100
AcDbEntity
  8
0
100
AcDbBlockEnd
  0
BLOCK
  5
549
330
547
100
AcDbEntity
  8
0
100
AcDbBlockBegin
  2
block 187
 70
     0
 71
     0
 10
0.0
 20
0.0
 30
0.0
  3
block 187
  1

  0
POLYLINE
  5
54B
330
547
100
AcDbEntity
  8
COTAS
 62
     7
370
     9
100
AcDb2dPolyline
 66
     1
 10
0.0
 20
0.0
 30
0.0
  0
VERTEX
  5
54C
330
54B
100
AcDbEntity
  8
COTAS
 62
     7
370
     9
100
AcDbVertex
100
AcDb2dVertex
 10
68.88317937645287
 20
136.505108463716
 30
0.0
  0
VERTEX
  5
54D
330
54B
100
AcDbEntity
  8
COTAS
 62
     7
370
     9
100
AcDbVertex
100
AcDb2dVertex
 10
61.93562298285944
 20
136.505108463716
 30
0.0
  0
SEQEND
  5
54E
330
54B
100
AcDbEntity
  8
COTAS
370
     9
  0
ENDBLK
  5
54A
330
547
100
AcDbEntity
  8
0
100
AcDbBlockEnd
  0
BLOCK
  5
551
330
54F
100
AcDbEntity
  8
0
100
AcDbBlockBegin
  2
block 188
 70
     0
 71
     0
 10
0.0
 20
0.0
 30
0.0
  3
block 188
  1

  0
POLYLINE
  5
553
330
54F
100
AcDbEntity
  8
COTAS
370
     0
100
AcDb2dPolyline
 66
     1
 10
0.0
 20
0.0
 30
0.0
  0
VERTEX
  5
554
330
553
100
AcDbEntity
  8
COTAS
370
     0
100
AcDbVertex
100
AcDb2dVertex
 10
68.88317937645287
 20
136.9757088174536
 30
0.0
  0
VERTEX
  5
555
330
553
100
AcDbEntity
  8
COTAS
370
     0
100
AcDbVertex
100
AcDb2dVertex
 10
68.88317937645287
 20
136.0348526197542
 30
0.0
  0
VERTEX
  5
556
330
553
100
AcDbEntity
  8
COTAS
370
     0
100
AcDbVertex
100
AcDb2dVertex
 10
71.70592022443878
 20
136.505108463716
 30
0.0
  0
VERTEX
  5
557
330
553
100
AcDbEntity
  8
COTAS
370
     0
100
AcDbVertex
100
AcDb2dVertex
 10
68.88317937645287
 20
136.9757088174536
 30
0.0
  0
SEQEND
  5
558
330
553
100
AcDbEntity
  8
COTAS
370
     0
  0
HATCH
  5
559
330
54F
100
AcDbEntity
  8
COTAS
 62
     7
100
AcDbHatch
 10
0.0
 20
0.0
 30
0.0
210
0.0
220
0.0
230
1.0
  2
SOLID
 70
     1
 71
     0
 91
        1
 92
        1
 93
        3
 72
     1
 10
68.88317937645287
 20
136.9757088174536
 11
68.88317937645287
 21
136.0348526197542
 72
     1
 10
68.88317937645287
 20
136.0348526197542
 11
71.70592022443878
 21
136.505108463716
 72
     1
 10
71.70592022443878
 20
136.505108463716
 11
68.88317937645287
 21
136.9757088174536
 97
        0
 75
     2
 76
     1
 98
        0
  0
ENDBLK
  5
552
330
54F
100
AcDbEntity
  8
0
100
AcDbBlockEnd
  0
BLOCK
  5
55C
330
55A
100
AcDbEntity
  8
0
100
AcDbBlockBegin
  2
block 189
 70
     0
 71
     0
 10
0.0
 20
0.0
 30
0.0
  3
block 189
  1

  0
POLYLINE
  5
55E
330
55A
100
AcDbEntity
  8
COTAS
370
     0
100
AcDb2dPolyline
 66
     1
 10
0.0
 20
0.0
 30
0.0
  0
VERTEX
  5
55F
330
55E
100
AcDbEntity
  8
COTAS
370
     0
100
AcDbVertex
100
AcDb2dVertex
 10
61.93562298285944
 20
136.9757088174536
 30
0.0
  0
VERTEX
  5
560
330
55E
100
AcDbEntity
  8
COTAS
370
     0
100
AcDbVertex
100
AcDb2dVertex
 10
61.93562298285944
 20
136.0348526197542
 30
0.0
  0
VERTEX
  5
561
330
55E
100
AcDbEntity
  8
COTAS
370
     0
100
AcDbVertex
100
AcDb2dVertex
 10
59.11288213487353
 20
136.505108463716
 30
0.0
  0
VERTEX
  5
562
330
55E
100
AcDbEntity
  8
COTAS
370
     0
100
AcDbVertex
100
AcDb2dVertex
 10
61.93562298285944
 20
136.9757088174536
 30
0.0
  0
SEQEND
  5
563
330
55E
100
AcDbEntity
  8
COTAS
370
     0
  0
HATCH
  5
564
330
55A
100
AcDbEntity
  8
COTAS
 62
     7
100
AcDbHatch
 10
0.0
 20
0.0
 30
0.0
210
0.0
220
0.0
230
1.0
  2
SOLID
 70
     1
 71
     0
 91
        1
 92
        1
 93
        3
 72
     1
 10
61.93562298285944
 20
136.9757088174536
 11
61.93562298285944
 21
136.0348526197542
 72
     1
 10
61.93562298285944
 20
136.0348526197542
 11
59.11288213487353
 21
136.505108463716
 72
     1
 10
59.11288213487353
 20
136.505108463716
 11
61.93562298285944
 21
136.9757088174536
 97
        0
 75
     2
 76
     1
 98
        0
  0
ENDBLK
  5
55D
330
55A
100
AcDbEntity
  8
0
100
AcDbBlockEnd
  0
BLOCK
  5
567
330
565
100
AcDbEntity
  8
0
100
AcDbBlockBegin
  2
block 190
 70
     0
 71
     0
 10
0.0
 20
0.0
 30
0.0
  3
block 190
  1

  0
MTEXT
  5
569
330
565
100
AcDbEntity
  8
COTAS
 62
     7
100
AcDbMText
 10
61.77456466267473
 20
137.4459646614153
 30
0.0
 40
2.398890470823883
 41
0.0
 71
     7
 72
     1
  1
\fArial|b1|i0|c0|p34;\W1;135
 73
     1
 44
1.0
  0
ENDBLK
  5
568
330
565
100
AcDbEntity
  8
0
100
AcDbBlockEnd
  0
BLOCK
  5
56C
330
56A
100
AcDbEntity
  8
0
100
AcDbBlockBegin
  2
block 191
 70
     0
 71
     0
 10
0.0
 20
0.0
 30
0.0
  3
block 191
  1

  0
POLYLINE
  5
56E
330
56A
100
AcDbEntity
  8
COTAS
 62
     7
370
     9
100
AcDb2dPolyline
 66
     1
 10
0.0
 20
0.0
 30
0.0
  0
VERTEX
  5
56F
330
56E
100
AcDbEntity
  8
COTAS
 62
     7
370
     9
100
AcDbVertex
100
AcDb2dVertex
 10
71.70592022443878
 20
136.505108463716
 30
0.0
  0
VERTEX
  5
570
330
56E
100
AcDbEntity
  8
COTAS
 62
     7
370
     9
100
AcDbVertex
100
AcDb2dVertex
 10
71.70592022443878
 20
136.505108463716
 30
0.0
  0
SEQEND
  5
571
330
56E
100
AcDbEntity
  8
COTAS
370
     9
  0
ENDBLK
  5
56D
330
56A
100
AcDbEntity
  8
0
100
AcDbBlockEnd
  0
BLOCK
  5
574
330
572
100
AcDbEntity
  8
0
100
AcDbBlockBegin
  2
block 192
 70
     0
 71
     0
 10
0.0
 20
0.0
 30
0.0
  3
block 192
  1

  0
POLYLINE
  5
576
330
572
100
AcDbEntity
  8
COTAS
 62
     7
370
     9
100
AcDb2dPolyline
 66
     1
 10
0.0
 20
0.0
 30
0.0
  0
VERTEX
  5
577
330
576
100
AcDbEntity
  8
COTAS
 62
     7
370
     9
100
AcDbVertex
100
AcDb2dVertex
 10
59.11288213487353
 20
180.2039342099173
 30
0.0
  0
VERTEX
  5
578
330
576
100
AcDbEntity
  8
COTAS
 62
     7
370
     9
100
AcDbVertex
100
AcDb2dVertex
 10
59.11288213487353
 20
180.2039342099173
 30
0.0
  0
SEQEND
  5
579
330
576
100
AcDbEntity
  8
COTAS
370
     9
  0
ENDBLK
  5
575
330
572
100
AcDbEntity
  8
0
100
AcDbBlockEnd
  0
BLOCK
  5
57C
330
57A
100
AcDbEntity
  8
0
100
AcDbBlockBegin
  2
block 193
 70
     0
 71
     0
 10
0.0
 20
0.0
 30
0.0
  3
block 193
  1

  0
POLYLINE
  5
57E
330
57A
100
AcDbEntity
  8
COTAS
 62
     7
370
     9
100
AcDb2dPolyline
 66
     1
 10
0.0
 20
0.0
 30
0.0
  0
VERTEX
  5
57F
330
57E
100
AcDbEntity
  8
COTAS
 62
     7
370
     9
100
AcDbVertex
100
AcDb2dVertex
 10
59.11288213487353
 20
136.505108463716
 30
0.0
  0
VERTEX
  5
580
330
57E
100
AcDbEntity
  8
COTAS
 62
     7
370
     9
100
AcDbVertex
100
AcDb2dVertex
 10
59.11288213487353
 20
136.505108463716
 30
0.0
  0
SEQEND
  5
581
330
57E
100
AcDbEntity
  8
COTAS
370
     9
  0
ENDBLK
  5
57D
330
57A
100
AcDbEntity
  8
0
100
AcDbBlockEnd
  0
BLOCK
  5
584
330
582
100
AcDbEntity
  8
0
100
AcDbBlockBegin
  2
block 194
 70
     0
 71
     0
 10
0.0
 20
0.0
 30
0.0
  3
block 194
  1

  0
INSERT
  5
587
330
582
100
AcDbEntity
  8
COTAS
100
AcDbBlockReference
  2
block 195
 10
0.0
 20
0.0
 30
0.0
  0
INSERT
  5
58F
330
582
100
AcDbEntity
  8
COTAS
100
AcDbBlockReference
  2
block 196
 10
0.0
 20
0.0
 30
0.0
  0
INSERT
  5
597
330
582
100
AcDbEntity
  8
COTAS
100
AcDbBlockReference
  2
block 197
 10
0.0
 20
0.0
 30
0.0
  0
INSERT
  5
59F
330
582
100
AcDbEntity
  8
COTAS
100
AcDbBlockReference
  2
block 198
 10
0.0
 20
0.0
 30
0.0
  0
INSERT
  5
5AA
330
582
100
AcDbEntity
  8
COTAS
100
AcDbBlockReference
  2
block 199
 10
0.0
 20
0.0
 30
0.0
  0
INSERT
  5
5B5
330
582
100
AcDbEntity
  8
COTAS
100
AcDbBlockReference
  2
block 200
 10
0.0
 20
0.0
 30
0.0
  0
INSERT
  5
5BA
330
582
100
AcDbEntity
  8
COTAS
100
AcDbBlockReference
  2
block 201
 10
0.0
 20
0.0
 30
0.0
  0
INSERT
  5
5C2
330
582
100
AcDbEntity
  8
COTAS
100
AcDbBlockReference
  2
block 202
 10
0.0
 20
0.0
 30
0.0
  0
INSERT
  5
5CA
330
582
100
AcDbEntity
  8
COTAS
100
AcDbBlockReference
  2
block 203
 10
0.0
 20
0.0
 30
0.0
  0
ENDBLK
  5
585
330
582
100
AcDbEntity
  8
0
100
AcDbBlockEnd
  0
BLOCK
  5
588
330
586
100
AcDbEntity
  8
0
100
AcDbBlockBegin
  2
block 195
 70
     0
 71
     0
 10
0.0
 20
0.0
 30
0.0
  3
block 195
  1

  0
POLYLINE
  5
58A
330
586
100
AcDbEntity
  8
COTAS
 62
     7
370
     9
100
AcDb2dPolyline
 66
     1
 10
0.0
 20
0.0
 30
0.0
  0
VERTEX
  5
58B
330
58A
100
AcDbEntity
  8
COTAS
 62
     7
370
     9
100
AcDbVertex
100
AcDb2dVertex
 10
59.00332802617035
 20
88.56278355414533
 30
0.0
  0
VERTEX
  5
58C
330
58A
100
AcDbEntity
  8
COTAS
 62
     7
370
     9
100
AcDbVertex
100
AcDb2dVertex
 10
59.00332802617035
 20
111.6266795143714
 30
0.0
  0
SEQEND
  5
58D
330
58A
100
AcDbEntity
  8
COTAS
370
     9
  0
ENDBLK
  5
589
330
586
100
AcDbEntity
  8
0
100
AcDbBlockEnd
  0
BLOCK
  5
590
330
58E
100
AcDbEntity
  8
0
100
AcDbBlockBegin
  2
block 196
 70
     0
 71
     0
 10
0.0
 20
0.0
 30
0.0
  3
block 196
  1

  0
POLYLINE
  5
592
330
58E
100
AcDbEntity
  8
COTAS
 62
     7
370
     9
100
AcDb2dPolyline
 66
     1
 10
0.0
 20
0.0
 30
0.0
  0
VERTEX
  5
593
330
592
100
AcDbEntity
  8
COTAS
 62
     7
370
     9
100
AcDbVertex
100
AcDb2dVertex
 10
98.99281701637435
 20
98.72926703789027
 30
0.0
  0
VERTEX
  5
594
330
592
100
AcDbEntity
  8
COTAS
 62
     7
370
     9
100
AcDbVertex
100
AcDb2dVertex
 10
98.99281701637435
 20
111.6266795143714
 30
0.0
  0
SEQEND
  5
595
330
592
100
AcDbEntity
  8
COTAS
370
     9
  0
ENDBLK
  5
591
330
58E
100
AcDbEntity
  8
0
100
AcDbBlockEnd
  0
BLOCK
  5
598
330
596
100
AcDbEntity
  8
0
100
AcDbBlockBegin
  2
block 197
 70
     0
 71
     0
 10
0.0
 20
0.0
 30
0.0
  3
block 197
  1

  0
POLYLINE
  5
59A
330
596
100
AcDbEntity
  8
COTAS
 62
     7
370
     9
100
AcDb2dPolyline
 66
     1
 10
0.0
 20
0.0
 30
0.0
  0
VERTEX
  5
59B
330
59A
100
AcDbEntity
  8
COTAS
 62
     7
370
     9
100
AcDbVertex
100
AcDb2dVertex
 10
61.82606887415626
 20
109.744622609197
 30
0.0
  0
VERTEX
  5
59C
330
59A
100
AcDbEntity
  8
COTAS
 62
     7
370
     9
100
AcDbVertex
100
AcDb2dVertex
 10
96.17007616838843
 20
109.744622609197
 30
0.0
  0
SEQEND
  5
59D
330
59A
100
AcDbEntity
  8
COTAS
370
     9
  0
ENDBLK
  5
599
330
596
100
AcDbEntity
  8
0
100
AcDbBlockEnd
  0
BLOCK
  5
5A0
330
59E
100
AcDbEntity
  8
0
100
AcDbBlockBegin
  2
block 198
 70
     0
 71
     0
 10
0.0
 20
0.0
 30
0.0
  3
block 198
  1

  0
POLYLINE
  5
5A2
330
59E
100
AcDbEntity
  8
COTAS
370
     0
100
AcDb2dPolyline
 66
     1
 10
0.0
 20
0.0
 30
0.0
  0
VERTEX
  5
5A3
330
5A2
100
AcDbEntity
  8
COTAS
370
     0
100
AcDbVertex
100
AcDb2dVertex
 10
61.82606887415626
 20
110.2152229629345
 30
0.0
  0
VERTEX
  5
5A4
330
5A2
100
AcDbEntity
  8
COTAS
370
     0
100
AcDbVertex
100
AcDb2dVertex
 10
61.82606887415626
 20
109.2743667652352
 30
0.0
  0
VERTEX
  5
5A5
330
5A2
100
AcDbEntity
  8
COTAS
370
     0
100
AcDbVertex
100
AcDb2dVertex
 10
59.00332802617035
 20
109.744622609197
 30
0.0
  0
VERTEX
  5
5A6
330
5A2
100
AcDbEntity
  8
COTAS
370
     0
100
AcDbVertex
100
AcDb2dVertex
 10
61.82606887415626
 20
110.2152229629345
 30
0.0
  0
SEQEND
  5
5A7
330
5A2
100
AcDbEntity
  8
COTAS
370
     0
  0
HATCH
  5
5A8
330
59E
100
AcDbEntity
  8
COTAS
 62
     7
100
AcDbHatch
 10
0.0
 20
0.0
 30
0.0
210
0.0
220
0.0
230
1.0
  2
SOLID
 70
     1
 71
     0
 91
        1
 92
        1
 93
        3
 72
     1
 10
61.82606887415626
 20
110.2152229629345
 11
61.82606887415626
 21
109.2743667652352
 72
     1
 10
61.82606887415626
 20
109.2743667652352
 11
59.00332802617035
 21
109.744622609197
 72
     1
 10
59.00332802617035
 20
109.744622609197
 11
61.82606887415626
 21
110.2152229629345
 97
        0
 75
     2
 76
     1
 98
        0
  0
ENDBLK
  5
5A1
330
59E
100
AcDbEntity
  8
0
100
AcDbBlockEnd
  0
BLOCK
  5
5AB
330
5A9
100
AcDbEntity
  8
0
100
AcDbBlockBegin
  2
block 199
 70
     0
 71
     0
 10
0.0
 20
0.0
 30
0.0
  3
block 199
  1

  0
POLYLINE
  5
5AD
330
5A9
100
AcDbEntity
  8
COTAS
370
     0
100
AcDb2dPolyline
 66
     1
 10
0.0
 20
0.0
 30
0.0
  0
VERTEX
  5
5AE
330
5AD
100
AcDbEntity
  8
COTAS
370
     0
100
AcDbVertex
100
AcDb2dVertex
 10
96.17007616838843
 20
110.2152229629345
 30
0.0
  0
VERTEX
  5
5AF
330
5AD
100
AcDbEntity
  8
COTAS
370
     0
100
AcDbVertex
100
AcDb2dVertex
 10
96.17007616838843
 20
109.2743667652352
 30
0.0
  0
VERTEX
  5
5B0
330
5AD
100
AcDbEntity
  8
COTAS
370
     0
100
AcDbVertex
100
AcDb2dVertex
 10
98.99281701637435
 20
109.744622609197
 30
0.0
  0
VERTEX
  5
5B1
330
5AD
100
AcDbEntity
  8
COTAS
370
     0
100
AcDbVertex
100
AcDb2dVertex
 10
96.17007616838843
 20
110.2152229629345
 30
0.0
  0
SEQEND
  5
5B2
330
5AD
100
AcDbEntity
  8
COTAS
370
     0
  0
HATCH
  5
5B3
330
5A9
100
AcDbEntity
  8
COTAS
 62
     7
100
AcDbHatch
 10
0.0
 20
0.0
 30
0.0
210
0.0
220
0.0
230
1.0
  2
SOLID
 70
     1
 71
     0
 91
        1
 92
        1
 93
        3
 72
     1
 10
96.17007616838843
 20
110.2152229629345
 11
96.17007616838843
 21
109.2743667652352
 72
     1
 10
96.17007616838843
 20
109.2743667652352
 11
98.99281701637435
 21
109.744622609197
 72
     1
 10
98.99281701637435
 20
109.744622609197
 11
96.17007616838843
 21
110.2152229629345
 97
        0
 75
     2
 76
     1
 98
        0
  0
ENDBLK
  5
5AC
330
5A9
100
AcDbEntity
  8
0
100
AcDbBlockEnd
  0
BLOCK
  5
5B6
330
5B4
100
AcDbEntity
  8
0
100
AcDbBlockBegin
  2
block 200
 70
     0
 71
     0
 10
0.0
 20
0.0
 30
0.0
  3
block 200
  1

  0
MTEXT
  5
5B8
330
5B4
100
AcDbEntity
  8
COTAS
 62
     7
100
AcDbMText
 10
75.0490430887648
 20
110.6858233166721
 30
0.0
 40
2.398890470823883
 41
0.0
 71
     7
 72
     1
  1
\fArial|b1|i0|c0|p34;\W1;425
 73
     1
 44
1.0
  0
ENDBLK
  5
5B7
330
5B4
100
AcDbEntity
  8
0
100
AcDbBlockEnd
  0
BLOCK
  5
5BB
330
5B9
100
AcDbEntity
  8
0
100
AcDbBlockBegin
  2
block 201
 70
     0
 71
     0
 10
0.0
 20
0.0
 30
0.0
  3
block 201
  1

  0
POLYLINE
  5
5BD
330
5B9
100
AcDbEntity
  8
COTAS
 62
     7
370
     9
100
AcDb2dPolyline
 66
     1
 10
0.0
 20
0.0
 30
0.0
  0
VERTEX
  5
5BE
330
5BD
100
AcDbEntity
  8
COTAS
 62
     7
370
     9
100
AcDbVertex
100
AcDb2dVertex
 10
59.00332802617035
 20
87.621927356446
 30
0.0
  0
VERTEX
  5
5BF
330
5BD
100
AcDbEntity
  8
COTAS
 62
     7
370
     9
100
AcDbVertex
100
AcDb2dVertex
 10
59.00332802617035
 20
87.621927356446
 30
0.0
  0
SEQEND
  5
5C0
330
5BD
100
AcDbEntity
  8
COTAS
370
     9
  0
ENDBLK
  5
5BC
330
5B9
100
AcDbEntity
  8
0
100
AcDbBlockEnd
  0
BLOCK
  5
5C3
330
5C1
100
AcDbEntity
  8
0
100
AcDbBlockBegin
  2
block 202
 70
     0
 71
     0
 10
0.0
 20
0.0
 30
0.0
  3
block 202
  1

  0
POLYLINE
  5
5C5
330
5C1
100
AcDbEntity
  8
COTAS
 62
     7
370
     9
100
AcDb2dPolyline
 66
     1
 10
0.0
 20
0.0
 30
0.0
  0
VERTEX
  5
5C6
330
5C5
100
AcDbEntity
  8
COTAS
 62
     7
370
     9
100
AcDbVertex
100
AcDb2dVertex
 10
98.99281701637435
 20
97.78841084019093
 30
0.0
  0
VERTEX
  5
5C7
330
5C5
100
AcDbEntity
  8
COTAS
 62
     7
370
     9
100
AcDbVertex
100
AcDb2dVertex
 10
98.99281701637435
 20
97.78841084019093
 30
0.0
  0
SEQEND
  5
5C8
330
5C5
100
AcDbEntity
  8
COTAS
370
     9
  0
ENDBLK
  5
5C4
330
5C1
100
AcDbEntity
  8
0
100
AcDbBlockEnd
  0
BLOCK
  5
5CB
330
5C9
100
AcDbEntity
  8
0
100
AcDbBlockBegin
  2
block 203
 70
     0
 71
     0
 10
0.0
 20
0.0
 30
0.0
  3
block 203
  1

  0
POLYLINE
  5
5CD
330
5C9
100
AcDbEntity
  8
COTAS
 62
     7
370
     9
100
AcDb2dPolyline
 66
     1
 10
0.0
 20
0.0
 30
0.0
  0
VERTEX
  5
5CE
330
5CD
100
AcDbEntity
  8
COTAS
 62
     7
370
     9
100
AcDbVertex
100
AcDb2dVertex
 10
98.99281701637435
 20
109.744622609197
 30
0.0
  0
VERTEX
  5
5CF
330
5CD
100
AcDbEntity
  8
COTAS
 62
     7
370
     9
100
AcDbVertex
100
AcDb2dVertex
 10
98.99281701637435
 20
109.744622609197
 30
0.0
  0
SEQEND
  5
5D0
330
5CD
100
AcDbEntity
  8
COTAS
370
     9
  0
ENDBLK
  5
5CC
330
5C9
100
AcDbEntity
  8
0
100
AcDbBlockEnd
  0
BLOCK
  5
5D3
330
5D1
100
AcDbEntity
  8
0
100
AcDbBlockBegin
  2
block 204
 70
     0
 71
     0
 10
0.0
 20
0.0
 30
0.0
  3
block 204
  1

  0
INSERT
  5
5D6
330
5D1
100
AcDbEntity
  8
COTAS
100
AcDbBlockReference
  2
block 205
 10
0.0
 20
0.0
 30
0.0
  0
INSERT
  5
5DE
330
5D1
100
AcDbEntity
  8
COTAS
100
AcDbBlockReference
  2
block 206
 10
0.0
 20
0.0
 30
0.0
  0
INSERT
  5
5E6
330
5D1
100
AcDbEntity
  8
COTAS
100
AcDbBlockReference
  2
block 207
 10
0.0
 20
0.0
 30
0.0
  0
INSERT
  5
5EE
330
5D1
100
AcDbEntity
  8
COTAS
100
AcDbBlockReference
  2
block 208
 10
0.0
 20
0.0
 30
0.0
  0
INSERT
  5
5F9
330
5D1
100
AcDbEntity
  8
COTAS
100
AcDbBlockReference
  2
block 209
 10
0.0
 20
0.0
 30
0.0
  0
INSERT
  5
604
330
5D1
100
AcDbEntity
  8
COTAS
100
AcDbBlockReference
  2
block 210
 10
0.0
 20
0.0
 30
0.0
  0
INSERT
  5
609
330
5D1
100
AcDbEntity
  8
COTAS
100
AcDbBlockReference
  2
block 211
 10
0.0
 20
0.0
 30
0.0
  0
INSERT
  5
611
330
5D1
100
AcDbEntity
  8
COTAS
100
AcDbBlockReference
  2
block 212
 10
0.0
 20
0.0
 30
0.0
  0
INSERT
  5
619
330
5D1
100
AcDbEntity
  8
COTAS
100
AcDbBlockReference
  2
block 213
 10
0.0
 20
0.0
 30
0.0
  0
ENDBLK
  5
5D4
330
5D1
100
AcDbEntity
  8
0
100
AcDbBlockEnd
  0
BLOCK
  5
5D7
330
5D5
100
AcDbEntity
  8
0
100
AcDbBlockBegin
  2
block 205
 70
     0
 71
     0
 10
0.0
 20
0.0
 30
0.0
  3
block 205
  1

  0
POLYLINE
  5
5D9
330
5D5
100
AcDbEntity
  8
COTAS
 62
     7
370
     9
100
AcDb2dPolyline
 66
     1
 10
0.0
 20
0.0
 30
0.0
  0
VERTEX
  5
5DA
330
5D9
100
AcDbEntity
  8
COTAS
 62
     7
370
     9
100
AcDbVertex
100
AcDb2dVertex
 10
102.5727903515602
 20
80.0943887552997
 30
0.0
  0
VERTEX
  5
5DB
330
5D9
100
AcDbEntity
  8
COTAS
 62
     7
370
     9
100
AcDbVertex
100
AcDb2dVertex
 10
115.6105905616783
 20
80.0943887552997
 30
0.0
  0
SEQEND
  5
5DC
330
5D9
100
AcDbEntity
  8
COTAS
370
     9
  0
ENDBLK
  5
5D8
330
5D5
100
AcDbEntity
  8
0
100
AcDbBlockEnd
  0
BLOCK
  5
5DF
330
5DD
100
AcDbEntity
  8
0
100
AcDbBlockBegin
  2
block 206
 70
     0
 71
     0
 10
0.0
 20
0.0
 30
0.0
  3
block 206
  1

  0
POLYLINE
  5
5E1
330
5DD
100
AcDbEntity
  8
COTAS
 62
     7
370
     9
100
AcDb2dPolyline
 66
     1
 10
0.0
 20
0.0
 30
0.0
  0
VERTEX
  5
5E2
330
5E1
100
AcDbEntity
  8
COTAS
 62
     7
370
     9
100
AcDbVertex
100
AcDb2dVertex
 10
102.5727903515602
 20
95.14912144781648
 30
0.0
  0
VERTEX
  5
5E3
330
5E1
100
AcDbEntity
  8
COTAS
 62
     7
370
     9
100
AcDbVertex
100
AcDb2dVertex
 10
115.6105905616783
 20
95.14912144781648
 30
0.0
  0
SEQEND
  5
5E4
330
5E1
100
AcDbEntity
  8
COTAS
370
     9
  0
ENDBLK
  5
5E0
330
5DD
100
AcDbEntity
  8
0
100
AcDbBlockEnd
  0
BLOCK
  5
5E7
330
5E5
100
AcDbEntity
  8
0
100
AcDbBlockBegin
  2
block 207
 70
     0
 71
     0
 10
0.0
 20
0.0
 30
0.0
  3
block 207
  1

  0
POLYLINE
  5
5E9
330
5E5
100
AcDbEntity
  8
COTAS
 62
     7
370
     9
100
AcDb2dPolyline
 66
     1
 10
0.0
 20
0.0
 30
0.0
  0
VERTEX
  5
5EA
330
5E9
100
AcDbEntity
  8
COTAS
 62
     7
370
     9
100
AcDbVertex
100
AcDb2dVertex
 10
113.7288781662797
 20
82.91730185817352
 30
0.0
  0
VERTEX
  5
5EB
330
5E9
100
AcDbEntity
  8
COTAS
 62
     7
370
     9
100
AcDbVertex
100
AcDb2dVertex
 10
113.7288781662797
 20
92.32655285471847
 30
0.0
  0
SEQEND
  5
5EC
330
5E9
100
AcDbEntity
  8
COTAS
370
     9
  0
ENDBLK
  5
5E8
330
5E5
100
AcDbEntity
  8
0
100
AcDbBlockEnd
  0
BLOCK
  5
5EF
330
5ED
100
AcDbEntity
  8
0
100
AcDbBlockBegin
  2
block 208
 70
     0
 71
     0
 10
0.0
 20
0.0
 30
0.0
  3
block 208
  1

  0
POLYLINE
  5
5F1
330
5ED
100
AcDbEntity
  8
COTAS
370
     0
100
AcDb2dPolyline
 66
     1
 10
0.0
 20
0.0
 30
0.0
  0
VERTEX
  5
5F2
330
5F1
100
AcDbEntity
  8
COTAS
370
     0
100
AcDbVertex
100
AcDb2dVertex
 10
113.2582778125421
 20
82.91730185817352
 30
0.0
  0
VERTEX
  5
5F3
330
5F1
100
AcDbEntity
  8
COTAS
370
     0
100
AcDbVertex
100
AcDb2dVertex
 10
114.1991340102414
 20
82.91730185817352
 30
0.0
  0
VERTEX
  5
5F4
330
5F1
100
AcDbEntity
  8
COTAS
370
     0
100
AcDbVertex
100
AcDb2dVertex
 10
113.7288781662797
 20
80.0943887552997
 30
0.0
  0
VERTEX
  5
5F5
330
5F1
100
AcDbEntity
  8
COTAS
370
     0
100
AcDbVertex
100
AcDb2dVertex
 10
113.2582778125421
 20
82.91730185817352
 30
0.0
  0
SEQEND
  5
5F6
330
5F1
100
AcDbEntity
  8
COTAS
370
     0
  0
HATCH
  5
5F7
330
5ED
100
AcDbEntity
  8
COTAS
 62
     7
100
AcDbHatch
 10
0.0
 20
0.0
 30
0.0
210
0.0
220
0.0
230
1.0
  2
SOLID
 70
     1
 71
     0
 91
        1
 92
        1
 93
        3
 72
     1
 10
113.2582778125421
 20
82.91730185817352
 11
114.1991340102414
 21
82.91730185817352
 72
     1
 10
114.1991340102414
 20
82.91730185817352
 11
113.7288781662797
 21
80.0943887552997
 72
     1
 10
113.7288781662797
 20
80.0943887552997
 11
113.2582778125421
 21
82.91730185817352
 97
        0
 75
     2
 76
     1
 98
        0
  0
ENDBLK
  5
5F0
330
5ED
100
AcDbEntity
  8
0
100
AcDbBlockEnd
  0
BLOCK
  5
5FA
330
5F8
100
AcDbEntity
  8
0
100
AcDbBlockBegin
  2
block 209
 70
     0
 71
     0
 10
0.0
 20
0.0
 30
0.0
  3
block 209
  1

  0
POLYLINE
  5
5FC
330
5F8
100
AcDbEntity
  8
COTAS
370
     0
100
AcDb2dPolyline
 66
     1
 10
0.0
 20
0.0
 30
0.0
  0
VERTEX
  5
5FD
330
5FC
100
AcDbEntity
  8
COTAS
370
     0
100
AcDbVertex
100
AcDb2dVertex
 10
113.2582778125421
 20
92.32655285471847
 30
0.0
  0
VERTEX
  5
5FE
330
5FC
100
AcDbEntity
  8
COTAS
370
     0
100
AcDbVertex
100
AcDb2dVertex
 10
114.1991340102414
 20
92.32655285471847
 30
0.0
  0
VERTEX
  5
5FF
330
5FC
100
AcDbEntity
  8
COTAS
370
     0
100
AcDbVertex
100
AcDb2dVertex
 10
113.7288781662797
 20
95.14912144781648
 30
0.0
  0
VERTEX
  5
600
330
5FC
100
AcDbEntity
  8
COTAS
370
     0
100
AcDbVertex
100
AcDb2dVertex
 10
113.2582778125421
 20
92.32655285471847
 30
0.0
  0
SEQEND
  5
601
330
5FC
100
AcDbEntity
  8
COTAS
370
     0
  0
HATCH
  5
602
330
5F8
100
AcDbEntity
  8
COTAS
 62
     7
100
AcDbHatch
 10
0.0
 20
0.0
 30
0.0
210
0.0
220
0.0
230
1.0
  2
SOLID
 70
     1
 71
     0
 91
        1
 92
        1
 93
        3
 72
     1
 10
113.2582778125421
 20
92.32655285471847
 11
114.1991340102414
 21
92.32655285471847
 72
     1
 10
114.1991340102414
 20
92.32655285471847
 11
113.7288781662797
 21
95.14912144781648
 72
     1
 10
113.7288781662797
 20
95.14912144781648
 11
113.2582778125421
 21
92.32655285471847
 97
        0
 75
     2
 76
     1
 98
        0
  0
ENDBLK
  5
5FB
330
5F8
100
AcDbEntity
  8
0
100
AcDbBlockEnd
  0
BLOCK
  5
605
330
603
100
AcDbEntity
  8
0
100
AcDbBlockBegin
  2
block 210
 70
     0
 71
     0
 10
0.0
 20
0.0
 30
0.0
  3
block 210
  1

  0
MTEXT
  5
607
330
603
100
AcDbEntity
  8
COTAS
 62
     7
100
AcDbMText
 10
112.7876774588045
 20
84.06658647022952
 30
0.0
 40
2.398890470823883
 41
0.0
 71
     7
 72
     1
  1
\fArial|b1|i0|c0|p34;\W1;160
 11
-4.371139000186241E-8
 21
0.999999999999999
 31
0.0
 73
     1
 44
1.0
  0
ENDBLK
  5
606
330
603
100
AcDbEntity
  8
0
100
AcDbBlockEnd
  0
BLOCK
  5
60A
330
608
100
AcDbEntity
  8
0
100
AcDbBlockBegin
  2
block 211
 70
     0
 71
     0
 10
0.0
 20
0.0
 30
0.0
  3
block 211
  1

  0
POLYLINE
  5
60C
330
608
100
AcDbEntity
  8
COTAS
 62
     7
370
     9
100
AcDb2dPolyline
 66
     1
 10
0.0
 20
0.0
 30
0.0
  0
VERTEX
  5
60D
330
60C
100
AcDbEntity
  8
COTAS
 62
     7
370
     9
100
AcDbVertex
100
AcDb2dVertex
 10
101.6319341538609
 20
80.0943887552997
 30
0.0
  0
VERTEX
  5
60E
330
60C
100
AcDbEntity
  8
COTAS
 62
     7
370
     9
100
AcDbVertex
100
AcDb2dVertex
 10
101.6319341538609
 20
80.0943887552997
 30
0.0
  0
SEQEND
  5
60F
330
60C
100
AcDbEntity
  8
COTAS
370
     9
  0
ENDBLK
  5
60B
330
608
100
AcDbEntity
  8
0
100
AcDbBlockEnd
  0
BLOCK
  5
612
330
610
100
AcDbEntity
  8
0
100
AcDbBlockBegin
  2
block 212
 70
     0
 71
     0
 10
0.0
 20
0.0
 30
0.0
  3
block 212
  1

  0
POLYLINE
  5
614
330
610
100
AcDbEntity
  8
COTAS
 62
     7
370
     9
100
AcDb2dPolyline
 66
     1
 10
0.0
 20
0.0
 30
0.0
  0
VERTEX
  5
615
330
614
100
AcDbEntity
  8
COTAS
 62
     7
370
     9
100
AcDbVertex
100
AcDb2dVertex
 10
101.6319341538609
 20
95.14912144781648
 30
0.0
  0
VERTEX
  5
616
330
614
100
AcDbEntity
  8
COTAS
 62
     7
370
     9
100
AcDbVertex
100
AcDb2dVertex
 10
101.6319341538609
 20
95.14912144781648
 30
0.0
  0
SEQEND
  5
617
330
614
100
AcDbEntity
  8
COTAS
370
     9
  0
ENDBLK
  5
613
330
610
100
AcDbEntity
  8
0
100
AcDbBlockEnd
  0
BLOCK
  5
61A
330
618
100
AcDbEntity
  8
0
100
AcDbBlockBegin
  2
block 213
 70
     0
 71
     0
 10
0.0
 20
0.0
 30
0.0
  3
block 213
  1

  0
POLYLINE
  5
61C
330
618
100
AcDbEntity
  8
COTAS
 62
     7
370
     9
100
AcDb2dPolyline
 66
     1
 10
0.0
 20
0.0
 30
0.0
  0
VERTEX
  5
61D
330
61C
100
AcDbEntity
  8
COTAS
 62
     7
370
     9
100
AcDbVertex
100
AcDb2dVertex
 10
113.7288781662797
 20
95.14912144781648
 30
0.0
  0
VERTEX
  5
61E
330
61C
100
AcDbEntity
  8
COTAS
 62
     7
370
     9
100
AcDbVertex
100
AcDb2dVertex
 10
113.7288781662797
 20
95.14912144781648
 30
0.0
  0
SEQEND
  5
61F
330
61C
100
AcDbEntity
  8
COTAS
370
     9
  0
ENDBLK
  5
61B
330
618
100
AcDbEntity
  8
0
100
AcDbBlockEnd
  0
BLOCK
  5
622
330
620
100
AcDbEntity
  8
0
100
AcDbBlockBegin
  2
block 214
 70
     0
 71
     0
 10
0.0
 20
0.0
 30
0.0
  3
block 214
  1

  0
INSERT
  5
625
330
620
100
AcDbEntity
  8
COTAS
100
AcDbBlockReference
  2
block 215
 10
0.0
 20
0.0
 30
0.0
  0
INSERT
  5
62D
330
620
100
AcDbEntity
  8
COTAS
100
AcDbBlockReference
  2
block 216
 10
0.0
 20
0.0
 30
0.0
  0
INSERT
  5
635
330
620
100
AcDbEntity
  8
COTAS
100
AcDbBlockReference
  2
block 217
 10
0.0
 20
0.0
 30
0.0
  0
INSERT
  5
63D
330
620
100
AcDbEntity
  8
COTAS
100
AcDbBlockReference
  2
block 218
 10
0.0
 20
0.0
 30
0.0
  0
INSERT
  5
642
330
620
100
AcDbEntity
  8
COTAS
100
AcDbBlockReference
  2
block 219
 10
0.0
 20
0.0
 30
0.0
  0
INSERT
  5
64A
330
620
100
AcDbEntity
  8
COTAS
100
AcDbBlockReference
  2
block 220
 10
0.0
 20
0.0
 30
0.0
  0
INSERT
  5
655
330
620
100
AcDbEntity
  8
COTAS
100
AcDbBlockReference
  2
block 221
 10
0.0
 20
0.0
 30
0.0
  0
INSERT
  5
660
330
620
100
AcDbEntity
  8
COTAS
100
AcDbBlockReference
  2
block 222
 10
0.0
 20
0.0
 30
0.0
  0
INSERT
  5
668
330
620
100
AcDbEntity
  8
COTAS
100
AcDbBlockReference
  2
block 223
 10
0.0
 20
0.0
 30
0.0
  0
ENDBLK
  5
623
330
620
100
AcDbEntity
  8
0
100
AcDbBlockEnd
  0
BLOCK
  5
626
330
624
100
AcDbEntity
  8
0
100
AcDbBlockBegin
  2
block 215
 70
     0
 71
     0
 10
0.0
 20
0.0
 30
0.0
  3
block 215
  1

  0
POLYLINE
  5
628
330
624
100
AcDbEntity
  8
COTAS
 62
     7
370
     9
100
AcDb2dPolyline
 66
     1
 10
0.0
 20
0.0
 30
0.0
  0
VERTEX
  5
629
330
628
100
AcDbEntity
  8
COTAS
 62
     7
370
     9
100
AcDbVertex
100
AcDb2dVertex
 10
109.9926696477702
 20
100.8848647050469
 30
0.0
  0
VERTEX
  5
62A
330
628
100
AcDbEntity
  8
COTAS
 62
     7
370
     9
100
AcDbVertex
100
AcDb2dVertex
 10
104.7201197840977
 20
100.8848647050469
 30
0.0
  0
SEQEND
  5
62B
330
628
100
AcDbEntity
  8
COTAS
370
     9
  0
ENDBLK
  5
627
330
624
100
AcDbEntity
  8
0
100
AcDbBlockEnd
  0
BLOCK
  5
62E
330
62C
100
AcDbEntity
  8
0
100
AcDbBlockBegin
  2
block 216
 70
     0
 71
     0
 10
0.0
 20
0.0
 30
0.0
  3
block 216
  1

  0
POLYLINE
  5
630
330
62C
100
AcDbEntity
  8
COTAS
 62
     7
370
     9
100
AcDb2dPolyline
 66
     1
 10
0.0
 20
0.0
 30
0.0
  0
VERTEX
  5
631
330
630
100
AcDbEntity
  8
COTAS
 62
     7
370
     9
100
AcDbVertex
100
AcDb2dVertex
 10
104.7201197840977
 20
100.8848647050469
 30
0.0
  0
VERTEX
  5
632
330
630
100
AcDbEntity
  8
COTAS
 62
     7
370
     9
100
AcDbVertex
100
AcDb2dVertex
 10
101.4860342638112
 20
97.64612830278712
 30
0.0
  0
SEQEND
  5
633
330
630
100
AcDbEntity
  8
COTAS
370
     9
  0
ENDBLK
  5
62F
330
62C
100
AcDbEntity
  8
0
100
AcDbBlockEnd
  0
BLOCK
  5
636
330
634
100
AcDbEntity
  8
0
100
AcDbBlockBegin
  2
block 217
 70
     0
 71
     0
 10
0.0
 20
0.0
 30
0.0
  3
block 217
  1

  0
POLYLINE
  5
638
330
634
100
AcDbEntity
  8
COTAS
 62
     7
370
     9
100
AcDb2dPolyline
 66
     1
 10
0.0
 20
0.0
 30
0.0
  0
VERTEX
  5
639
330
638
100
AcDbEntity
  8
COTAS
 62
     7
370
     9
100
AcDbVertex
100
AcDb2dVertex
 10
96.49959976893747
 20
92.65245910262165
 30
0.0
  0
VERTEX
  5
63A
330
638
100
AcDbEntity
  8
COTAS
 62
     7
370
     9
100
AcDbVertex
100
AcDb2dVertex
 10
94.50506042196555
 20
90.65499142255547
 30
0.0
  0
SEQEND
  5
63B
330
638
100
AcDbEntity
  8
COTAS
370
     9
  0
ENDBLK
  5
637
330
634
100
AcDbEntity
  8
0
100
AcDbBlockEnd
  0
BLOCK
  5
63E
330
63C
100
AcDbEntity
  8
0
100
AcDbBlockBegin
  2
block 218
 70
     0
 71
     0
 10
0.0
 20
0.0
 30
0.0
  3
block 218
  1

  0
MTEXT
  5
640
330
63C
100
AcDbEntity
  8
COTAS
 62
     7
100
AcDbMText
 10
104.5225434276786
 20
101.8257209027462
 30
0.0
 40
2.398890470823883
 41
0.0
 71
     7
 72
     1
  1
\fMyriad Pro|b0|i0|c0|p34;\W1;\U+00D8\fArial|b1|i0|c0|p34;15
 73
     1
 44
1.0
  0
ENDBLK
  5
63F
330
63C
100
AcDbEntity
  8
0
100
AcDbBlockEnd
  0
BLOCK
  5
643
330
641
100
AcDbEntity
  8
0
100
AcDbBlockBegin
  2
block 219
 70
     0
 71
     0
 10
0.0
 20
0.0
 30
0.0
  3
block 219
  1

  0
POLYLINE
  5
645
330
641
100
AcDbEntity
  8
COTAS
 62
     7
370
     9
100
AcDb2dPolyline
 66
     1
 10
0.0
 20
0.0
 30
0.0
  0
VERTEX
  5
646
330
645
100
AcDbEntity
  8
COTAS
 62
     7
370
     9
100
AcDbVertex
100
AcDb2dVertex
 10
98.49413911590939
 20
94.64992678268784
 30
0.0
  0
VERTEX
  5
647
330
645
100
AcDbEntity
  8
COTAS
 62
     7
370
     9
100
AcDbVertex
100
AcDb2dVertex
 10
99.4914949168393
 20
95.64866062272093
 30
0.0
  0
SEQEND
  5
648
330
645
100
AcDbEntity
  8
COTAS
370
     9
  0
ENDBLK
  5
644
330
641
100
AcDbEntity
  8
0
100
AcDbBlockEnd
  0
BLOCK
  5
64B
330
649
100
AcDbEntity
  8
0
100
AcDbBlockBegin
  2
block 220
 70
     0
 71
     0
 10
0.0
 20
0.0
 30
0.0
  3
block 220
  1

  0
POLYLINE
  5
64D
330
649
100
AcDbEntity
  8
COTAS
370
     0
100
AcDb2dPolyline
 66
     1
 10
0.0
 20
0.0
 30
0.0
  0
VERTEX
  5
64E
330
64D
100
AcDbEntity
  8
COTAS
370
     0
100
AcDbVertex
100
AcDb2dVertex
 10
96.16663107063047
 20
92.98491103626495
 30
0.0
  0
VERTEX
  5
64F
330
64D
100
AcDbEntity
  8
COTAS
370
     0
100
AcDbVertex
100
AcDb2dVertex
 10
96.83256846724447
 20
92.32000716897835
 30
0.0
  0
VERTEX
  5
650
330
64D
100
AcDbEntity
  8
COTAS
370
     0
100
AcDbVertex
100
AcDb2dVertex
 10
98.49413911590939
 20
94.64992678268784
 30
0.0
  0
VERTEX
  5
651
330
64D
100
AcDbEntity
  8
COTAS
370
     0
100
AcDbVertex
100
AcDb2dVertex
 10
96.16663107063047
 20
92.98491103626495
 30
0.0
  0
SEQEND
  5
652
330
64D
100
AcDbEntity
  8
COTAS
370
     0
  0
HATCH
  5
653
330
649
100
AcDbEntity
  8
COTAS
 62
     7
100
AcDbHatch
 10
0.0
 20
0.0
 30
0.0
210
0.0
220
0.0
230
1.0
  2
SOLID
 70
     1
 71
     0
 91
        1
 92
        1
 93
        3
 72
     1
 10
96.16663107063047
 20
92.98491103626495
 11
96.83256846724447
 21
92.32000716897835
 72
     1
 10
96.83256846724447
 20
92.32000716897835
 11
98.49413911590939
 21
94.64992678268784
 72
     1
 10
98.49413911590939
 20
94.64992678268784
 11
96.16663107063047
 21
92.98491103626495
 97
        0
 75
     2
 76
     1
 98
        0
  0
ENDBLK
  5
64C
330
649
100
AcDbEntity
  8
0
100
AcDbBlockEnd
  0
BLOCK
  5
656
330
654
100
AcDbEntity
  8
0
100
AcDbBlockBegin
  2
block 221
 70
     0
 71
     0
 10
0.0
 20
0.0
 30
0.0
  3
block 221
  1

  0
POLYLINE
  5
658
330
654
100
AcDbEntity
  8
COTAS
370
     0
100
AcDb2dPolyline
 66
     1
 10
0.0
 20
0.0
 30
0.0
  0
VERTEX
  5
659
330
658
100
AcDbEntity
  8
COTAS
370
     0
100
AcDbVertex
100
AcDb2dVertex
 10
101.1530655655042
 20
97.97858023643042
 30
0.0
  0
VERTEX
  5
65A
330
658
100
AcDbEntity
  8
COTAS
370
     0
100
AcDbVertex
100
AcDb2dVertex
 10
101.8188307072303
 20
97.31367636914382
 30
0.0
  0
VERTEX
  5
65B
330
658
100
AcDbEntity
  8
COTAS
370
     0
100
AcDbVertex
100
AcDb2dVertex
 10
99.4914949168393
 20
95.64866062272093
 30
0.0
  0
VERTEX
  5
65C
330
658
100
AcDbEntity
  8
COTAS
370
     0
100
AcDbVertex
100
AcDb2dVertex
 10
101.1530655655042
 20
97.97858023643042
 30
0.0
  0
SEQEND
  5
65D
330
658
100
AcDbEntity
  8
COTAS
370
     0
  0
HATCH
  5
65E
330
654
100
AcDbEntity
  8
COTAS
 62
     7
100
AcDbHatch
 10
0.0
 20
0.0
 30
0.0
210
0.0
220
0.0
230
1.0
  2
SOLID
 70
     1
 71
     0
 91
        1
 92
        1
 93
        3
 72
     1
 10
101.1530655655042
 20
97.97858023643042
 11
101.8188307072303
 21
97.31367636914382
 72
     1
 10
101.8188307072303
 20
97.31367636914382
 11
99.4914949168393
 21
95.64866062272093
 72
     1
 10
99.4914949168393
 20
95.64866062272093
 11
101.1530655655042
 21
97.97858023643042
 97
        0
 75
     2
 76
     1
 98
        0
  0
ENDBLK
  5
657
330
654
100
AcDbEntity
  8
0
100
AcDbBlockEnd
  0
BLOCK
  5
661
330
65F
100
AcDbEntity
  8
0
100
AcDbBlockBegin
  2
block 222
 70
     0
 71
     0
 10
0.0
 20
0.0
 30
0.0
  3
block 222
  1

  0
POLYLINE
  5
663
330
65F
100
AcDbEntity
  8
COTAS
 62
     7
370
     9
100
AcDb2dPolyline
 66
     1
 10
0.0
 20
0.0
 30
0.0
  0
VERTEX
  5
664
330
663
100
AcDbEntity
  8
COTAS
 62
     7
370
     9
100
AcDbVertex
100
AcDb2dVertex
 10
99.4914949168393
 20
95.64866062272093
 30
0.0
  0
VERTEX
  5
665
330
663
100
AcDbEntity
  8
COTAS
 62
     7
370
     9
100
AcDbVertex
100
AcDb2dVertex
 10
99.4914949168393
 20
95.64866062272093
 30
0.0
  0
SEQEND
  5
666
330
663
100
AcDbEntity
  8
COTAS
370
     9
  0
ENDBLK
  5
662
330
65F
100
AcDbEntity
  8
0
100
AcDbBlockEnd
  0
BLOCK
  5
669
330
667
100
AcDbEntity
  8
0
100
AcDbBlockBegin
  2
block 223
 70
     0
 71
     0
 10
0.0
 20
0.0
 30
0.0
  3
block 223
  1

  0
POLYLINE
  5
66B
330
667
100
AcDbEntity
  8
COTAS
 62
     7
370
     9
100
AcDb2dPolyline
 66
     1
 10
0.0
 20
0.0
 30
0.0
  0
VERTEX
  5
66C
330
66B
100
AcDbEntity
  8
COTAS
 62
     7
370
     9
100
AcDbVertex
100
AcDb2dVertex
 10
98.49413911590939
 20
94.64992678268784
 30
0.0
  0
VERTEX
  5
66D
330
66B
100
AcDbEntity
  8
COTAS
 62
     7
370
     9
100
AcDbVertex
100
AcDb2dVertex
 10
98.49413911590939
 20
94.64992678268784
 30
0.0
  0
SEQEND
  5
66E
330
66B
100
AcDbEntity
  8
COTAS
370
     9
  0
ENDBLK
  5
66A
330
667
100
AcDbEntity
  8
0
100
AcDbBlockEnd
  0
BLOCK
  5
671
330
66F
100
AcDbEntity
  8
0
100
AcDbBlockBegin
  2
block 224
 70
     0
 71
     0
 10
0.0
 20
0.0
 30
0.0
  3
block 224
  1

  0
INSERT
  5
674
330
66F
100
AcDbEntity
  8
COTAS
100
AcDbBlockReference
  2
block 225
 10
0.0
 20
0.0
 30
0.0
  0
INSERT
  5
67C
330
66F
100
AcDbEntity
  8
COTAS
100
AcDbBlockReference
  2
block 226
 10
0.0
 20
0.0
 30
0.0
  0
INSERT
  5
684
330
66F
100
AcDbEntity
  8
COTAS
100
AcDbBlockReference
  2
block 227
 10
0.0
 20
0.0
 30
0.0
  0
INSERT
  5
68C
330
66F
100
AcDbEntity
  8
COTAS
100
AcDbBlockReference
  2
block 228
 10
0.0
 20
0.0
 30
0.0
  0
INSERT
  5
697
330
66F
100
AcDbEntity
  8
COTAS
100
AcDbBlockReference
  2
block 229
 10
0.0
 20
0.0
 30
0.0
  0
INSERT
  5
6A2
330
66F
100
AcDbEntity
  8
COTAS
100
AcDbBlockReference
  2
block 230
 10
0.0
 20
0.0
 30
0.0
  0
INSERT
  5
6A7
330
66F
100
AcDbEntity
  8
COTAS
100
AcDbBlockReference
  2
block 231
 10
0.0
 20
0.0
 30
0.0
  0
INSERT
  5
6AF
330
66F
100
AcDbEntity
  8
COTAS
100
AcDbBlockReference
  2
block 232
 10
0.0
 20
0.0
 30
0.0
  0
INSERT
  5
6B7
330
66F
100
AcDbEntity
  8
COTAS
100
AcDbBlockReference
  2
block 233
 10
0.0
 20
0.0
 30
0.0
  0
ENDBLK
  5
672
330
66F
100
AcDbEntity
  8
0
100
AcDbBlockEnd
  0
BLOCK
  5
675
330
673
100
AcDbEntity
  8
0
100
AcDbBlockBegin
  2
block 225
 70
     0
 71
     0
 10
0.0
 20
0.0
 30
0.0
  3
block 225
  1

  0
POLYLINE
  5
677
330
673
100
AcDbEntity
  8
COTAS
 62
     7
370
     9
100
AcDb2dPolyline
 66
     1
 10
0.0
 20
0.0
 30
0.0
  0
VERTEX
  5
678
330
677
100
AcDbEntity
  8
COTAS
 62
     7
370
     9
100
AcDbVertex
100
AcDb2dVertex
 10
93.81776341925219
 20
86.68072664897086
 30
0.0
  0
VERTEX
  5
679
330
677
100
AcDbEntity
  8
COTAS
 62
     7
370
     9
100
AcDbVertex
100
AcDb2dVertex
 10
93.81776341925219
 20
61.42023635826837
 30
0.0
  0
SEQEND
  5
67A
330
677
100
AcDbEntity
  8
COTAS
370
     9
  0
ENDBLK
  5
676
330
673
100
AcDbEntity
  8
0
100
AcDbBlockEnd
  0
BLOCK
  5
67D
330
67B
100
AcDbEntity
  8
0
100
AcDbBlockBegin
  2
block 226
 70
     0
 71
     0
 10
0.0
 20
0.0
 30
0.0
  3
block 226
  1

  0
POLYLINE
  5
67F
330
67B
100
AcDbEntity
  8
COTAS
 62
     7
370
     9
100
AcDb2dPolyline
 66
     1
 10
0.0
 20
0.0
 30
0.0
  0
VERTEX
  5
680
330
67F
100
AcDbEntity
  8
COTAS
 62
     7
370
     9
100
AcDbVertex
100
AcDb2dVertex
 10
62.57882273427089
 20
86.68072664897086
 30
0.0
  0
VERTEX
  5
681
330
67F
100
AcDbEntity
  8
COTAS
 62
     7
370
     9
100
AcDbVertex
100
AcDb2dVertex
 10
62.57882273427089
 20
61.42023635826837
 30
0.0
  0
SEQEND
  5
682
330
67F
100
AcDbEntity
  8
COTAS
370
     9
  0
ENDBLK
  5
67E
330
67B
100
AcDbEntity
  8
0
100
AcDbBlockEnd
  0
BLOCK
  5
685
330
683
100
AcDbEntity
  8
0
100
AcDbBlockBegin
  2
block 227
 70
     0
 71
     0
 10
0.0
 20
0.0
 30
0.0
  3
block 227
  1

  0
POLYLINE
  5
687
330
683
100
AcDbEntity
  8
COTAS
 62
     7
370
     9
100
AcDb2dPolyline
 66
     1
 10
0.0
 20
0.0
 30
0.0
  0
VERTEX
  5
688
330
687
100
AcDbEntity
  8
COTAS
 62
     7
370
     9
100
AcDbVertex
100
AcDb2dVertex
 10
90.99485031637839
 20
63.30194875366705
 30
0.0
  0
VERTEX
  5
689
330
687
100
AcDbEntity
  8
COTAS
 62
     7
370
     9
100
AcDbVertex
100
AcDb2dVertex
 10
65.4017358371447
 20
63.30194875366705
 30
0.0
  0
SEQEND
  5
68A
330
687
100
AcDbEntity
  8
COTAS
370
     9
  0
ENDBLK
  5
686
330
683
100
AcDbEntity
  8
0
100
AcDbBlockEnd
  0
BLOCK
  5
68D
330
68B
100
AcDbEntity
  8
0
100
AcDbBlockBegin
  2
block 228
 70
     0
 71
     0
 10
0.0
 20
0.0
 30
0.0
  3
block 228
  1

  0
POLYLINE
  5
68F
330
68B
100
AcDbEntity
  8
COTAS
370
     0
100
AcDb2dPolyline
 66
     1
 10
0.0
 20
0.0
 30
0.0
  0
VERTEX
  5
690
330
68F
100
AcDbEntity
  8
COTAS
370
     0
100
AcDbVertex
100
AcDb2dVertex
 10
90.99485031637839
 20
63.77254910740461
 30
0.0
  0
VERTEX
  5
691
330
68F
100
AcDbEntity
  8
COTAS
370
     0
100
AcDbVertex
100
AcDb2dVertex
 10
90.99485031637839
 20
62.83169290970527
 30
0.0
  0
VERTEX
  5
692
330
68F
100
AcDbEntity
  8
COTAS
370
     0
100
AcDbVertex
100
AcDb2dVertex
 10
93.81776341925219
 20
63.30194875366705
 30
0.0
  0
VERTEX
  5
693
330
68F
100
AcDbEntity
  8
COTAS
370
     0
100
AcDbVertex
100
AcDb2dVertex
 10
90.99485031637839
 20
63.77254910740461
 30
0.0
  0
SEQEND
  5
694
330
68F
100
AcDbEntity
  8
COTAS
370
     0
  0
HATCH
  5
695
330
68B
100
AcDbEntity
  8
COTAS
 62
     7
100
AcDbHatch
 10
0.0
 20
0.0
 30
0.0
210
0.0
220
0.0
230
1.0
  2
SOLID
 70
     1
 71
     0
 91
        1
 92
        1
 93
        3
 72
     1
 10
90.99485031637839
 20
63.77254910740461
 11
90.99485031637839
 21
62.83169290970527
 72
     1
 10
90.99485031637839
 20
62.83169290970527
 11
93.81776341925219
 21
63.30194875366705
 72
     1
 10
93.81776341925219
 20
63.30194875366705
 11
90.99485031637839
 21
63.77254910740461
 97
        0
 75
     2
 76
     1
 98
        0
  0
ENDBLK
  5
68E
330
68B
100
AcDbEntity
  8
0
100
AcDbBlockEnd
  0
BLOCK
  5
698
330
696
100
AcDbEntity
  8
0
100
AcDbBlockBegin
  2
block 229
 70
     0
 71
     0
 10
0.0
 20
0.0
 30
0.0
  3
block 229
  1

  0
POLYLINE
  5
69A
330
696
100
AcDbEntity
  8
COTAS
370
     0
100
AcDb2dPolyline
 66
     1
 10
0.0
 20
0.0
 30
0.0
  0
VERTEX
  5
69B
330
69A
100
AcDbEntity
  8
COTAS
370
     0
100
AcDbVertex
100
AcDb2dVertex
 10
65.4017358371447
 20
63.77254910740461
 30
0.0
  0
VERTEX
  5
69C
330
69A
100
AcDbEntity
  8
COTAS
370
     0
100
AcDbVertex
100
AcDb2dVertex
 10
65.4017358371447
 20
62.83169290970527
 30
0.0
  0
VERTEX
  5
69D
330
69A
100
AcDbEntity
  8
COTAS
370
     0
100
AcDbVertex
100
AcDb2dVertex
 10
62.57882273427089
 20
63.30194875366705
 30
0.0
  0
VERTEX
  5
69E
330
69A
100
AcDbEntity
  8
COTAS
370
     0
100
AcDbVertex
100
AcDb2dVertex
 10
65.4017358371447
 20
63.77254910740461
 30
0.0
  0
SEQEND
  5
69F
330
69A
100
AcDbEntity
  8
COTAS
370
     0
  0
HATCH
  5
6A0
330
696
100
AcDbEntity
  8
COTAS
 62
     7
100
AcDbHatch
 10
0.0
 20
0.0
 30
0.0
210
0.0
220
0.0
230
1.0
  2
SOLID
 70
     1
 71
     0
 91
        1
 92
        1
 93
        3
 72
     1
 10
65.4017358371447
 20
63.77254910740461
 11
65.4017358371447
 21
62.83169290970527
 72
     1
 10
65.4017358371447
 20
62.83169290970527
 11
62.57882273427089
 21
63.30194875366705
 72
     1
 10
62.57882273427089
 20
63.30194875366705
 11
65.4017358371447
 21
63.77254910740461
 97
        0
 75
     2
 76
     1
 98
        0
  0
ENDBLK
  5
699
330
696
100
AcDbEntity
  8
0
100
AcDbBlockEnd
  0
BLOCK
  5
6A3
330
6A1
100
AcDbEntity
  8
0
100
AcDbBlockBegin
  2
block 230
 70
     0
 71
     0
 10
0.0
 20
0.0
 30
0.0
  3
block 230
  1

  0
MTEXT
  5
6A5
330
6A1
100
AcDbEntity
  8
COTAS
 62
     7
100
AcDbMText
 10
75.19201464572022
 20
64.24314946114218
 30
0.0
 40
2.398890470823883
 41
0.0
 71
     7
 72
     1
  1
\fArial|b1|i0|c0|p34;\W1;332
 73
     1
 44
1.0
  0
ENDBLK
  5
6A4
330
6A1
100
AcDbEntity
  8
0
100
AcDbBlockEnd
  0
BLOCK
  5
6A8
330
6A6
100
AcDbEntity
  8
0
100
AcDbBlockBegin
  2
block 231
 70
     0
 71
     0
 10
0.0
 20
0.0
 30
0.0
  3
block 231
  1

  0
POLYLINE
  5
6AA
330
6A6
100
AcDbEntity
  8
COTAS
 62
     7
370
     9
100
AcDb2dPolyline
 66
     1
 10
0.0
 20
0.0
 30
0.0
  0
VERTEX
  5
6AB
330
6AA
100
AcDbEntity
  8
COTAS
 62
     7
370
     9
100
AcDbVertex
100
AcDb2dVertex
 10
93.81776341925219
 20
87.621927356446
 30
0.0
  0
VERTEX
  5
6AC
330
6AA
100
AcDbEntity
  8
COTAS
 62
     7
370
     9
100
AcDbVertex
100
AcDb2dVertex
 10
93.81776341925219
 20
87.621927356446
 30
0.0
  0
SEQEND
  5
6AD
330
6AA
100
AcDbEntity
  8
COTAS
370
     9
  0
ENDBLK
  5
6A9
330
6A6
100
AcDbEntity
  8
0
100
AcDbBlockEnd
  0
BLOCK
  5
6B0
330
6AE
100
AcDbEntity
  8
0
100
AcDbBlockBegin
  2
block 232
 70
     0
 71
     0
 10
0.0
 20
0.0
 30
0.0
  3
block 232
  1

  0
POLYLINE
  5
6B2
330
6AE
100
AcDbEntity
  8
COTAS
 62
     7
370
     9
100
AcDb2dPolyline
 66
     1
 10
0.0
 20
0.0
 30
0.0
  0
VERTEX
  5
6B3
330
6B2
100
AcDbEntity
  8
COTAS
 62
     7
370
     9
100
AcDbVertex
100
AcDb2dVertex
 10
62.57882273427089
 20
87.621927356446
 30
0.0
  0
VERTEX
  5
6B4
330
6B2
100
AcDbEntity
  8
COTAS
 62
     7
370
     9
100
AcDbVertex
100
AcDb2dVertex
 10
62.57882273427089
 20
87.621927356446
 30
0.0
  0
SEQEND
  5
6B5
330
6B2
100
AcDbEntity
  8
COTAS
370
     9
  0
ENDBLK
  5
6B1
330
6AE
100
AcDbEntity
  8
0
100
AcDbBlockEnd
  0
BLOCK
  5
6B8
330
6B6
100
AcDbEntity
  8
0
100
AcDbBlockBegin
  2
block 233
 70
     0
 71
     0
 10
0.0
 20
0.0
 30
0.0
  3
block 233
  1

  0
POLYLINE
  5
6BA
330
6B6
100
AcDbEntity
  8
COTAS
 62
     7
370
     9
100
AcDb2dPolyline
 66
     1
 10
0.0
 20
0.0
 30
0.0
  0
VERTEX
  5
6BB
330
6BA
100
AcDbEntity
  8
COTAS
 62
     7
370
     9
100
AcDbVertex
100
AcDb2dVertex
 10
62.57882273427089
 20
63.30194875366705
 30
0.0
  0
VERTEX
  5
6BC
330
6BA
100
AcDbEntity
  8
COTAS
 62
     7
370
     9
100
AcDbVertex
100
AcDb2dVertex
 10
62.57882273427089
 20
63.30194875366705
 30
0.0
  0
SEQEND
  5
6BD
330
6BA
100
AcDbEntity
  8
COTAS
370
     9
  0
ENDBLK
  5
6B9
330
6B6
100
AcDbEntity
  8
0
100
AcDbBlockEnd
  0
BLOCK
  5
6C0
330
6BE
100
AcDbEntity
  8
0
100
AcDbBlockBegin
  2
block 234
 70
     0
 71
     0
 10
0.0
 20
0.0
 30
0.0
  3
block 234
  1

  0
INSERT
  5
6C3
330
6BE
100
AcDbEntity
  8
COTAS
100
AcDbBlockReference
  2
block 235
 10
0.0
 20
0.0
 30
0.0
  0
INSERT
  5
6CB
330
6BE
100
AcDbEntity
  8
COTAS
100
AcDbBlockReference
  2
block 236
 10
0.0
 20
0.0
 30
0.0
  0
INSERT
  5
6D3
330
6BE
100
AcDbEntity
  8
COTAS
100
AcDbBlockReference
  2
block 237
 10
0.0
 20
0.0
 30
0.0
  0
INSERT
  5
6DB
330
6BE
100
AcDbEntity
  8
COTAS
100
AcDbBlockReference
  2
block 238
 10
0.0
 20
0.0
 30
0.0
  0
INSERT
  5
6E3
330
6BE
100
AcDbEntity
  8
COTAS
100
AcDbBlockReference
  2
block 239
 10
0.0
 20
0.0
 30
0.0
  0
INSERT
  5
6EB
330
6BE
100
AcDbEntity
  8
COTAS
100
AcDbBlockReference
  2
block 240
 10
0.0
 20
0.0
 30
0.0
  0
INSERT
  5
6F6
330
6BE
100
AcDbEntity
  8
COTAS
100
AcDbBlockReference
  2
block 241
 10
0.0
 20
0.0
 30
0.0
  0
INSERT
  5
701
330
6BE
100
AcDbEntity
  8
COTAS
100
AcDbBlockReference
  2
block 242
 10
0.0
 20
0.0
 30
0.0
  0
INSERT
  5
706
330
6BE
100
AcDbEntity
  8
COTAS
100
AcDbBlockReference
  2
block 243
 10
0.0
 20
0.0
 30
0.0
  0
INSERT
  5
70E
330
6BE
100
AcDbEntity
  8
COTAS
100
AcDbBlockReference
  2
block 244
 10
0.0
 20
0.0
 30
0.0
  0
INSERT
  5
716
330
6BE
100
AcDbEntity
  8
COTAS
100
AcDbBlockReference
  2
block 245
 10
0.0
 20
0.0
 30
0.0
  0
ENDBLK
  5
6C1
330
6BE
100
AcDbEntity
  8
0
100
AcDbBlockEnd
  0
BLOCK
  5
6C4
330
6C2
100
AcDbEntity
  8
0
100
AcDbBlockBegin
  2
block 235
 70
     0
 71
     0
 10
0.0
 20
0.0
 30
0.0
  3
block 235
  1

  0
POLYLINE
  5
6C6
330
6C2
100
AcDbEntity
  8
COTAS
 62
     7
370
     9
100
AcDb2dPolyline
 66
     1
 10
0.0
 20
0.0
 30
0.0
  0
VERTEX
  5
6C7
330
6C6
100
AcDbEntity
  8
COTAS
 62
     7
370
     9
100
AcDbVertex
100
AcDb2dVertex
 10
62.57882273427089
 20
64.24280495136638
 30
0.0
  0
VERTEX
  5
6C8
330
6C6
100
AcDbEntity
  8
COTAS
 62
     7
370
     9
100
AcDbVertex
100
AcDb2dVertex
 10
62.57882273427089
 20
65.18400565884151
 30
0.0
  0
SEQEND
  5
6C9
330
6C6
100
AcDbEntity
  8
COTAS
370
     9
  0
ENDBLK
  5
6C5
330
6C2
100
AcDbEntity
  8
0
100
AcDbBlockEnd
  0
BLOCK
  5
6CC
330
6CA
100
AcDbEntity
  8
0
100
AcDbBlockBegin
  2
block 236
 70
     0
 71
     0
 10
0.0
 20
0.0
 30
0.0
  3
block 236
  1

  0
POLYLINE
  5
6CE
330
6CA
100
AcDbEntity
  8
COTAS
 62
     7
370
     9
100
AcDb2dPolyline
 66
     1
 10
0.0
 20
0.0
 30
0.0
  0
VERTEX
  5
6CF
330
6CE
100
AcDbEntity
  8
COTAS
 62
     7
370
     9
100
AcDbVertex
100
AcDb2dVertex
 10
59.00332802617035
 20
86.68072664897086
 30
0.0
  0
VERTEX
  5
6D0
330
6CE
100
AcDbEntity
  8
COTAS
 62
     7
370
     9
100
AcDbVertex
100
AcDb2dVertex
 10
59.00332802617035
 20
61.42023635826837
 30
0.0
  0
SEQEND
  5
6D1
330
6CE
100
AcDbEntity
  8
COTAS
370
     9
  0
ENDBLK
  5
6CD
330
6CA
100
AcDbEntity
  8
0
100
AcDbBlockEnd
  0
BLOCK
  5
6D4
330
6D2
100
AcDbEntity
  8
0
100
AcDbBlockBegin
  2
block 237
 70
     0
 71
     0
 10
0.0
 20
0.0
 30
0.0
  3
block 237
  1

  0
POLYLINE
  5
6D6
330
6D2
100
AcDbEntity
  8
COTAS
 62
     7
370
     9
100
AcDb2dPolyline
 66
     1
 10
0.0
 20
0.0
 30
0.0
  0
VERTEX
  5
6D7
330
6D6
100
AcDbEntity
  8
COTAS
 62
     7
370
     9
100
AcDbVertex
100
AcDb2dVertex
 10
65.4017358371447
 20
63.30194875366705
 30
0.0
  0
VERTEX
  5
6D8
330
6D6
100
AcDbEntity
  8
COTAS
 62
     7
370
     9
100
AcDbVertex
100
AcDb2dVertex
 10
68.2244766851306
 20
63.30194875366705
 30
0.0
  0
SEQEND
  5
6D9
330
6D6
100
AcDbEntity
  8
COTAS
370
     9
  0
ENDBLK
  5
6D5
330
6D2
100
AcDbEntity
  8
0
100
AcDbBlockEnd
  0
BLOCK
  5
6DC
330
6DA
100
AcDbEntity
  8
0
100
AcDbBlockBegin
  2
block 238
 70
     0
 71
     0
 10
0.0
 20
0.0
 30
0.0
  3
block 238
  1

  0
POLYLINE
  5
6DE
330
6DA
100
AcDbEntity
  8
COTAS
 62
     7
370
     9
100
AcDb2dPolyline
 66
     1
 10
0.0
 20
0.0
 30
0.0
  0
VERTEX
  5
6DF
330
6DE
100
AcDbEntity
  8
COTAS
 62
     7
370
     9
100
AcDbVertex
100
AcDb2dVertex
 10
56.18058717818444
 20
63.30194875366705
 30
0.0
  0
VERTEX
  5
6E0
330
6DE
100
AcDbEntity
  8
COTAS
 62
     7
370
     9
100
AcDbVertex
100
AcDb2dVertex
 10
48.88834875390693
 20
63.30194875366705
 30
0.0
  0
SEQEND
  5
6E1
330
6DE
100
AcDbEntity
  8
COTAS
370
     9
  0
ENDBLK
  5
6DD
330
6DA
100
AcDbEntity
  8
0
100
AcDbBlockEnd
  0
BLOCK
  5
6E4
330
6E2
100
AcDbEntity
  8
0
100
AcDbBlockBegin
  2
block 239
 70
     0
 71
     0
 10
0.0
 20
0.0
 30
0.0
  3
block 239
  1

  0
POLYLINE
  5
6E6
330
6E2
100
AcDbEntity
  8
COTAS
 62
     7
370
     9
100
AcDb2dPolyline
 66
     1
 10
0.0
 20
0.0
 30
0.0
  0
VERTEX
  5
6E7
330
6E6
100
AcDbEntity
  8
COTAS
 62
     7
370
     9
100
AcDbVertex
100
AcDb2dVertex
 10
62.57882273427089
 20
63.30194875366705
 30
0.0
  0
VERTEX
  5
6E8
330
6E6
100
AcDbEntity
  8
COTAS
 62
     7
370
     9
100
AcDbVertex
100
AcDb2dVertex
 10
59.00332802617035
 20
63.30194875366705
 30
0.0
  0
SEQEND
  5
6E9
330
6E6
100
AcDbEntity
  8
COTAS
370
     9
  0
ENDBLK
  5
6E5
330
6E2
100
AcDbEntity
  8
0
100
AcDbBlockEnd
  0
BLOCK
  5
6EC
330
6EA
100
AcDbEntity
  8
0
100
AcDbBlockBegin
  2
block 240
 70
     0
 71
     0
 10
0.0
 20
0.0
 30
0.0
  3
block 240
  1

  0
POLYLINE
  5
6EE
330
6EA
100
AcDbEntity
  8
COTAS
370
     0
100
AcDb2dPolyline
 66
     1
 10
0.0
 20
0.0
 30
0.0
  0
VERTEX
  5
6EF
330
6EE
100
AcDbEntity
  8
COTAS
370
     0
100
AcDbVertex
100
AcDb2dVertex
 10
65.4017358371447
 20
63.77254910740461
 30
0.0
  0
VERTEX
  5
6F0
330
6EE
100
AcDbEntity
  8
COTAS
370
     0
100
AcDbVertex
100
AcDb2dVertex
 10
65.4017358371447
 20
62.83169290970527
 30
0.0
  0
VERTEX
  5
6F1
330
6EE
100
AcDbEntity
  8
COTAS
370
     0
100
AcDbVertex
100
AcDb2dVertex
 10
62.57882273427089
 20
63.30194875366705
 30
0.0
  0
VERTEX
  5
6F2
330
6EE
100
AcDbEntity
  8
COTAS
370
     0
100
AcDbVertex
100
AcDb2dVertex
 10
65.4017358371447
 20
63.77254910740461
 30
0.0
  0
SEQEND
  5
6F3
330
6EE
100
AcDbEntity
  8
COTAS
370
     0
  0
HATCH
  5
6F4
330
6EA
100
AcDbEntity
  8
COTAS
 62
     7
100
AcDbHatch
 10
0.0
 20
0.0
 30
0.0
210
0.0
220
0.0
230
1.0
  2
SOLID
 70
     1
 71
     0
 91
        1
 92
        1
 93
        3
 72
     1
 10
65.4017358371447
 20
63.77254910740461
 11
65.4017358371447
 21
62.83169290970527
 72
     1
 10
65.4017358371447
 20
62.83169290970527
 11
62.57882273427089
 21
63.30194875366705
 72
     1
 10
62.57882273427089
 20
63.30194875366705
 11
65.4017358371447
 21
63.77254910740461
 97
        0
 75
     2
 76
     1
 98
        0
  0
ENDBLK
  5
6ED
330
6EA
100
AcDbEntity
  8
0
100
AcDbBlockEnd
  0
BLOCK
  5
6F7
330
6F5
100
AcDbEntity
  8
0
100
AcDbBlockBegin
  2
block 241
 70
     0
 71
     0
 10
0.0
 20
0.0
 30
0.0
  3
block 241
  1

  0
POLYLINE
  5
6F9
330
6F5
100
AcDbEntity
  8
COTAS
370
     0
100
AcDb2dPolyline
 66
     1
 10
0.0
 20
0.0
 30
0.0
  0
VERTEX
  5
6FA
330
6F9
100
AcDbEntity
  8
COTAS
370
     0
100
AcDbVertex
100
AcDb2dVertex
 10
56.18058717818444
 20
63.77254910740461
 30
0.0
  0
VERTEX
  5
6FB
330
6F9
100
AcDbEntity
  8
COTAS
370
     0
100
AcDbVertex
100
AcDb2dVertex
 10
56.18058717818444
 20
62.83169290970527
 30
0.0
  0
VERTEX
  5
6FC
330
6F9
100
AcDbEntity
  8
COTAS
370
     0
100
AcDbVertex
100
AcDb2dVertex
 10
59.00332802617035
 20
63.30194875366705
 30
0.0
  0
VERTEX
  5
6FD
330
6F9
100
AcDbEntity
  8
COTAS
370
     0
100
AcDbVertex
100
AcDb2dVertex
 10
56.18058717818444
 20
63.77254910740461
 30
0.0
  0
SEQEND
  5
6FE
330
6F9
100
AcDbEntity
  8
COTAS
370
     0
  0
HATCH
  5
6FF
330
6F5
100
AcDbEntity
  8
COTAS
 62
     7
100
AcDbHatch
 10
0.0
 20
0.0
 30
0.0
210
0.0
220
0.0
230
1.0
  2
SOLID
 70
     1
 71
     0
 91
        1
 92
        1
 93
        3
 72
     1
 10
56.18058717818444
 20
63.77254910740461
 11
56.18058717818444
 21
62.83169290970527
 72
     1
 10
56.18058717818444
 20
62.83169290970527
 11
59.00332802617035
 21
63.30194875366705
 72
     1
 10
59.00332802617035
 20
63.30194875366705
 11
56.18058717818444
 21
63.77254910740461
 97
        0
 75
     2
 76
     1
 98
        0
  0
ENDBLK
  5
6F8
330
6F5
100
AcDbEntity
  8
0
100
AcDbBlockEnd
  0
BLOCK
  5
702
330
700
100
AcDbEntity
  8
0
100
AcDbBlockBegin
  2
block 242
 70
     0
 71
     0
 10
0.0
 20
0.0
 30
0.0
  3
block 242
  1

  0
MTEXT
  5
704
330
700
100
AcDbEntity
  8
COTAS
 62
     7
100
AcDbMText
 10
48.88283659749419
 20
64.24280495136638
 30
0.0
 40
2.398890470823883
 41
0.0
 71
     7
 72
     1
  1
\fArial|b1|i0|c0|p34;\W1;38
 73
     1
 44
1.0
  0
ENDBLK
  5
703
330
700
100
AcDbEntity
  8
0
100
AcDbBlockEnd
  0
BLOCK
  5
707
330
705
100
AcDbEntity
  8
0
100
AcDbBlockBegin
  2
block 243
 70
     0
 71
     0
 10
0.0
 20
0.0
 30
0.0
  3
block 243
  1

  0
POLYLINE
  5
709
330
705
100
AcDbEntity
  8
COTAS
 62
     7
370
     9
100
AcDb2dPolyline
 66
     1
 10
0.0
 20
0.0
 30
0.0
  0
VERTEX
  5
70A
330
709
100
AcDbEntity
  8
COTAS
 62
     7
370
     9
100
AcDbVertex
100
AcDb2dVertex
 10
62.57882273427089
 20
63.30194875366705
 30
0.0
  0
VERTEX
  5
70B
330
709
100
AcDbEntity
  8
COTAS
 62
     7
370
     9
100
AcDbVertex
100
AcDb2dVertex
 10
62.57882273427089
 20
63.30194875366705
 30
0.0
  0
SEQEND
  5
70C
330
709
100
AcDbEntity
  8
COTAS
370
     9
  0
ENDBLK
  5
708
330
705
100
AcDbEntity
  8
0
100
AcDbBlockEnd
  0
BLOCK
  5
70F
330
70D
100
AcDbEntity
  8
0
100
AcDbBlockBegin
  2
block 244
 70
     0
 71
     0
 10
0.0
 20
0.0
 30
0.0
  3
block 244
  1

  0
POLYLINE
  5
711
330
70D
100
AcDbEntity
  8
COTAS
 62
     7
370
     9
100
AcDb2dPolyline
 66
     1
 10
0.0
 20
0.0
 30
0.0
  0
VERTEX
  5
712
330
711
100
AcDbEntity
  8
COTAS
 62
     7
370
     9
100
AcDbVertex
100
AcDb2dVertex
 10
59.00332802617035
 20
87.621927356446
 30
0.0
  0
VERTEX
  5
713
330
711
100
AcDbEntity
  8
COTAS
 62
     7
370
     9
100
AcDbVertex
100
AcDb2dVertex
 10
59.00332802617035
 20
87.621927356446
 30
0.0
  0
SEQEND
  5
714
330
711
100
AcDbEntity
  8
COTAS
370
     9
  0
ENDBLK
  5
710
330
70D
100
AcDbEntity
  8
0
100
AcDbBlockEnd
  0
BLOCK
  5
717
330
715
100
AcDbEntity
  8
0
100
AcDbBlockBegin
  2
block 245
 70
     0
 71
     0
 10
0.0
 20
0.0
 30
0.0
  3
block 245
  1

  0
POLYLINE
  5
719
330
715
100
AcDbEntity
  8
COTAS
 62
     7
370
     9
100
AcDb2dPolyline
 66
     1
 10
0.0
 20
0.0
 30
0.0
  0
VERTEX
  5
71A
330
719
100
AcDbEntity
  8
COTAS
 62
     7
370
     9
100
AcDbVertex
100
AcDb2dVertex
 10
59.00332802617035
 20
63.30194875366705
 30
0.0
  0
VERTEX
  5
71B
330
719
100
AcDbEntity
  8
COTAS
 62
     7
370
     9
100
AcDbVertex
100
AcDb2dVertex
 10
59.00332802617035
 20
63.30194875366705
 30
0.0
  0
SEQEND
  5
71C
330
719
100
AcDbEntity
  8
COTAS
370
     9
  0
ENDBLK
  5
718
330
715
100
AcDbEntity
  8
0
100
AcDbBlockEnd
  0
BLOCK
  5
71F
330
71D
100
AcDbEntity
  8
0
100
AcDbBlockBegin
  2
block 246
 70
     0
 71
     0
 10
0.0
 20
0.0
 30
0.0
  3
block 246
  1

  0
INSERT
  5
722
330
71D
100
AcDbEntity
  8
COTAS
100
AcDbBlockReference
  2
block 247
 10
0.0
 20
0.0
 30
0.0
  0
INSERT
  5
72A
330
71D
100
AcDbEntity
  8
COTAS
100
AcDbBlockReference
  2
block 248
 10
0.0
 20
0.0
 30
0.0
  0
INSERT
  5
732
330
71D
100
AcDbEntity
  8
COTAS
100
AcDbBlockReference
  2
block 249
 10
0.0
 20
0.0
 30
0.0
  0
INSERT
  5
73A
330
71D
100
AcDbEntity
  8
COTAS
100
AcDbBlockReference
  2
block 250
 10
0.0
 20
0.0
 30
0.0
  0
INSERT
  5
745
330
71D
100
AcDbEntity
  8
COTAS
100
AcDbBlockReference
  2
block 251
 10
0.0
 20
0.0
 30
0.0
  0
INSERT
  5
750
330
71D
100
AcDbEntity
  8
COTAS
100
AcDbBlockReference
  2
block 252
 10
0.0
 20
0.0
 30
0.0
  0
INSERT
  5
755
330
71D
100
AcDbEntity
  8
COTAS
100
AcDbBlockReference
  2
block 253
 10
0.0
 20
0.0
 30
0.0
  0
INSERT
  5
75D
330
71D
100
AcDbEntity
  8
COTAS
100
AcDbBlockReference
  2
block 254
 10
0.0
 20
0.0
 30
0.0
  0
INSERT
  5
765
330
71D
100
AcDbEntity
  8
COTAS
100
AcDbBlockReference
  2
block 255
 10
0.0
 20
0.0
 30
0.0
  0
ENDBLK
  5
720
330
71D
100
AcDbEntity
  8
0
100
AcDbBlockEnd
  0
BLOCK
  5
723
330
721
100
AcDbEntity
  8
0
100
AcDbBlockBegin
  2
block 247
 70
     0
 71
     0
 10
0.0
 20
0.0
 30
0.0
  3
block 247
  1

  0
POLYLINE
  5
725
330
721
100
AcDbEntity
  8
COTAS
 62
     7
370
     9
100
AcDb2dPolyline
 66
     1
 10
0.0
 20
0.0
 30
0.0
  0
VERTEX
  5
726
330
725
100
AcDbEntity
  8
COTAS
 62
     7
370
     9
100
AcDbVertex
100
AcDb2dVertex
 10
103.2270144157972
 20
86.68072664897086
 30
0.0
  0
VERTEX
  5
727
330
725
100
AcDbEntity
  8
COTAS
 62
     7
370
     9
100
AcDbVertex
100
AcDb2dVertex
 10
103.2270144157972
 20
61.42023635826837
 30
0.0
  0
SEQEND
  5
728
330
725
100
AcDbEntity
  8
COTAS
370
     9
  0
ENDBLK
  5
724
330
721
100
AcDbEntity
  8
0
100
AcDbBlockEnd
  0
BLOCK
  5
72B
330
729
100
AcDbEntity
  8
0
100
AcDbBlockBegin
  2
block 248
 70
     0
 71
     0
 10
0.0
 20
0.0
 30
0.0
  3
block 248
  1

  0
POLYLINE
  5
72D
330
729
100
AcDbEntity
  8
COTAS
 62
     7
370
     9
100
AcDb2dPolyline
 66
     1
 10
0.0
 20
0.0
 30
0.0
  0
VERTEX
  5
72E
330
72D
100
AcDbEntity
  8
COTAS
 62
     7
370
     9
100
AcDbVertex
100
AcDb2dVertex
 10
93.81776341925219
 20
64.24280495136638
 30
0.0
  0
VERTEX
  5
72F
330
72D
100
AcDbEntity
  8
COTAS
 62
     7
370
     9
100
AcDbVertex
100
AcDb2dVertex
 10
93.81776341925219
 20
65.18400565884151
 30
0.0
  0
SEQEND
  5
730
330
72D
100
AcDbEntity
  8
COTAS
370
     9
  0
ENDBLK
  5
72C
330
729
100
AcDbEntity
  8
0
100
AcDbBlockEnd
  0
BLOCK
  5
733
330
731
100
AcDbEntity
  8
0
100
AcDbBlockBegin
  2
block 249
 70
     0
 71
     0
 10
0.0
 20
0.0
 30
0.0
  3
block 249
  1

  0
POLYLINE
  5
735
330
731
100
AcDbEntity
  8
COTAS
 62
     7
370
     9
100
AcDb2dPolyline
 66
     1
 10
0.0
 20
0.0
 30
0.0
  0
VERTEX
  5
736
330
735
100
AcDbEntity
  8
COTAS
 62
     7
370
     9
100
AcDbVertex
100
AcDb2dVertex
 10
100.4042735678112
 20
63.30194875366705
 30
0.0
  0
VERTEX
  5
737
330
735
100
AcDbEntity
  8
COTAS
 62
     7
370
     9
100
AcDbVertex
100
AcDb2dVertex
 10
96.6405042672381
 20
63.30194875366705
 30
0.0
  0
SEQEND
  5
738
330
735
100
AcDbEntity
  8
COTAS
370
     9
  0
ENDBLK
  5
734
330
731
100
AcDbEntity
  8
0
100
AcDbBlockEnd
  0
BLOCK
  5
73B
330
739
100
AcDbEntity
  8
0
100
AcDbBlockBegin
  2
block 250
 70
     0
 71
     0
 10
0.0
 20
0.0
 30
0.0
  3
block 250
  1

  0
POLYLINE
  5
73D
330
739
100
AcDbEntity
  8
COTAS
370
     0
100
AcDb2dPolyline
 66
     1
 10
0.0
 20
0.0
 30
0.0
  0
VERTEX
  5
73E
330
73D
100
AcDbEntity
  8
COTAS
370
     0
100
AcDbVertex
100
AcDb2dVertex
 10
100.4042735678112
 20
63.77254910740461
 30
0.0
  0
VERTEX
  5
73F
330
73D
100
AcDbEntity
  8
COTAS
370
     0
100
AcDbVertex
100
AcDb2dVertex
 10
100.4042735678112
 20
62.83169290970527
 30
0.0
  0
VERTEX
  5
740
330
73D
100
AcDbEntity
  8
COTAS
370
     0
100
AcDbVertex
100
AcDb2dVertex
 10
103.2270144157972
 20
63.30194875366705
 30
0.0
  0
VERTEX
  5
741
330
73D
100
AcDbEntity
  8
COTAS
370
     0
100
AcDbVertex
100
AcDb2dVertex
 10
100.4042735678112
 20
63.77254910740461
 30
0.0
  0
SEQEND
  5
742
330
73D
100
AcDbEntity
  8
COTAS
370
     0
  0
HATCH
  5
743
330
739
100
AcDbEntity
  8
COTAS
 62
     7
100
AcDbHatch
 10
0.0
 20
0.0
 30
0.0
210
0.0
220
0.0
230
1.0
  2
SOLID
 70
     1
 71
     0
 91
        1
 92
        1
 93
        3
 72
     1
 10
100.4042735678112
 20
63.77254910740461
 11
100.4042735678112
 21
62.83169290970527
 72
     1
 10
100.4042735678112
 20
62.83169290970527
 11
103.2270144157972
 21
63.30194875366705
 72
     1
 10
103.2270144157972
 20
63.30194875366705
 11
100.4042735678112
 21
63.77254910740461
 97
        0
 75
     2
 76
     1
 98
        0
  0
ENDBLK
  5
73C
330
739
100
AcDbEntity
  8
0
100
AcDbBlockEnd
  0
BLOCK
  5
746
330
744
100
AcDbEntity
  8
0
100
AcDbBlockBegin
  2
block 251
 70
     0
 71
     0
 10
0.0
 20
0.0
 30
0.0
  3
block 251
  1

  0
POLYLINE
  5
748
330
744
100
AcDbEntity
  8
COTAS
370
     0
100
AcDb2dPolyline
 66
     1
 10
0.0
 20
0.0
 30
0.0
  0
VERTEX
  5
749
330
748
100
AcDbEntity
  8
COTAS
370
     0
100
AcDbVertex
100
AcDb2dVertex
 10
96.6405042672381
 20
63.77254910740461
 30
0.0
  0
VERTEX
  5
74A
330
748
100
AcDbEntity
  8
COTAS
370
     0
100
AcDbVertex
100
AcDb2dVertex
 10
96.6405042672381
 20
62.83169290970527
 30
0.0
  0
VERTEX
  5
74B
330
748
100
AcDbEntity
  8
COTAS
370
     0
100
AcDbVertex
100
AcDb2dVertex
 10
93.81776341925219
 20
63.30194875366705
 30
0.0
  0
VERTEX
  5
74C
330
748
100
AcDbEntity
  8
COTAS
370
     0
100
AcDbVertex
100
AcDb2dVertex
 10
96.6405042672381
 20
63.77254910740461
 30
0.0
  0
SEQEND
  5
74D
330
748
100
AcDbEntity
  8
COTAS
370
     0
  0
HATCH
  5
74E
330
744
100
AcDbEntity
  8
COTAS
 62
     7
100
AcDbHatch
 10
0.0
 20
0.0
 30
0.0
210
0.0
220
0.0
230
1.0
  2
SOLID
 70
     1
 71
     0
 91
        1
 92
        1
 93
        3
 72
     1
 10
96.6405042672381
 20
63.77254910740461
 11
96.6405042672381
 21
62.83169290970527
 72
     1
 10
96.6405042672381
 20
62.83169290970527
 11
93.81776341925219
 21
63.30194875366705
 72
     1
 10
93.81776341925219
 20
63.30194875366705
 11
96.6405042672381
 21
63.77254910740461
 97
        0
 75
     2
 76
     1
 98
        0
  0
ENDBLK
  5
747
330
744
100
AcDbEntity
  8
0
100
AcDbBlockEnd
  0
BLOCK
  5
751
330
74F
100
AcDbEntity
  8
0
100
AcDbBlockBegin
  2
block 252
 70
     0
 71
     0
 10
0.0
 20
0.0
 30
0.0
  3
block 252
  1

  0
MTEXT
  5
753
330
74F
100
AcDbEntity
  8
COTAS
 62
     7
100
AcDbMText
 10
94.90331372278592
 20
64.24280495136638
 30
0.0
 40
2.398890470823883
 41
0.0
 71
     7
 72
     1
  1
\fArial|b1|i0|c0|p34;\W1;100
 73
     1
 44
1.0
  0
ENDBLK
  5
752
330
74F
100
AcDbEntity
  8
0
100
AcDbBlockEnd
  0
BLOCK
  5
756
330
754
100
AcDbEntity
  8
0
100
AcDbBlockBegin
  2
block 253
 70
     0
 71
     0
 10
0.0
 20
0.0
 30
0.0
  3
block 253
  1

  0
POLYLINE
  5
758
330
754
100
AcDbEntity
  8
COTAS
 62
     7
370
     9
100
AcDb2dPolyline
 66
     1
 10
0.0
 20
0.0
 30
0.0
  0
VERTEX
  5
759
330
758
100
AcDbEntity
  8
COTAS
 62
     7
370
     9
100
AcDbVertex
100
AcDb2dVertex
 10
103.2270144157972
 20
87.621927356446
 30
0.0
  0
VERTEX
  5
75A
330
758
100
AcDbEntity
  8
COTAS
 62
     7
370
     9
100
AcDbVertex
100
AcDb2dVertex
 10
103.2270144157972
 20
87.621927356446
 30
0.0
  0
SEQEND
  5
75B
330
758
100
AcDbEntity
  8
COTAS
370
     9
  0
ENDBLK
  5
757
330
754
100
AcDbEntity
  8
0
100
AcDbBlockEnd
  0
BLOCK
  5
75E
330
75C
100
AcDbEntity
  8
0
100
AcDbBlockBegin
  2
block 254
 70
     0
 71
     0
 10
0.0
 20
0.0
 30
0.0
  3
block 254
  1

  0
POLYLINE
  5
760
330
75C
100
AcDbEntity
  8
COTAS
 62
     7
370
     9
100
AcDb2dPolyline
 66
     1
 10
0.0
 20
0.0
 30
0.0
  0
VERTEX
  5
761
330
760
100
AcDbEntity
  8
COTAS
 62
     7
370
     9
100
AcDbVertex
100
AcDb2dVertex
 10
93.81776341925219
 20
63.30194875366705
 30
0.0
  0
VERTEX
  5
762
330
760
100
AcDbEntity
  8
COTAS
 62
     7
370
     9
100
AcDbVertex
100
AcDb2dVertex
 10
93.81776341925219
 20
63.30194875366705
 30
0.0
  0
SEQEND
  5
763
330
760
100
AcDbEntity
  8
COTAS
370
     9
  0
ENDBLK
  5
75F
330
75C
100
AcDbEntity
  8
0
100
AcDbBlockEnd
  0
BLOCK
  5
766
330
764
100
AcDbEntity
  8
0
100
AcDbBlockBegin
  2
block 255
 70
     0
 71
     0
 10
0.0
 20
0.0
 30
0.0
  3
block 255
  1

  0
POLYLINE
  5
768
330
764
100
AcDbEntity
  8
COTAS
 62
     7
370
     9
100
AcDb2dPolyline
 66
     1
 10
0.0
 20
0.0
 30
0.0
  0
VERTEX
  5
769
330
768
100
AcDbEntity
  8
COTAS
 62
     7
370
     9
100
AcDbVertex
100
AcDb2dVertex
 10
93.81776341925219
 20
63.30194875366705
 30
0.0
  0
VERTEX
  5
76A
330
768
100
AcDbEntity
  8
COTAS
 62
     7
370
     9
100
AcDbVertex
100
AcDb2dVertex
 10
93.81776341925219
 20
63.30194875366705
 30
0.0
  0
SEQEND
  5
76B
330
768
100
AcDbEntity
  8
COTAS
370
     9
  0
ENDBLK
  5
767
330
764
100
AcDbEntity
  8
0
100
AcDbBlockEnd
  0
BLOCK
  5
76E
330
76C
100
AcDbEntity
  8
0
100
AcDbBlockBegin
  2
block 256
 70
     0
 71
     0
 10
0.0
 20
0.0
 30
0.0
  3
block 256
  1

  0
INSERT
  5
771
330
76C
100
AcDbEntity
  8
COTAS
100
AcDbBlockReference
  2
block 257
 10
0.0
 20
0.0
 30
0.0
  0
INSERT
  5
779
330
76C
100
AcDbEntity
  8
COTAS
100
AcDbBlockReference
  2
block 258
 10
0.0
 20
0.0
 30
0.0
  0
INSERT
  5
781
330
76C
100
AcDbEntity
  8
COTAS
100
AcDbBlockReference
  2
block 259
 10
0.0
 20
0.0
 30
0.0
  0
INSERT
  5
789
330
76C
100
AcDbEntity
  8
COTAS
100
AcDbBlockReference
  2
block 260
 10
0.0
 20
0.0
 30
0.0
  0
INSERT
  5
794
330
76C
100
AcDbEntity
  8
COTAS
100
AcDbBlockReference
  2
block 261
 10
0.0
 20
0.0
 30
0.0
  0
INSERT
  5
79F
330
76C
100
AcDbEntity
  8
COTAS
100
AcDbBlockReference
  2
block 262
 10
0.0
 20
0.0
 30
0.0
  0
INSERT
  5
7A4
330
76C
100
AcDbEntity
  8
COTAS
100
AcDbBlockReference
  2
block 263
 10
0.0
 20
0.0
 30
0.0
  0
INSERT
  5
7AC
330
76C
100
AcDbEntity
  8
COTAS
100
AcDbBlockReference
  2
block 264
 10
0.0
 20
0.0
 30
0.0
  0
INSERT
  5
7B4
330
76C
100
AcDbEntity
  8
COTAS
100
AcDbBlockReference
  2
block 265
 10
0.0
 20
0.0
 30
0.0
  0
ENDBLK
  5
76F
330
76C
100
AcDbEntity
  8
0
100
AcDbBlockEnd
  0
BLOCK
  5
772
330
770
100
AcDbEntity
  8
0
100
AcDbBlockBegin
  2
block 257
 70
     0
 71
     0
 10
0.0
 20
0.0
 30
0.0
  3
block 257
  1

  0
POLYLINE
  5
774
330
770
100
AcDbEntity
  8
COTAS
 62
     7
370
     9
100
AcDb2dPolyline
 66
     1
 10
0.0
 20
0.0
 30
0.0
  0
VERTEX
  5
775
330
774
100
AcDbEntity
  8
COTAS
 62
     7
370
     9
100
AcDbVertex
100
AcDb2dVertex
 10
59.00332802617035
 20
62.36109255596771
 30
0.0
  0
VERTEX
  5
776
330
774
100
AcDbEntity
  8
COTAS
 62
     7
370
     9
100
AcDbVertex
100
AcDb2dVertex
 10
59.00332802617035
 20
54.6912714174176
 30
0.0
  0
SEQEND
  5
777
330
774
100
AcDbEntity
  8
COTAS
370
     9
  0
ENDBLK
  5
773
330
770
100
AcDbEntity
  8
0
100
AcDbBlockEnd
  0
BLOCK
  5
77A
330
778
100
AcDbEntity
  8
0
100
AcDbBlockBegin
  2
block 258
 70
     0
 71
     0
 10
0.0
 20
0.0
 30
0.0
  3
block 258
  1

  0
POLYLINE
  5
77C
330
778
100
AcDbEntity
  8
COTAS
 62
     7
370
     9
100
AcDb2dPolyline
 66
     1
 10
0.0
 20
0.0
 30
0.0
  0
VERTEX
  5
77D
330
77C
100
AcDbEntity
  8
COTAS
 62
     7
370
     9
100
AcDbVertex
100
AcDb2dVertex
 10
103.2270144157972
 20
62.36109255596771
 30
0.0
  0
VERTEX
  5
77E
330
77C
100
AcDbEntity
  8
COTAS
 62
     7
370
     9
100
AcDbVertex
100
AcDb2dVertex
 10
103.2270144157972
 20
54.6912714174176
 30
0.0
  0
SEQEND
  5
77F
330
77C
100
AcDbEntity
  8
COTAS
370
     9
  0
ENDBLK
  5
77B
330
778
100
AcDbEntity
  8
0
100
AcDbBlockEnd
  0
BLOCK
  5
782
330
780
100
AcDbEntity
  8
0
100
AcDbBlockBegin
  2
block 259
 70
     0
 71
     0
 10
0.0
 20
0.0
 30
0.0
  3
block 259
  1

  0
POLYLINE
  5
784
330
780
100
AcDbEntity
  8
COTAS
 62
     7
370
     9
100
AcDb2dPolyline
 66
     1
 10
0.0
 20
0.0
 30
0.0
  0
VERTEX
  5
785
330
784
100
AcDbEntity
  8
COTAS
 62
     7
370
     9
100
AcDbVertex
100
AcDb2dVertex
 10
61.82606887415626
 20
56.57298381281628
 30
0.0
  0
VERTEX
  5
786
330
784
100
AcDbEntity
  8
COTAS
 62
     7
370
     9
100
AcDbVertex
100
AcDb2dVertex
 10
100.4042735678112
 20
56.57298381281628
 30
0.0
  0
SEQEND
  5
787
330
784
100
AcDbEntity
  8
COTAS
370
     9
  0
ENDBLK
  5
783
330
780
100
AcDbEntity
  8
0
100
AcDbBlockEnd
  0
BLOCK
  5
78A
330
788
100
AcDbEntity
  8
0
100
AcDbBlockBegin
  2
block 260
 70
     0
 71
     0
 10
0.0
 20
0.0
 30
0.0
  3
block 260
  1

  0
POLYLINE
  5
78C
330
788
100
AcDbEntity
  8
COTAS
370
     0
100
AcDb2dPolyline
 66
     1
 10
0.0
 20
0.0
 30
0.0
  0
VERTEX
  5
78D
330
78C
100
AcDbEntity
  8
COTAS
370
     0
100
AcDbVertex
100
AcDb2dVertex
 10
61.82606887415626
 20
57.04358416655384
 30
0.0
  0
VERTEX
  5
78E
330
78C
100
AcDbEntity
  8
COTAS
370
     0
100
AcDbVertex
100
AcDb2dVertex
 10
61.82606887415626
 20
56.1027279688545
 30
0.0
  0
VERTEX
  5
78F
330
78C
100
AcDbEntity
  8
COTAS
370
     0
100
AcDbVertex
100
AcDb2dVertex
 10
59.00332802617035
 20
56.57298381281628
 30
0.0
  0
VERTEX
  5
790
330
78C
100
AcDbEntity
  8
COTAS
370
     0
100
AcDbVertex
100
AcDb2dVertex
 10
61.82606887415626
 20
57.04358416655384
 30
0.0
  0
SEQEND
  5
791
330
78C
100
AcDbEntity
  8
COTAS
370
     0
  0
HATCH
  5
792
330
788
100
AcDbEntity
  8
COTAS
 62
     7
100
AcDbHatch
 10
0.0
 20
0.0
 30
0.0
210
0.0
220
0.0
230
1.0
  2
SOLID
 70
     1
 71
     0
 91
        1
 92
        1
 93
        3
 72
     1
 10
61.82606887415626
 20
57.04358416655384
 11
61.82606887415626
 21
56.1027279688545
 72
     1
 10
61.82606887415626
 20
56.1027279688545
 11
59.00332802617035
 21
56.57298381281628
 72
     1
 10
59.00332802617035
 20
56.57298381281628
 11
61.82606887415626
 21
57.04358416655384
 97
        0
 75
     2
 76
     1
 98
        0
  0
ENDBLK
  5
78B
330
788
100
AcDbEntity
  8
0
100
AcDbBlockEnd
  0
BLOCK
  5
795
330
793
100
AcDbEntity
  8
0
100
AcDbBlockBegin
  2
block 261
 70
     0
 71
     0
 10
0.0
 20
0.0
 30
0.0
  3
block 261
  1

  0
POLYLINE
  5
797
330
793
100
AcDbEntity
  8
COTAS
370
     0
100
AcDb2dPolyline
 66
     1
 10
0.0
 20
0.0
 30
0.0
  0
VERTEX
  5
798
330
797
100
AcDbEntity
  8
COTAS
370
     0
100
AcDbVertex
100
AcDb2dVertex
 10
100.4042735678112
 20
57.04358416655384
 30
0.0
  0
VERTEX
  5
799
330
797
100
AcDbEntity
  8
COTAS
370
     0
100
AcDbVertex
100
AcDb2dVertex
 10
100.4042735678112
 20
56.1027279688545
 30
0.0
  0
VERTEX
  5
79A
330
797
100
AcDbEntity
  8
COTAS
370
     0
100
AcDbVertex
100
AcDb2dVertex
 10
103.2270144157972
 20
56.57298381281628
 30
0.0
  0
VERTEX
  5
79B
330
797
100
AcDbEntity
  8
COTAS
370
     0
100
AcDbVertex
100
AcDb2dVertex
 10
100.4042735678112
 20
57.04358416655384
 30
0.0
  0
SEQEND
  5
79C
330
797
100
AcDbEntity
  8
COTAS
370
     0
  0
HATCH
  5
79D
330
793
100
AcDbEntity
  8
COTAS
 62
     7
100
AcDbHatch
 10
0.0
 20
0.0
 30
0.0
210
0.0
220
0.0
230
1.0
  2
SOLID
 70
     1
 71
     0
 91
        1
 92
        1
 93
        3
 72
     1
 10
100.4042735678112
 20
57.04358416655384
 11
100.4042735678112
 21
56.1027279688545
 72
     1
 10
100.4042735678112
 20
56.1027279688545
 11
103.2270144157972
 21
56.57298381281628
 72
     1
 10
103.2270144157972
 20
56.57298381281628
 11
100.4042735678112
 21
57.04358416655384
 97
        0
 75
     2
 76
     1
 98
        0
  0
ENDBLK
  5
796
330
793
100
AcDbEntity
  8
0
100
AcDbBlockEnd
  0
BLOCK
  5
7A0
330
79E
100
AcDbEntity
  8
0
100
AcDbBlockBegin
  2
block 262
 70
     0
 71
     0
 10
0.0
 20
0.0
 30
0.0
  3
block 262
  1

  0
MTEXT
  5
7A2
330
79E
100
AcDbEntity
  8
COTAS
 62
     7
100
AcDbMText
 10
77.47008553817238
 20
57.51384001051562
 30
0.0
 40
2.398890470823883
 41
0.0
 71
     7
 72
     1
  1
\fArial|b1|i0|c0|p34;\W1;470
 73
     1
 44
1.0
  0
ENDBLK
  5
7A1
330
79E
100
AcDbEntity
  8
0
100
AcDbBlockEnd
  0
BLOCK
  5
7A5
330
7A3
100
AcDbEntity
  8
0
100
AcDbBlockBegin
  2
block 263
 70
     0
 71
     0
 10
0.0
 20
0.0
 30
0.0
  3
block 263
  1

  0
POLYLINE
  5
7A7
330
7A3
100
AcDbEntity
  8
COTAS
 62
     7
370
     9
100
AcDb2dPolyline
 66
     1
 10
0.0
 20
0.0
 30
0.0
  0
VERTEX
  5
7A8
330
7A7
100
AcDbEntity
  8
COTAS
 62
     7
370
     9
100
AcDbVertex
100
AcDb2dVertex
 10
59.00332802617035
 20
63.30194875366705
 30
0.0
  0
VERTEX
  5
7A9
330
7A7
100
AcDbEntity
  8
COTAS
 62
     7
370
     9
100
AcDbVertex
100
AcDb2dVertex
 10
59.00332802617035
 20
63.30194875366705
 30
0.0
  0
SEQEND
  5
7AA
330
7A7
100
AcDbEntity
  8
COTAS
370
     9
  0
ENDBLK
  5
7A6
330
7A3
100
AcDbEntity
  8
0
100
AcDbBlockEnd
  0
BLOCK
  5
7AD
330
7AB
100
AcDbEntity
  8
0
100
AcDbBlockBegin
  2
block 264
 70
     0
 71
     0
 10
0.0
 20
0.0
 30
0.0
  3
block 264
  1

  0
POLYLINE
  5
7AF
330
7AB
100
AcDbEntity
  8
COTAS
 62
     7
370
     9
100
AcDb2dPolyline
 66
     1
 10
0.0
 20
0.0
 30
0.0
  0
VERTEX
  5
7B0
330
7AF
100
AcDbEntity
  8
COTAS
 62
     7
370
     9
100
AcDbVertex
100
AcDb2dVertex
 10
103.2270144157972
 20
63.30194875366705
 30
0.0
  0
VERTEX
  5
7B1
330
7AF
100
AcDbEntity
  8
COTAS
 62
     7
370
     9
100
AcDbVertex
100
AcDb2dVertex
 10
103.2270144157972
 20
63.30194875366705
 30
0.0
  0
SEQEND
  5
7B2
330
7AF
100
AcDbEntity
  8
COTAS
370
     9
  0
ENDBLK
  5
7AE
330
7AB
100
AcDbEntity
  8
0
100
AcDbBlockEnd
  0
BLOCK
  5
7B5
330
7B3
100
AcDbEntity
  8
0
100
AcDbBlockBegin
  2
block 265
 70
     0
 71
     0
 10
0.0
 20
0.0
 30
0.0
  3
block 265
  1

  0
POLYLINE
  5
7B7
330
7B3
100
AcDbEntity
  8
COTAS
 62
     7
370
     9
100
AcDb2dPolyline
 66
     1
 10
0.0
 20
0.0
 30
0.0
  0
VERTEX
  5
7B8
330
7B7
100
AcDbEntity
  8
COTAS
 62
     7
370
     9
100
AcDbVertex
100
AcDb2dVertex
 10
103.2270144157972
 20
56.57298381281628
 30
0.0
  0
VERTEX
  5
7B9
330
7B7
100
AcDbEntity
  8
COTAS
 62
     7
370
     9
100
AcDbVertex
100
AcDb2dVertex
 10
103.2270144157972
 20
56.57298381281628
 30
0.0
  0
SEQEND
  5
7BA
330
7B7
100
AcDbEntity
  8
COTAS
370
     9
  0
ENDBLK
  5
7B6
330
7B3
100
AcDbEntity
  8
0
100
AcDbBlockEnd
  0
BLOCK
  5
7BD
330
7BB
100
AcDbEntity
  8
0
100
AcDbBlockBegin
  2
block 266
 70
     0
 71
     0
 10
0.0
 20
0.0
 30
0.0
  3
block 266
  1

  0
INSERT
  5
7C0
330
7BB
100
AcDbEntity
  8
COTAS
100
AcDbBlockReference
  2
block 267
 10
0.0
 20
0.0
 30
0.0
  0
INSERT
  5
7C8
330
7BB
100
AcDbEntity
  8
COTAS
100
AcDbBlockReference
  2
block 268
 10
0.0
 20
0.0
 30
0.0
  0
INSERT
  5
7D0
330
7BB
100
AcDbEntity
  8
COTAS
100
AcDbBlockReference
  2
block 269
 10
0.0
 20
0.0
 30
0.0
  0
INSERT
  5
7D8
330
7BB
100
AcDbEntity
  8
COTAS
100
AcDbBlockReference
  2
block 270
 10
0.0
 20
0.0
 30
0.0
  0
INSERT
  5
7E3
330
7BB
100
AcDbEntity
  8
COTAS
100
AcDbBlockReference
  2
block 271
 10
0.0
 20
0.0
 30
0.0
  0
INSERT
  5
7EE
330
7BB
100
AcDbEntity
  8
COTAS
100
AcDbBlockReference
  2
block 272
 10
0.0
 20
0.0
 30
0.0
  0
INSERT
  5
7F3
330
7BB
100
AcDbEntity
  8
COTAS
100
AcDbBlockReference
  2
block 273
 10
0.0
 20
0.0
 30
0.0
  0
INSERT
  5
7FB
330
7BB
100
AcDbEntity
  8
COTAS
100
AcDbBlockReference
  2
block 274
 10
0.0
 20
0.0
 30
0.0
  0
INSERT
  5
803
330
7BB
100
AcDbEntity
  8
COTAS
100
AcDbBlockReference
  2
block 275
 10
0.0
 20
0.0
 30
0.0
  0
ENDBLK
  5
7BE
330
7BB
100
AcDbEntity
  8
0
100
AcDbBlockEnd
  0
BLOCK
  5
7C1
330
7BF
100
AcDbEntity
  8
0
100
AcDbBlockBegin
  2
block 267
 70
     0
 71
     0
 10
0.0
 20
0.0
 30
0.0
  3
block 267
  1

  0
POLYLINE
  5
7C3
330
7BF
100
AcDbEntity
  8
COTAS
 62
     7
370
     9
100
AcDb2dPolyline
 66
     1
 10
0.0
 20
0.0
 30
0.0
  0
VERTEX
  5
7C4
330
7C3
100
AcDbEntity
  8
COTAS
 62
     7
370
     9
100
AcDbVertex
100
AcDb2dVertex
 10
80.17431502328441
 20
74.73106056570495
 30
0.0
  0
VERTEX
  5
7C5
330
7C3
100
AcDbEntity
  8
COTAS
 62
     7
370
     9
100
AcDbVertex
100
AcDb2dVertex
 10
51.79187714431704
 20
74.73106056570495
 30
0.0
  0
SEQEND
  5
7C6
330
7C3
100
AcDbEntity
  8
COTAS
370
     9
  0
ENDBLK
  5
7C2
330
7BF
100
AcDbEntity
  8
0
100
AcDbBlockEnd
  0
BLOCK
  5
7C9
330
7C7
100
AcDbEntity
  8
0
100
AcDbBlockBegin
  2
block 268
 70
     0
 71
     0
 10
0.0
 20
0.0
 30
0.0
  3
block 268
  1

  0
POLYLINE
  5
7CB
330
7C7
100
AcDbEntity
  8
COTAS
 62
     7
370
     9
100
AcDb2dPolyline
 66
     1
 10
0.0
 20
0.0
 30
0.0
  0
VERTEX
  5
7CC
330
7CB
100
AcDbEntity
  8
COTAS
 62
     7
370
     9
100
AcDbVertex
100
AcDb2dVertex
 10
80.17431502328441
 20
100.5124496374112
 30
0.0
  0
VERTEX
  5
7CD
330
7CB
100
AcDbEntity
  8
COTAS
 62
     7
370
     9
100
AcDbVertex
100
AcDb2dVertex
 10
51.79187714431704
 20
100.5124496374112
 30
0.0
  0
SEQEND
  5
7CE
330
7CB
100
AcDbEntity
  8
COTAS
370
     9
  0
ENDBLK
  5
7CA
330
7C7
100
AcDbEntity
  8
0
100
AcDbBlockEnd
  0
BLOCK
  5
7D1
330
7CF
100
AcDbEntity
  8
0
100
AcDbBlockBegin
  2
block 269
 70
     0
 71
     0
 10
0.0
 20
0.0
 30
0.0
  3
block 269
  1

  0
POLYLINE
  5
7D3
330
7CF
100
AcDbEntity
  8
COTAS
 62
     7
370
     9
100
AcDb2dPolyline
 66
     1
 10
0.0
 20
0.0
 30
0.0
  0
VERTEX
  5
7D4
330
7D3
100
AcDbEntity
  8
COTAS
 62
     7
370
     9
100
AcDbVertex
100
AcDb2dVertex
 10
53.67376179460361
 20
77.55397366857875
 30
0.0
  0
VERTEX
  5
7D5
330
7D3
100
AcDbEntity
  8
COTAS
 62
     7
370
     9
100
AcDbVertex
100
AcDb2dVertex
 10
53.67376179460361
 20
97.68988104431322
 30
0.0
  0
SEQEND
  5
7D6
330
7D3
100
AcDbEntity
  8
COTAS
370
     9
  0
ENDBLK
  5
7D2
330
7CF
100
AcDbEntity
  8
0
100
AcDbBlockEnd
  0
BLOCK
  5
7D9
330
7D7
100
AcDbEntity
  8
0
100
AcDbBlockBegin
  2
block 270
 70
     0
 71
     0
 10
0.0
 20
0.0
 30
0.0
  3
block 270
  1

  0
POLYLINE
  5
7DB
330
7D7
100
AcDbEntity
  8
COTAS
370
     0
100
AcDb2dPolyline
 66
     1
 10
0.0
 20
0.0
 30
0.0
  0
VERTEX
  5
7DC
330
7DB
100
AcDbEntity
  8
COTAS
370
     0
100
AcDbVertex
100
AcDb2dVertex
 10
53.20333369575395
 20
77.55397366857875
 30
0.0
  0
VERTEX
  5
7DD
330
7DB
100
AcDbEntity
  8
COTAS
370
     0
100
AcDbVertex
100
AcDb2dVertex
 10
54.14436214834118
 20
77.55397366857875
 30
0.0
  0
VERTEX
  5
7DE
330
7DB
100
AcDbEntity
  8
COTAS
370
     0
100
AcDbVertex
100
AcDb2dVertex
 10
53.67376179460361
 20
74.73106056570495
 30
0.0
  0
VERTEX
  5
7DF
330
7DB
100
AcDbEntity
  8
COTAS
370
     0
100
AcDbVertex
100
AcDb2dVertex
 10
53.20333369575395
 20
77.55397366857875
 30
0.0
  0
SEQEND
  5
7E0
330
7DB
100
AcDbEntity
  8
COTAS
370
     0
  0
HATCH
  5
7E1
330
7D7
100
AcDbEntity
  8
COTAS
 62
     7
100
AcDbHatch
 10
0.0
 20
0.0
 30
0.0
210
0.0
220
0.0
230
1.0
  2
SOLID
 70
     1
 71
     0
 91
        1
 92
        1
 93
        3
 72
     1
 10
53.20333369575395
 20
77.55397366857875
 11
54.14436214834118
 21
77.55397366857875
 72
     1
 10
54.14436214834118
 20
77.55397366857875
 11
53.67376179460361
 21
74.73106056570495
 72
     1
 10
53.67376179460361
 20
74.73106056570495
 11
53.20333369575395
 21
77.55397366857875
 97
        0
 75
     2
 76
     1
 98
        0
  0
ENDBLK
  5
7DA
330
7D7
100
AcDbEntity
  8
0
100
AcDbBlockEnd
  0
BLOCK
  5
7E4
330
7E2
100
AcDbEntity
  8
0
100
AcDbBlockBegin
  2
block 271
 70
     0
 71
     0
 10
0.0
 20
0.0
 30
0.0
  3
block 271
  1

  0
POLYLINE
  5
7E6
330
7E2
100
AcDbEntity
  8
COTAS
370
     0
100
AcDb2dPolyline
 66
     1
 10
0.0
 20
0.0
 30
0.0
  0
VERTEX
  5
7E7
330
7E6
100
AcDbEntity
  8
COTAS
370
     0
100
AcDbVertex
100
AcDb2dVertex
 10
53.20333369575395
 20
97.68988104431322
 30
0.0
  0
VERTEX
  5
7E8
330
7E6
100
AcDbEntity
  8
COTAS
370
     0
100
AcDbVertex
100
AcDb2dVertex
 10
54.14436214834118
 20
97.68988104431322
 30
0.0
  0
VERTEX
  5
7E9
330
7E6
100
AcDbEntity
  8
COTAS
370
     0
100
AcDbVertex
100
AcDb2dVertex
 10
53.67376179460361
 20
100.5124496374112
 30
0.0
  0
VERTEX
  5
7EA
330
7E6
100
AcDbEntity
  8
COTAS
370
     0
100
AcDbVertex
100
AcDb2dVertex
 10
53.20333369575395
 20
97.68988104431322
 30
0.0
  0
SEQEND
  5
7EB
330
7E6
100
AcDbEntity
  8
COTAS
370
     0
  0
HATCH
  5
7EC
330
7E2
100
AcDbEntity
  8
COTAS
 62
     7
100
AcDbHatch
 10
0.0
 20
0.0
 30
0.0
210
0.0
220
0.0
230
1.0
  2
SOLID
 70
     1
 71
     0
 91
        1
 92
        1
 93
        3
 72
     1
 10
53.20333369575395
 20
97.68988104431322
 11
54.14436214834118
 21
97.68988104431322
 72
     1
 10
54.14436214834118
 20
97.68988104431322
 11
53.67376179460361
 21
100.5124496374112
 72
     1
 10
53.67376179460361
 20
100.5124496374112
 11
53.20333369575395
 21
97.68988104431322
 97
        0
 75
     2
 76
     1
 98
        0
  0
ENDBLK
  5
7E5
330
7E2
100
AcDbEntity
  8
0
100
AcDbBlockEnd
  0
BLOCK
  5
7EF
330
7ED
100
AcDbEntity
  8
0
100
AcDbBlockBegin
  2
block 272
 70
     0
 71
     0
 10
0.0
 20
0.0
 30
0.0
  3
block 272
  1

  0
MTEXT
  5
7F1
330
7ED
100
AcDbEntity
  8
COTAS
 62
     7
100
AcDbMText
 10
52.73273334201638
 20
84.21128057606393
 30
0.0
 40
2.398890470823883
 41
0.0
 71
     7
 72
     1
  1
\fArial|b1|i0|c0|p34;\W1;275
 11
-4.371139000186241E-8
 21
0.999999999999999
 31
0.0
 73
     1
 44
1.0
  0
ENDBLK
  5
7F0
330
7ED
100
AcDbEntity
  8
0
100
AcDbBlockEnd
  0
BLOCK
  5
7F4
330
7F2
100
AcDbEntity
  8
0
100
AcDbBlockBegin
  2
block 273
 70
     0
 71
     0
 10
0.0
 20
0.0
 30
0.0
  3
block 273
  1

  0
POLYLINE
  5
7F6
330
7F2
100
AcDbEntity
  8
COTAS
 62
     7
370
     9
100
AcDb2dPolyline
 66
     1
 10
0.0
 20
0.0
 30
0.0
  0
VERTEX
  5
7F7
330
7F6
100
AcDbEntity
  8
COTAS
 62
     7
370
     9
100
AcDbVertex
100
AcDb2dVertex
 10
81.11517122098375
 20
74.73106056570495
 30
0.0
  0
VERTEX
  5
7F8
330
7F6
100
AcDbEntity
  8
COTAS
 62
     7
370
     9
100
AcDbVertex
100
AcDb2dVertex
 10
81.11517122098375
 20
74.73106056570495
 30
0.0
  0
SEQEND
  5
7F9
330
7F6
100
AcDbEntity
  8
COTAS
370
     9
  0
ENDBLK
  5
7F5
330
7F2
100
AcDbEntity
  8
0
100
AcDbBlockEnd
  0
BLOCK
  5
7FC
330
7FA
100
AcDbEntity
  8
0
100
AcDbBlockBegin
  2
block 274
 70
     0
 71
     0
 10
0.0
 20
0.0
 30
0.0
  3
block 274
  1

  0
POLYLINE
  5
7FE
330
7FA
100
AcDbEntity
  8
COTAS
 62
     7
370
     9
100
AcDb2dPolyline
 66
     1
 10
0.0
 20
0.0
 30
0.0
  0
VERTEX
  5
7FF
330
7FE
100
AcDbEntity
  8
COTAS
 62
     7
370
     9
100
AcDbVertex
100
AcDb2dVertex
 10
81.11517122098375
 20
100.5124496374112
 30
0.0
  0
VERTEX
  5
800
330
7FE
100
AcDbEntity
  8
COTAS
 62
     7
370
     9
100
AcDbVertex
100
AcDb2dVertex
 10
81.11517122098375
 20
100.5124496374112
 30
0.0
  0
SEQEND
  5
801
330
7FE
100
AcDbEntity
  8
COTAS
370
     9
  0
ENDBLK
  5
7FD
330
7FA
100
AcDbEntity
  8
0
100
AcDbBlockEnd
  0
BLOCK
  5
804
330
802
100
AcDbEntity
  8
0
100
AcDbBlockBegin
  2
block 275
 70
     0
 71
     0
 10
0.0
 20
0.0
 30
0.0
  3
block 275
  1

  0
POLYLINE
  5
806
330
802
100
AcDbEntity
  8
COTAS
 62
     7
370
     9
100
AcDb2dPolyline
 66
     1
 10
0.0
 20
0.0
 30
0.0
  0
VERTEX
  5
807
330
806
100
AcDbEntity
  8
COTAS
 62
     7
370
     9
100
AcDbVertex
100
AcDb2dVertex
 10
53.67376179460361
 20
100.5124496374112
 30
0.0
  0
VERTEX
  5
808
330
806
100
AcDbEntity
  8
COTAS
 62
     7
370
     9
100
AcDbVertex
100
AcDb2dVertex
 10
53.67376179460361
 20
100.5124496374112
 30
0.0
  0
SEQEND
  5
809
330
806
100
AcDbEntity
  8
COTAS
370
     9
  0
ENDBLK
  5
805
330
802
100
AcDbEntity
  8
0
100
AcDbBlockEnd
  0
BLOCK
  5
80C
330
80A
100
AcDbEntity
  8
0
100
AcDbBlockBegin
  2
block 276
 70
     0
 71
     0
 10
0.0
 20
0.0
 30
0.0
  3
block 276
  1

  0
INSERT
  5
80F
330
80A
100
AcDbEntity
  8
COTAS
100
AcDbBlockReference
  2
block 277
 10
0.0
 20
0.0
 30
0.0
  0
INSERT
  5
817
330
80A
100
AcDbEntity
  8
COTAS
100
AcDbBlockReference
  2
block 278
 10
0.0
 20
0.0
 30
0.0
  0
INSERT
  5
81F
330
80A
100
AcDbEntity
  8
COTAS
100
AcDbBlockReference
  2
block 279
 10
0.0
 20
0.0
 30
0.0
  0
INSERT
  5
827
330
80A
100
AcDbEntity
  8
COTAS
100
AcDbBlockReference
  2
block 280
 10
0.0
 20
0.0
 30
0.0
  0
INSERT
  5
832
330
80A
100
AcDbEntity
  8
COTAS
100
AcDbBlockReference
  2
block 281
 10
0.0
 20
0.0
 30
0.0
  0
INSERT
  5
83D
330
80A
100
AcDbEntity
  8
COTAS
100
AcDbBlockReference
  2
block 282
 10
0.0
 20
0.0
 30
0.0
  0
INSERT
  5
842
330
80A
100
AcDbEntity
  8
COTAS
100
AcDbBlockReference
  2
block 283
 10
0.0
 20
0.0
 30
0.0
  0
INSERT
  5
84A
330
80A
100
AcDbEntity
  8
COTAS
100
AcDbBlockReference
  2
block 284
 10
0.0
 20
0.0
 30
0.0
  0
INSERT
  5
852
330
80A
100
AcDbEntity
  8
COTAS
100
AcDbBlockReference
  2
block 285
 10
0.0
 20
0.0
 30
0.0
  0
ENDBLK
  5
80D
330
80A
100
AcDbEntity
  8
0
100
AcDbBlockEnd
  0
BLOCK
  5
810
330
80E
100
AcDbEntity
  8
0
100
AcDbBlockBegin
  2
block 277
 70
     0
 71
     0
 10
0.0
 20
0.0
 30
0.0
  3
block 277
  1

  0
POLYLINE
  5
812
330
80E
100
AcDbEntity
  8
COTAS
 62
     7
370
     9
100
AcDb2dPolyline
 66
     1
 10
0.0
 20
0.0
 30
0.0
  0
VERTEX
  5
813
330
812
100
AcDbEntity
  8
COTAS
 62
     7
370
     9
100
AcDbVertex
100
AcDb2dVertex
 10
80.17431502328441
 20
71.15539360271652
 30
0.0
  0
VERTEX
  5
814
330
812
100
AcDbEntity
  8
COTAS
 62
     7
370
     9
100
AcDbVertex
100
AcDb2dVertex
 10
45.19003631073506
 20
71.15539360271652
 30
0.0
  0
SEQEND
  5
815
330
812
100
AcDbEntity
  8
COTAS
370
     9
  0
ENDBLK
  5
811
330
80E
100
AcDbEntity
  8
0
100
AcDbBlockEnd
  0
BLOCK
  5
818
330
816
100
AcDbEntity
  8
0
100
AcDbBlockBegin
  2
block 278
 70
     0
 71
     0
 10
0.0
 20
0.0
 30
0.0
  3
block 278
  1

  0
POLYLINE
  5
81A
330
816
100
AcDbEntity
  8
COTAS
 62
     7
370
     9
100
AcDb2dPolyline
 66
     1
 10
0.0
 20
0.0
 30
0.0
  0
VERTEX
  5
81B
330
81A
100
AcDbEntity
  8
COTAS
 62
     7
370
     9
100
AcDbVertex
100
AcDb2dVertex
 10
80.17431502328441
 20
104.0881166003997
 30
0.0
  0
VERTEX
  5
81C
330
81A
100
AcDbEntity
  8
COTAS
 62
     7
370
     9
100
AcDbVertex
100
AcDb2dVertex
 10
45.19003631073506
 20
104.0881166003997
 30
0.0
  0
SEQEND
  5
81D
330
81A
100
AcDbEntity
  8
COTAS
370
     9
  0
ENDBLK
  5
819
330
816
100
AcDbEntity
  8
0
100
AcDbBlockEnd
  0
BLOCK
  5
820
330
81E
100
AcDbEntity
  8
0
100
AcDbBlockBegin
  2
block 279
 70
     0
 71
     0
 10
0.0
 20
0.0
 30
0.0
  3
block 279
  1

  0
POLYLINE
  5
822
330
81E
100
AcDbEntity
  8
COTAS
 62
     7
370
     9
100
AcDb2dPolyline
 66
     1
 10
0.0
 20
0.0
 30
0.0
  0
VERTEX
  5
823
330
822
100
AcDbEntity
  8
COTAS
 62
     7
370
     9
100
AcDbVertex
100
AcDb2dVertex
 10
47.07192096102163
 20
73.97830670559031
 30
0.0
  0
VERTEX
  5
824
330
822
100
AcDbEntity
  8
COTAS
 62
     7
370
     9
100
AcDbVertex
100
AcDb2dVertex
 10
47.07192096102163
 20
101.2652034975259
 30
0.0
  0
SEQEND
  5
825
330
822
100
AcDbEntity
  8
COTAS
370
     9
  0
ENDBLK
  5
821
330
81E
100
AcDbEntity
  8
0
100
AcDbBlockEnd
  0
BLOCK
  5
828
330
826
100
AcDbEntity
  8
0
100
AcDbBlockBegin
  2
block 280
 70
     0
 71
     0
 10
0.0
 20
0.0
 30
0.0
  3
block 280
  1

  0
POLYLINE
  5
82A
330
826
100
AcDbEntity
  8
COTAS
370
     0
100
AcDb2dPolyline
 66
     1
 10
0.0
 20
0.0
 30
0.0
  0
VERTEX
  5
82B
330
82A
100
AcDbEntity
  8
COTAS
370
     0
100
AcDbVertex
100
AcDb2dVertex
 10
46.60149286217197
 20
73.97830670559031
 30
0.0
  0
VERTEX
  5
82C
330
82A
100
AcDbEntity
  8
COTAS
370
     0
100
AcDbVertex
100
AcDb2dVertex
 10
47.5423490598713
 20
73.97830670559031
 30
0.0
  0
VERTEX
  5
82D
330
82A
100
AcDbEntity
  8
COTAS
370
     0
100
AcDbVertex
100
AcDb2dVertex
 10
47.07192096102163
 20
71.15539360271652
 30
0.0
  0
VERTEX
  5
82E
330
82A
100
AcDbEntity
  8
COTAS
370
     0
100
AcDbVertex
100
AcDb2dVertex
 10
46.60149286217197
 20
73.97830670559031
 30
0.0
  0
SEQEND
  5
82F
330
82A
100
AcDbEntity
  8
COTAS
370
     0
  0
HATCH
  5
830
330
826
100
AcDbEntity
  8
COTAS
 62
     7
100
AcDbHatch
 10
0.0
 20
0.0
 30
0.0
210
0.0
220
0.0
230
1.0
  2
SOLID
 70
     1
 71
     0
 91
        1
 92
        1
 93
        3
 72
     1
 10
46.60149286217197
 20
73.97830670559031
 11
47.5423490598713
 21
73.97830670559031
 72
     1
 10
47.5423490598713
 20
73.97830670559031
 11
47.07192096102163
 21
71.15539360271652
 72
     1
 10
47.07192096102163
 20
71.15539360271652
 11
46.60149286217197
 21
73.97830670559031
 97
        0
 75
     2
 76
     1
 98
        0
  0
ENDBLK
  5
829
330
826
100
AcDbEntity
  8
0
100
AcDbBlockEnd
  0
BLOCK
  5
833
330
831
100
AcDbEntity
  8
0
100
AcDbBlockBegin
  2
block 281
 70
     0
 71
     0
 10
0.0
 20
0.0
 30
0.0
  3
block 281
  1

  0
POLYLINE
  5
835
330
831
100
AcDbEntity
  8
COTAS
370
     0
100
AcDb2dPolyline
 66
     1
 10
0.0
 20
0.0
 30
0.0
  0
VERTEX
  5
836
330
835
100
AcDbEntity
  8
COTAS
370
     0
100
AcDbVertex
100
AcDb2dVertex
 10
46.60149286217197
 20
101.2652034975259
 30
0.0
  0
VERTEX
  5
837
330
835
100
AcDbEntity
  8
COTAS
370
     0
100
AcDbVertex
100
AcDb2dVertex
 10
47.5423490598713
 20
101.2652034975259
 30
0.0
  0
VERTEX
  5
838
330
835
100
AcDbEntity
  8
COTAS
370
     0
100
AcDbVertex
100
AcDb2dVertex
 10
47.07192096102163
 20
104.0881166003997
 30
0.0
  0
VERTEX
  5
839
330
835
100
AcDbEntity
  8
COTAS
370
     0
100
AcDbVertex
100
AcDb2dVertex
 10
46.60149286217197
 20
101.2652034975259
 30
0.0
  0
SEQEND
  5
83A
330
835
100
AcDbEntity
  8
COTAS
370
     0
  0
HATCH
  5
83B
330
831
100
AcDbEntity
  8
COTAS
 62
     7
100
AcDbHatch
 10
0.0
 20
0.0
 30
0.0
210
0.0
220
0.0
230
1.0
  2
SOLID
 70
     1
 71
     0
 91
        1
 92
        1
 93
        3
 72
     1
 10
46.60149286217197
 20
101.2652034975259
 11
47.5423490598713
 21
101.2652034975259
 72
     1
 10
47.5423490598713
 20
101.2652034975259
 11
47.07192096102163
 21
104.0881166003997
 72
     1
 10
47.07192096102163
 20
104.0881166003997
 11
46.60149286217197
 21
101.2652034975259
 97
        0
 75
     2
 76
     1
 98
        0
  0
ENDBLK
  5
834
330
831
100
AcDbEntity
  8
0
100
AcDbBlockEnd
  0
BLOCK
  5
83E
330
83C
100
AcDbEntity
  8
0
100
AcDbBlockBegin
  2
block 282
 70
     0
 71
     0
 10
0.0
 20
0.0
 30
0.0
  3
block 282
  1

  0
MTEXT
  5
840
330
83C
100
AcDbEntity
  8
COTAS
 62
     7
100
AcDbMText
 10
46.1308925084344
 20
84.21128057606393
 30
0.0
 40
2.398890470823883
 41
0.0
 71
     7
 72
     1
  1
\fArial|b1|i0|c0|p34;\W1;350
 11
-4.371139000186241E-8
 21
0.999999999999999
 31
0.0
 73
     1
 44
1.0
  0
ENDBLK
  5
83F
330
83C
100
AcDbEntity
  8
0
100
AcDbBlockEnd
  0
BLOCK
  5
843
330
841
100
AcDbEntity
  8
0
100
AcDbBlockBegin
  2
block 283
 70
     0
 71
     0
 10
0.0
 20
0.0
 30
0.0
  3
block 283
  1

  0
POLYLINE
  5
845
330
841
100
AcDbEntity
  8
COTAS
 62
     7
370
     9
100
AcDb2dPolyline
 66
     1
 10
0.0
 20
0.0
 30
0.0
  0
VERTEX
  5
846
330
845
100
AcDbEntity
  8
COTAS
 62
     7
370
     9
100
AcDbVertex
100
AcDb2dVertex
 10
81.11517122098375
 20
71.15539360271652
 30
0.0
  0
VERTEX
  5
847
330
845
100
AcDbEntity
  8
COTAS
 62
     7
370
     9
100
AcDbVertex
100
AcDb2dVertex
 10
81.11517122098375
 20
71.15539360271652
 30
0.0
  0
SEQEND
  5
848
330
845
100
AcDbEntity
  8
COTAS
370
     9
  0
ENDBLK
  5
844
330
841
100
AcDbEntity
  8
0
100
AcDbBlockEnd
  0
BLOCK
  5
84B
330
849
100
AcDbEntity
  8
0
100
AcDbBlockBegin
  2
block 284
 70
     0
 71
     0
 10
0.0
 20
0.0
 30
0.0
  3
block 284
  1

  0
POLYLINE
  5
84D
330
849
100
AcDbEntity
  8
COTAS
 62
     7
370
     9
100
AcDb2dPolyline
 66
     1
 10
0.0
 20
0.0
 30
0.0
  0
VERTEX
  5
84E
330
84D
100
AcDbEntity
  8
COTAS
 62
     7
370
     9
100
AcDbVertex
100
AcDb2dVertex
 10
81.11517122098375
 20
104.0881166003997
 30
0.0
  0
VERTEX
  5
84F
330
84D
100
AcDbEntity
  8
COTAS
 62
     7
370
     9
100
AcDbVertex
100
AcDb2dVertex
 10
81.11517122098375
 20
104.0881166003997
 30
0.0
  0
SEQEND
  5
850
330
84D
100
AcDbEntity
  8
COTAS
370
     9
  0
ENDBLK
  5
84C
330
849
100
AcDbEntity
  8
0
100
AcDbBlockEnd
  0
BLOCK
  5
853
330
851
100
AcDbEntity
  8
0
100
AcDbBlockBegin
  2
block 285
 70
     0
 71
     0
 10
0.0
 20
0.0
 30
0.0
  3
block 285
  1

  0
POLYLINE
  5
855
330
851
100
AcDbEntity
  8
COTAS
 62
     7
370
     9
100
AcDb2dPolyline
 66
     1
 10
0.0
 20
0.0
 30
0.0
  0
VERTEX
  5
856
330
855
100
AcDbEntity
  8
COTAS
 62
     7
370
     9
100
AcDbVertex
100
AcDb2dVertex
 10
47.07192096102163
 20
104.0881166003997
 30
0.0
  0
VERTEX
  5
857
330
855
100
AcDbEntity
  8
COTAS
 62
     7
370
     9
100
AcDbVertex
100
AcDb2dVertex
 10
47.07192096102163
 20
104.0881166003997
 30
0.0
  0
SEQEND
  5
858
330
855
100
AcDbEntity
  8
COTAS
370
     9
  0
ENDBLK
  5
854
330
851
100
AcDbEntity
  8
0
100
AcDbBlockEnd
  0
BLOCK
  5
85B
330
859
100
AcDbEntity
  8
0
100
AcDbBlockBegin
  2
block 286
 70
     0
 71
     0
 10
0.0
 20
0.0
 30
0.0
  3
block 286
  1

  0
INSERT
  5
85E
330
859
100
AcDbEntity
  8
COTAS
100
AcDbBlockReference
  2
block 287
 10
0.0
 20
0.0
 30
0.0
  0
INSERT
  5
866
330
859
100
AcDbEntity
  8
COTAS
100
AcDbBlockReference
  2
block 288
 10
0.0
 20
0.0
 30
0.0
  0
INSERT
  5
86E
330
859
100
AcDbEntity
  8
COTAS
100
AcDbBlockReference
  2
block 289
 10
0.0
 20
0.0
 30
0.0
  0
INSERT
  5
876
330
859
100
AcDbEntity
  8
COTAS
100
AcDbBlockReference
  2
block 290
 10
0.0
 20
0.0
 30
0.0
  0
INSERT
  5
881
330
859
100
AcDbEntity
  8
COTAS
100
AcDbBlockReference
  2
block 291
 10
0.0
 20
0.0
 30
0.0
  0
INSERT
  5
88C
330
859
100
AcDbEntity
  8
COTAS
100
AcDbBlockReference
  2
block 292
 10
0.0
 20
0.0
 30
0.0
  0
INSERT
  5
891
330
859
100
AcDbEntity
  8
COTAS
100
AcDbBlockReference
  2
block 293
 10
0.0
 20
0.0
 30
0.0
  0
INSERT
  5
899
330
859
100
AcDbEntity
  8
COTAS
100
AcDbBlockReference
  2
block 294
 10
0.0
 20
0.0
 30
0.0
  0
INSERT
  5
8A1
330
859
100
AcDbEntity
  8
COTAS
100
AcDbBlockReference
  2
block 295
 10
0.0
 20
0.0
 30
0.0
  0
ENDBLK
  5
85C
330
859
100
AcDbEntity
  8
0
100
AcDbBlockEnd
  0
BLOCK
  5
85F
330
85D
100
AcDbEntity
  8
0
100
AcDbBlockBegin
  2
block 287
 70
     0
 71
     0
 10
0.0
 20
0.0
 30
0.0
  3
block 287
  1

  0
POLYLINE
  5
861
330
85D
100
AcDbEntity
  8
COTAS
 62
     7
370
     9
100
AcDb2dPolyline
 66
     1
 10
0.0
 20
0.0
 30
0.0
  0
VERTEX
  5
862
330
861
100
AcDbEntity
  8
COTAS
 62
     7
370
     9
100
AcDbVertex
100
AcDb2dVertex
 10
179.9381449178906
 20
144.2605402815514
 30
0.0
  0
VERTEX
  5
863
330
861
100
AcDbEntity
  8
COTAS
 62
     7
370
     9
100
AcDbVertex
100
AcDb2dVertex
 10
179.9381449178906
 20
134.6233960683173
 30
0.0
  0
SEQEND
  5
864
330
861
100
AcDbEntity
  8
COTAS
370
     9
  0
ENDBLK
  5
860
330
85D
100
AcDbEntity
  8
0
100
AcDbBlockEnd
  0
BLOCK
  5
867
330
865
100
AcDbEntity
  8
0
100
AcDbBlockBegin
  2
block 288
 70
     0
 71
     0
 10
0.0
 20
0.0
 30
0.0
  3
block 288
  1

  0
POLYLINE
  5
869
330
865
100
AcDbEntity
  8
COTAS
 62
     7
370
     9
100
AcDb2dPolyline
 66
     1
 10
0.0
 20
0.0
 30
0.0
  0
VERTEX
  5
86A
330
869
100
AcDbEntity
  8
COTAS
 62
     7
370
     9
100
AcDbVertex
100
AcDb2dVertex
 10
161.1196429248006
 20
144.2605402815514
 30
0.0
  0
VERTEX
  5
86B
330
869
100
AcDbEntity
  8
COTAS
 62
     7
370
     9
100
AcDbVertex
100
AcDb2dVertex
 10
161.1196429248006
 20
134.6233960683173
 30
0.0
  0
SEQEND
  5
86C
330
869
100
AcDbEntity
  8
COTAS
370
     9
  0
ENDBLK
  5
868
330
865
100
AcDbEntity
  8
0
100
AcDbBlockEnd
  0
BLOCK
  5
86F
330
86D
100
AcDbEntity
  8
0
100
AcDbBlockBegin
  2
block 289
 70
     0
 71
     0
 10
0.0
 20
0.0
 30
0.0
  3
block 289
  1

  0
POLYLINE
  5
871
330
86D
100
AcDbEntity
  8
COTAS
 62
     7
370
     9
100
AcDb2dPolyline
 66
     1
 10
0.0
 20
0.0
 30
0.0
  0
VERTEX
  5
872
330
871
100
AcDbEntity
  8
COTAS
 62
     7
370
     9
100
AcDbVertex
100
AcDb2dVertex
 10
177.1155763247926
 20
136.505108463716
 30
0.0
  0
VERTEX
  5
873
330
871
100
AcDbEntity
  8
COTAS
 62
     7
370
     9
100
AcDbVertex
100
AcDb2dVertex
 10
163.9425560276745
 20
136.505108463716
 30
0.0
  0
SEQEND
  5
874
330
871
100
AcDbEntity
  8
COTAS
370
     9
  0
ENDBLK
  5
870
330
86D
100
AcDbEntity
  8
0
100
AcDbBlockEnd
  0
BLOCK
  5
877
330
875
100
AcDbEntity
  8
0
100
AcDbBlockBegin
  2
block 290
 70
     0
 71
     0
 10
0.0
 20
0.0
 30
0.0
  3
block 290
  1

  0
POLYLINE
  5
879
330
875
100
AcDbEntity
  8
COTAS
370
     0
100
AcDb2dPolyline
 66
     1
 10
0.0
 20
0.0
 30
0.0
  0
VERTEX
  5
87A
330
879
100
AcDbEntity
  8
COTAS
370
     0
100
AcDbVertex
100
AcDb2dVertex
 10
177.1155763247926
 20
136.9757088174536
 30
0.0
  0
VERTEX
  5
87B
330
879
100
AcDbEntity
  8
COTAS
370
     0
100
AcDbVertex
100
AcDb2dVertex
 10
177.1155763247926
 20
136.0348526197542
 30
0.0
  0
VERTEX
  5
87C
330
879
100
AcDbEntity
  8
COTAS
370
     0
100
AcDbVertex
100
AcDb2dVertex
 10
179.9381449178906
 20
136.505108463716
 30
0.0
  0
VERTEX
  5
87D
330
879
100
AcDbEntity
  8
COTAS
370
     0
100
AcDbVertex
100
AcDb2dVertex
 10
177.1155763247926
 20
136.9757088174536
 30
0.0
  0
SEQEND
  5
87E
330
879
100
AcDbEntity
  8
COTAS
370
     0
  0
HATCH
  5
87F
330
875
100
AcDbEntity
  8
COTAS
 62
     7
100
AcDbHatch
 10
0.0
 20
0.0
 30
0.0
210
0.0
220
0.0
230
1.0
  2
SOLID
 70
     1
 71
     0
 91
        1
 92
        1
 93
        3
 72
     1
 10
177.1155763247926
 20
136.9757088174536
 11
177.1155763247926
 21
136.0348526197542
 72
     1
 10
177.1155763247926
 20
136.0348526197542
 11
179.9381449178906
 21
136.505108463716
 72
     1
 10
179.9381449178906
 20
136.505108463716
 11
177.1155763247926
 21
136.9757088174536
 97
        0
 75
     2
 76
     1
 98
        0
  0
ENDBLK
  5
878
330
875
100
AcDbEntity
  8
0
100
AcDbBlockEnd
  0
BLOCK
  5
882
330
880
100
AcDbEntity
  8
0
100
AcDbBlockBegin
  2
block 291
 70
     0
 71
     0
 10
0.0
 20
0.0
 30
0.0
  3
block 291
  1

  0
POLYLINE
  5
884
330
880
100
AcDbEntity
  8
COTAS
370
     0
100
AcDb2dPolyline
 66
     1
 10
0.0
 20
0.0
 30
0.0
  0
VERTEX
  5
885
330
884
100
AcDbEntity
  8
COTAS
370
     0
100
AcDbVertex
100
AcDb2dVertex
 10
163.9425560276745
 20
136.9757088174536
 30
0.0
  0
VERTEX
  5
886
330
884
100
AcDbEntity
  8
COTAS
370
     0
100
AcDbVertex
100
AcDb2dVertex
 10
163.9425560276745
 20
136.0348526197542
 30
0.0
  0
VERTEX
  5
887
330
884
100
AcDbEntity
  8
COTAS
370
     0
100
AcDbVertex
100
AcDb2dVertex
 10
161.1196429248006
 20
136.505108463716
 30
0.0
  0
VERTEX
  5
888
330
884
100
AcDbEntity
  8
COTAS
370
     0
100
AcDbVertex
100
AcDb2dVertex
 10
163.9425560276745
 20
136.9757088174536
 30
0.0
  0
SEQEND
  5
889
330
884
100
AcDbEntity
  8
COTAS
370
     0
  0
HATCH
  5
88A
330
880
100
AcDbEntity
  8
COTAS
 62
     7
100
AcDbHatch
 10
0.0
 20
0.0
 30
0.0
210
0.0
220
0.0
230
1.0
  2
SOLID
 70
     1
 71
     0
 91
        1
 92
        1
 93
        3
 72
     1
 10
163.9425560276745
 20
136.9757088174536
 11
163.9425560276745
 21
136.0348526197542
 72
     1
 10
163.9425560276745
 20
136.0348526197542
 11
161.1196429248006
 21
136.505108463716
 72
     1
 10
161.1196429248006
 20
136.505108463716
 11
163.9425560276745
 21
136.9757088174536
 97
        0
 75
     2
 76
     1
 98
        0
  0
ENDBLK
  5
883
330
880
100
AcDbEntity
  8
0
100
AcDbBlockEnd
  0
BLOCK
  5
88D
330
88B
100
AcDbEntity
  8
0
100
AcDbBlockBegin
  2
block 292
 70
     0
 71
     0
 10
0.0
 20
0.0
 30
0.0
  3
block 292
  1

  0
MTEXT
  5
88F
330
88B
100
AcDbEntity
  8
COTAS
 62
     7
100
AcDbMText
 10
167.2305573278731
 20
137.4463091711911
 30
0.0
 40
2.398890470823883
 41
0.0
 71
     7
 72
     1
  1
\fArial|b1|i0|c0|p34;\W1;200
 73
     1
 44
1.0
  0
ENDBLK
  5
88E
330
88B
100
AcDbEntity
  8
0
100
AcDbBlockEnd
  0
BLOCK
  5
892
330
890
100
AcDbEntity
  8
0
100
AcDbBlockBegin
  2
block 293
 70
     0
 71
     0
 10
0.0
 20
0.0
 30
0.0
  3
block 293
  1

  0
POLYLINE
  5
894
330
890
100
AcDbEntity
  8
COTAS
 62
     7
370
     9
100
AcDb2dPolyline
 66
     1
 10
0.0
 20
0.0
 30
0.0
  0
VERTEX
  5
895
330
894
100
AcDbEntity
  8
COTAS
 62
     7
370
     9
100
AcDbVertex
100
AcDb2dVertex
 10
179.9381449178906
 20
145.2013964792508
 30
0.0
  0
VERTEX
  5
896
330
894
100
AcDbEntity
  8
COTAS
 62
     7
370
     9
100
AcDbVertex
100
AcDb2dVertex
 10
179.9381449178906
 20
145.2013964792508
 30
0.0
  0
SEQEND
  5
897
330
894
100
AcDbEntity
  8
COTAS
370
     9
  0
ENDBLK
  5
893
330
890
100
AcDbEntity
  8
0
100
AcDbBlockEnd
  0
BLOCK
  5
89A
330
898
100
AcDbEntity
  8
0
100
AcDbBlockBegin
  2
block 294
 70
     0
 71
     0
 10
0.0
 20
0.0
 30
0.0
  3
block 294
  1

  0
POLYLINE
  5
89C
330
898
100
AcDbEntity
  8
COTAS
 62
     7
370
     9
100
AcDb2dPolyline
 66
     1
 10
0.0
 20
0.0
 30
0.0
  0
VERTEX
  5
89D
330
89C
100
AcDbEntity
  8
COTAS
 62
     7
370
     9
100
AcDbVertex
100
AcDb2dVertex
 10
161.1196429248006
 20
145.2013964792508
 30
0.0
  0
VERTEX
  5
89E
330
89C
100
AcDbEntity
  8
COTAS
 62
     7
370
     9
100
AcDbVertex
100
AcDb2dVertex
 10
161.1196429248006
 20
145.2013964792508
 30
0.0
  0
SEQEND
  5
89F
330
89C
100
AcDbEntity
  8
COTAS
370
     9
  0
ENDBLK
  5
89B
330
898
100
AcDbEntity
  8
0
100
AcDbBlockEnd
  0
BLOCK
  5
8A2
330
8A0
100
AcDbEntity
  8
0
100
AcDbBlockBegin
  2
block 295
 70
     0
 71
     0
 10
0.0
 20
0.0
 30
0.0
  3
block 295
  1

  0
POLYLINE
  5
8A4
330
8A0
100
AcDbEntity
  8
COTAS
 62
     7
370
     9
100
AcDb2dPolyline
 66
     1
 10
0.0
 20
0.0
 30
0.0
  0
VERTEX
  5
8A5
330
8A4
100
AcDbEntity
  8
COTAS
 62
     7
370
     9
100
AcDbVertex
100
AcDb2dVertex
 10
161.1196429248006
 20
136.505108463716
 30
0.0
  0
VERTEX
  5
8A6
330
8A4
100
AcDbEntity
  8
COTAS
 62
     7
370
     9
100
AcDbVertex
100
AcDb2dVertex
 10
161.1196429248006
 20
136.505108463716
 30
0.0
  0
SEQEND
  5
8A7
330
8A4
100
AcDbEntity
  8
COTAS
370
     9
  0
ENDBLK
  5
8A3
330
8A0
100
AcDbEntity
  8
0
100
AcDbBlockEnd
  0
BLOCK
  5
8AA
330
8A8
100
AcDbEntity
  8
0
100
AcDbBlockBegin
  2
block 296
 70
     0
 71
     0
 10
0.0
 20
0.0
 30
0.0
  3
block 296
  1

  0
SPLINE
  5
8AC
330
8A8
100
AcDbEntity
  8
COTAS
 62
     7
370
     9
100
AcDbSpline
210
0.0
220
0.0
230
1.0
 70
     8
 71
     3
 72
     8
 73
     4
 74
     0
 42
0.0000000001
 43
0.0000000001
 40
0.0
 40
0.0
 40
0.0
 40
0.0
 40
1.0
 40
1.0
 40
1.0
 40
1.0
 10
164.9323326135369
 20
163.4080491105267
 30
0.0
 10
166.3375879890094
 20
162.7538250462898
 30
0.0
 10
168.9806669889176
 20
162.2336152848376
 30
0.0
 10
170.5288939213456
 20
162.3066513573064
 30
0.0
  0
ENDBLK
  5
8AB
330
8A8
100
AcDbEntity
  8
0
100
AcDbBlockEnd
  0
BLOCK
  5
8AF
330
8AD
100
AcDbEntity
  8
0
100
AcDbBlockBegin
  2
block 297
 70
     0
 71
     0
 10
0.0
 20
0.0
 30
0.0
  3
block 297
  1

  0
INSERT
  5
8B2
330
8AD
100
AcDbEntity
  8
COTAS
100
AcDbBlockReference
  2
block 298
 10
0.0
 20
0.0
 30
0.0
  0
INSERT
  5
8BA
330
8AD
100
AcDbEntity
  8
COTAS
100
AcDbBlockReference
  2
block 299
 10
0.0
 20
0.0
 30
0.0
  0
INSERT
  5
8BF
330
8AD
100
AcDbEntity
  8
COTAS
100
AcDbBlockReference
  2
block 300
 10
0.0
 20
0.0
 30
0.0
  0
INSERT
  5
8C4
330
8AD
100
AcDbEntity
  8
COTAS
100
AcDbBlockReference
  2
block 301
 10
0.0
 20
0.0
 30
0.0
  0
ENDBLK
  5
8B0
330
8AD
100
AcDbEntity
  8
0
100
AcDbBlockEnd
  0
BLOCK
  5
8B3
330
8B1
100
AcDbEntity
  8
0
100
AcDbBlockBegin
  2
block 298
 70
     0
 71
     0
 10
0.0
 20
0.0
 30
0.0
  3
block 298
  1

  0
POLYLINE
  5
8B5
330
8B1
100
AcDbEntity
  8
COTAS
 62
     7
370
     9
100
AcDb2dPolyline
 66
     1
 10
0.0
 20
0.0
 30
0.0
  0
VERTEX
  5
8B6
330
8B5
100
AcDbEntity
  8
COTAS
 62
     7
370
     9
100
AcDbVertex
100
AcDb2dVertex
 10
81.84966606298119
 20
83.41098436688942
 30
0.0
  0
VERTEX
  5
8B7
330
8B5
100
AcDbEntity
  8
COTAS
 62
     7
370
     9
100
AcDbVertex
100
AcDb2dVertex
 10
80.00343817448952
 20
83.4492249520028
 30
0.0
  0
SEQEND
  5
8B8
330
8B5
100
AcDbEntity
  8
COTAS
370
     9
  0
ENDBLK
  5
8B4
330
8B1
100
AcDbEntity
  8
0
100
AcDbBlockEnd
  0
BLOCK
  5
8BB
330
8B9
100
AcDbEntity
  8
0
100
AcDbBlockBegin
  2
block 299
 70
     0
 71
     0
 10
0.0
 20
0.0
 30
0.0
  3
block 299
  1

  0
SPLINE
  5
8BD
330
8B9
100
AcDbEntity
  8
COTAS
 62
     7
370
     9
100
AcDbSpline
210
0.0
220
0.0
230
1.0
 70
     8
 71
     3
 72
     8
 73
     4
 74
     0
 42
0.0000000001
 43
0.0000000001
 40
0.0
 40
0.0
 40
0.0
 40
0.0
 40
1.0
 40
1.0
 40
1.0
 40
1.0
 10
81.84966606298119
 20
83.41098436688942
 30
0.0
 10
82.39037415609327
 20
83.37825593818879
 30
0.0
 10
82.97965812759261
 20
83.75687218178878
 30
0.0
 10
83.17430615091745
 20
84.26226802288176
 30
0.0
  0
ENDBLK
  5
8BC
330
8B9
100
AcDbEntity
  8
0
100
AcDbBlockEnd
  0
BLOCK
  5
8C0
330
8BE
100
AcDbEntity
  8
0
100
AcDbBlockBegin
  2
block 300
 70
     0
 71
     0
 10
0.0
 20
0.0
 30
0.0
  3
block 300
  1

  0
SPLINE
  5
8C2
330
8BE
100
AcDbEntity
  8
COTAS
 62
     7
370
     9
100
AcDbSpline
210
0.0
220
0.0
230
1.0
 70
     8
 71
     3
 72
     8
 73
     4
 74
     0
 42
0.0000000001
 43
0.0000000001
 40
0.0
 40
0.0
 40
0.0
 40
0.0
 40
1.0
 40
1.0
 40
1.0
 40
1.0
 10
83.17430615091745
 20
84.26226802288176
 30
0.0
 10
83.58737337209706
 20
85.1032163856002
 30
0.0
 10
83.91465765910343
 20
86.6858942956078
 30
0.0
 10
83.86918236869832
 20
87.621927356446
 30
0.0
  0
ENDBLK
  5
8C1
330
8BE
100
AcDbEntity
  8
0
100
AcDbBlockEnd
  0
BLOCK
  5
8C5
330
8C3
100
AcDbEntity
  8
0
100
AcDbBlockBegin
  2
block 301
 70
     0
 71
     0
 10
0.0
 20
0.0
 30
0.0
  3
block 301
  1

  0
SPLINE
  5
8C7
330
8C3
100
AcDbEntity
  8
COTAS
 62
     7
370
     9
100
AcDbSpline
210
0.0
220
0.0
230
1.0
 70
     8
 71
     3
 72
     8
 73
     4
 74
     0
 42
0.0000000001
 43
0.0000000001
 40
0.0
 40
0.0
 40
0.0
 40
0.0
 40
1.0
 40
1.0
 40
1.0
 40
1.0
 10
75.91634644933167
 20
87.621927356446
 30
0.0
 10
75.91066203803103
 20
85.35643107081039
 30
0.0
 10
77.7384586535176
 20
83.49022161532254
 30
0.0
 10
80.00343817448952
 20
83.4492249520028
 30
0.0
  0
ENDBLK
  5
8C6
330
8C3
100
AcDbEntity
  8
0
100
AcDbBlockEnd
  0
BLOCK
  5
8CA
330
8C8
100
AcDbEntity
  8
0
100
AcDbBlockBegin
  2
block 302
 70
     0
 71
     0
 10
0.0
 20
0.0
 30
0.0
  3
block 302
  1

  0
INSERT
  5
8CD
330
8C8
100
AcDbEntity
  8
COTAS
100
AcDbBlockReference
  2
block 303
 10
0.0
 20
0.0
 30
0.0
  0
INSERT
  5
8D5
330
8C8
100
AcDbEntity
  8
COTAS
100
AcDbBlockReference
  2
block 304
 10
0.0
 20
0.0
 30
0.0
  0
INSERT
  5
8DA
330
8C8
100
AcDbEntity
  8
COTAS
100
AcDbBlockReference
  2
block 305
 10
0.0
 20
0.0
 30
0.0
  0
INSERT
  5
8DF
330
8C8
100
AcDbEntity
  8
COTAS
100
AcDbBlockReference
  2
block 306
 10
0.0
 20
0.0
 30
0.0
  0
ENDBLK
  5
8CB
330
8C8
100
AcDbEntity
  8
0
100
AcDbBlockEnd
  0
BLOCK
  5
8CE
330
8CC
100
AcDbEntity
  8
0
100
AcDbBlockBegin
  2
block 303
 70
     0
 71
     0
 10
0.0
 20
0.0
 30
0.0
  3
block 303
  1

  0
POLYLINE
  5
8D0
330
8CC
100
AcDbEntity
  8
COTAS
 62
     7
370
     9
100
AcDb2dPolyline
 66
     1
 10
0.0
 20
0.0
 30
0.0
  0
VERTEX
  5
8D1
330
8D0
100
AcDbEntity
  8
COTAS
 62
     7
370
     9
100
AcDbVertex
100
AcDb2dVertex
 10
81.84966606298119
 20
91.83252583622676
 30
0.0
  0
VERTEX
  5
8D2
330
8D0
100
AcDbEntity
  8
COTAS
 62
     7
370
     9
100
AcDbVertex
100
AcDb2dVertex
 10
80.00343817448952
 20
91.7942852511134
 30
0.0
  0
SEQEND
  5
8D3
330
8D0
100
AcDbEntity
  8
COTAS
370
     9
  0
ENDBLK
  5
8CF
330
8CC
100
AcDbEntity
  8
0
100
AcDbBlockEnd
  0
BLOCK
  5
8D6
330
8D4
100
AcDbEntity
  8
0
100
AcDbBlockBegin
  2
block 304
 70
     0
 71
     0
 10
0.0
 20
0.0
 30
0.0
  3
block 304
  1

  0
SPLINE
  5
8D8
330
8D4
100
AcDbEntity
  8
COTAS
 62
     7
370
     9
100
AcDbSpline
210
0.0
220
0.0
230
1.0
 70
     8
 71
     3
 72
     8
 73
     4
 74
     0
 42
0.0000000001
 43
0.0000000001
 40
0.0
 40
0.0
 40
0.0
 40
0.0
 40
1.0
 40
1.0
 40
1.0
 40
1.0
 10
81.84966606298119
 20
91.83252583622676
 30
0.0
 10
82.39037415609327
 20
91.8652542649274
 30
0.0
 10
82.97965812759261
 20
91.48663802132741
 30
0.0
 10
83.17430615091745
 20
90.98124218023443
 30
0.0
  0
ENDBLK
  5
8D7
330
8D4
100
AcDbEntity
  8
0
100
AcDbBlockEnd
  0
BLOCK
  5
8DB
330
8D9
100
AcDbEntity
  8
0
100
AcDbBlockBegin
  2
block 305
 70
     0
 71
     0
 10
0.0
 20
0.0
 30
0.0
  3
block 305
  1

  0
SPLINE
  5
8DD
330
8D9
100
AcDbEntity
  8
COTAS
 62
     7
370
     9
100
AcDbSpline
210
0.0
220
0.0
230
1.0
 70
     8
 71
     3
 72
     8
 73
     4
 74
     0
 42
0.0000000001
 43
0.0000000001
 40
0.0
 40
0.0
 40
0.0
 40
0.0
 40
1.0
 40
1.0
 40
1.0
 40
1.0
 10
83.17430615091745
 20
90.98124218023443
 30
0.0
 10
83.58737337209706
 20
90.14029381751598
 30
0.0
 10
83.91465765910343
 20
88.55761590750839
 30
0.0
 10
83.86918236869832
 20
87.621927356446
 30
0.0
  0
ENDBLK
  5
8DC
330
8D9
100
AcDbEntity
  8
0
100
AcDbBlockEnd
  0
BLOCK
  5
8E0
330
8DE
100
AcDbEntity
  8
0
100
AcDbBlockBegin
  2
block 306
 70
     0
 71
     0
 10
0.0
 20
0.0
 30
0.0
  3
block 306
  1

  0
SPLINE
  5
8E2
330
8DE
100
AcDbEntity
  8
COTAS
 62
     7
370
     9
100
AcDbSpline
210
0.0
220
0.0
230
1.0
 70
     8
 71
     3
 72
     8
 73
     4
 74
     0
 42
0.0000000001
 43
0.0000000001
 40
0.0
 40
0.0
 40
0.0
 40
0.0
 40
1.0
 40
1.0
 40
1.0
 40
1.0
 10
75.91634644933167
 20
87.621927356446
 30
0.0
 10
75.91066203803103
 20
89.8870791323058
 30
0.0
 10
77.7384586535176
 20
91.75328858779365
 30
0.0
 10
80.00343817448952
 20
91.7942852511134
 30
0.0
  0
ENDBLK
  5
8E1
330
8DE
100
AcDbEntity
  8
0
100
AcDbBlockEnd
  0
ENDSEC
  0
SECTION
  2
ENTITIES
  0
INSERT
  5
3D
330
1F
100
AcDbEntity
  8
CAJETIN
100
AcDbBlockReference
  2
block 2
 10
0.0
 20
0.0
 30
0.0
  0
INSERT
  5
41
330
1F
100
AcDbEntity
  8
CAJETIN
100
AcDbBlockReference
  2
block 3
 10
0.0
 20
0.0
 30
0.0
  0
INSERT
  5
45
330
1F
100
AcDbEntity
  8
CAJETIN
100
AcDbBlockReference
  2
block 4
 10
0.0
 20
0.0
 30
0.0
  0
INSERT
  5
49
330
1F
100
AcDbEntity
  8
CAJETIN
100
AcDbBlockReference
  2
block 5
 10
0.0
 20
0.0
 30
0.0
  0
INSERT
  5
4E
330
1F
100
AcDbEntity
  8
1
100
AcDbBlockReference
  2
block 6
 10
0.0
 20
0.0
 30
0.0
  0
INSERT
  5
53
330
1F
100
AcDbEntity
  8
1
100
AcDbBlockReference
  2
block 7
 10
0.0
 20
0.0
 30
0.0
  0
INSERT
  5
5B
330
1F
100
AcDbEntity
  8
1
100
AcDbBlockReference
  2
block 8
 10
0.0
 20
0.0
 30
0.0
  0
INSERT
  5
60
330
1F
100
AcDbEntity
  8
1
100
AcDbBlockReference
  2
block 9
 10
0.0
 20
0.0
 30
0.0
  0
INSERT
  5
65
330
1F
100
AcDbEntity
  8
1
100
AcDbBlockReference
  2
block 10
 10
0.0
 20
0.0
 30
0.0
  0
INSERT
  5
6A
330
1F
100
AcDbEntity
  8
1
100
AcDbBlockReference
  2
block 11
 10
0.0
 20
0.0
 30
0.0
  0
INSERT
  5
6F
330
1F
100
AcDbEntity
  8
1
100
AcDbBlockReference
  2
block 12
 10
0.0
 20
0.0
 30
0.0
  0
INSERT
  5
77
330
1F
100
AcDbEntity
  8
1
100
AcDbBlockReference
  2
block 13
 10
0.0
 20
0.0
 30
0.0
  0
INSERT
  5
7C
330
1F
100
AcDbEntity
  8
1
100
AcDbBlockReference
  2
block 14
 10
0.0
 20
0.0
 30
0.0
  0
INSERT
  5
81
330
1F
100
AcDbEntity
  8
1
100
AcDbBlockReference
  2
block 15
 10
0.0
 20
0.0
 30
0.0
  0
INSERT
  5
86
330
1F
100
AcDbEntity
  8
1
100
AcDbBlockReference
  2
block 16
 10
0.0
 20
0.0
 30
0.0
  0
INSERT
  5
8B
330
1F
100
AcDbEntity
  8
1
100
AcDbBlockReference
  2
block 17
 10
0.0
 20
0.0
 30
0.0
  0
INSERT
  5
90
330
1F
100
AcDbEntity
  8
1
100
AcDbBlockReference
  2
block 18
 10
0.0
 20
0.0
 30
0.0
  0
INSERT
  5
95
330
1F
100
AcDbEntity
  8
1
100
AcDbBlockReference
  2
block 19
 10
0.0
 20
0.0
 30
0.0
  0
INSERT
  5
9A
330
1F
100
AcDbEntity
  8
1
100
AcDbBlockReference
  2
block 20
 10
0.0
 20
0.0
 30
0.0
  0
INSERT
  5
A2
330
1F
100
AcDbEntity
  8
1
100
AcDbBlockReference
  2
block 21
 10
0.0
 20
0.0
 30
0.0
  0
INSERT
  5
A7
330
1F
100
AcDbEntity
  8
1
100
AcDbBlockReference
  2
block 22
 10
0.0
 20
0.0
 30
0.0
  0
INSERT
  5
AC
330
1F
100
AcDbEntity
  8
1
100
AcDbBlockReference
  2
block 23
 10
0.0
 20
0.0
 30
0.0
  0
INSERT
  5
B4
330
1F
100
AcDbEntity
  8
1
100
AcDbBlockReference
  2
block 24
 10
0.0
 20
0.0
 30
0.0
  0
INSERT
  5
B9
330
1F
100
AcDbEntity
  8
1
100
AcDbBlockReference
  2
block 25
 10
0.0
 20
0.0
 30
0.0
  0
INSERT
  5
BE
330
1F
100
AcDbEntity
  8
1
100
AcDbBlockReference
  2
block 26
 10
0.0
 20
0.0
 30
0.0
  0
INSERT
  5
C3
330
1F
100
AcDbEntity
  8
1
100
AcDbBlockReference
  2
block 27
 10
0.0
 20
0.0
 30
0.0
  0
INSERT
  5
CB
330
1F
100
AcDbEntity
  8
1
100
AcDbBlockReference
  2
block 28
 10
0.0
 20
0.0
 30
0.0
  0
INSERT
  5
D3
330
1F
100
AcDbEntity
  8
1
100
AcDbBlockReference
  2
block 29
 10
0.0
 20
0.0
 30
0.0
  0
INSERT
  5
D8
330
1F
100
AcDbEntity
  8
1
100
AcDbBlockReference
  2
block 30
 10
0.0
 20
0.0
 30
0.0
  0
INSERT
  5
E0
330
1F
100
AcDbEntity
  8
1
100
AcDbBlockReference
  2
block 31
 10
0.0
 20
0.0
 30
0.0
  0
INSERT
  5
E5
330
1F
100
AcDbEntity
  8
1
100
AcDbBlockReference
  2
block 32
 10
0.0
 20
0.0
 30
0.0
  0
INSERT
  5
EA
330
1F
100
AcDbEntity
  8
1
100
AcDbBlockReference
  2
block 33
 10
0.0
 20
0.0
 30
0.0
  0
INSERT
  5
EF
330
1F
100
AcDbEntity
  8
1
100
AcDbBlockReference
  2
block 34
 10
0.0
 20
0.0
 30
0.0
  0
INSERT
  5
F4
330
1F
100
AcDbEntity
  8
1
100
AcDbBlockReference
  2
block 35
 10
0.0
 20
0.0
 30
0.0
  0
INSERT
  5
FC
330
1F
100
AcDbEntity
  8
1
100
AcDbBlockReference
  2
block 36
 10
0.0
 20
0.0
 30
0.0
  0
INSERT
  5
101
330
1F
100
AcDbEntity
  8
1
100
AcDbBlockReference
  2
block 37
 10
0.0
 20
0.0
 30
0.0
  0
INSERT
  5
106
330
1F
100
AcDbEntity
  8
1
100
AcDbBlockReference
  2
block 38
 10
0.0
 20
0.0
 30
0.0
  0
INSERT
  5
10E
330
1F
100
AcDbEntity
  8
1
100
AcDbBlockReference
  2
block 39
 10
0.0
 20
0.0
 30
0.0
  0
INSERT
  5
113
330
1F
100
AcDbEntity
  8
1
100
AcDbBlockReference
  2
block 40
 10
0.0
 20
0.0
 30
0.0
  0
INSERT
  5
118
330
1F
100
AcDbEntity
  8
1
100
AcDbBlockReference
  2
block 41
 10
0.0
 20
0.0
 30
0.0
  0
INSERT
  5
11D
330
1F
100
AcDbEntity
  8
1
100
AcDbBlockReference
  2
block 42
 10
0.0
 20
0.0
 30
0.0
  0
INSERT
  5
122
330
1F
100
AcDbEntity
  8
1
100
AcDbBlockReference
  2
block 43
 10
0.0
 20
0.0
 30
0.0
  0
INSERT
  5
12A
330
1F
100
AcDbEntity
  8
1
100
AcDbBlockReference
  2
block 44
 10
0.0
 20
0.0
 30
0.0
  0
INSERT
  5
132
330
1F
100
AcDbEntity
  8
1
100
AcDbBlockReference
  2
block 45
 10
0.0
 20
0.0
 30
0.0
  0
INSERT
  5
137
330
1F
100
AcDbEntity
  8
1
100
AcDbBlockReference
  2
block 46
 10
0.0
 20
0.0
 30
0.0
  0
INSERT
  5
13C
330
1F
100
AcDbEntity
  8
1
100
AcDbBlockReference
  2
block 47
 10
0.0
 20
0.0
 30
0.0
  0
INSERT
  5
141
330
1F
100
AcDbEntity
  8
1
100
AcDbBlockReference
  2
block 48
 10
0.0
 20
0.0
 30
0.0
  0
INSERT
  5
149
330
1F
100
AcDbEntity
  8
1
100
AcDbBlockReference
  2
block 49
 10
0.0
 20
0.0
 30
0.0
  0
INSERT
  5
151
330
1F
100
AcDbEntity
  8
1
100
AcDbBlockReference
  2
block 50
 10
0.0
 20
0.0
 30
0.0
  0
INSERT
  5
156
330
1F
100
AcDbEntity
  8
1
100
AcDbBlockReference
  2
block 51
 10
0.0
 20
0.0
 30
0.0
  0
INSERT
  5
15E
330
1F
100
AcDbEntity
  8
1
100
AcDbBlockReference
  2
block 52
 10
0.0
 20
0.0
 30
0.0
  0
INSERT
  5
166
330
1F
100
AcDbEntity
  8
1
100
AcDbBlockReference
  2
block 53
 10
0.0
 20
0.0
 30
0.0
  0
INSERT
  5
16B
330
1F
100
AcDbEntity
  8
1
100
AcDbBlockReference
  2
block 54
 10
0.0
 20
0.0
 30
0.0
  0
INSERT
  5
170
330
1F
100
AcDbEntity
  8
1
100
AcDbBlockReference
  2
block 55
 10
0.0
 20
0.0
 30
0.0
  0
INSERT
  5
178
330
1F
100
AcDbEntity
  8
1
100
AcDbBlockReference
  2
block 56
 10
0.0
 20
0.0
 30
0.0
  0
INSERT
  5
17D
330
1F
100
AcDbEntity
  8
1
100
AcDbBlockReference
  2
block 57
 10
0.0
 20
0.0
 30
0.0
  0
INSERT
  5
182
330
1F
100
AcDbEntity
  8
1
100
AcDbBlockReference
  2
block 58
 10
0.0
 20
0.0
 30
0.0
  0
INSERT
  5
187
330
1F
100
AcDbEntity
  8
1
100
AcDbBlockReference
  2
block 59
 10
0.0
 20
0.0
 30
0.0
  0
INSERT
  5
18F
330
1F
100
AcDbEntity
  8
1
100
AcDbBlockReference
  2
block 60
 10
0.0
 20
0.0
 30
0.0
  0
INSERT
  5
194
330
1F
100
AcDbEntity
  8
1
100
AcDbBlockReference
  2
block 61
 10
0.0
 20
0.0
 30
0.0
  0
INSERT
  5
199
330
1F
100
AcDbEntity
  8
1
100
AcDbBlockReference
  2
block 62
 10
0.0
 20
0.0
 30
0.0
  0
INSERT
  5
19E
330
1F
100
AcDbEntity
  8
1
100
AcDbBlockReference
  2
block 63
 10
0.0
 20
0.0
 30
0.0
  0
INSERT
  5
1A6
330
1F
100
AcDbEntity
  8
1
100
AcDbBlockReference
  2
block 64
 10
0.0
 20
0.0
 30
0.0
  0
INSERT
  5
1AB
330
1F
100
AcDbEntity
  8
1
100
AcDbBlockReference
  2
block 65
 10
0.0
 20
0.0
 30
0.0
  0
INSERT
  5
1B3
330
1F
100
AcDbEntity
  8
1
100
AcDbBlockReference
  2
block 66
 10
0.0
 20
0.0
 30
0.0
  0
INSERT
  5
1B8
330
1F
100
AcDbEntity
  8
1
100
AcDbBlockReference
  2
block 67
 10
0.0
 20
0.0
 30
0.0
  0
INSERT
  5
1C0
330
1F
100
AcDbEntity
  8
1
100
AcDbBlockReference
  2
block 68
 10
0.0
 20
0.0
 30
0.0
  0
INSERT
  5
1C5
330
1F
100
AcDbEntity
  8
1
100
AcDbBlockReference
  2
block 69
 10
0.0
 20
0.0
 30
0.0
  0
INSERT
  5
1CA
330
1F
100
AcDbEntity
  8
1
100
AcDbBlockReference
  2
block 70
 10
0.0
 20
0.0
 30
0.0
  0
INSERT
  5
1CF
330
1F
100
AcDbEntity
  8
1
100
AcDbBlockReference
  2
block 71
 10
0.0
 20
0.0
 30
0.0
  0
INSERT
  5
1D4
330
1F
100
AcDbEntity
  8
1
100
AcDbBlockReference
  2
block 72
 10
0.0
 20
0.0
 30
0.0
  0
INSERT
  5
1D9
330
1F
100
AcDbEntity
  8
1
100
AcDbBlockReference
  2
block 73
 10
0.0
 20
0.0
 30
0.0
  0
INSERT
  5
1DE
330
1F
100
AcDbEntity
  8
1
100
AcDbBlockReference
  2
block 74
 10
0.0
 20
0.0
 30
0.0
  0
INSERT
  5
1E3
330
1F
100
AcDbEntity
  8
1
100
AcDbBlockReference
  2
block 75
 10
0.0
 20
0.0
 30
0.0
  0
INSERT
  5
1E8
330
1F
100
AcDbEntity
  8
1
100
AcDbBlockReference
  2
block 76
 10
0.0
 20
0.0
 30
0.0
  0
INSERT
  5
1ED
330
1F
100
AcDbEntity
  8
1
100
AcDbBlockReference
  2
block 77
 10
0.0
 20
0.0
 30
0.0
  0
INSERT
  5
1F5
330
1F
100
AcDbEntity
  8
1
100
AcDbBlockReference
  2
block 78
 10
0.0
 20
0.0
 30
0.0
  0
INSERT
  5
1FA
330
1F
100
AcDbEntity
  8
1
100
AcDbBlockReference
  2
block 79
 10
0.0
 20
0.0
 30
0.0
  0
INSERT
  5
1FF
330
1F
100
AcDbEntity
  8
1
100
AcDbBlockReference
  2
block 80
 10
0.0
 20
0.0
 30
0.0
  0
INSERT
  5
204
330
1F
100
AcDbEntity
  8
1
100
AcDbBlockReference
  2
block 81
 10
0.0
 20
0.0
 30
0.0
  0
INSERT
  5
20C
330
1F
100
AcDbEntity
  8
1
100
AcDbBlockReference
  2
block 82
 10
0.0
 20
0.0
 30
0.0
  0
INSERT
  5
211
330
1F
100
AcDbEntity
  8
1
100
AcDbBlockReference
  2
block 83
 10
0.0
 20
0.0
 30
0.0
  0
INSERT
  5
216
330
1F
100
AcDbEntity
  8
1
100
AcDbBlockReference
  2
block 84
 10
0.0
 20
0.0
 30
0.0
  0
INSERT
  5
21C
330
1F
100
AcDbEntity
  8
EJES
100
AcDbBlockReference
  2
block 85
 10
0.0
 20
0.0
 30
0.0
  0
INSERT
  5
225
330
1F
100
AcDbEntity
  8
EJES
100
AcDbBlockReference
  2
block 86
 10
0.0
 20
0.0
 30
0.0
  0
INSERT
  5
22E
330
1F
100
AcDbEntity
  8
EJES
100
AcDbBlockReference
  2
block 87
 10
0.0
 20
0.0
 30
0.0
  0
INSERT
  5
237
330
1F
100
AcDbEntity
  8
EJES
100
AcDbBlockReference
  2
block 88
 10
0.0
 20
0.0
 30
0.0
  0
INSERT
  5
240
330
1F
100
AcDbEntity
  8
EJES
100
AcDbBlockReference
  2
block 89
 10
0.0
 20
0.0
 30
0.0
  0
INSERT
  5
249
330
1F
100
AcDbEntity
  8
EJES
100
AcDbBlockReference
  2
block 90
 10
0.0
 20
0.0
 30
0.0
  0
INSERT
  5
252
330
1F
100
AcDbEntity
  8
EJES
100
AcDbBlockReference
  2
block 91
 10
0.0
 20
0.0
 30
0.0
  0
INSERT
  5
25B
330
1F
100
AcDbEntity
  8
EJES
100
AcDbBlockReference
  2
block 92
 10
0.0
 20
0.0
 30
0.0
  0
INSERT
  5
265
330
1F
100
AcDbEntity
  8
OCULTO
100
AcDbBlockReference
  2
block 93
 10
0.0
 20
0.0
 30
0.0
  0
INSERT
  5
26E
330
1F
100
AcDbEntity
  8
OCULTO
100
AcDbBlockReference
  2
block 94
 10
0.0
 20
0.0
 30
0.0
  0
INSERT
  5
277
330
1F
100
AcDbEntity
  8
OCULTO
100
AcDbBlockReference
  2
block 95
 10
0.0
 20
0.0
 30
0.0
  0
INSERT
  5
280
330
1F
100
AcDbEntity
  8
OCULTO
100
AcDbBlockReference
  2
block 96
 10
0.0
 20
0.0
 30
0.0
  0
INSERT
  5
289
330
1F
100
AcDbEntity
  8
OCULTO
100
AcDbBlockReference
  2
block 97
 10
0.0
 20
0.0
 30
0.0
  0
INSERT
  5
292
330
1F
100
AcDbEntity
  8
OCULTO
100
AcDbBlockReference
  2
block 98
 10
0.0
 20
0.0
 30
0.0
  0
INSERT
  5
298
330
1F
100
AcDbEntity
  8
OCULTO
100
AcDbBlockReference
  2
block 99
 10
0.0
 20
0.0
 30
0.0
  0
INSERT
  5
29E
330
1F
100
AcDbEntity
  8
OCULTO
100
AcDbBlockReference
  2
block 100
 10
0.0
 20
0.0
 30
0.0
  0
INSERT
  5
2A7
330
1F
100
AcDbEntity
  8
OCULTO
100
AcDbBlockReference
  2
block 101
 10
0.0
 20
0.0
 30
0.0
  0
INSERT
  5
2B0
330
1F
100
AcDbEntity
  8
OCULTO
100
AcDbBlockReference
  2
block 102
 10
0.0
 20
0.0
 30
0.0
  0
INSERT
  5
2B6
330
1F
100
AcDbEntity
  8
OCULTO
100
AcDbBlockReference
  2
block 103
 10
0.0
 20
0.0
 30
0.0
  0
INSERT
  5
2BF
330
1F
100
AcDbEntity
  8
OCULTO
100
AcDbBlockReference
  2
block 104
 10
0.0
 20
0.0
 30
0.0
  0
INSERT
  5
2C8
330
1F
100
AcDbEntity
  8
OCULTO
100
AcDbBlockReference
  2
block 105
 10
0.0
 20
0.0
 30
0.0
  0
INSERT
  5
2CE
330
1F
100
AcDbEntity
  8
OCULTO
100
AcDbBlockReference
  2
block 106
 10
0.0
 20
0.0
 30
0.0
  0
INSERT
  5
2D8
330
1F
100
AcDbEntity
  8
SOMBREA
100
AcDbBlockReference
  2
block 107
 10
0.0
 20
0.0
 30
0.0
  0
INSERT
  5
2E1
330
1F
100
AcDbEntity
  8
COTAS
100
AcDbBlockReference
  2
block 108
 10
0.0
 20
0.0
 30
0.0
  0
INSERT
  5
2E6
330
1F
100
AcDbEntity
  8
COTAS
100
AcDbBlockReference
  2
block 109
 10
0.0
 20
0.0
 30
0.0
  0
INSERT
  5
2EB
330
1F
100
AcDbEntity
  8
COTAS
100
AcDbBlockReference
  2
block 110
 10
0.0
 20
0.0
 30
0.0
  0
INSERT
  5
33A
330
1F
100
AcDbEntity
  8
COTAS
100
AcDbBlockReference
  2
block 120
 10
0.0
 20
0.0
 30
0.0
  0
INSERT
  5
399
330
1F
100
AcDbEntity
  8
COTAS
100
AcDbBlockReference
  2
block 132
 10
0.0
 20
0.0
 30
0.0
  0
INSERT
  5
3F8
330
1F
100
AcDbEntity
  8
COTAS
100
AcDbBlockReference
  2
block 144
 10
0.0
 20
0.0
 30
0.0
  0
INSERT
  5
447
330
1F
100
AcDbEntity
  8
COTAS
100
AcDbBlockReference
  2
block 154
 10
0.0
 20
0.0
 30
0.0
  0
INSERT
  5
496
330
1F
100
AcDbEntity
  8
COTAS
100
AcDbBlockReference
  2
block 164
 10
0.0
 20
0.0
 30
0.0
  0
INSERT
  5
4E5
330
1F
100
AcDbEntity
  8
COTAS
100
AcDbBlockReference
  2
block 174
 10
0.0
 20
0.0
 30
0.0
  0
INSERT
  5
534
330
1F
100
AcDbEntity
  8
COTAS
100
AcDbBlockReference
  2
block 184
 10
0.0
 20
0.0
 30
0.0
  0
INSERT
  5
583
330
1F
100
AcDbEntity
  8
COTAS
100
AcDbBlockReference
  2
block 194
 10
0.0
 20
0.0
 30
0.0
  0
INSERT
  5
5D2
330
1F
100
AcDbEntity
  8
COTAS
100
AcDbBlockReference
  2
block 204
 10
0.0
 20
0.0
 30
0.0
  0
INSERT
  5
621
330
1F
100
AcDbEntity
  8
COTAS
100
AcDbBlockReference
  2
block 214
 10
0.0
 20
0.0
 30
0.0
  0
INSERT
  5
670
330
1F
100
AcDbEntity
  8
COTAS
100
AcDbBlockReference
  2
block 224
 10
0.0
 20
0.0
 30
0.0
  0
INSERT
  5
6BF
330
1F
100
AcDbEntity
  8
COTAS
100
AcDbBlockReference
  2
block 234
 10
0.0
 20
0.0
 30
0.0
  0
INSERT
  5
71E
330
1F
100
AcDbEntity
  8
COTAS
100
AcDbBlockReference
  2
block 246
 10
0.0
 20
0.0
 30
0.0
  0
INSERT
  5
76D
330
1F
100
AcDbEntity
  8
COTAS
100
AcDbBlockReference
  2
block 256
 10
0.0
 20
0.0
 30
0.0
  0
INSERT
  5
7BC
330
1F
100
AcDbEntity
  8
COTAS
100
AcDbBlockReference
  2
block 266
 10
0.0
 20
0.0
 30
0.0
  0
INSERT
  5
80B
330
1F
100
AcDbEntity
  8
COTAS
100
AcDbBlockReference
  2
block 276
 10
0.0
 20
0.0
 30
0.0
  0
INSERT
  5
85A
330
1F
100
AcDbEntity
  8
COTAS
100
AcDbBlockReference
  2
block 286
 10
0.0
 20
0.0
 30
0.0
  0
INSERT
  5
8A9
330
1F
100
AcDbEntity
  8
COTAS
100
AcDbBlockReference
  2
block 296
 10
0.0
 20
0.0
 30
0.0
  0
INSERT
  5
8AE
330
1F
100
AcDbEntity
  8
COTAS
100
AcDbBlockReference
  2
block 297
 10
0.0
 20
0.0
 30
0.0
  0
INSERT
  5
8C9
330
1F
100
AcDbEntity
  8
COTAS
100
AcDbBlockReference
  2
block 302
 10
0.0
 20
0.0
 30
0.0
  0
ENDSEC
  0
SECTION
  2
OBJECTS
  0
DICTIONARY
  5
C
330
0
100
AcDbDictionary
281
     1
  3
ACAD_GROUP
350
D
  3
ACAD_LAYOUT
350
1A
  3
ACAD_MLINESTYLE
350
17
  3
ACAD_PLOTSETTINGS
350
19
  3
ACAD_PLOTSTYLENAME
350
E
  3
ACAD_TABLESTYLE
350
8E3
  3
ACAD_VISUALSTYLE
350
2A
  0
DICTIONARY
  5
D
102
{ACAD_REACTORS
330
C
102
}
330
C
100
AcDbDictionary
281
     1
  0
DICTIONARY
  5
1A
102
{ACAD_REACTORS
330
C
102
}
330
C
100
AcDbDictionary
281
     1
  3
Layout1
350
1E
  3
Layout2
350
26
  3
Model
350
22
  0
DICTIONARY
  5
17
102
{ACAD_REACTORS
330
C
102
}
330
C
100
AcDbDictionary
281
     1
  3
Standard
350
18
  0
DICTIONARY
  5
19
102
{ACAD_REACTORS
330
C
102
}
330
C
100
AcDbDictionary
281
     1
  0
ACDBDICTIONARYWDFLT
  5
E
102
{ACAD_REACTORS
330
C
102
}
330
C
100
AcDbDictionary
281
     1
  3
Normal
350
F
100
AcDbDictionaryWithDefault
340
F
  0
DICTIONARY
  5
8E3
102
{ACAD_REACTORS
330
C
102
}
330
C
100
AcDbDictionary
281
     1
  0
DICTIONARY
  5
2A
102
{ACAD_REACTORS
330
C
102
}
330
C
100
AcDbDictionary
281
     1
  3
2dWireframe
350
2F
  3
3D Hidden
350
31
  3
3dWireframe
350
30
  3
Basic
350
32
  3
Brighten
350
36
  3
ColorChange
350
3A
  3
Conceptual
350
34
  3
Dim
350
35
  3
Facepattern
350
39
  3
Flat
350
2B
  3
FlatWithEdges
350
2C
  3
Gouraud
350
2D
  3
GouraudWithEdges
350
2E
  3
Linepattern
350
38
  3
Realistic
350
33
  3
Thicken
350
37
  0
LAYOUT
  5
1E
102
{ACAD_REACTORS
330
1A
102
}
330
1A
100
AcDbPlotSettings
  1

  2
none_device
  4

  6

 40
0.0
 41
0.0
 42
0.0
 43
0.0
 44
0.0
 45
0.0
 46
0.0
 47
0.0
 48
0.0
 49
0.0
140
0.0
141
0.0
142
1.0
143
1.0
 70
   688
 72
     0
 73
     0
 74
     5
  7

 75
    16
 76
     0
 77
     2
 78
   300
147
1.0
148
0.0
149
0.0
100
AcDbLayout
  1
Layout1
 70
     1
 71
     1
 10
0.0
 20
0.0
 11
12.0
 21
9.0
 12
0.0
 22
0.0
 32
0.0
 14
1.000000000000000E+20
 24
1.000000000000000E+20
 34
1.000000000000000E+20
 15
-1.000000000000000E+20
 25
-1.000000000000000E+20
 35
-1.000000000000000E+20
146
0.0
 13
0.0
 23
0.0
 33
0.0
 16
1.0
 26
0.0
 36
0.0
 17
0.0
 27
1.0
 37
0.0
 76
     0
330
1B
  0
LAYOUT
  5
26
102
{ACAD_REACTORS
330
1A
102
}
330
1A
100
AcDbPlotSettings
  1

  2
none_device
  4

  6

 40
0.0
 41
0.0
 42
0.0
 43
0.0
 44
0.0
 45
0.0
 46
0.0
 47
0.0
 48
0.0
 49
0.0
140
0.0
141
0.0
142
1.0
143
1.0
 70
   688
 72
     0
 73
     0
 74
     5
  7

 75
    16
 76
     0
 77
     2
 78
   300
147
1.0
148
0.0
149
0.0
100
AcDbLayout
  1
Layout2
 70
     1
 71
     2
 10
0.0
 20
0.0
 11
0.0
 21
0.0
 12
0.0
 22
0.0
 32
0.0
 14
0.0
 24
0.0
 34
0.0
 15
0.0
 25
0.0
 35
0.0
146
0.0
 13
0.0
 23
0.0
 33
0.0
 16
1.0
 26
0.0
 36
0.0
 17
0.0
 27
1.0
 37
0.0
 76
     0
330
23
  0
LAYOUT
  5
22
102
{ACAD_REACTORS
330
1A
102
}
330
1A
100
AcDbPlotSettings
  1

  2
none_device
  4

  6

 40
0.0
 41
0.0
 42
0.0
 43
0.0
 44
0.0
 45
0.0
 46
0.0
 47
0.0
 48
0.0
 49
0.0
140
0.0
141
0.0
142
1.0
143
1.0
 70
  1712
 72
     0
 73
     0
 74
     0
  7

 75
     0
 76
     0
 77
     2
 78
   300
147
1.0
148
0.0
149
0.0
100
AcDbLayout
  1
Model
 70
     1
 71
     0
 10
0.0
 20
0.0
 11
12.0
 21
9.0
 12
0.0
 22
0.0
 32
0.0
 14
1.000000000000000E+20
 24
1.000000000000000E+20
 34
1.000000000000000E+20
 15
-1.000000000000000E+20
 25
-1.000000000000000E+20
 35
-1.000000000000000E+20
146
0.0
 13
0.0
 23
0.0
 33
0.0
 16
1.0
 26
0.0
 36
0.0
 17
0.0
 27
1.0
 37
0.0
 76
     0
330
1F
331
29
  0
MLINESTYLE
  5
18
102
{ACAD_REACTORS
330
17
102
}
330
17
100
AcDbMlineStyle
  2
Standard
 70
     0
  3

 62
   256
 51
90.0
 52
90.0
 71
     2
 49
0.5
 62
   256
  6
BYLAYER
 49
-0.5
 62
   256
  6
BYLAYER
  0
ACDBPLACEHOLDER
  5
F
102
{ACAD_REACTORS
330
E
102
}
330
E
  0
VISUALSTYLE
  5
2F
102
{ACAD_REACTORS
330
2A
102
}
330
2A
100
AcDbVisualStyle
  2
2dWireframe
 70
     4
 71
     0
 72
     2
 73
     0
 90
        0
 40
-0.6
 41
-30.0
 62
     5
 63
     7
421
 16777215
 74
     1
 91
        4
 64
     7
 65
   257
 75
     1
175
     1
 42
1.0
 92
        0
 66
   257
 43
1.0
 76
     1
 77
     6
 78
     2
 67
     7
 79
     5
170
     0
171
     0
290
     0
174
     0
 93
        1
 44
0.0
173
     0
291
     0
 45
0.0
1001
ACAD
1000
AcDbSavedByObjectVersion
1070
     0
  0
VISUALSTYLE
  5
31
102
{ACAD_REACTORS
330
2A
102
}
330
2A
100
AcDbVisualStyle
  2
3D Hidden
 70
     6
 71
     1
 72
     2
 73
     2
 90
        0
 40
-0.6
 41
-30.0
 62
     5
 63
     7
421
 16777215
 74
     2
 91
        2
 64
     7
 65
   257
 75
     2
175
     1
 42
40.0
 92
        0
 66
   257
 43
1.0
 76
     1
 77
     6
 78
     2
 67
     7
 79
     3
170
     0
171
     0
290
     0
174
     0
 93
        1
 44
0.0
173
     0
291
     0
 45
0.0
1001
ACAD
1000
AcDbSavedByObjectVersion
1070
     0
  0
VISUALSTYLE
  5
30
102
{ACAD_REACTORS
330
2A
102
}
330
2A
100
AcDbVisualStyle
  2
3dWireframe
 70
     5
 71
     0
 72
     2
 73
     0
 90
        0
 40
-0.6
 41
-30.0
 62
     5
 63
     7
421
 16777215
 74
     1
 91
        4
 64
     7
 65
   257
 75
     1
175
     1
 42
1.0
 92
        0
 66
   257
 43
1.0
 76
     1
 77
     6
 78
     2
 67
     7
 79
     5
170
     0
171
     0
290
     0
174
     0
 93
        1
 44
0.0
173
     0
291
     0
 45
0.0
1001
ACAD
1000
AcDbSavedByObjectVersion
1070
     0
  0
VISUALSTYLE
  5
32
102
{ACAD_REACTORS
330
2A
102
}
330
2A
100
AcDbVisualStyle
  2
Basic
 70
     7
 71
     1
 72
     0
 73
     1
 90
        0
 40
-0.6
 41
-30.0
 62
     5
 63
     7
421
 16777215
 74
     0
 91
        4
 64
     7
 65
   257
 75
     1
175
     1
 42
1.0
 92
        8
 66
     7
 43
1.0
 76
     1
 77
     6
 78
     2
 67
     7
 79
     5
170
     0
171
     0
290
     0
174
     0
 93
        1
 44
0.0
173
     0
291
     1
 45
0.0
1001
ACAD
1000
AcDbSavedByObjectVersion
1070
     0
  0
VISUALSTYLE
  5
36
102
{ACAD_REACTORS
330
2A
102
}
330
2A
100
AcDbVisualStyle
  2
Brighten
 70
    12
 71
     2
 72
     2
 73
     0
 90
        0
 40
-0.6
 41
-30.0
 62
     5
 63
     7
421
 16777215
 74
     1
 91
        4
 64
     7
 65
   257
 75
     1
175
     1
 42
1.0
 92
        8
 66
     7
 43
1.0
 76
     1
 77
     6
 78
     2
 67
     7
 79
     5
170
     0
171
     0
290
     0
174
     0
 93
        1
 44
50.0
173
     0
291
     1
 45
0.0
1001
ACAD
1000
AcDbSavedByObjectVersion
1070
     0
  0
VISUALSTYLE
  5
3A
102
{ACAD_REACTORS
330
2A
102
}
330
2A
100
AcDbVisualStyle
  2
ColorChange
 70
    16
 71
     2
 72
     2
 73
     3
 90
        0
 40
-0.6
 41
-30.0
 62
     5
 63
     8
421
  8421504
 74
     1
 91
        4
 64
     7
 65
   257
 75
     1
175
     1
 42
1.0
 92
        8
 66
     8
424
  8421504
 43
1.0
 76
     1
 77
     6
 78
     2
 67
     7
 79
     5
170
     0
171
     0
290
     0
174
     0
 93
        1
 44
0.0
173
     0
291
     1
 45
0.0
1001
ACAD
1000
AcDbSavedByObjectVersion
1070
     0
  0
VISUALSTYLE
  5
34
102
{ACAD_REACTORS
330
2A
102
}
330
2A
100
AcDbVisualStyle
  2
Conceptual
 70
     9
 71
     3
 72
     2
 73
     0
 90
        0
 40
-0.6
 41
-30.0
 62
     5
 63
     7
421
 16777215
 74
     2
 91
        2
 64
     7
 65
   257
 75
     1
175
     1
 42
40.0
 92
        8
 66
     7
 43
1.0
 76
     1
 77
     6
 78
     2
 67
     7
 79
     3
170
     0
171
     0
290
     0
174
     0
 93
        1
 44
0.0
173
     0
291
     0
 45
0.0
1001
ACAD
1000
AcDbSavedByObjectVersion
1070
     0
  0
VISUALSTYLE
  5
35
102
{ACAD_REACTORS
330
2A
102
}
330
2A
100
AcDbVisualStyle
  2
Dim
 70
    11
 71
     2
 72
     2
 73
     0
 90
        0
 40
-0.6
 41
-30.0
 62
     5
 63
     7
421
 16777215
 74
     1
 91
        4
 64
     7
 65
   257
 75
     1
175
     1
 42
1.0
 92
        8
 66
     7
 43
1.0
 76
     1
 77
     6
 78
     2
 67
     7
 79
     5
170
     0
171
     0
290
     0
174
     0
 93
        1
 44
-50.0
173
     0
291
     1
 45
0.0
1001
ACAD
1000
AcDbSavedByObjectVersion
1070
     0
  0
VISUALSTYLE
  5
39
102
{ACAD_REACTORS
330
2A
102
}
330
2A
100
AcDbVisualStyle
  2
Facepattern
 70
    15
 71
     2
 72
     2
 73
     0
 90
        0
 40
-0.6
 41
-30.0
 62
     5
 63
     7
421
 16777215
 74
     1
 91
        4
 64
     7
 65
   257
 75
     1
175
     1
 42
1.0
 92
        8
 66
     7
 43
1.0
 76
     1
 77
     6
 78
     2
 67
     7
 79
     5
170
     0
171
     0
290
     0
174
     0
 93
        1
 44
0.0
173
     0
291
     1
 45
0.0
1001
ACAD
1000
AcDbSavedByObjectVersion
1070
     0
  0
VISUALSTYLE
  5
2B
102
{ACAD_REACTORS
330
2A
102
}
330
2A
100
AcDbVisualStyle
  2
Flat
 70
     0
 71
     2
 72
     1
 73
     1
 90
        2
 40
-0.6
 41
30.0
 62
     5
 63
     7
421
 16777215
 74
     0
 91
        4
 64
     7
 65
   257
 75
     1
175
     1
 42
1.0
 92
        8
 66
     7
 43
1.0
 76
     1
 77
     6
 78
     2
 67
     7
 79
     5
170
     0
171
     0
290
     0
174
     0
 93
       13
 44
0.0
173
     0
291
     1
 45
0.0
1001
ACAD
1000
AcDbSavedByObjectVersion
1070
     0
  0
VISUALSTYLE
  5
2C
102
{ACAD_REACTORS
330
2A
102
}
330
2A
100
AcDbVisualStyle
  2
FlatWithEdges
 70
     1
 71
     2
 72
     1
 73
     1
 90
        2
 40
-0.6
 41
30.0
 62
     5
 63
     7
421
 16777215
 74
     1
 91
        4
 64
     7
 65
   257
 75
     1
175
     1
 42
1.0
 92
        0
 66
   257
 43
1.0
 76
     1
 77
     6
 78
     2
 67
     7
 79
     5
170
     0
171
     0
290
     0
174
     0
 93
       13
 44
0.0
173
     0
291
     1
 45
0.0
1001
ACAD
1000
AcDbSavedByObjectVersion
1070
     0
  0
VISUALSTYLE
  5
2D
102
{ACAD_REACTORS
330
2A
102
}
330
2A
100
AcDbVisualStyle
  2
Gouraud
 70
     2
 71
     2
 72
     2
 73
     1
 90
        2
 40
-0.6
 41
30.0
 62
     5
 63
     7
421
 16777215
 74
     0
 91
        4
 64
     7
 65
   257
 75
     1
175
     1
 42
1.0
 92
        0
 66
     7
 43
1.0
 76
     1
 77
     6
 78
     2
 67
     7
 79
     5
170
     0
171
     0
290
     0
174
     0
 93
       13
 44
0.0
173
     0
291
     1
 45
0.0
1001
ACAD
1000
AcDbSavedByObjectVersion
1070
     0
  0
VISUALSTYLE
  5
2E
102
{ACAD_REACTORS
330
2A
102
}
330
2A
100
AcDbVisualStyle
  2
GouraudWithEdges
 70
     3
 71
     2
 72
     2
 73
     1
 90
        2
 40
-0.6
 41
30.0
 62
     5
 63
     7
421
 16777215
 74
     1
 91
        4
 64
     7
 65
   257
 75
     1
175
     1
 42
1.0
 92
        0
 66
   257
 43
1.0
 76
     1
 77
     6
 78
     2
 67
     7
 79
     5
170
     0
171
     0
290
     0
174
     0
 93
       13
 44
0.0
173
     0
291
     1
 45
0.0
1001
ACAD
1000
AcDbSavedByObjectVersion
1070
     0
  0
VISUALSTYLE
  5
38
102
{ACAD_REACTORS
330
2A
102
}
330
2A
100
AcDbVisualStyle
  2
Linepattern
 70
    14
 71
     2
 72
     2
 73
     0
 90
        0
 40
-0.6
 41
-30.0
 62
     5
 63
     7
421
 16777215
 74
     1
 91
        4
 64
     7
 65
   257
 75
     7
175
     7
 42
1.0
 92
        8
 66
     7
 43
1.0
 76
     1
 77
     6
 78
     2
 67
     7
 79
     5
170
     0
171
     0
290
     0
174
     0
 93
        1
 44
0.0
173
     0
291
     1
 45
0.0
1001
ACAD
1000
AcDbSavedByObjectVersion
1070
     0
  0
VISUALSTYLE
  5
33
102
{ACAD_REACTORS
330
2A
102
}
330
2A
100
AcDbVisualStyle
  2
Realistic
 70
     8
 71
     2
 72
     2
 73
     0
 90
        0
 40
-0.6
 41
-30.0
 62
     5
 63
     7
421
 16777215
 74
     1
 91
        0
 64
     7
 65
   257
 75
     1
175
     1
 42
1.0
 92
        8
 66
     8
424
  7895160
 43
1.0
 76
     1
 77
     6
 78
     2
 67
     7
 79
     5
170
     0
171
     0
290
     0
174
     0
 93
       13
 44
0.0
173
     0
291
     0
 45
0.0
1001
ACAD
1000
AcDbSavedByObjectVersion
1070
     0
  0
VISUALSTYLE
  5
37
102
{ACAD_REACTORS
330
2A
102
}
330
2A
100
AcDbVisualStyle
  2
Thicken
 70
    13
 71
     2
 72
     2
 73
     0
 90
        0
 40
-0.6
 41
-30.0
 62
     5
 63
     7
421
 16777215
 74
     1
 91
        4
 64
     7
 65
   257
 75
     1
175
     1
 42
1.0
 92
       12
 66
     7
 43
1.0
 76
     1
 77
     6
 78
     2
 67
     7
 79
     5
170
     0
171
     0
290
     0
174
     0
 93
        1
 44
0.0
173
     0
291
     1
 45
0.0
1001
ACAD
1000
AcDbSavedByObjectVersion
1070
     0
  0
ENDSEC
  0
EOF
