  0
SECTION
  2
HEADER
  9
$ACADVER
  1
AC1018
  9
$ACADMAINTVER
 70
     0
  9
$DWGCODEPAGE
  3
ANSI_1252
  9
$INSBASE
 10
0.0
 20
0.0
 30
0.0
  9
$EXTMIN
 10
22.09966553641824
 20
104.5456393425626
 30
0.0
  9
$EXTMAX
 10
754.8898602011623
 20
1027.630118606331
 30
0.0
  9
$LIMMIN
 10
0.0
 20
0.0
  9
$LIMMAX
 10
12.0
 20
9.0
  9
$ORTHOMODE
 70
     0
  9
$REGENMODE
 70
     1
  9
$FILLMODE
 70
     1
  9
$QTEXTMODE
 70
     0
  9
$MIRRTEXT
 70
     0
  9
$LTSCALE
 40
1.0
  9
$ATTMODE
 70
     1
  9
$TEXTSIZE
 40
0.2
  9
$TRACEWID
 40
0.05
  9
$TEXTSTYLE
  7
Standard
  9
$CLAYER
  8
0
  9
$CELTYPE
  6
ByLayer
  9
$CECOLOR
 62
   256
  9
$CELTSCALE
 40
1.0
  9
$DISPSILH
 70
     0
  9
$DIMSCALE
 40
1.0
  9
$DIMASZ
 40
0.18
  9
$DIMEXO
 40
0.0625
  9
$DIMDLI
 40
0.38
  9
$DIMRND
 40
0.0
  9
$DIMDLE
 40
0.0
  9
$DIMEXE
 40
0.18
  9
$DIMTP
 40
0.0
  9
$DIMTM
 40
0.0
  9
$DIMTXT
 40
0.18
  9
$DIMCEN
 40
0.09
  9
$DIMTSZ
 40
0.0
  9
$DIMTOL
 70
     0
  9
$DIMLIM
 70
     0
  9
$DIMTIH
 70
     1
  9
$DIMTOH
 70
     1
  9
$DIMSE1
 70
     0
  9
$DIMSE2
 70
     0
  9
$DIMTAD
 70
     0
  9
$DIMZIN
 70
     0
  9
$DIMBLK
  1

  9
$DIMASO
 70
     1
  9
$DIMSHO
 70
     1
  9
$DIMPOST
  1

  9
$DIMAPOST
  1

  9
$DIMALT
 70
     0
  9
$DIMALTD
 70
     2
  9
$DIMALTF
 40
25.4
  9
$DIMLFAC
 40
1.0
  9
$DIMTOFL
 70
     0
  9
$DIMTVP
 40
0.0
  9
$DIMTIX
 70
     0
  9
$DIMSOXD
 70
     0
  9
$DIMSAH
 70
     0
  9
$DIMBLK1
  1

  9
$DIMBLK2
  1

  9
$DIMSTYLE
  2
Standard
  9
$DIMCLRD
 70
     0
  9
$DIMCLRE
 70
     0
  9
$DIMCLRT
 70
     0
  9
$DIMTFAC
 40
1.0
  9
$DIMGAP
 40
0.09
  9
$DIMJUST
 70
     0
  9
$DIMSD1
 70
     0
  9
$DIMSD2
 70
     0
  9
$DIMTOLJ
 70
     1
  9
$DIMTZIN
 70
     0
  9
$DIMALTZ
 70
     0
  9
$DIMALTTZ
 70
     0
  9
$DIMUPT
 70
     0
  9
$DIMDEC
 70
     4
  9
$DIMTDEC
 70
     4
  9
$DIMALTU
 70
     2
  9
$DIMALTTD
 70
     2
  9
$DIMTXSTY
  7
Standard
  9
$DIMAUNIT
 70
     0
  9
$DIMADEC
 70
     0
  9
$DIMALTRND
 40
0.0
  9
$DIMAZIN
 70
     0
  9
$DIMDSEP
 70
    46
  9
$DIMATFIT
 70
     3
  9
$DIMFRAC
 70
     0
  9
$DIMLDRBLK
  1

  9
$DIMLUNIT
 70
     2
  9
$DIMLWD
 70
    -2
  9
$DIMLWE
 70
    -2
  9
$DIMTMOVE
 70
     0
  9
$LUNITS
 70
     2
  9
$LUPREC
 70
     4
  9
$SKETCHINC
 40
0.1
  9
$FILLETRAD
 40
0.0
  9
$AUNITS
 70
     0
  9
$AUPREC
 70
     0
  9
$MENU
  1
.
  9
$ELEVATION
 40
0.0
  9
$PELEVATION
 40
0.0
  9
$THICKNESS
 40
0.0
  9
$LIMCHECK
 70
     0
  9
$CHAMFERA
 40
0.0
  9
$CHAMFERB
 40
0.0
  9
$CHAMFERC
 40
0.0
  9
$CHAMFERD
 40
0.0
  9
$SKPOLY
 70
     0
  9
$TDCREATE
 40
2454473.056334942
  9
$TDUCREATE
 40
2454473.014668276
  9
$TDUPDATE
 40
2454551.544637187
  9
$TDUUPDATE
 40
2454551.502970521
  9
$TDINDWG
 40
0.0027186458
  9
$TDUSRTIMER
 40
0.0027186458
  9
$USRTIMER
 70
     1
  9
$ANGBASE
 50
0.0
  9
$ANGDIR
 70
     0
  9
$PDMODE
 70
     0
  9
$PDSIZE
 40
0.0
  9
$PLINEWID
 40
0.0
  9
$SPLFRAME
 70
     0
  9
$SPLINETYPE
 70
     6
  9
$SPLINESEGS
 70
     8
  9
$HANDSEED
  5
4C9
  9
$SURFTAB1
 70
     6
  9
$SURFTAB2
 70
     6
  9
$SURFTYPE
 70
     6
  9
$SURFU
 70
     6
  9
$SURFV
 70
     6
  9
$UCSBASE
  2

  9
$UCSNAME
  2

  9
$UCSORG
 10
0.0
 20
0.0
 30
0.0
  9
$UCSXDIR
 10
1.0
 20
0.0
 30
0.0
  9
$UCSYDIR
 10
0.0
 20
1.0
 30
0.0
  9
$UCSORTHOREF
  2

  9
$UCSORTHOVIEW
 70
     0
  9
$UCSORGTOP
 10
0.0
 20
0.0
 30
0.0
  9
$UCSORGBOTTOM
 10
0.0
 20
0.0
 30
0.0
  9
$UCSORGLEFT
 10
0.0
 20
0.0
 30
0.0
  9
$UCSORGRIGHT
 10
0.0
 20
0.0
 30
0.0
  9
$UCSORGFRONT
 10
0.0
 20
0.0
 30
0.0
  9
$UCSORGBACK
 10
0.0
 20
0.0
 30
0.0
  9
$PUCSBASE
  2

  9
$PUCSNAME
  2

  9
$PUCSORG
 10
0.0
 20
0.0
 30
0.0
  9
$PUCSXDIR
 10
1.0
 20
0.0
 30
0.0
  9
$PUCSYDIR
 10
0.0
 20
1.0
 30
0.0
  9
$PUCSORTHOREF
  2

  9
$PUCSORTHOVIEW
 70
     0
  9
$PUCSORGTOP
 10
0.0
 20
0.0
 30
0.0
  9
$PUCSORGBOTTOM
 10
0.0
 20
0.0
 30
0.0
  9
$PUCSORGLEFT
 10
0.0
 20
0.0
 30
0.0
  9
$PUCSORGRIGHT
 10
0.0
 20
0.0
 30
0.0
  9
$PUCSORGFRONT
 10
0.0
 20
0.0
 30
0.0
  9
$PUCSORGBACK
 10
0.0
 20
0.0
 30
0.0
  9
$USERI1
 70
     0
  9
$USERI2
 70
     0
  9
$USERI3
 70
     0
  9
$USERI4
 70
     0
  9
$USERI5
 70
     0
  9
$USERR1
 40
0.0
  9
$USERR2
 40
0.0
  9
$USERR3
 40
0.0
  9
$USERR4
 40
0.0
  9
$USERR5
 40
0.0
  9
$WORLDVIEW
 70
     1
  9
$SHADEDGE
 70
     3
  9
$SHADEDIF
 70
    70
  9
$TILEMODE
 70
     1
  9
$MAXACTVP
 70
    64
  9
$PINSBASE
 10
0.0
 20
0.0
 30
0.0
  9
$PLIMCHECK
 70
     0
  9
$PEXTMIN
 10
0.0
 20
0.0
 30
0.0
  9
$PEXTMAX
 10
0.0
 20
0.0
 30
0.0
  9
$PLIMMIN
 10
0.0
 20
0.0
  9
$PLIMMAX
 10
12.0
 20
9.0
  9
$UNITMODE
 70
     0
  9
$VISRETAIN
 70
     1
  9
$PLINEGEN
 70
     0
  9
$PSLTSCALE
 70
     1
  9
$TREEDEPTH
 70
  3020
  9
$CMLSTYLE
  2
Standard
  9
$CMLJUST
 70
     0
  9
$CMLSCALE
 40
1.0
  9
$PROXYGRAPHICS
 70
     1
  9
$MEASUREMENT
 70
     0
  9
$CELWEIGHT
370
    -1
  9
$ENDCAPS
280
     0
  9
$JOINSTYLE
280
     0
  9
$LWDISPLAY
290
     0
  9
$INSUNITS
 70
     1
  9
$HYPERLINKBASE
  1

  9
$STYLESHEET
  1

  9
$XEDIT
290
     1
  9
$CEPSNTYPE
380
     0
  9
$PSTYLEMODE
290
     1
  9
$FINGERPRINTGUID
  2
{FDEAD576-A652-11D2-9A35-0060089B3A3F}
  9
$VERSIONGUID
  2
{9C70B993-FDB8-4DB1-8BE8-7EBC1305EC27}
  9
$EXTNAMES
290
     1
  9
$PSVPSCALE
 40
0.0
  9
$OLESTARTUP
290
     0
  9
$SORTENTS
280
   127
  9
$INDEXCTL
280
     0
  9
$HIDETEXT
280
     1
  9
$XCLIPFRAME
290
     0
  9
$HALOGAP
280
     0
  9
$OBSCOLOR
 70
   257
  9
$OBSLTYPE
280
     0
  9
$INTERSECTIONDISPLAY
280
     0
  9
$INTERSECTIONCOLOR
 70
   257
  9
$DIMASSOC
280
     2
  9
$PROJECTNAME
  1

  0
ENDSEC
  0
SECTION
  2
CLASSES
  0
CLASS
  1
ACDBDICTIONARYWDFLT
  2
AcDbDictionaryWithDefault
  3
ObjectDBX Classes
 90
        0
 91
        1
280
     0
281
     0
  0
CLASS
  1
DICTIONARYVAR
  2
AcDbDictionaryVar
  3
ObjectDBX Classes
 90
        0
 91
        2
280
     0
281
     0
  0
CLASS
  1
SORTENTSTABLE
  2
AcDbSortentsTable
  3
ObjectDBX Classes
 90
        0
 91
        0
280
     0
281
     0
  0
ENDSEC
  0
SECTION
  2
TABLES
  0
TABLE
  2
VPORT
  5
8
330
0
100
AcDbSymbolTable
 70
     5
  0
VPORT
  5
4C8
330
8
100
AcDbSymbolTableRecord
100
AcDbViewportTableRecord
  2
*Active
 70
     0
 10
0.0
 20
0.0
 11
1.0
 21
1.0
 12
336.2801345986047
 22
573.4194238101504
 13
0.0
 23
0.0
 14
0.5
 24
0.5
 15
0.5
 25
0.5
 16
0.0
 26
0.0
 36
1.0
 17
0.0
 27
0.0
 37
0.0
 40
1441.586873933537
 41
1.642184557438794
 42
50.0
 43
0.0
 44
0.0
 50
0.0
 51
0.0
 71
     0
 72
  1000
 73
     1
 74
     3
 75
     0
 76
     0
 77
     0
 78
     0
281
     0
 65
     1
110
0.0
120
0.0
130
0.0
111
1.0
121
0.0
131
0.0
112
0.0
122
1.0
132
0.0
 79
     0
146
0.0
  0
ENDTAB
  0
TABLE
  2
LTYPE
  5
5
330
0
100
AcDbSymbolTable
 70
     1
  0
LTYPE
  5
14
330
5
100
AcDbSymbolTableRecord
100
AcDbLinetypeTableRecord
  2
ByBlock
 70
     0
  3

 72
    65
 73
     0
 40
0.0
  0
LTYPE
  5
15
330
5
100
AcDbSymbolTableRecord
100
AcDbLinetypeTableRecord
  2
ByLayer
 70
     0
  3

 72
    65
 73
     0
 40
0.0
  0
LTYPE
  5
16
330
5
100
AcDbSymbolTableRecord
100
AcDbLinetypeTableRecord
  2
Continuous
 70
     0
  3
Solid line
 72
    65
 73
     0
 40
0.0
  0
ENDTAB
  0
TABLE
  2
LAYER
  5
2
102
{ACAD_XDICTIONARY
360
96
102
}
330
0
100
AcDbSymbolTable
 70
     1
  0
LAYER
  5
10
330
2
100
AcDbSymbolTableRecord
100
AcDbLayerTableRecord
  2
0
 70
     0
 62
     7
  6
Continuous
370
    -3
390
F
  0
ENDTAB
  0
TABLE
  2
STYLE
  5
3
330
0
100
AcDbSymbolTable
 70
     5
  0
STYLE
  5
11
330
3
100
AcDbSymbolTableRecord
100
AcDbTextStyleTableRecord
  2
Standard
 70
     0
 40
0.0
 41
1.0
 50
0.0
 71
     0
 42
0.2
  3
txt
  4

  0
STYLE
  5
93
330
3
100
AcDbSymbolTableRecord
100
AcDbTextStyleTableRecord
  2
ROMANS
 70
     0
 40
0.0
 41
1.0
 50
0.0
 71
     0
 42
25.0
  3
romans
  4

  0
STYLE
  5
94
330
3
100
AcDbSymbolTableRecord
100
AcDbTextStyleTableRecord
  2
SANSSERIFBOLD
 70
     0
 40
0.0
 41
1.0
 50
0.0
 71
     0
 42
87.71704489347758
  3
ARIALBD.TTF
  4

1001
ACAD
1000
Arial
1071
 33554466
  0
STYLE
  5
15E
330
3
100
AcDbSymbolTableRecord
100
AcDbTextStyleTableRecord
  2
NOMBRE
 70
     0
 40
0.0
 41
1.0
 50
0.0
 71
     0
 42
2.0
  3
stylu.ttf
  4

1001
ACAD
1000
Stylus BT
1071
       34
  0
STYLE
  5
15F
330
3
100
AcDbSymbolTableRecord
100
AcDbTextStyleTableRecord
  2
ISO
 70
     0
 40
0.0
 41
1.0
 50
0.0
 71
     0
 42
4.0
  3
ISOCP.SHX
  4

  0
ENDTAB
  0
TABLE
  2
VIEW
  5
6
330
0
100
AcDbSymbolTable
 70
     0
  0
ENDTAB
  0
TABLE
  2
UCS
  5
7
330
0
100
AcDbSymbolTable
 70
     0
  0
ENDTAB
  0
TABLE
  2
APPID
  5
9
330
0
100
AcDbSymbolTable
 70
     2
  0
APPID
  5
12
330
9
100
AcDbSymbolTableRecord
100
AcDbRegAppTableRecord
  2
ACAD
 70
     0
  0
APPID
  5
95
330
9
100
AcDbSymbolTableRecord
100
AcDbRegAppTableRecord
  2
ACAD_PSEXT
 70
     0
  0
ENDTAB
  0
TABLE
  2
DIMSTYLE
  5
A
330
0
100
AcDbSymbolTable
 70
     1
100
AcDbDimStyleTable
 71
     0
  0
DIMSTYLE
105
27
330
A
100
AcDbSymbolTableRecord
100
AcDbDimStyleTableRecord
  2
Standard
 70
     0
340
11
  0
ENDTAB
  0
TABLE
  2
BLOCK_RECORD
  5
1
330
0
100
AcDbSymbolTable
 70
     5
  0
BLOCK_RECORD
  5
1F
330
1
100
AcDbSymbolTableRecord
100
AcDbBlockTableRecord
  2
*Model_Space
340
22
  0
BLOCK_RECORD
  5
58
330
1
100
AcDbSymbolTableRecord
100
AcDbBlockTableRecord
  2
*Paper_Space
340
59
  0
BLOCK_RECORD
  5
5D
330
1
100
AcDbSymbolTableRecord
100
AcDbBlockTableRecord
  2
*Paper_Space0
340
5E
  0
BLOCK_RECORD
  5
114
330
1
100
AcDbSymbolTableRecord
100
AcDbBlockTableRecord
  2
18150_L
340
0
310
2800000020000000200000000100080000000000000400000000000000000000000000000000000000000000000080000080000000808000800000008000800080800000C0C0C000C0DCC000F0CAA6000020400000206000002080000020A0000020C0000020E00000400000004020000040400000406000004080000040A0
310
000040C0000040E00000600000006020000060400000606000006080000060A0000060C0000060E00000800000008020000080400000806000008080000080A0000080C0000080E00000A0000000A0200000A0400000A0600000A0800000A0A00000A0C00000A0E00000C0000000C0200000C0400000C0600000C0800000C0
310
A00000C0C00000C0E00000E0000000E0200000E0400000E0600000E0800000E0A00000E0C00000E0E00040000000400020004000400040006000400080004000A0004000C0004000E00040200000402020004020400040206000402080004020A0004020C0004020E000404000004040200040404000404060004040800040
310
40A0004040C0004040E00040600000406020004060400040606000406080004060A0004060C0004060E00040800000408020004080400040806000408080004080A0004080C0004080E00040A0000040A0200040A0400040A0600040A0800040A0A00040A0C00040A0E00040C0000040C0200040C0400040C0600040C08000
310
40C0A00040C0C00040C0E00040E0000040E0200040E0400040E0600040E0800040E0A00040E0C00040E0E00080000000800020008000400080006000800080008000A0008000C0008000E00080200000802020008020400080206000802080008020A0008020C0008020E00080400000804020008040400080406000804080
310
008040A0008040C0008040E00080600000806020008060400080606000806080008060A0008060C0008060E00080800000808020008080400080806000808080008080A0008080C0008080E00080A0000080A0200080A0400080A0600080A0800080A0A00080A0C00080A0E00080C0000080C0200080C0400080C0600080C0
310
800080C0A00080C0C00080C0E00080E0000080E0200080E0400080E0600080E0800080E0A00080E0C00080E0E000C0000000C0002000C0004000C0006000C0008000C000A000C000C000C000E000C0200000C0202000C0204000C0206000C0208000C020A000C020C000C020E000C0400000C0402000C0404000C0406000C0
310
408000C040A000C040C000C040E000C0600000C0602000C0604000C0606000C0608000C060A000C060C000C060E000C0800000C0802000C0804000C0806000C0808000C080A000C080C000C080E000C0A00000C0A02000C0A04000C0A06000C0A08000C0A0A000C0A0C000C0A0E000C0C00000C0C02000C0C04000C0C06000
310
C0C08000C0C0A000F0FBFF00A4A0A000808080000000FF0000FF000000FFFF00FF000000FF00FF00FFFF0000FFFFFF0000000000000000000000000000000000000000000000000000000000000000000000000000000000FFFFFFFFFFFFFFFFFFFFFFFFFFFFFFFF00000000000000000000000000000000FF0000FFFFFFFF
310
FF00000000000000FF00000000000000000000000000000000FF000000000000FF00000000000000FF00000000000000000000000000000000FF000000000000FF00000000000000FF00000000000000000000000000000000FF000000000000FF000000000000FF0000000000000000000000000000000000FF0000000000
310
00FF000000000000FF000000000000000000000000000000000000FF0000000000FF000000000000FF000000000000000000000000000000000000FF000000000000000000FFFFFFFFFF0000000000000000000000000000000000FF00000000FF00FFFFFF0000000000FF00000000000000000000000000000000FF0000FF
310
FFFF00000000000000000000FF0000000000000000000000000000FF00FFFF00FFFF0000000000000000000000FF000000000000000000000000FF00FF000000FFFF000000000000000000000000FF00000000000000000000FF00FF000000FFFF00000000000000000000000000FF0000000000000000FFFFFFFFFFFFFFFF
310
FFFFFFFFFFFFFFFFFF000000000000FF0000000000000000FFFFFFFFFFFFFFFFFFFFFFFFFFFFFFFFFFFFFFFFFFFFFFFF0000000000000000FF0000000000FFFFFFFFFFFFFFFFFFFFFFFFFFFFFFFFFFFF0000000000000000FF0000000000FFFFFFFFFFFFFFFFFFFFFFFFFFFFFFFF00000000000000000000FF0000000000FF
310
00000000000000000000000000000000000000000000000000FF0000000000FF00000000000000000000000000000000000000000000000000FF0000000000FF00000000000000000000000000000000000000000000000000FF0000000000FF00000000000000000000000000000000000000000000000000FF0000000000
310
FF00000000000000000000000000000000000000000000000000FF0000000000FF00000000000000000000000000000000000000000000000000FF0000000000FF00000000000000000000000000000000000000000000000000FF0000000000FF00000000000000000000000000000000000000000000000000FFFFFF0000
310
00FF00000000000000000000000000000000000000000000000000FFFFFF000000FF00000000000000000000000000000000000000000000000000FFFFFFFFFFFFFF00000000000000000000000000000000000000000000000000FFFFFFFFFFFFFF00000000000000000000000000000000000000000000000000FF000000
310
0000000000000000000000000000000000000000000000000000000000000000000000000000000000000000000000000000000000000000
102
{BLKREFS
331
4C4
102
}
1001
ACAD
1000
DesignCenter Data
1002
{
1070
     1
1070
     4
1002
}
  0
BLOCK_RECORD
  5
158
330
1
100
AcDbSymbolTableRecord
100
AcDbBlockTableRecord
  2
_DOT
340
0
  0
BLOCK_RECORD
  5
1ED
330
1
100
AcDbSymbolTableRecord
100
AcDbBlockTableRecord
  2
18130_L
340
0
1001
ACAD
1000
DesignCenter Data
1002
{
1070
     1
1070
     4
1002
}
  0
ENDTAB
  0
ENDSEC
  0
SECTION
  2
BLOCKS
  0
BLOCK
  5
20
330
1F
100
AcDbEntity
  8
0
100
AcDbBlockBegin
  2
*Model_Space
 70
     0
 10
0.0
 20
0.0
 30
0.0
  3
*Model_Space
  1

  0
ENDBLK
  5
21
330
1F
100
AcDbEntity
  8
0
100
AcDbBlockEnd
  0
BLOCK
  5
5A
330
58
100
AcDbEntity
 67
     1
  8
0
100
AcDbBlockBegin
  2
*Paper_Space
 70
     0
 10
0.0
 20
0.0
 30
0.0
  3
*Paper_Space
  1

  0
ENDBLK
  5
5B
330
58
100
AcDbEntity
 67
     1
  8
0
100
AcDbBlockEnd
  0
BLOCK
  5
5F
330
5D
100
AcDbEntity
  8
0
100
AcDbBlockBegin
  2
*Paper_Space0
 70
     0
 10
0.0
 20
0.0
 30
0.0
  3
*Paper_Space0
  1

  0
ENDBLK
  5
60
330
5D
100
AcDbEntity
  8
0
100
AcDbBlockEnd
  0
BLOCK
  5
115
330
114
100
AcDbEntity
  8
0
100
AcDbBlockBegin
  2
18150_L
 70
     0
 10
0.0
 20
0.0
 30
0.0
  3
18150_L
  1

  0
LINE
  5
46C
330
114
100
AcDbEntity
  8
0
100
AcDbLine
 10
33.49696677712564
 20
-360.0000000000001
 30
0.0
 11
27.49458952558416
 21
-360.0000000000001
 31
0.0
1001
ACAD
1000
ASC_BOUNDS
1002
{
1070
    19
1002
}
  0
ARC
  5
46D
330
114
100
AcDbEntity
  8
0
100
AcDbCircle
 10
157.0
 20
-352.0000000000001
 30
0.0
 40
8.0
100
AcDbArc
 50
270.0
 51
0.0
1001
ACAD
1000
ASC_BOUNDS
1002
{
1070
    19
1002
}
  0
ARC
  5
46E
330
114
100
AcDbEntity
  8
0
100
AcDbCircle
 10
27.49458952558416
 20
-342.0000000000001
 30
0.0
 40
18.0
100
AcDbArc
 50
181.6126045836877
 51
270.0
1001
ACAD
1000
ASC_BOUNDS
1002
{
1070
    19
1002
}
  0
LINE
  5
46F
330
114
100
AcDbEntity
  8
0
100
AcDbLine
 10
165.0
 20
-352.0000000000001
 30
0.0
 11
165.0000000000036
 21
0.0
 31
0.0
1001
ACAD
1000
ASC_BOUNDS
1002
{
1070
    19
1002
}
  0
LINE
  5
470
330
114
100
AcDbEntity
  8
0
100
AcDbLine
 10
0.0
 20
0.0
 30
0.0
 11
3.920488364918128
 21
-145.319357842025
 31
0.0
1001
ACAD
1000
ASC_BOUNDS
1002
{
1070
    19
1002
}
  0
LINE
  5
471
330
114
100
AcDbEntity
  8
0
100
AcDbLine
 10
0.0
 20
0.0
 30
0.0
 11
165.0000000000036
 21
0.0
 31
0.0
1001
ACAD
1000
ASC_BOUNDS
1002
{
1070
    19
1005
0
1002
}
  0
LINE
  5
472
330
114
100
AcDbEntity
  8
0
100
AcDbLine
 10
3.935120748479675
 20
-144.7777702153689
 30
0.0
 11
9.501718455663649
 21
-342.5065477876998
 31
0.0
1001
ACAD
1000
ASC_BOUNDS
1002
{
1070
    19
1002
}
  0
ARC
  5
473
330
114
100
AcDbEntity
  8
0
100
AcDbCircle
 10
147.8102563767097
 20
2.0
 30
0.0
 40
20.18974362329164
100
AcDbArc
 50
0.0
 51
90.0
1001
ACAD
1000
ASC_BOUNDS
1002
{
1070
    19
1002
}
  0
LINE
  5
474
330
114
100
AcDbEntity
  8
0
100
AcDbLine
 10
0.0
 20
2.0
 30
0.0
 11
168.0
 21
2.0
 31
0.0
1001
ACAD
1000
ASC_BOUNDS
1002
{
1070
    19
1002
}
  0
LINE
  5
475
330
114
100
AcDbEntity
  8
0
100
AcDbLine
 10
95.00000000000001
 20
24.18974362329027
 30
0.0
 11
14.61880215351994
 21
24.18974362329027
 31
0.0
  0
LINE
  5
476
330
114
100
AcDbEntity
  8
0
100
AcDbLine
 10
10.57735026919181
 20
29.18974362329027
 30
0.0
 11
12.88675134595178
 21
25.18974362329027
 31
0.0
1001
ACAD
1000
ASC_BOUNDS
1002
{
1070
    19
1002
}
  0
LINE
  5
477
330
114
100
AcDbEntity
  8
0
100
AcDbLine
 10
0.0
 20
28.18974362329027
 30
0.0
 11
0.0
 21
2.0
 31
0.0
1001
ACAD
1000
ASC_BOUNDS
1002
{
1070
    19
1002
}
  0
LINE
  5
478
330
114
100
AcDbEntity
  8
0
100
AcDbLine
 10
14.0
 20
2.0
 30
0.0
 11
14.72794046853596
 21
0.0
 31
0.0
1001
ACAD
1000
ASC_BOUNDS
1002
{
1070
    19
1002
}
  0
ARC
  5
479
330
114
100
AcDbEntity
  8
0
100
AcDbCircle
 10
8.845299461623653
 20
28.18974362329027
 30
0.0
 40
2.0
100
AcDbArc
 50
30.0000000000371
 51
90.0
1001
ACAD
1000
ASC_BOUNDS
1002
{
1070
    19
1002
}
  0
ARC
  5
47A
330
114
100
AcDbEntity
  8
0
100
AcDbCircle
 10
2.0
 20
28.18974362329027
 30
0.0
 40
2.0
100
AcDbArc
 50
90.0
 51
180.0
1001
ACAD
1000
ASC_BOUNDS
1002
{
1070
    19
1002
}
  0
LINE
  5
47B
330
114
100
AcDbEntity
  8
0
100
AcDbLine
 10
2.0
 20
30.18974362329027
 30
0.0
 11
8.845299461623653
 21
30.18974362329027
 31
0.0
1001
ACAD
1000
ASC_BOUNDS
1002
{
1070
    19
1002
}
  0
ARC
  5
47C
330
114
100
AcDbEntity
  8
0
100
AcDbCircle
 10
95.00000000000001
 20
-694.2307946434175
 30
0.0
 40
718.4205382667082
100
AcDbArc
 50
85.66232660677981
 51
90.0
  0
LINE
  5
47D
330
114
100
AcDbEntity
  8
0
100
AcDbLine
 10
154.0
 20
2.0
 30
0.0
 11
153.2720595314676
 21
0.0
 31
0.0
1001
ACAD
1000
ASC_BOUNDS
1002
{
1070
    19
1002
}
  0
ARC
  5
47E
330
114
100
AcDbEntity
  8
0
100
AcDbCircle
 10
14.61880215351994
 20
26.18974362329027
 30
0.0
 40
2.0
100
AcDbArc
 50
210.0000000000371
 51
270.0
  0
LINE
  5
47F
330
114
100
AcDbEntity
  8
0
100
AcDbLine
 10
37.00000000000364
 20
-360.0000000000001
 30
0.0
 11
153.0
 21
-360.0000000000001
 31
0.0
1001
ACAD
1000
ASC_BOUNDS
1002
{
1070
    19
1002
}
  0
POLYLINE
  5
480
330
114
100
AcDbEntity
  8
0
100
AcDb2dPolyline
 66
     1
 10
0.0
 20
0.0
 30
0.0
 75
     6
1001
ACAD
1000
ASC_BOUNDS
1002
{
1070
    19
1002
}
  0
VERTEX
  5
481
330
480
100
AcDbEntity
  8
0
100
AcDbVertex
100
AcDb2dVertex
 10
160.4999999999927
 20
-360.0000000000001
 30
0.0
 42
-0.2679491924316757
  0
VERTEX
  5
482
330
480
100
AcDbEntity
  8
0
100
AcDbVertex
100
AcDb2dVertex
 10
165.0000000000036
 20
-362.5000000000001
 30
0.0
 42
0.2679491924322104
1001
ACAD
1000
ASC_BOUNDS
1002
{
1070
    19
1002
}
  0
VERTEX
  5
483
330
480
100
AcDbEntity
  8
0
100
AcDbVertex
100
AcDb2dVertex
 10
169.5000000000218
 20
-365.0000000000001
 30
0.0
 42
0.2679491924322104
1001
ACAD
1000
ASC_BOUNDS
1002
{
1070
    19
1002
}
  0
SEQEND
  5
484
330
480
100
AcDbEntity
  8
0
  0
ARC
  5
485
330
114
100
AcDbEntity
  8
0
100
AcDbCircle
 10
33.00000000000364
 20
-368.0000000000001
 30
0.0
 40
8.0
100
AcDbArc
 50
90.0
 51
180.0
1001
ACAD
1000
ASC_BOUNDS
1002
{
1070
    19
1002
}
  0
LINE
  5
486
330
114
100
AcDbEntity
  8
0
100
AcDbLine
 10
33.00000000000364
 20
-360.0000000000001
 30
0.0
 11
37.00000000000364
 21
-360.0000000000001
 31
0.0
1001
ACAD
1000
ASC_BOUNDS
1002
{
1070
    19
1002
}
  0
LINE
  5
487
330
114
100
AcDbEntity
  8
0
100
AcDbLine
 10
160.6698729810923
 20
-360.0000000000001
 30
0.0
 11
153.0000000000036
 21
-360.0000000000001
 31
0.0
1001
ACAD
1000
ASC_BOUNDS
1002
{
1070
    19
1002
}
  0
LINE
  5
488
330
114
100
AcDbEntity
  8
0
100
AcDbLine
 10
25.00000000000364
 20
-387.0000000000001
 30
0.0
 11
25.00000000000364
 21
-368.0000000000001
 31
0.0
1001
ACAD
1000
ASC_BOUNDS
1002
{
1070
    19
1002
}
  0
ARC
  5
489
330
114
100
AcDbEntity
  8
0
100
AcDbCircle
 10
33.00000000000364
 20
-387.0000000000001
 30
0.0
 40
8.0
100
AcDbArc
 50
180.0
 51
266.3255106135581
1001
ACAD
1000
ASC_BOUNDS
1002
{
1070
    19
1002
}
  0
LINE
  5
48A
330
114
100
AcDbEntity
  8
0
100
AcDbLine
 10
115.0000000272084
 20
-745.0
 30
0.0
 11
525.0000000000036
 21
-745.0
 31
0.0
  0
ARC
  5
48B
330
114
100
AcDbEntity
  8
0
100
AcDbCircle
 10
425.0000000000036
 20
-745.004107055458
 30
0.0
 40
310.0
100
AcDbArc
 50
159.0708156426108
 51
179.9992409130832
1001
ACAD
1000
ASC_BOUNDS
1002
{
1070
    19
1002
}
  0
ARC
  5
48C
330
114
100
AcDbEntity
  8
0
100
AcDbCircle
 10
-42.01132197799232
 20
-566.3972058887775
 30
0.0
 40
190.0
100
AcDbArc
 50
339.0708156426109
 51
38.20561137486556
1001
ACAD
1000
ASC_BOUNDS
1002
{
1070
    19
1002
}
  0
LINE
  5
48D
330
114
100
AcDbEntity
  8
0
100
AcDbLine
 10
233.5478593649823
 20
-400.1433878179961
 30
0.0
 11
233.6164977973604
 21
-399.8193895652477
 31
0.0
1001
ACAD
1000
ASC_BOUNDS
1002
{
1070
    19
1002
}
  0
ARC
  5
48E
330
114
100
AcDbEntity
  8
0
100
AcDbCircle
 10
31.84641625685981
 20
-404.9629965358654
 30
0.0
 40
10.0
100
AcDbArc
 50
31.83908985289021
 51
86.32551061355806
1001
ACAD
1000
ASC_BOUNDS
1002
{
1070
    19
1002
}
  0
ARC
  5
48F
330
114
100
AcDbEntity
  8
0
100
AcDbCircle
 10
104.0567196758893
 20
-360.1224782501523
 30
0.0
 40
75.0
100
AcDbArc
 50
211.8390898528902
 51
253.2346708785859
1001
ACAD
1000
ASC_BOUNDS
1002
{
1070
    19
1002
}
  0
ARC
  5
490
330
114
100
AcDbEntity
  8
0
100
AcDbCircle
 10
68.00016343286554
 20
-479.8092559321231
 30
0.0
 40
50.0
100
AcDbArc
 50
38.20561137486556
 51
73.23467087858595
1001
ACAD
1000
ASC_BOUNDS
1002
{
1070
    19
1002
}
  0
LINE
  5
491
330
114
100
AcDbEntity
  8
0
100
AcDbLine
 10
137.8550539404168
 20
-404.9529023942997
 30
0.0
 11
225.5819335908236
 21
-406.484180774547
 31
0.0
1001
ACAD
1000
ASC_BOUNDS
1002
{
1070
    19
1002
}
  0
ARC
  5
492
330
114
100
AcDbEntity
  8
0
100
AcDbCircle
 10
225.7215528423185
 20
-398.4853992132959
 30
0.0
 40
8.0
100
AcDbArc
 50
269.0000000000243
 51
348.0388397107784
1001
ACAD
1000
ASC_BOUNDS
1002
{
1070
    19
1002
}
  0
ARC
  5
493
330
114
100
AcDbEntity
  8
0
100
AcDbCircle
 10
-42.01132197799232
 20
-566.3972058887775
 30
0.0
 40
225.0
100
AcDbArc
 50
30.18509548609283
 51
40.12447528212501
1001
ACAD
1000
ASC_BOUNDS
1002
{
1070
    19
1002
}
  0
ARC
  5
494
330
114
100
AcDbEntity
  8
0
100
AcDbCircle
 10
178.4121123251534
 20
-438.1844545338318
 30
0.0
 40
30.0
100
AcDbArc
 50
210.1850954860928
 51
240.1387212054031
1001
ACAD
1000
ASC_BOUNDS
1002
{
1070
    19
1002
}
  0
ARC
  5
495
330
114
100
AcDbEntity
  8
0
100
AcDbCircle
 10
137.6805298760446
 20
-414.9513793458647
 30
0.0
 40
10.0
100
AcDbArc
 50
89.0000000000243
 51
220.124475282125
1001
ACAD
1000
ASC_BOUNDS
1002
{
1070
    19
1002
}
  0
ARC
  5
496
330
114
100
AcDbEntity
  8
0
100
AcDbCircle
 10
256.4260876866829
 20
-423.8314320411083
 30
0.0
 40
10.0
100
AcDbArc
 50
8.509382886781896
 51
188.5093828867819
  0
ARC
  5
497
330
114
100
AcDbEntity
  8
0
100
AcDbCircle
 10
640.202940734587
 20
-339.0000000000024
 30
0.0
 40
1.0
100
AcDbArc
 50
270.0
 51
0.0
1001
ACAD
1000
ASC_BOUNDS
1002
{
1070
    19
1002
}
  0
LINE
  5
498
330
114
100
AcDbEntity
  8
0
100
AcDbLine
 10
555.9396832575033
 20
-342.0000000000022
 30
0.0
 11
555.9396832575033
 21
-344.3725393319397
 31
0.0
  0
LINE
  5
499
330
114
100
AcDbEntity
  8
0
100
AcDbLine
 10
555.9396832575028
 20
-342.0000000000022
 30
0.0
 11
556.0687225088569
 21
-340.0000000000023
 31
0.0
  0
LINE
  5
49A
330
114
100
AcDbEntity
  8
0
100
AcDbLine
 10
535.9396832575034
 20
-342.0000000000022
 30
0.0
 11
535.8106440061493
 21
-340.0000000000023
 31
0.0
  0
LINE
  5
49B
330
114
100
AcDbEntity
  8
0
100
AcDbLine
 10
535.9396832575034
 20
-342.0000000000022
 30
0.0
 11
535.9396832575034
 21
-344.3725393319397
 31
0.0
  0
ARC
  5
49C
330
114
100
AcDbEntity
  8
0
100
AcDbCircle
 10
545.9396832575001
 20
-265.0000000000026
 30
0.0
 40
80.0
100
AcDbArc
 50
262.8192442185415
 51
277.1807557814585
  0
LINE
  5
49D
330
114
100
AcDbEntity
  8
0
100
AcDbLine
 10
535.9396832575028
 20
-344.3725393319399
 30
0.0
 11
555.9396832575033
 21
-344.3725393319399
 31
0.0
  0
ARC
  5
49E
330
114
100
AcDbEntity
  8
0
100
AcDbCircle
 10
545.9396832575015
 20
-265.0000000000617
 30
0.0
 40
79.99999999994082
100
AcDbArc
 50
262.8192442185415
 51
277.1807557814585
  0
ARC
  5
49F
330
114
100
AcDbEntity
  8
0
100
AcDbCircle
 10
549.0306367626234
 20
-679.8816074002419
 30
0.0
 40
359.8816074002396
100
AcDbArc
 50
76.28820863090464
 51
90.0
1001
ACAD
1000
ASC_BOUNDS
1002
{
1070
    19
1002
}
  0
ARC
  5
4A0
330
114
100
AcDbEntity
  8
0
100
AcDbCircle
 10
632.202940734587
 20
-339.0000000000024
 30
0.0
 40
9.0
100
AcDbArc
 50
0.0
 51
76.28820863090464
1001
ACAD
1000
ASC_BOUNDS
1002
{
1070
    19
1002
}
  0
LINE
  5
4A1
330
114
100
AcDbEntity
  8
0
100
AcDbLine
 10
605.4058218564086
 20
-345.0000000000026
 30
0.0
 11
639.0806902738157
 21
-345.0000000000026
 31
0.0
1001
ACAD
1000
ASC_BOUNDS
1002
{
1070
    19
1002
}
  0
ARC
  5
4A2
330
114
100
AcDbEntity
  8
0
100
AcDbCircle
 10
639.0806902738157
 20
-357.0000000000024
 30
0.0
 40
12.0
100
AcDbArc
 50
5.234983955055447
 51
90.0
1001
ACAD
1000
ASC_BOUNDS
1002
{
1070
    19
1002
}
  0
ARC
  5
4A3
330
114
100
AcDbEntity
  8
0
100
AcDbCircle
 10
223.4322639976206
 20
-345.5000000000026
 30
0.0
 40
6.0
100
AcDbArc
 50
113.5564643090904
 51
178.4242238671761
1001
ACAD
1000
ASC_BOUNDS
1002
{
1070
    19
1002
}
  0
LINE
  5
4A4
330
114
100
AcDbEntity
  8
0
100
AcDbLine
 10
216.4069731670768
 20
-338.5000000000026
 30
0.0
 11
216.4058218564085
 21
-340.0000000000024
 31
0.0
  0
ARC
  5
4A5
330
114
100
AcDbEntity
  8
0
100
AcDbCircle
 10
221.0587635492528
 20
-337.9874012046069
 30
0.0
 40
2.0
100
AcDbArc
 50
270.0
 51
270.1347785445022
  0
LINE
  5
4A6
330
114
100
AcDbEntity
  8
0
100
AcDbLine
 10
217.4345330141076
 20
-345.335005910969
 30
0.0
 11
217.3612205775869
 21
-348.0000000000026
 31
0.0
  0
LINE
  5
4A7
330
114
100
AcDbEntity
  8
0
100
AcDbLine
 10
216.4069731670768
 20
-338.5000000000026
 30
0.0
 11
217.1743303311376
 21
-328.3221521277118
 31
0.0
1001
ACAD
1000
ASC_BOUNDS
1002
{
1070
    19
1002
}
  0
ARC
  5
4A8
330
114
100
AcDbEntity
  8
0
100
AcDbCircle
 10
226.1488591553915
 20
-328.9987852503299
 30
0.0
 40
9.0
100
AcDbArc
 50
90.0
 51
175.6883514775356
1001
ACAD
1000
ASC_BOUNDS
1002
{
1070
    19
1002
}
  0
ARC
  5
4A9
330
114
100
AcDbEntity
  8
0
100
AcDbCircle
 10
365.4721199436879
 20
802.3792029750413
 30
0.0
 40
1150.0
100
AcDbArc
 50
263.4002265097136
 51
266.1332690721669
1001
ACAD
1000
ASC_BOUNDS
1002
{
1070
    19
1002
}
  0
ARC
  5
4AA
330
114
100
AcDbEntity
  8
0
100
AcDbCircle
 10
229.4058218564085
 20
-348.0000000000024
 30
0.0
 40
12.0
100
AcDbArc
 50
242.1818607153448
 51
270.0
  0
ARC
  5
4AB
330
114
100
AcDbEntity
  8
0
100
AcDbCircle
 10
229.5176993263626
 20
-347.881542254148
 30
0.0
 40
12.15705588565699
100
AcDbArc
 50
180.558296051007
 51
241.9760550992299
  0
LINE
  5
4AC
330
114
100
AcDbEntity
  8
0
100
AcDbLine
 10
216.4058218564085
 20
-340.0000000000023
 30
0.0
 11
640.202940734587
 21
-340.0000000000024
 31
0.0
  0
LINE
  5
4AD
330
114
100
AcDbEntity
  8
0
100
AcDbLine
 10
289.3413483710681
 20
-345.0000000000024
 30
0.0
 11
639.0806902738157
 21
-345.0000000000024
 31
0.0
  0
LINE
  5
4AE
330
114
100
AcDbEntity
  8
0
100
AcDbLine
 10
287.8772452395367
 20
-345.0000000000026
 30
0.0
 11
605.4058218564086
 21
-345.0000000000024
 31
0.0
1001
ACAD
1000
ASC_BOUNDS
1002
{
1070
    19
1002
}
  0
LINE
  5
4AF
330
114
100
AcDbEntity
  8
0
100
AcDbLine
 10
549.1785016282646
 20
-319.9987852503296
 30
0.0
 11
226.1488591553915
 21
-319.9987852503299
 31
0.0
  0
CIRCLE
  5
4B0
330
114
100
AcDbEntity
  8
0
100
AcDbCircle
 10
54.9999999999999
 20
-50.00000000000046
 30
0.0
 40
9.5
  0
ARC
  5
4B1
330
114
100
AcDbEntity
  8
0
100
AcDbCircle
 10
305.0000000000036
 20
-713.0
 30
0.0
 40
2.0
100
AcDbArc
 50
270.0
 51
0.0
  0
LINE
  5
4B2
330
114
100
AcDbEntity
  8
0
100
AcDbLine
 10
307.0000000000036
 20
-713.0
 30
0.0
 11
307.0000000000036
 21
-585.0
 31
0.0
1001
ACAD
1000
ASC_BOUNDS
1002
{
1070
    19
1005
0
1005
0
1002
}
  0
LINE
  5
4B3
330
114
100
AcDbEntity
  8
0
100
AcDbLine
 10
218.0000000000036
 20
-715.0
 30
0.0
 11
305.0000000000036
 21
-715.0
 31
0.0
1001
ACAD
1000
ASC_BOUNDS
1002
{
1070
    19
1002
}
  0
LINE
  5
4B4
330
114
100
AcDbEntity
  8
0
100
AcDbLine
 10
32.48729611415911
 20
-394.9835540159403
 30
0.0
 11
448.714559417669
 21
-404.9910843975559
 31
0.0
  0
ARC
  5
4B5
330
114
100
AcDbEntity
  8
0
100
AcDbCircle
 10
438.1439210178905
 20
-280.0768761884793
 30
0.0
 40
285.8599310007276
100
AcDbArc
 50
247.986605662371
 51
280.412513761731
  0
LINE
  5
4B6
330
114
100
AcDbEntity
  8
0
100
AcDbLine
 10
169.5000000000218
 20
-365.0000000000001
 30
0.0
 11
652.0000000000035
 21
-365.0000000000001
 31
0.0
1001
ACAD
1000
ASC_BOUNDS
1002
{
1070
    19
1002
}
  0
LINE
  5
4B7
330
114
100
AcDbEntity
  8
0
100
AcDbLine
 10
525.0000000000036
 20
-745.0
 30
0.0
 11
518.6008499386989
 21
-573.1371126392878
 31
0.0
1001
ACAD
1000
ASC_BOUNDS
1002
{
1070
    19
1002
}
  0
ARC
  5
4B8
330
114
100
AcDbEntity
  8
0
100
AcDbCircle
 10
543.5835382629011
 20
-572.2069061591301
 30
0.0
 40
24.99999999999996
100
AcDbArc
 50
118.1355429170345
 51
182.132368436556
1001
ACAD
1000
ASC_BOUNDS
1002
{
1070
    19
1002
}
  0
ARC
  5
4B9
330
114
100
AcDbEntity
  8
0
100
AcDbCircle
 10
413.9048105252731
 20
-329.7024163607968
 30
0.0
 40
249.9999999999999
100
AcDbArc
 50
298.1355429170345
 51
349.6933950195373
1001
ACAD
1000
ASC_BOUNDS
1002
{
1070
    19
1002
}
  0
ARC
  5
4BA
330
114
100
AcDbEntity
  8
0
100
AcDbCircle
 10
652.0000000000035
 20
-373.0000000000001
 30
0.0
 40
8.000000000000024
100
AcDbArc
 50
349.6933950195373
 51
94.23873685813498
1001
ACAD
1000
ASC_BOUNDS
1002
{
1070
    19
1002
}
  0
ARC
  5
4BB
330
114
100
AcDbEntity
  8
0
100
AcDbCircle
 10
572.9034139253744
 20
-376.4805928002971
 30
0.0
 40
310.0
100
AcDbArc
 50
184.4523783558483
 51
207.6534884124192
1001
ACAD
1000
ASC_BOUNDS
1002
{
1070
    19
1002
}
  0
ARC
  5
4BC
330
114
100
AcDbEntity
  8
0
100
AcDbCircle
 10
572.9034139253744
 20
-376.4805928002971
 30
0.0
 40
330.0
100
AcDbArc
 50
188.5093828867819
 51
207.6534884124192
  0
ARC
  5
4BD
330
114
100
AcDbEntity
  8
0
100
AcDbCircle
 10
289.4567951678946
 20
-525.0
 30
0.0
 40
10.0
100
AcDbArc
 50
207.6534884124192
 51
27.65348841241916
1001
ACAD
1000
ASC_BOUNDS
1002
{
1070
    19
1002
}
  0
LINE
  5
4BE
330
114
100
AcDbEntity
  8
0
100
AcDbLine
 10
284.4777775050752
 20
-533.6723343520261
 30
0.0
 11
163.4750593366989
 21
-464.2014575899085
 31
0.0
1001
ACAD
1000
ASC_BOUNDS
1002
{
1070
    19
1002
}
  0
LINE
  5
4BF
330
114
100
AcDbEntity
  8
0
100
AcDbLine
 10
651.3058393275749
 20
-358.9087593644612
 30
0.0
 11
651.0306367626234
 21
-355.9051123735079
 31
0.0
1001
ACAD
1000
ASC_BOUNDS
1002
{
1070
    19
1002
}
  0
ARC
  5
4C0
330
114
100
AcDbEntity
  8
0
100
AcDbCircle
 10
650.3100104535077
 20
-359.0000000000024
 30
0.0
 40
1.0
100
AcDbArc
 50
270.0
 51
5.234983955055447
1001
ACAD
1000
ASC_BOUNDS
1002
{
1070
    19
1002
}
  0
LINE
  5
4C1
330
114
100
AcDbEntity
  8
0
100
AcDbLine
 10
293.7061500351777
 20
-364.1218693434056
 30
0.0
 11
293.2000481177487
 21
-360.0000000000023
 31
0.0
1001
ACAD
1000
ASC_BOUNDS
1002
{
1070
    19
1002
}
  0
LINE
  5
4C2
330
114
100
AcDbEntity
  8
0
100
AcDbLine
 10
229.4058218564085
 20
-360.0000000000024
 30
0.0
 11
650.3100104535077
 21
-360.0000000000024
 31
0.0
  0
LINE
  5
4C3
330
114
100
AcDbEntity
  8
0
100
AcDbLine
 10
599.6000899951641
 20
-359.9987852503297
 30
0.0
 11
599.3378573477797
 21
-364.0631710032504
 31
0.0
  0
ENDBLK
  5
116
330
114
100
AcDbEntity
  8
0
100
AcDbBlockEnd
  0
BLOCK
  5
159
330
158
100
AcDbEntity
  8
0
100
AcDbBlockBegin
  2
_DOT
 70
     0
 10
0.0
 20
0.0
 30
0.0
  3
_DOT
  1

  0
LWPOLYLINE
  5
15A
330
158
100
AcDbEntity
  8
0
  6
ByBlock
 62
     0
100
AcDbPolyline
 90
        2
 70
     1
 43
0.5
 10
-0.25
 20
0.0
 42
1.0
 10
0.25
 20
0.0
 42
1.0
  0
LINE
  5
15B
330
158
100
AcDbEntity
  8
0
  6
ByBlock
 62
     0
100
AcDbLine
 10
-0.5
 20
0.0
 30
0.0
 11
-1.0
 21
0.0
 31
0.0
  0
ENDBLK
  5
15C
330
158
100
AcDbEntity
  8
0
100
AcDbBlockEnd
  0
BLOCK
  5
1EE
330
1ED
100
AcDbEntity
  8
0
100
AcDbBlockBegin
  2
18130_L
 70
     0
 10
0.0
 20
0.0
 30
0.0
  3
18130_L
  1

  0
ARC
  5
1EF
330
1ED
100
AcDbEntity
  8
0
100
AcDbCircle
 10
186.232993054673
 20
35.00000000000023
 30
0.0
 40
5.0
100
AcDbArc
 50
270.0
 51
0.0
  0
LINE
  5
1F0
330
1ED
100
AcDbEntity
  8
0
100
AcDbLine
 10
104.4294789172454
 20
30.00000000000023
 30
0.0
 11
186.232993054673
 21
30.00000000000023
 31
0.0
  0
LINE
  5
1F1
330
1ED
100
AcDbEntity
  8
0
100
AcDbLine
 10
191.232993054673
 20
35.00000000000023
 30
0.0
 11
191.232993054673
 21
194.2398327229896
 31
0.0
  0
ARC
  5
1F2
330
1ED
100
AcDbEntity
  8
0
100
AcDbCircle
 10
160.9160025374658
 20
333.7797716753121
 30
0.0
 40
5.0
100
AcDbArc
 50
0.0
 51
89.1778865405867
  0
LINE
  5
1F3
330
1ED
100
AcDbEntity
  8
0
100
AcDbLine
 10
245.9160025374659
 20
317.5585138526076
 30
0.0
 11
170.8442620657406
 21
318.6357611585263
 31
0.0
  0
LINE
  5
1F4
330
1ED
100
AcDbEntity
  8
0
100
AcDbLine
 10
165.9160025374658
 20
323.6352464625089
 30
0.0
 11
165.9160025374658
 21
333.7797716753121
 31
0.0
  0
ARC
  5
1F5
330
1ED
100
AcDbEntity
  8
0
100
AcDbCircle
 10
170.9160025374658
 20
323.6352464625089
 30
0.0
 40
5.0
100
AcDbArc
 50
180.0
 51
269.1778865405867
  0
LINE
  5
1F6
330
1ED
100
AcDbEntity
  8
0
100
AcDbLine
 10
120.9160025374658
 20
226.0774468059826
 30
0.0
 11
120.9160025374658
 21
303.0
 31
0.0
  0
LINE
  5
1F7
330
1ED
100
AcDbEntity
  8
0
100
AcDbLine
 10
0.0
 20
0.0
 30
0.0
 11
410.9160025374658
 21
0.0
 31
0.0
  0
LINE
  5
1F8
330
1ED
100
AcDbEntity
  8
0
100
AcDbLine
 10
410.9160025374658
 20
0.0
 30
0.0
 11
404.5263820923391
 21
171.6069490976952
 31
0.0
  0
LINE
  5
1F9
330
1ED
100
AcDbEntity
  8
0
100
AcDbLine
 10
83.91600253746583
 20
380.0000000000001
 30
0.0
 11
536.7529168237852
 21
380.0000000000001
 31
0.0
  0
ARC
  5
1FA
330
1ED
100
AcDbEntity
  8
0
100
AcDbCircle
 10
429.5090704165414
 20
172.5371555778547
 30
0.0
 40
25.0
100
AcDbArc
 50
117.4061287676973
 51
182.1323684365528
  0
ARC
  5
1FB
330
1ED
100
AcDbEntity
  8
0
100
AcDbCircle
 10
536.7529168237852
 20
372.0000000000001
 30
0.0
 40
8.0
100
AcDbArc
 50
351.1244024997448
 51
90.0
  0
LINE
  5
1FC
330
1ED
100
AcDbEntity
  8
0
100
AcDbLine
 10
75.91600253746583
 20
300.0
 30
0.0
 11
75.91600253746583
 21
372.0000000000001
 31
0.0
  0
ARC
  5
1FD
330
1ED
100
AcDbEntity
  8
0
100
AcDbCircle
 10
83.91600253746583
 20
372.0000000000001
 30
0.0
 40
8.0
100
AcDbArc
 50
88.75345692163993
 51
180.0
  0
LINE
  5
1FE
330
1ED
100
AcDbEntity
  8
0
100
AcDbLine
 10
77.91600253746583
 20
298.0
 30
0.0
 11
107.8333387502717
 21
298.0
 31
0.0
  0
ARC
  5
1FF
330
1ED
100
AcDbEntity
  8
0
100
AcDbCircle
 10
77.91600253746583
 20
300.0
 30
0.0
 40
2.0
100
AcDbArc
 50
180.0
 51
270.0
  0
LINE
  5
200
330
1ED
100
AcDbEntity
  8
0
100
AcDbLine
 10
2.097713651146477
 20
60.07065942930058
 30
0.0
 11
0.0
 21
0.0
 31
0.0
  0
ARC
  5
201
330
1ED
100
AcDbEntity
  8
0
100
AcDbCircle
 10
20.08674853749107
 20
59.44246848865441
 30
0.0
 40
18.0
100
AcDbArc
 50
119.9999999999997
 51
177.9999999999963
  0
LINE
  5
202
330
1ED
100
AcDbEntity
  8
0
100
AcDbLine
 10
11.08674853749107
 20
75.03092575677874
 30
0.0
 11
39.84964990448498
 21
91.63719460368884
 31
0.0
  0
LINE
  5
203
330
1ED
100
AcDbEntity
  8
0
100
AcDbLine
 10
116.4935927881161
 20
303.0
 30
0.0
 11
137.9470485128113
 21
303.0
 31
0.0
  0
ARC
  5
204
330
1ED
100
AcDbEntity
  8
0
100
AcDbCircle
 10
107.8333387502717
 20
303.0
 30
0.0
 40
5.0
100
AcDbArc
 50
270.0
 51
329.9999999999645
  0
ARC
  5
205
330
1ED
100
AcDbEntity
  8
0
100
AcDbCircle
 10
116.4935927881161
 20
298.0
 30
0.0
 40
5.0
100
AcDbArc
 50
90.0
 51
149.9999999999645
  0
ARC
  5
206
330
1ED
100
AcDbEntity
  8
0
100
AcDbCircle
 10
37.34964990448498
 20
95.96732162260741
 30
0.0
 40
5.0
100
AcDbArc
 50
299.9999999999997
 51
355.1232286749059
  0
ARC
  5
207
330
1ED
100
AcDbEntity
  8
0
100
AcDbCircle
 10
307.5309618641695
 20
407.7951863312918
 30
0.0
 40
240.0
100
AcDbArc
 50
297.4061287676973
 51
351.1244024997448
  0
ARC
  5
208
330
1ED
100
AcDbEntity
  8
0
100
AcDbCircle
 10
351.0688383212546
 20
326.3567048305268
 30
0.0
 40
210.0
100
AcDbArc
 50
187.5789172561438
 51
201.6669927810527
  0
ARC
  5
209
330
1ED
100
AcDbEntity
  8
0
100
AcDbCircle
 10
137.9470485128113
 20
298.0
 30
0.0
 40
5.0
100
AcDbArc
 50
7.578917256143827
 51
90.0
  0
ARC
  5
20A
330
1ED
100
AcDbEntity
  8
0
100
AcDbCircle
 10
151.259572424573
 20
246.976245888618
 30
0.0
 40
5.0
100
AcDbArc
 50
290.8203885554409
 51
21.66699278105273
  0
ARC
  5
20B
330
1ED
100
AcDbEntity
  8
0
100
AcDbCircle
 10
214.4294183573038
 20
80.85854651431146
 30
0.0
 40
172.7231540362062
100
AcDbArc
 50
110.8203885554409
 51
175.1232286749059
  0
ARC
  5
20C
330
1ED
100
AcDbEntity
  8
0
100
AcDbCircle
 10
299.8598350716747
 20
415.2872383461944
 30
0.0
 40
250.0
100
AcDbArc
 50
254.448662254712
 51
290.2990917357014
  0
ARC
  5
20D
330
1ED
100
AcDbEntity
  8
0
100
AcDbCircle
 10
526.1189432720491
 20
405.9999999999976
 30
0.0
 40
1.0
100
AcDbArc
 50
270.0
 51
0.0
1001
ACAD
1000
ASC_BOUNDS
1002
{
1070
    19
1002
}
  0
LINE
  5
20E
330
1ED
100
AcDbEntity
  8
0
100
AcDbLine
 10
441.8556857949654
 20
402.9999999999978
 30
0.0
 11
441.8556857949654
 21
400.6274606680603
 31
0.0
  0
LINE
  5
20F
330
1ED
100
AcDbEntity
  8
0
100
AcDbLine
 10
441.8556857949649
 20
402.9999999999978
 30
0.0
 11
442.4957571540874
 21
412.9205683914935
 31
0.0
  0
ARC
  5
210
330
1ED
100
AcDbEntity
  8
0
100
AcDbCircle
 10
443.493682238861
 20
412.8561826385702
 30
0.0
 40
1.0
100
AcDbArc
 50
99.69992962541056
 51
176.3084145010453
  0
LINE
  5
211
330
1ED
100
AcDbEntity
  8
0
100
AcDbLine
 10
421.8556857949654
 20
402.9999999999978
 30
0.0
 11
421.215614435843
 21
412.9205683914935
 31
0.0
  0
ARC
  5
212
330
1ED
100
AcDbEntity
  8
0
100
AcDbCircle
 10
420.2176893510693
 20
412.8561826385702
 30
0.0
 40
1.0
100
AcDbArc
 50
3.691585498954691
 51
80.30007037458943
  0
LINE
  5
213
330
1ED
100
AcDbEntity
  8
0
100
AcDbLine
 10
421.8556857949654
 20
402.9999999999978
 30
0.0
 11
421.8556857949654
 21
400.6274606680603
 31
0.0
  0
ARC
  5
214
330
1ED
100
AcDbEntity
  8
0
100
AcDbCircle
 10
431.8556857949622
 20
479.9999999999974
 30
0.0
 40
80.0
100
AcDbArc
 50
262.8192442185417
 51
277.1807557814583
  0
LINE
  5
215
330
1ED
100
AcDbEntity
  8
0
100
AcDbLine
 10
421.8556857949649
 20
400.6274606680601
 30
0.0
 11
441.8556857949654
 21
400.6274606680601
 31
0.0
  0
ARC
  5
216
330
1ED
100
AcDbEntity
  8
0
100
AcDbCircle
 10
431.8556857949636
 20
479.9999999999383
 30
0.0
 40
79.99999999994082
100
AcDbArc
 50
262.8192442185417
 51
277.1807557814583
  0
ARC
  5
217
330
1ED
100
AcDbEntity
  8
0
100
AcDbCircle
 10
434.9466393000855
 20
65.11839259975812
 30
0.0
 40
359.8816074002396
100
AcDbArc
 50
76.28820863090424
 51
90.0
1001
ACAD
1000
ASC_BOUNDS
1002
{
1070
    19
1002
}
  0
ARC
  5
218
330
1ED
100
AcDbEntity
  8
0
100
AcDbCircle
 10
518.1189432720491
 20
405.9999999999976
 30
0.0
 40
9.0
100
AcDbArc
 50
0.0
 51
76.28820863090424
1001
ACAD
1000
ASC_BOUNDS
1002
{
1070
    19
1002
}
  0
LINE
  5
219
330
1ED
100
AcDbEntity
  8
0
100
AcDbLine
 10
491.3218243938707
 20
399.9999999999975
 30
0.0
 11
524.9966928112778
 21
399.9999999999975
 31
0.0
1001
ACAD
1000
ASC_BOUNDS
1002
{
1070
    19
1002
}
  0
LINE
  5
21A
330
1ED
100
AcDbEntity
  8
0
100
AcDbLine
 10
441.9847250463187
 20
404.9999999999976
 30
0.0
 11
526.1189432720491
 21
404.9999999999976
 31
0.0
1001
ACAD
1000
ASC_BOUNDS
1002
{
1070
    19
1002
}
  0
LINE
  5
21B
330
1ED
100
AcDbEntity
  8
0
100
AcDbLine
 10
537.221841865037
 20
386.0912406355389
 30
0.0
 11
536.9466393000855
 21
389.0948876264922
 31
0.0
1001
ACAD
1000
ASC_BOUNDS
1002
{
1070
    19
1002
}
  0
ARC
  5
21C
330
1ED
100
AcDbEntity
  8
0
100
AcDbCircle
 10
536.2260129909698
 20
385.9999999999977
 30
0.0
 40
1.0
100
AcDbArc
 50
270.0
 51
5.234983955055374
1001
ACAD
1000
ASC_BOUNDS
1002
{
1070
    19
1002
}
  0
LINE
  5
21D
330
1ED
100
AcDbEntity
  8
0
100
AcDbLine
 10
485.1059950196006
 20
380.9356142470769
 30
0.0
 11
485.3973066797277
 21
385.4507002704604
 31
0.0
1001
ACAD
1000
ASC_BOUNDS
1002
{
1070
    19
1005
0
1005
0
1002
}
  0
ARC
  5
21E
330
1ED
100
AcDbEntity
  8
0
100
AcDbCircle
 10
484.1080699348269
 20
381.0
 30
0.0
 40
1.0
100
AcDbArc
 50
270.0
 51
356.3084145010584
1001
ACAD
1000
ASC_BOUNDS
1002
{
1070
    19
1005
0
1005
0
1002
}
  0
LINE
  5
21F
330
1ED
100
AcDbEntity
  8
0
100
AcDbLine
 10
485.3682276669849
 20
384.9999999999977
 30
0.0
 11
536.2260129909698
 21
384.9999999999977
 31
0.0
1001
ACAD
1000
ASC_BOUNDS
1002
{
1070
    19
1002
}
  0
ARC
  5
220
330
1ED
100
AcDbEntity
  8
0
100
AcDbCircle
 10
524.9966928112778
 20
387.9999999999977
 30
0.0
 40
12.0
100
AcDbArc
 50
5.234983955055374
 51
90.0
1001
ACAD
1000
ASC_BOUNDS
1002
{
1070
    19
1002
}
  0
ARC
  5
221
330
1ED
100
AcDbEntity
  8
0
100
AcDbCircle
 10
132.7321642083205
 20
697.5204928919701
 30
0.0
 40
292.5207806986128
100
AcDbArc
 50
267.8554643813525
 51
269.9196270870494
  0
ARC
  5
222
330
1ED
100
AcDbEntity
  8
0
100
AcDbCircle
 10
112.3218243938707
 20
361.0020223379981
 30
0.0
 40
44.5
100
AcDbArc
 50
83.31433879264926
 51
90.0
1001
ACAD
1000
ASC_BOUNDS
1002
{
1070
    19
1002
}
  0
LINE
  5
223
330
1ED
100
AcDbEntity
  8
0
100
AcDbLine
 10
121.4571325863351
 20
399.2172539367047
 30
0.0
 11
121.3082868299905
 21
396.5065500185355
 31
0.0
  0
ARC
  5
224
330
1ED
100
AcDbEntity
  8
0
100
AcDbCircle
 10
109.3482665350828
 20
399.4999999999974
 30
0.0
 40
6.0
100
AcDbArc
 50
90.0
 51
178.4242238671761
1001
ACAD
1000
ASC_BOUNDS
1002
{
1070
    19
1002
}
  0
LINE
  5
225
330
1ED
100
AcDbEntity
  8
0
100
AcDbLine
 10
102.322975704539
 20
406.4999999999974
 30
0.0
 11
102.3218243938707
 21
404.9999999999976
 31
0.0
  0
ARC
  5
226
330
1ED
100
AcDbEntity
  8
0
100
AcDbCircle
 10
106.9747660867149
 20
407.0125987953931
 30
0.0
 40
2.0
100
AcDbArc
 50
270.0
 51
270.1347785445022
  0
LINE
  5
227
330
1ED
100
AcDbEntity
  8
0
100
AcDbLine
 10
102.3218243938707
 20
404.9999999999976
 30
0.0
 11
103.3830974566852
 21
395.9515913285158
 31
0.0
  0
LINE
  5
228
330
1ED
100
AcDbEntity
  8
0
100
AcDbLine
 10
103.3505355515697
 20
399.6649940890311
 30
0.0
 11
103.2772231150491
 21
396.9999999999974
 31
0.0
  0
ARC
  5
229
330
1ED
100
AcDbEntity
  8
0
100
AcDbCircle
 10
132.7321642083205
 20
697.5204928919701
 30
0.0
 40
292.5207806986128
100
AcDbArc
 50
264.0342458986717
 51
264.7297460690354
1001
ACAD
1000
ASC_BOUNDS
1002
{
1070
    19
1002
}
  0
LINE
  5
22A
330
1ED
100
AcDbEntity
  8
0
100
AcDbLine
 10
102.322975704539
 20
406.4999999999974
 30
0.0
 11
103.0903328685997
 21
416.6778478722882
 31
0.0
1001
ACAD
1000
ASC_BOUNDS
1002
{
1070
    19
1002
}
  0
LINE
  5
22B
330
1ED
100
AcDbEntity
  8
0
100
AcDbLine
 10
103.6921276967803
 20
401.5020223379982
 30
0.0
 11
112.3218243938707
 21
401.502022337998
 31
0.0
1001
ACAD
1000
ASC_BOUNDS
1002
{
1070
    19
1002
}
  0
LINE
  5
22C
330
1ED
100
AcDbEntity
  8
0
100
AcDbLine
 10
109.3482665350828
 20
405.4999999999974
 30
0.0
 11
112.3218243938707
 21
405.4999999999974
 31
0.0
1001
ACAD
1000
ASC_BOUNDS
1002
{
1070
    19
1002
}
  0
ARC
  5
22D
330
1ED
100
AcDbEntity
  8
0
100
AcDbCircle
 10
112.0648616928536
 20
416.0012147496702
 30
0.0
 40
9.0
100
AcDbArc
 50
90.0
 51
175.6883514775356
1001
ACAD
1000
ASC_BOUNDS
1002
{
1070
    19
1002
}
  0
ARC
  5
22E
330
1ED
100
AcDbEntity
  8
0
100
AcDbCircle
 10
122.4556284125708
 20
399.1624261609867
 30
0.0
 40
1.0
100
AcDbArc
 50
74.93936450491455
 51
176.8570238324249
  0
ARC
  5
22F
330
1ED
100
AcDbEntity
  8
0
100
AcDbCircle
 10
112.3218243938707
 20
361.5020223379981
 30
0.0
 40
40.0
100
AcDbArc
 50
66.82093297998858
 51
90.0
1001
ACAD
1000
ASC_BOUNDS
1002
{
1070
    19
1002
}
  0
ARC
  5
230
330
1ED
100
AcDbEntity
  8
0
100
AcDbCircle
 10
132.7321642083205
 20
697.5204928919701
 30
0.0
 40
292.5207806986128
100
AcDbArc
 50
264.7297460690354
 51
267.8554643813525
  0
ARC
  5
231
330
1ED
100
AcDbEntity
  8
0
100
AcDbCircle
 10
251.3881224811501
 20
1547.379202975041
 30
0.0
 40
1150.0
100
AcDbArc
 50
263.3143387926493
 51
266.133269072167
1001
ACAD
1000
ASC_BOUNDS
1002
{
1070
    19
1002
}
  0
LINE
  5
232
330
1ED
100
AcDbEntity
  8
0
100
AcDbLine
 10
179.6221525726398
 20
380.8781306565945
 30
0.0
 11
179.1016302689466
 21
385.117444621359
 31
0.0
1001
ACAD
1000
ASC_BOUNDS
1002
{
1070
    19
1002
}
  0
ARC
  5
233
330
1ED
100
AcDbEntity
  8
0
100
AcDbCircle
 10
180.6146987242812
 20
380.9999999999997
 30
0.0
 40
1.0
100
AcDbArc
 50
187.000000000006
 51
270.0
1001
ACAD
1000
ASC_BOUNDS
1002
{
1070
    19
1002
}
  0
ARC
  5
234
330
1ED
100
AcDbEntity
  8
0
100
AcDbCircle
 10
251.3881224811501
 20
1547.379202975041
 30
0.0
 40
1158.0
100
AcDbArc
 50
264.6327357776938
 51
266.0546353379999
1001
ACAD
1000
ASC_BOUNDS
1002
{
1070
    19
1002
}
  0
ARC
  5
235
330
1ED
100
AcDbEntity
  8
0
 48
0.75
100
AcDbCircle
 10
115.3218243938707
 20
396.9999999999977
 30
0.0
 40
12.0
100
AcDbArc
 50
242.181860715344
 51
270.0
  0
ARC
  5
236
330
1ED
100
AcDbEntity
  8
0
100
AcDbCircle
 10
171.1612610558161
 20
384.1424898741179
 30
0.0
 40
8.0
100
AcDbArc
 50
6.999999999992874
 51
86.05463533799991
1001
ACAD
1000
ASC_BOUNDS
1002
{
1070
    19
1002
}
  0
LINE
  5
237
330
1ED
100
AcDbEntity
  8
0
100
AcDbLine
 10
115.3218243938707
 20
384.9999999999977
 30
0.0
 11
179.1160506552108
 21
384.9999999999977
 31
0.0
  0
ARC
  5
238
330
1ED
100
AcDbEntity
  8
0
100
AcDbCircle
 10
147.7463713905388
 20
444.2371507302404
 30
0.0
 40
50.0
100
AcDbArc
 50
246.8209329799886
 51
264.6327357776938
1001
ACAD
1000
ASC_BOUNDS
1002
{
1070
    19
1002
}
  0
ARC
  5
239
330
1ED
100
AcDbEntity
  8
0
100
AcDbCircle
 10
115.3218243938707
 20
396.9999999999977
 30
0.0
 40
12.0
100
AcDbArc
 50
180.0
 51
242.181860715344
  0
ARC
  5
23A
330
1ED
100
AcDbEntity
  8
0
100
AcDbCircle
 10
112.3218243938707
 20
396.9999999999974
 30
0.0
 40
9.0
100
AcDbArc
 50
185.692397280442
 51
356.8570238324249
  0
LINE
  5
23B
330
1ED
100
AcDbEntity
  8
0
100
AcDbLine
 10
132.3218243940125
 20
404.9999999999976
 30
0.0
 11
421.7266465436112
 21
404.9999999999976
 31
0.0
  0
LINE
  5
23C
330
1ED
100
AcDbEntity
  8
0
100
AcDbLine
 10
111.9169968272124
 20
424.9999999999974
 30
0.0
 11
434.9466393000855
 21
424.9999999999976
 31
0.0
1001
ACAD
1000
ASC_BOUNDS
1002
{
1070
    19
1005
0
1005
0
1002
}
  0
LINE
  5
23D
330
1ED
100
AcDbEntity
  8
0
100
AcDbLine
 10
180.6146987242812
 20
379.9999999999999
 30
0.0
 11
484.1080699348269
 21
379.9999999999999
 31
0.0
1001
ACAD
1000
ASC_BOUNDS
1002
{
1070
    19
1002
}
  0
LINE
  5
23E
330
1ED
100
AcDbEntity
  8
0
100
AcDbLine
 10
175.2573509085303
 20
399.9999999999977
 30
0.0
 11
524.9966928112778
 21
399.9999999999977
 31
0.0
  0
LINE
  5
23F
330
1ED
100
AcDbEntity
  8
0
100
AcDbLine
 10
173.7932477769989
 20
399.9999999999975
 30
0.0
 11
491.3218243938707
 21
399.9999999999977
 31
0.0
1001
ACAD
1000
ASC_BOUNDS
1002
{
1070
    19
1002
}
  0
ENDBLK
  5
240
330
1ED
100
AcDbEntity
  8
0
100
AcDbBlockEnd
  0
ENDSEC
  0
SECTION
  2
ENTITIES
  0
MTEXT
  5
DA
330
1F
100
AcDbEntity
  8
0
100
AcDbMText
 10
23.94537570224377
 20
164.2668602029327
 30
0.0
 40
20.0
 41
1133.185185185185
 71
     1
 72
     5
  1
{\fTimes New Roman|b0|i0|c0|p18;\C0;INODORO DE TANQUE BAJO CON SALIDA VERTICAL\PSERIE ELIA}
 73
     1
 44
1.0
  0
INSERT
  5
4C4
330
1F
100
AcDbEntity
  8
0
100
AcDbBlockReference
  2
18150_L
 10
46.12362210998883
 20
959.3775777109952
 30
0.0
  0
ENDSEC
  0
SECTION
  2
OBJECTS
  0
DICTIONARY
  5
C
330
0
100
AcDbDictionary
281
     1
  3
ACAD_COLOR
350
73
  3
ACAD_GROUP
350
D
  3
ACAD_LAYOUT
350
1A
  3
ACAD_MATERIAL
350
72
  3
ACAD_MLINESTYLE
350
17
  3
ACAD_PLOTSETTINGS
350
19
  3
ACAD_PLOTSTYLENAME
350
E
  3
AcDbVariableDictionary
350
66
  0
DICTIONARY
  5
96
330
2
100
AcDbDictionary
280
     1
281
     1
  3
ACAD_LAYERFILTERS
360
16E
  3
ACAD_LAYERSTATES
360
97
  0
DICTIONARY
  5
73
102
{ACAD_REACTORS
330
C
102
}
330
C
100
AcDbDictionary
281
     1
  0
DICTIONARY
  5
D
102
{ACAD_REACTORS
330
C
102
}
330
C
100
AcDbDictionary
281
     1
  0
DICTIONARY
  5
1A
102
{ACAD_REACTORS
330
C
102
}
330
C
100
AcDbDictionary
281
     1
  3
Model
350
22
  3
Presentación1
350
59
  3
Presentación2
350
5E
  0
DICTIONARY
  5
72
102
{ACAD_REACTORS
330
C
102
}
330
C
100
AcDbDictionary
281
     1
  0
DICTIONARY
  5
17
102
{ACAD_REACTORS
330
C
102
}
330
C
100
AcDbDictionary
281
     1
  3
Standard
350
18
  0
DICTIONARY
  5
19
102
{ACAD_REACTORS
330
C
102
}
330
C
100
AcDbDictionary
281
     1
  0
ACDBDICTIONARYWDFLT
  5
E
102
{ACAD_REACTORS
330
C
102
}
330
C
100
AcDbDictionary
281
     1
  3
Normal
350
F
100
AcDbDictionaryWithDefault
340
F
  0
DICTIONARY
  5
66
102
{ACAD_REACTORS
330
C
102
}
330
C
100
AcDbDictionary
281
     1
  3
DIMASSOC
350
67
  3
HIDETEXT
350
6B
  0
DICTIONARY
  5
16E
102
{ACAD_REACTORS
330
96
102
}
330
96
100
AcDbDictionary
281
     1
  0
DICTIONARY
  5
97
102
{ACAD_REACTORS
330
96
102
}
330
96
100
AcDbDictionary
281
     1
  0
LAYOUT
  5
22
102
{ACAD_REACTORS
330
1A
102
}
330
1A
100
AcDbPlotSettings
  1

  2
none_device
  4
ANSI_A_(8.50_x_11.00_Inches)
  6

 40
6.349999904632567
 41
19.04999923706055
 42
6.350006103515625
 43
19.04998779296875
 44
215.8999938964844
 45
279.3999938964844
 46
0.0
 47
0.0
 48
0.0
 49
0.0
140
0.0
141
0.0
142
1.0
143
2.584895464708373
 70
 11952
 72
     0
 73
     1
 74
     0
  7

 75
     0
147
0.3868628397755418
 76
     0
 77
     2
 78
   300
148
0.0
149
0.0
100
AcDbLayout
  1
Model
 70
     1
 71
     0
 10
0.0
 20
0.0
 11
12.0
 21
9.0
 12
0.0
 22
0.0
 32
0.0
 14
0.0
 24
0.0
 34
0.0
 15
0.0
 25
0.0
 35
0.0
146
0.0
 13
0.0
 23
0.0
 33
0.0
 16
1.0
 26
0.0
 36
0.0
 17
0.0
 27
1.0
 37
0.0
 76
     0
330
1F
  0
LAYOUT
  5
59
102
{ACAD_REACTORS
330
1A
102
}
330
1A
100
AcDbPlotSettings
  1

  2
None
  4

  6

 40
0.0
 41
0.0
 42
0.0
 43
0.0
 44
0.0
 45
0.0
 46
0.0
 47
0.0
 48
0.0
 49
0.0
140
0.0
141
0.0
142
1.0
143
1.0
 70
   688
 72
     0
 73
     0
 74
     5
  7

 75
    16
147
1.0
 76
     0
 77
     2
 78
   300
148
0.0
149
0.0
100
AcDbLayout
  1
Presentación1
 70
     1
 71
     1
 10
0.0
 20
0.0
 11
12.0
 21
9.0
 12
0.0
 22
0.0
 32
0.0
 14
0.0
 24
0.0
 34
0.0
 15
0.0
 25
0.0
 35
0.0
146
0.0
 13
0.0
 23
0.0
 33
0.0
 16
1.0
 26
0.0
 36
0.0
 17
0.0
 27
1.0
 37
0.0
 76
     0
330
58
  0
LAYOUT
  5
5E
102
{ACAD_REACTORS
330
1A
102
}
330
1A
100
AcDbPlotSettings
  1

  2
None
  4

  6

 40
0.0
 41
0.0
 42
0.0
 43
0.0
 44
0.0
 45
0.0
 46
0.0
 47
0.0
 48
0.0
 49
0.0
140
0.0
141
0.0
142
1.0
143
1.0
 70
   688
 72
     0
 73
     0
 74
     5
  7

 75
    16
147
1.0
 76
     0
 77
     2
 78
   300
148
0.0
149
0.0
100
AcDbLayout
  1
Presentación2
 70
     1
 71
     2
 10
0.0
 20
0.0
 11
12.0
 21
9.0
 12
0.0
 22
0.0
 32
0.0
 14
0.0
 24
0.0
 34
0.0
 15
0.0
 25
0.0
 35
0.0
146
0.0
 13
0.0
 23
0.0
 33
0.0
 16
1.0
 26
0.0
 36
0.0
 17
0.0
 27
1.0
 37
0.0
 76
     0
330
5D
  0
MLINESTYLE
  5
18
102
{ACAD_REACTORS
330
17
102
}
330
17
100
AcDbMlineStyle
  2
STANDARD
 70
     0
  3

 62
   256
 51
90.0
 52
90.0
 71
     2
 49
0.5
 62
   256
  6
BYLAYER
 49
-0.5
 62
   256
  6
BYLAYER
  0
ACDBPLACEHOLDER
  5
F
102
{ACAD_REACTORS
330
E
102
}
330
E
  0
DICTIONARYVAR
  5
67
102
{ACAD_REACTORS
330
66
102
}
330
66
100
DictionaryVariables
280
     0
  1
2
  0
DICTIONARYVAR
  5
6B
102
{ACAD_REACTORS
330
66
102
}
330
66
100
DictionaryVariables
280
     0
  1
1
  0
ENDSEC
  0
EOF
