  0
SECTION
  2
HEADER
  9
$ACADVER
  1
AC1024
  9
$ACADMAINTVER
 70
     6
  9
$DWGCODEPAGE
  3
ANSI_1252
  9
$INSBASE
 10
0.0
 20
0.0
 30
0.0
  9
$EXTMIN
 10
1.000000000000000E+20
 20
1.000000000000000E+20
 30
1.000000000000000E+20
  9
$EXTMAX
 10
-1.000000000000000E+20
 20
-1.000000000000000E+20
 30
-1.000000000000000E+20
  9
$LIMMIN
 10
0.0
 20
0.0
  9
$LIMMAX
 10
12.0
 20
9.0
  9
$ORTHOMODE
 70
     0
  9
$REGENMODE
 70
     1
  9
$FILLMODE
 70
     1
  9
$QTEXTMODE
 70
     0
  9
$MIRRTEXT
 70
     1
  9
$LTSCALE
 40
1.0
  9
$ATTMODE
 70
     1
  9
$TEXTSIZE
 40
0.2
  9
$TRACEWID
 40
0.05
  9
$TEXTSTYLE
  7
Standard
  9
$CLAYER
  8
0
  9
$CELTYPE
  6
ByLayer
  9
$CECOLOR
 62
   256
  9
$CELTSCALE
 40
1.0
  9
$DISPSILH
 70
     0
  9
$DIMSCALE
 40
1.0
  9
$DIMASZ
 40
0.18
  9
$DIMEXO
 40
0.0625
  9
$DIMDLI
 40
0.38
  9
$DIMRND
 40
0.0
  9
$DIMDLE
 40
0.0
  9
$DIMEXE
 40
0.18
  9
$DIMTP
 40
0.0
  9
$DIMTM
 40
0.0
  9
$DIMTXT
 40
0.18
  9
$DIMCEN
 40
0.09
  9
$DIMTSZ
 40
0.0
  9
$DIMTOL
 70
     0
  9
$DIMLIM
 70
     0
  9
$DIMTIH
 70
     1
  9
$DIMTOH
 70
     1
  9
$DIMSE1
 70
     0
  9
$DIMSE2
 70
     0
  9
$DIMTAD
 70
     0
  9
$DIMZIN
 70
     0
  9
$DIMBLK
  1

  9
$DIMASO
 70
     1
  9
$DIMSHO
 70
     1
  9
$DIMPOST
  1

  9
$DIMAPOST
  1

  9
$DIMALT
 70
     0
  9
$DIMALTD
 70
     2
  9
$DIMALTF
 40
25.4
  9
$DIMLFAC
 40
1.0
  9
$DIMTOFL
 70
     0
  9
$DIMTVP
 40
0.0
  9
$DIMTIX
 70
     0
  9
$DIMSOXD
 70
     0
  9
$DIMSAH
 70
     0
  9
$DIMBLK1
  1

  9
$DIMBLK2
  1

  9
$DIMSTYLE
  2
Standard
  9
$DIMCLRD
 70
     0
  9
$DIMCLRE
 70
     0
  9
$DIMCLRT
 70
     0
  9
$DIMTFAC
 40
1.0
  9
$DIMGAP
 40
0.09
  9
$DIMJUST
 70
     0
  9
$DIMSD1
 70
     0
  9
$DIMSD2
 70
     0
  9
$DIMTOLJ
 70
     1
  9
$DIMTZIN
 70
     0
  9
$DIMALTZ
 70
     0
  9
$DIMALTTZ
 70
     0
  9
$DIMUPT
 70
     0
  9
$DIMDEC
 70
     4
  9
$DIMTDEC
 70
     4
  9
$DIMALTU
 70
     2
  9
$DIMALTTD
 70
     2
  9
$DIMTXSTY
  7
Standard
  9
$DIMAUNIT
 70
     0
  9
$DIMADEC
 70
     0
  9
$DIMALTRND
 40
0.0
  9
$DIMAZIN
 70
     0
  9
$DIMDSEP
 70
    46
  9
$DIMATFIT
 70
     3
  9
$DIMFRAC
 70
     0
  9
$DIMLDRBLK
  1

  9
$DIMLUNIT
 70
     2
  9
$DIMLWD
 70
    -2
  9
$DIMLWE
 70
    -2
  9
$DIMTMOVE
 70
     0
  9
$DIMFXL
 40
1.0
  9
$DIMFXLON
 70
     0
  9
$DIMJOGANG
 40
0.7853981633974483
  9
$DIMTFILL
 70
     0
  9
$DIMTFILLCLR
 70
     0
  9
$DIMARCSYM
 70
     0
  9
$DIMLTYPE
  6

  9
$DIMLTEX1
  6

  9
$DIMLTEX2
  6

  9
$DIMTXTDIRECTION
 70
     0
  9
$LUNITS
 70
     2
  9
$LUPREC
 70
     4
  9
$SKETCHINC
 40
0.1
  9
$FILLETRAD
 40
0.5
  9
$AUNITS
 70
     0
  9
$AUPREC
 70
     0
  9
$MENU
  1
.
  9
$ELEVATION
 40
0.0
  9
$PELEVATION
 40
0.0
  9
$THICKNESS
 40
0.0
  9
$LIMCHECK
 70
     0
  9
$CHAMFERA
 40
0.5
  9
$CHAMFERB
 40
0.5
  9
$CHAMFERC
 40
1.0
  9
$CHAMFERD
 40
0.0
  9
$SKPOLY
 70
     0
  9
$TDCREATE
 40
2458892.564533993
  9
$TDUCREATE
 40
2458892.522867326
  9
$TDUPDATE
 40
2458892.564535845
  9
$TDUUPDATE
 40
2458892.522869178
  9
$TDINDWG
 40
0.0000000116
  9
$TDUSRTIMER
 40
0.0000000116
  9
$USRTIMER
 70
     1
  9
$ANGBASE
 50
0.0
  9
$ANGDIR
 70
     0
  9
$PDMODE
 70
     0
  9
$PDSIZE
 40
0.0
  9
$PLINEWID
 40
0.0
  9
$SPLFRAME
 70
     0
  9
$SPLINETYPE
 70
     6
  9
$SPLINESEGS
 70
     8
  9
$HANDSEED
  5
748
  9
$SURFTAB1
 70
     6
  9
$SURFTAB2
 70
     6
  9
$SURFTYPE
 70
     6
  9
$SURFU
 70
     6
  9
$SURFV
 70
     6
  9
$UCSBASE
  2

  9
$UCSNAME
  2

  9
$UCSORG
 10
0.0
 20
0.0
 30
0.0
  9
$UCSXDIR
 10
1.0
 20
0.0
 30
0.0
  9
$UCSYDIR
 10
0.0
 20
1.0
 30
0.0
  9
$UCSORTHOREF
  2

  9
$UCSORTHOVIEW
 70
     0
  9
$UCSORGTOP
 10
0.0
 20
0.0
 30
0.0
  9
$UCSORGBOTTOM
 10
0.0
 20
0.0
 30
0.0
  9
$UCSORGLEFT
 10
0.0
 20
0.0
 30
0.0
  9
$UCSORGRIGHT
 10
0.0
 20
0.0
 30
0.0
  9
$UCSORGFRONT
 10
0.0
 20
0.0
 30
0.0
  9
$UCSORGBACK
 10
0.0
 20
0.0
 30
0.0
  9
$PUCSBASE
  2

  9
$PUCSNAME
  2

  9
$PUCSORG
 10
0.0
 20
0.0
 30
0.0
  9
$PUCSXDIR
 10
1.0
 20
0.0
 30
0.0
  9
$PUCSYDIR
 10
0.0
 20
1.0
 30
0.0
  9
$PUCSORTHOREF
  2

  9
$PUCSORTHOVIEW
 70
     0
  9
$PUCSORGTOP
 10
0.0
 20
0.0
 30
0.0
  9
$PUCSORGBOTTOM
 10
0.0
 20
0.0
 30
0.0
  9
$PUCSORGLEFT
 10
0.0
 20
0.0
 30
0.0
  9
$PUCSORGRIGHT
 10
0.0
 20
0.0
 30
0.0
  9
$PUCSORGFRONT
 10
0.0
 20
0.0
 30
0.0
  9
$PUCSORGBACK
 10
0.0
 20
0.0
 30
0.0
  9
$USERI1
 70
     0
  9
$USERI2
 70
     0
  9
$USERI3
 70
     0
  9
$USERI4
 70
     0
  9
$USERI5
 70
     0
  9
$USERR1
 40
0.0
  9
$USERR2
 40
0.0
  9
$USERR3
 40
0.0
  9
$USERR4
 40
0.0
  9
$USERR5
 40
0.0
  9
$WORLDVIEW
 70
     1
  9
$SHADEDGE
 70
     3
  9
$SHADEDIF
 70
    70
  9
$TILEMODE
 70
     1
  9
$MAXACTVP
 70
    64
  9
$PINSBASE
 10
0.0
 20
0.0
 30
0.0
  9
$PLIMCHECK
 70
     0
  9
$PEXTMIN
 10
1.000000000000000E+20
 20
1.000000000000000E+20
 30
1.000000000000000E+20
  9
$PEXTMAX
 10
-1.000000000000000E+20
 20
-1.000000000000000E+20
 30
-1.000000000000000E+20
  9
$PLIMMIN
 10
0.0
 20
0.0
  9
$PLIMMAX
 10
12.0
 20
9.0
  9
$UNITMODE
 70
     0
  9
$VISRETAIN
 70
     1
  9
$PLINEGEN
 70
     0
  9
$PSLTSCALE
 70
     1
  9
$TREEDEPTH
 70
  3020
  9
$CMLSTYLE
  2
Standard
  9
$CMLJUST
 70
     0
  9
$CMLSCALE
 40
1.0
  9
$PROXYGRAPHICS
 70
     1
  9
$MEASUREMENT
 70
     0
  9
$CELWEIGHT
370
    -1
  9
$ENDCAPS
280
     0
  9
$JOINSTYLE
280
     0
  9
$LWDISPLAY
290
     1
  9
$INSUNITS
 70
     4
  9
$HYPERLINKBASE
  1

  9
$STYLESHEET
  1

  9
$XEDIT
290
     1
  9
$CEPSNTYPE
380
     0
  9
$PSTYLEMODE
290
     1
  9
$FINGERPRINTGUID
  2
{8FF05434-C644-4EA9-999B-A12597FC49B7}
  9
$VERSIONGUID
  2
{FAEB1C32-E019-11D5-929B-00C0DF256EC4}
  9
$EXTNAMES
290
     1
  9
$PSVPSCALE
 40
0.0
  9
$OLESTARTUP
290
     0
  9
$SORTENTS
280
   127
  9
$INDEXCTL
280
     0
  9
$HIDETEXT
280
     1
  9
$XCLIPFRAME
280
     2
  9
$HALOGAP
280
     0
  9
$OBSCOLOR
 70
   257
  9
$OBSLTYPE
280
     0
  9
$INTERSECTIONDISPLAY
280
     0
  9
$INTERSECTIONCOLOR
 70
   257
  9
$DIMASSOC
280
     2
  9
$PROJECTNAME
  1

  9
$CAMERADISPLAY
290
     0
  9
$LENSLENGTH
 40
50.0
  9
$CAMERAHEIGHT
 40
0.0
  9
$STEPSPERSEC
 40
2.0
  9
$STEPSIZE
 40
6.0
  9
$3DDWFPREC
 40
2.0
  9
$PSOLWIDTH
 40
0.25
  9
$PSOLHEIGHT
 40
4.0
  9
$LOFTANG1
 40
1.570796326794897
  9
$LOFTANG2
 40
1.570796326794897
  9
$LOFTMAG1
 40
0.0
  9
$LOFTMAG2
 40
0.0
  9
$LOFTPARAM
 70
     7
  9
$LOFTNORMALS
280
     1
  9
$LATITUDE
 40
37.795
  9
$LONGITUDE
 40
-122.394
  9
$NORTHDIRECTION
 40
0.0
  9
$TIMEZONE
 70
 -8000
  9
$LIGHTGLYPHDISPLAY
280
     1
  9
$TILEMODELIGHTSYNCH
280
     1
  9
$CMATERIAL
347
3C
  9
$SOLIDHIST
280
     1
  9
$SHOWHIST
280
     1
  9
$DWFFRAME
280
     2
  9
$DGNFRAME
280
     2
  9
$REALWORLDSCALE
290
     1
  9
$INTERFERECOLOR
 62
   256
  9
$CSHADOW
280
     0
  9
$SHADOWPLANELOCATION
 40
0.0
  0
ENDSEC
  0
SECTION
  2
CLASSES
  0
CLASS
  1
ACDBDICTIONARYWDFLT
  2
AcDbDictionaryWithDefault
  3
ObjectDBX Classes
 90
        0
 91
        4
280
     0
281
     0
  0
CLASS
  1
VISUALSTYLE
  2
AcDbVisualStyle
  3
ObjectDBX Classes
 90
     4095
 91
        4
280
     0
281
     0
  0
CLASS
  1
MATERIAL
  2
AcDbMaterial
  3
ObjectDBX Classes
 90
     1153
 91
        4
280
     0
281
     0
  0
CLASS
  1
SUN
  2
AcDbSun
  3
SCENEOE
 90
     1024
 91
        4
280
     0
281
     0
  0
ENDSEC
  0
SECTION
  2
TABLES
  0
TABLE
  2
VPORT
  5
8
330
0
100
AcDbSymbolTable
 70
     1
  0
VPORT
  5
29
330
8
100
AcDbSymbolTableRecord
100
AcDbViewportTableRecord
  2
*Active
 70
     0
 10
0.0
 20
0.0
 11
1.0
 21
1.0
 12
0.0
 22
0.0
 13
0.0
 23
0.0
 14
0.5
 24
0.5
 15
0.5
 25
0.5
 16
0.0
 26
0.0
 36
1.0
 17
104.951388862651
 27
148.5194444073146
 37
0.0
 40
297.0388888146292
 41
0.7066508313539193
 42
50.0
 43
0.0
 44
0.0
 50
0.0
 51
0.0
 71
     0
 72
   100
 73
     1
 74
     3
 75
     0
 76
     0
 77
     0
 78
     0
281
     0
 65
     1
110
0.0
120
0.0
130
0.0
111
1.0
121
0.0
131
0.0
112
0.0
122
1.0
132
0.0
 79
     0
146
0.0
 60
     3
 61
     5
292
     1
282
     1
141
0.0
142
0.0
 63
   250
361
3F
  0
ENDTAB
  0
TABLE
  2
LTYPE
  5
5
330
0
100
AcDbSymbolTable
 70
     1
  0
LTYPE
  5
14
330
5
100
AcDbSymbolTableRecord
100
AcDbLinetypeTableRecord
  2
ByBlock
 70
     0
  3

 72
    65
 73
     0
 40
0.0
  0
LTYPE
  5
15
330
5
100
AcDbSymbolTableRecord
100
AcDbLinetypeTableRecord
  2
ByLayer
 70
     0
  3

 72
    65
 73
     0
 40
0.0
  0
LTYPE
  5
16
330
5
100
AcDbSymbolTableRecord
100
AcDbLinetypeTableRecord
  2
Continuous
 70
     0
  3
Solid line
 72
    65
 73
     0
 40
0.0
  0
ENDTAB
  0
TABLE
  2
LAYER
  5
2
330
0
100
AcDbSymbolTable
 70
     2
  0
LAYER
  5
10
330
2
100
AcDbSymbolTableRecord
100
AcDbLayerTableRecord
  2
0
 70
     0
 62
     7
  6
Continuous
370
    -3
390
F
347
3E
  0
LAYER
  5
40
330
2
100
AcDbSymbolTableRecord
100
AcDbLayerTableRecord
  2
Capa 1
 70
     0
 62
     7
  6
Continuous
370
    -3
390
F
347
3E
  0
ENDTAB
  0
TABLE
  2
STYLE
  5
3
330
0
100
AcDbSymbolTable
 70
     1
  0
STYLE
  5
11
330
3
100
AcDbSymbolTableRecord
100
AcDbTextStyleTableRecord
  2
Standard
 70
     0
 40
0.0
 41
1.0
 50
0.0
 71
     0
 42
0.2
  3
txt
  4

  0
ENDTAB
  0
TABLE
  2
VIEW
  5
6
330
0
100
AcDbSymbolTable
 70
     0
  0
ENDTAB
  0
TABLE
  2
UCS
  5
7
330
0
100
AcDbSymbolTable
 70
     0
  0
ENDTAB
  0
TABLE
  2
APPID
  5
9
330
0
100
AcDbSymbolTable
 70
     1
  0
APPID
  5
12
330
9
100
AcDbSymbolTableRecord
100
AcDbRegAppTableRecord
  2
ACAD
 70
     0
  0
ENDTAB
  0
TABLE
  2
DIMSTYLE
  5
A
330
0
100
AcDbSymbolTable
 70
     1
100
AcDbDimStyleTable
  0
DIMSTYLE
105
27
330
A
100
AcDbSymbolTableRecord
100
AcDbDimStyleTableRecord
  2
Standard
 70
     0
178
     0
340
11
  0
ENDTAB
  0
TABLE
  2
BLOCK_RECORD
  5
1
330
0
100
AcDbSymbolTable
 70
     1
  0
BLOCK_RECORD
  5
1F
330
1
100
AcDbSymbolTableRecord
100
AcDbBlockTableRecord
  2
*Model_Space
340
22
 70
     0
280
     1
281
     0
  0
BLOCK_RECORD
  5
1B
330
1
100
AcDbSymbolTableRecord
100
AcDbBlockTableRecord
  2
*Paper_Space
340
1E
 70
     0
280
     1
281
     0
  0
BLOCK_RECORD
  5
23
330
1
100
AcDbSymbolTableRecord
100
AcDbBlockTableRecord
  2
*Paper_Space0
340
26
 70
     0
280
     1
281
     0
  0
ENDTAB
  0
ENDSEC
  0
SECTION
  2
BLOCKS
  0
BLOCK
  5
20
330
1F
100
AcDbEntity
  8
0
100
AcDbBlockBegin
  2
*Model_Space
 70
     0
 10
0.0
 20
0.0
 30
0.0
  3
*Model_Space
  1

  0
ENDBLK
  5
21
330
1F
100
AcDbEntity
  8
0
100
AcDbBlockEnd
  0
BLOCK
  5
1C
330
1B
100
AcDbEntity
 67
     1
  8
0
100
AcDbBlockBegin
  2
*Paper_Space
 70
     0
 10
0.0
 20
0.0
 30
0.0
  3
*Paper_Space
  1

  0
ENDBLK
  5
1D
330
1B
100
AcDbEntity
 67
     1
  8
0
100
AcDbBlockEnd
  0
BLOCK
  5
24
330
23
100
AcDbEntity
  8
0
100
AcDbBlockBegin
  2
*Paper_Space0
 70
     0
 10
0.0
 20
0.0
 30
0.0
  3
*Paper_Space0
  1

  0
ENDBLK
  5
25
330
23
100
AcDbEntity
  8
0
100
AcDbBlockEnd
  0
ENDSEC
  0
SECTION
  2
ENTITIES
  0
POLYLINE
  5
41
330
1F
100
AcDbEntity
  8
Capa 1
 62
     7
420
 16777215
370
     9
100
AcDb2dPolyline
 66
     1
 10
0.0
 20
0.0
 30
0.0
  0
VERTEX
  5
42
330
41
100
AcDbEntity
  8
Capa 1
 62
     7
420
 16777215
370
     9
100
AcDbVertex
100
AcDb2dVertex
 10
143.096834507242
 20
155.1985403480891
 30
0.0
  0
VERTEX
  5
43
330
41
100
AcDbEntity
  8
Capa 1
 62
     7
420
 16777215
370
     9
100
AcDbVertex
100
AcDb2dVertex
 10
142.8587057392284
 20
151.5208336305637
 30
0.0
  0
VERTEX
  5
44
330
41
100
AcDbEntity
  8
Capa 1
 62
     7
420
 16777215
370
     9
100
AcDbVertex
100
AcDb2dVertex
 10
142.69995547012
 20
147.8166629276018
 30
0.0
  0
VERTEX
  5
45
330
41
100
AcDbEntity
  8
Capa 1
 62
     7
420
 16777215
370
     9
100
AcDbVertex
100
AcDb2dVertex
 10
142.5941197144803
 20
144.112498953342
 30
0.0
  0
VERTEX
  5
46
330
41
100
AcDbEntity
  8
Capa 1
 62
     7
420
 16777215
370
     9
100
AcDbVertex
100
AcDb2dVertex
 10
142.5147479442772
 20
140.4083282503801
 30
0.0
  0
SEQEND
  5
47
330
41
100
AcDbEntity
  8
Capa 1
 62
     7
420
 16777215
370
     9
  0
POLYLINE
  5
48
330
1F
100
AcDbEntity
  8
Capa 1
 62
     7
420
 16777215
370
     9
100
AcDb2dPolyline
 66
     1
 10
0.0
 20
0.0
 30
0.0
  0
VERTEX
  5
49
330
48
100
AcDbEntity
  8
Capa 1
 62
     7
420
 16777215
370
     9
100
AcDbVertex
100
AcDb2dVertex
 10
156.2730799284305
 20
140.4083282503801
 30
0.0
  0
VERTEX
  5
4A
330
48
100
AcDbEntity
  8
Capa 1
 62
     7
420
 16777215
370
     9
100
AcDbVertex
100
AcDb2dVertex
 10
156.2466226716961
 20
142.524996262258
 30
0.0
  0
VERTEX
  5
4B
330
48
100
AcDbEntity
  8
Capa 1
 62
     7
420
 16777215
370
     9
100
AcDbVertex
100
AcDb2dVertex
 10
156.1937081582274
 20
144.5887497606672
 30
0.0
  0
VERTEX
  5
4C
330
48
100
AcDbEntity
  8
Capa 1
 62
     7
420
 16777215
370
     9
100
AcDbVertex
100
AcDb2dVertex
 10
156.1407869160565
 20
146.4937462612659
 30
0.0
  0
VERTEX
  5
4D
330
48
100
AcDbEntity
  8
Capa 1
 62
     7
420
 16777215
370
     9
100
AcDbVertex
100
AcDb2dVertex
 10
156.0878724025877
 20
148.3193709916614
 30
0.0
  0
VERTEX
  5
4E
330
48
100
AcDbEntity
  8
Capa 1
 62
     7
420
 16777215
370
     9
100
AcDbVertex
100
AcDb2dVertex
 10
155.902664876745
 20
151.8383341687805
 30
0.0
  0
VERTEX
  5
4F
330
48
100
AcDbEntity
  8
Capa 1
 62
     7
420
 16777215
370
     9
100
AcDbVertex
100
AcDb2dVertex
 10
155.7174573509022
 20
155.1985403480891
 30
0.0
  0
SEQEND
  5
50
330
48
100
AcDbEntity
  8
Capa 1
 62
     7
420
 16777215
370
     9
  0
POLYLINE
  5
51
330
1F
100
AcDbEntity
  8
Capa 1
 62
     7
420
 16777215
370
     9
100
AcDb2dPolyline
 66
     1
 10
0.0
 20
0.0
 30
0.0
  0
VERTEX
  5
52
330
51
100
AcDbEntity
  8
Capa 1
 62
     7
420
 16777215
370
     9
100
AcDbVertex
100
AcDb2dVertex
 10
139.6307925722938
 20
165.4114518983889
 30
0.0
  0
VERTEX
  5
53
330
51
100
AcDbEntity
  8
Capa 1
 62
     7
420
 16777215
370
     9
100
AcDbVertex
100
AcDb2dVertex
 10
139.6572498290282
 20
165.4114518983889
 30
0.0
  0
SEQEND
  5
54
330
51
100
AcDbEntity
  8
Capa 1
 62
     7
420
 16777215
370
     9
  0
POLYLINE
  5
55
330
1F
100
AcDbEntity
  8
Capa 1
 62
     7
420
 16777215
370
     9
100
AcDb2dPolyline
 66
     1
 10
0.0
 20
0.0
 30
0.0
  0
VERTEX
  5
56
330
55
100
AcDbEntity
  8
Capa 1
 62
     7
420
 16777215
370
     9
100
AcDbVertex
100
AcDb2dVertex
 10
138.519540688535
 20
165.4114518983889
 30
0.0
  0
VERTEX
  5
57
330
55
100
AcDbEntity
  8
Capa 1
 62
     7
420
 16777215
370
     9
100
AcDbVertex
100
AcDb2dVertex
 10
138.3343331626922
 20
165.3585373849214
 30
0.0
  0
VERTEX
  5
58
330
55
100
AcDbEntity
  8
Capa 1
 62
     7
420
 16777215
370
     9
100
AcDbVertex
100
AcDb2dVertex
 10
138.2020401503182
 20
165.226237643844
 30
0.0
  0
VERTEX
  5
59
330
55
100
AcDbEntity
  8
Capa 1
 62
     7
420
 16777215
370
     9
100
AcDbVertex
100
AcDb2dVertex
 10
138.1491256368494
 20
165.0410368467033
 30
0.0
  0
SEQEND
  5
5A
330
55
100
AcDbEntity
  8
Capa 1
 62
     7
420
 16777215
370
     9
  0
POLYLINE
  5
5B
330
1F
100
AcDbEntity
  8
Capa 1
 62
     7
420
 16777215
370
     9
100
AcDb2dPolyline
 66
     1
 10
0.0
 20
0.0
 30
0.0
  0
VERTEX
  5
5C
330
5B
100
AcDbEntity
  8
Capa 1
 62
     7
420
 16777215
370
     9
100
AcDbVertex
100
AcDb2dVertex
 10
138.519540688535
 20
165.4114518983889
 30
0.0
  0
VERTEX
  5
5D
330
5B
100
AcDbEntity
  8
Capa 1
 62
     7
420
 16777215
370
     9
100
AcDbVertex
100
AcDb2dVertex
 10
160.2682871841727
 20
165.4114518983889
 30
0.0
  0
SEQEND
  5
5E
330
5B
100
AcDbEntity
  8
Capa 1
 62
     7
420
 16777215
370
     9
  0
POLYLINE
  5
5F
330
1F
100
AcDbEntity
  8
Capa 1
 62
     7
420
 16777215
370
     9
100
AcDb2dPolyline
 66
     1
 10
0.0
 20
0.0
 30
0.0
  0
VERTEX
  5
60
330
5F
100
AcDbEntity
  8
Capa 1
 62
     7
420
 16777215
370
     9
100
AcDbVertex
100
AcDb2dVertex
 10
160.6387089645604
 20
165.0410368467033
 30
0.0
  0
VERTEX
  5
61
330
5F
100
AcDbEntity
  8
Capa 1
 62
     7
420
 16777215
370
     9
100
AcDbVertex
100
AcDb2dVertex
 10
160.5857877223895
 20
165.226237643844
 30
0.0
  0
VERTEX
  5
62
330
5F
100
AcDbEntity
  8
Capa 1
 62
     7
420
 16777215
370
     9
100
AcDbVertex
100
AcDb2dVertex
 10
160.4534947100155
 20
165.3585373849214
 30
0.0
  0
VERTEX
  5
63
330
5F
100
AcDbEntity
  8
Capa 1
 62
     7
420
 16777215
370
     9
100
AcDbVertex
100
AcDb2dVertex
 10
160.2682871841727
 20
165.4114518983889
 30
0.0
  0
SEQEND
  5
64
330
5F
100
AcDbEntity
  8
Capa 1
 62
     7
420
 16777215
370
     9
  0
POLYLINE
  5
65
330
1F
100
AcDbEntity
  8
Capa 1
 62
     7
420
 16777215
370
     9
100
AcDb2dPolyline
 66
     1
 10
0.0
 20
0.0
 30
0.0
  0
VERTEX
  5
66
330
65
100
AcDbEntity
  8
Capa 1
 62
     7
420
 16777215
370
     9
100
AcDbVertex
100
AcDb2dVertex
 10
142.69995547012
 20
156.7331217970022
 30
0.0
  0
VERTEX
  5
67
330
65
100
AcDbEntity
  8
Capa 1
 62
     7
420
 16777215
370
     9
100
AcDbVertex
100
AcDb2dVertex
 10
142.7264127268543
 20
156.7331217970022
 30
0.0
  0
SEQEND
  5
68
330
65
100
AcDbEntity
  8
Capa 1
 62
     7
420
 16777215
370
     9
  0
POLYLINE
  5
69
330
1F
100
AcDbEntity
  8
Capa 1
 62
     7
420
 16777215
370
     9
100
AcDb2dPolyline
 66
     1
 10
0.0
 20
0.0
 30
0.0
  0
VERTEX
  5
6A
330
69
100
AcDbEntity
  8
Capa 1
 62
     7
420
 16777215
370
     9
100
AcDbVertex
100
AcDb2dVertex
 10
138.2284974070526
 20
164.8293653354241
 30
0.0
  0
VERTEX
  5
6B
330
69
100
AcDbEntity
  8
Capa 1
 62
     7
420
 16777215
370
     9
100
AcDbVertex
100
AcDb2dVertex
 10
139.2074562784373
 20
162.7656252944192
 30
0.0
  0
VERTEX
  5
6C
330
69
100
AcDbEntity
  8
Capa 1
 62
     7
420
 16777215
370
     9
100
AcDbVertex
100
AcDb2dVertex
 10
140.2922509054617
 20
160.7283290527444
 30
0.0
  0
VERTEX
  5
6D
330
69
100
AcDbEntity
  8
Capa 1
 62
     7
420
 16777215
370
     9
100
AcDbVertex
100
AcDb2dVertex
 10
141.4564173026893
 20
158.7174967965061
 30
0.0
  0
VERTEX
  5
6E
330
69
100
AcDbEntity
  8
Capa 1
 62
     7
420
 16777215
370
     9
100
AcDbVertex
100
AcDb2dVertex
 10
142.69995547012
 20
156.7331217970022
 30
0.0
  0
SEQEND
  5
6F
330
69
100
AcDbEntity
  8
Capa 1
 62
     7
420
 16777215
370
     9
  0
POLYLINE
  5
70
330
1F
100
AcDbEntity
  8
Capa 1
 62
     7
420
 16777215
370
     9
100
AcDb2dPolyline
 66
     1
 10
0.0
 20
0.0
 30
0.0
  0
VERTEX
  5
71
330
70
100
AcDbEntity
  8
Capa 1
 62
     7
420
 16777215
370
     9
100
AcDbVertex
100
AcDb2dVertex
 10
138.1491256368494
 20
165.0410368467033
 30
0.0
  0
VERTEX
  5
72
330
70
100
AcDbEntity
  8
Capa 1
 62
     7
420
 16777215
370
     9
100
AcDbVertex
100
AcDb2dVertex
 10
138.2020401503182
 20
164.8558225921585
 30
0.0
  0
SEQEND
  5
73
330
70
100
AcDbEntity
  8
Capa 1
 62
     7
420
 16777215
370
     9
  0
POLYLINE
  5
74
330
1F
100
AcDbEntity
  8
Capa 1
 62
     7
420
 16777215
370
     9
100
AcDb2dPolyline
 66
     1
 10
0.0
 20
0.0
 30
0.0
  0
VERTEX
  5
75
330
74
100
AcDbEntity
  8
Capa 1
 62
     7
420
 16777215
370
     9
100
AcDbVertex
100
AcDb2dVertex
 10
138.2020401503182
 20
164.8293653354241
 30
0.0
  0
VERTEX
  5
76
330
74
100
AcDbEntity
  8
Capa 1
 62
     7
420
 16777215
370
     9
100
AcDbVertex
100
AcDb2dVertex
 10
138.2284974070526
 20
164.8293653354241
 30
0.0
  0
SEQEND
  5
77
330
74
100
AcDbEntity
  8
Capa 1
 62
     7
420
 16777215
370
     9
  0
POLYLINE
  5
78
330
1F
100
AcDbEntity
  8
Capa 1
 62
     7
420
 16777215
370
     9
100
AcDb2dPolyline
 66
     1
 10
0.0
 20
0.0
 30
0.0
  0
VERTEX
  5
79
330
78
100
AcDbEntity
  8
Capa 1
 62
     7
420
 16777215
370
     9
100
AcDbVertex
100
AcDb2dVertex
 10
138.2020401503182
 20
164.8558225921585
 30
0.0
  0
VERTEX
  5
7A
330
78
100
AcDbEntity
  8
Capa 1
 62
     7
420
 16777215
370
     9
100
AcDbVertex
100
AcDb2dVertex
 10
138.2284974070526
 20
164.8558225921585
 30
0.0
  0
SEQEND
  5
7B
330
78
100
AcDbEntity
  8
Capa 1
 62
     7
420
 16777215
370
     9
  0
POLYLINE
  5
7C
330
1F
100
AcDbEntity
  8
Capa 1
 62
     7
420
 16777215
370
     9
100
AcDb2dPolyline
 66
     1
 10
0.0
 20
0.0
 30
0.0
  0
VERTEX
  5
7D
330
7C
100
AcDbEntity
  8
Capa 1
 62
     7
420
 16777215
370
     9
100
AcDbVertex
100
AcDb2dVertex
 10
160.6387089645604
 20
165.0410368467033
 30
0.0
  0
VERTEX
  5
7E
330
7C
100
AcDbEntity
  8
Capa 1
 62
     7
420
 16777215
370
     9
100
AcDbVertex
100
AcDb2dVertex
 10
160.5857877223895
 20
164.8558225921585
 30
0.0
  0
VERTEX
  5
7F
330
7C
100
AcDbEntity
  8
Capa 1
 62
     7
420
 16777215
370
     9
100
AcDbVertex
100
AcDb2dVertex
 10
160.5857877223895
 20
164.8293653354241
 30
0.0
  0
SEQEND
  5
80
330
7C
100
AcDbEntity
  8
Capa 1
 62
     7
420
 16777215
370
     9
  0
POLYLINE
  5
81
330
1F
100
AcDbEntity
  8
Capa 1
 62
     7
420
 16777215
370
     9
100
AcDb2dPolyline
 66
     1
 10
0.0
 20
0.0
 30
0.0
  0
VERTEX
  5
82
330
81
100
AcDbEntity
  8
Capa 1
 62
     7
420
 16777215
370
     9
100
AcDbVertex
100
AcDb2dVertex
 10
156.1143296593221
 20
156.7331217970022
 30
0.0
  0
VERTEX
  5
83
330
81
100
AcDbEntity
  8
Capa 1
 62
     7
420
 16777215
370
     9
100
AcDbVertex
100
AcDb2dVertex
 10
157.3578745554549
 20
158.7174967965061
 30
0.0
  0
VERTEX
  5
84
330
81
100
AcDbEntity
  8
Capa 1
 62
     7
420
 16777215
370
     9
100
AcDbVertex
100
AcDb2dVertex
 10
158.4955836959481
 20
160.7283290527444
 30
0.0
  0
VERTEX
  5
85
330
81
100
AcDbEntity
  8
Capa 1
 62
     7
420
 16777215
370
     9
100
AcDbVertex
100
AcDb2dVertex
 10
159.5803715942704
 20
162.7656252944192
 30
0.0
  0
VERTEX
  5
86
330
81
100
AcDbEntity
  8
Capa 1
 62
     7
420
 16777215
370
     9
100
AcDbVertex
100
AcDb2dVertex
 10
160.5857877223895
 20
164.8293653354241
 30
0.0
  0
SEQEND
  5
87
330
81
100
AcDbEntity
  8
Capa 1
 62
     7
420
 16777215
370
     9
  0
POLYLINE
  5
88
330
1F
100
AcDbEntity
  8
Capa 1
 62
     7
420
 16777215
370
     9
100
AcDb2dPolyline
 66
     1
 10
0.0
 20
0.0
 30
0.0
  0
VERTEX
  5
89
330
88
100
AcDbEntity
  8
Capa 1
 62
     7
420
 16777215
370
     9
100
AcDbVertex
100
AcDb2dVertex
 10
142.5147479442772
 20
140.4083282503801
 30
0.0
  0
VERTEX
  5
8A
330
88
100
AcDbEntity
  8
Capa 1
 62
     7
420
 16777215
370
     9
100
AcDbVertex
100
AcDb2dVertex
 10
156.2730799284305
 20
140.4083282503801
 30
0.0
  0
SEQEND
  5
8B
330
88
100
AcDbEntity
  8
Capa 1
 62
     7
420
 16777215
370
     9
  0
POLYLINE
  5
8C
330
1F
100
AcDbEntity
  8
Capa 1
 62
     7
420
 16777215
370
     9
100
AcDb2dPolyline
 66
     1
 10
0.0
 20
0.0
 30
0.0
  0
VERTEX
  5
8D
330
8C
100
AcDbEntity
  8
Capa 1
 62
     7
420
 16777215
370
     9
100
AcDbVertex
100
AcDb2dVertex
 10
142.69995547012
 20
156.7331217970022
 30
0.0
  0
VERTEX
  5
8E
330
8C
100
AcDbEntity
  8
Capa 1
 62
     7
420
 16777215
370
     9
100
AcDbVertex
100
AcDb2dVertex
 10
142.8851629959627
 20
156.3627067453166
 30
0.0
  0
VERTEX
  5
8F
330
8C
100
AcDbEntity
  8
Capa 1
 62
     7
420
 16777215
370
     9
100
AcDbVertex
100
AcDb2dVertex
 10
143.0174560083368
 20
155.9922916936311
 30
0.0
  0
VERTEX
  5
90
330
8C
100
AcDbEntity
  8
Capa 1
 62
     7
420
 16777215
370
     9
100
AcDbVertex
100
AcDb2dVertex
 10
143.096834507242
 20
155.595412656509
 30
0.0
  0
VERTEX
  5
91
330
8C
100
AcDbEntity
  8
Capa 1
 62
     7
420
 16777215
370
     9
100
AcDbVertex
100
AcDb2dVertex
 10
143.096834507242
 20
155.1985403480891
 30
0.0
  0
SEQEND
  5
92
330
8C
100
AcDbEntity
  8
Capa 1
 62
     7
420
 16777215
370
     9
  0
POLYLINE
  5
93
330
1F
100
AcDbEntity
  8
Capa 1
 62
     7
420
 16777215
370
     9
100
AcDb2dPolyline
 66
     1
 10
0.0
 20
0.0
 30
0.0
  0
VERTEX
  5
94
330
93
100
AcDbEntity
  8
Capa 1
 62
     7
420
 16777215
370
     9
100
AcDbVertex
100
AcDb2dVertex
 10
155.7174573509022
 20
155.1985403480891
 30
0.0
  0
VERTEX
  5
95
330
93
100
AcDbEntity
  8
Capa 1
 62
     7
420
 16777215
370
     9
100
AcDbVertex
100
AcDb2dVertex
 10
155.7174573509022
 20
155.595412656509
 30
0.0
  0
VERTEX
  5
96
330
93
100
AcDbEntity
  8
Capa 1
 62
     7
420
 16777215
370
     9
100
AcDbVertex
100
AcDb2dVertex
 10
155.770371864371
 20
155.9922916936311
 30
0.0
  0
VERTEX
  5
97
330
93
100
AcDbEntity
  8
Capa 1
 62
     7
420
 16777215
370
     9
100
AcDbVertex
100
AcDb2dVertex
 10
155.902664876745
 20
156.3627067453166
 30
0.0
  0
VERTEX
  5
98
330
93
100
AcDbEntity
  8
Capa 1
 62
     7
420
 16777215
370
     9
100
AcDbVertex
100
AcDb2dVertex
 10
156.1143296593221
 20
156.7331217970022
 30
0.0
  0
SEQEND
  5
99
330
93
100
AcDbEntity
  8
Capa 1
 62
     7
420
 16777215
370
     9
  0
POLYLINE
  5
9A
330
1F
100
AcDbEntity
  8
Capa 1
 62
     7
420
 16777215
370
     9
100
AcDb2dPolyline
 66
     1
 10
0.0
 20
0.0
 30
0.0
  0
VERTEX
  5
9B
330
9A
100
AcDbEntity
  8
Capa 1
 62
     7
420
 16777215
370
     9
100
AcDbVertex
100
AcDb2dVertex
 10
159.2364137993192
 20
187.2924914064006
 30
0.0
  0
VERTEX
  5
9C
330
9A
100
AcDbEntity
  8
Capa 1
 62
     7
420
 16777215
370
     9
100
AcDbVertex
100
AcDb2dVertex
 10
160.1624581572352
 20
187.2924914064006
 30
0.0
  0
SEQEND
  5
9D
330
9A
100
AcDbEntity
  8
Capa 1
 62
     7
420
 16777215
370
     9
  0
POLYLINE
  5
9E
330
1F
100
AcDbEntity
  8
Capa 1
 62
     7
420
 16777215
370
     9
100
AcDb2dPolyline
 66
     1
 10
0.0
 20
0.0
 30
0.0
  0
VERTEX
  5
9F
330
9E
100
AcDbEntity
  8
Capa 1
 62
     7
420
 16777215
370
     9
100
AcDbVertex
100
AcDb2dVertex
 10
160.4534947100155
 20
187.054362638387
 30
0.0
  0
VERTEX
  5
A0
330
9E
100
AcDbEntity
  8
Capa 1
 62
     7
420
 16777215
370
     9
100
AcDbVertex
100
AcDb2dVertex
 10
160.2682871841727
 20
187.10729060926
 30
0.0
  0
VERTEX
  5
A1
330
9E
100
AcDbEntity
  8
Capa 1
 62
     7
420
 16777215
370
     9
100
AcDbVertex
100
AcDb2dVertex
 10
160.1624581572352
 20
187.2924914064006
 30
0.0
  0
SEQEND
  5
A2
330
9E
100
AcDbEntity
  8
Capa 1
 62
     7
420
 16777215
370
     9
  0
POLYLINE
  5
A3
330
1F
100
AcDbEntity
  8
Capa 1
 62
     7
420
 16777215
370
     9
100
AcDb2dPolyline
 66
     1
 10
0.0
 20
0.0
 30
0.0
  0
VERTEX
  5
A4
330
A3
100
AcDbEntity
  8
Capa 1
 62
     7
420
 16777215
370
     9
100
AcDbVertex
100
AcDb2dVertex
 10
138.3343331626922
 20
187.054362638387
 30
0.0
  0
VERTEX
  5
A5
330
A3
100
AcDbEntity
  8
Capa 1
 62
     7
420
 16777215
370
     9
100
AcDbVertex
100
AcDb2dVertex
 10
138.5459979452694
 20
187.10729060926
 30
0.0
  0
VERTEX
  5
A6
330
A3
100
AcDbEntity
  8
Capa 1
 62
     7
420
 16777215
370
     9
100
AcDbVertex
100
AcDb2dVertex
 10
138.651833700909
 20
187.2924914064006
 30
0.0
  0
VERTEX
  5
A7
330
A3
100
AcDbEntity
  8
Capa 1
 62
     7
420
 16777215
370
     9
100
AcDbVertex
100
AcDb2dVertex
 10
139.5778713301229
 20
187.2924914064006
 30
0.0
  0
SEQEND
  5
A8
330
A3
100
AcDbEntity
  8
Capa 1
 62
     7
420
 16777215
370
     9
  0
POLYLINE
  5
A9
330
1F
100
AcDbEntity
  8
Capa 1
 62
     7
420
 16777215
370
     9
100
AcDb2dPolyline
 66
     1
 10
0.0
 20
0.0
 30
0.0
  0
VERTEX
  5
AA
330
A9
100
AcDbEntity
  8
Capa 1
 62
     7
420
 16777215
370
     9
100
AcDbVertex
100
AcDb2dVertex
 10
159.7126646066444
 20
165.6495806664026
 30
0.0
  0
VERTEX
  5
AB
330
A9
100
AcDbEntity
  8
Capa 1
 62
     7
420
 16777215
370
     9
100
AcDbVertex
100
AcDb2dVertex
 10
160.4534947100155
 20
187.054362638387
 30
0.0
  0
VERTEX
  5
AC
330
A9
100
AcDbEntity
  8
Capa 1
 62
     7
420
 16777215
370
     9
100
AcDbVertex
100
AcDb2dVertex
 10
139.5778713301229
 20
187.054362638387
 30
0.0
  0
SEQEND
  5
AD
330
A9
100
AcDbEntity
  8
Capa 1
 62
     7
420
 16777215
370
     9
  0
POLYLINE
  5
AE
330
1F
100
AcDbEntity
  8
Capa 1
 62
     7
420
 16777215
370
     9
100
AcDb2dPolyline
 66
     1
 10
0.0
 20
0.0
 30
0.0
  0
VERTEX
  5
AF
330
AE
100
AcDbEntity
  8
Capa 1
 62
     7
420
 16777215
370
     9
100
AcDbVertex
100
AcDb2dVertex
 10
139.0751632660633
 20
165.6495806664026
 30
0.0
  0
VERTEX
  5
B0
330
AE
100
AcDbEntity
  8
Capa 1
 62
     7
420
 16777215
370
     9
100
AcDbVertex
100
AcDb2dVertex
 10
138.3343331626922
 20
187.054362638387
 30
0.0
  0
VERTEX
  5
B1
330
AE
100
AcDbEntity
  8
Capa 1
 62
     7
420
 16777215
370
     9
100
AcDbVertex
100
AcDb2dVertex
 10
139.5778713301229
 20
187.054362638387
 30
0.0
  0
SEQEND
  5
B2
330
AE
100
AcDbEntity
  8
Capa 1
 62
     7
420
 16777215
370
     9
  0
POLYLINE
  5
B3
330
1F
100
AcDbEntity
  8
Capa 1
 62
     7
420
 16777215
370
     9
100
AcDb2dPolyline
 66
     1
 10
0.0
 20
0.0
 30
0.0
  0
VERTEX
  5
B4
330
B3
100
AcDbEntity
  8
Capa 1
 62
     7
420
 16777215
370
     9
100
AcDbVertex
100
AcDb2dVertex
 10
139.5778713301229
 20
187.2924914064006
 30
0.0
  0
VERTEX
  5
B5
330
B3
100
AcDbEntity
  8
Capa 1
 62
     7
420
 16777215
370
     9
100
AcDbVertex
100
AcDb2dVertex
 10
159.2364137993192
 20
187.2924914064006
 30
0.0
  0
SEQEND
  5
B6
330
B3
100
AcDbEntity
  8
Capa 1
 62
     7
420
 16777215
370
     9
  0
POLYLINE
  5
B7
330
1F
100
AcDbEntity
  8
Capa 1
 62
     7
420
 16777215
370
     9
100
AcDb2dPolyline
 66
     1
 10
0.0
 20
0.0
 30
0.0
  0
VERTEX
  5
B8
330
B7
100
AcDbEntity
  8
Capa 1
 62
     7
420
 16777215
370
     9
100
AcDbVertex
100
AcDb2dVertex
 10
159.4745358386307
 20
165.4114518983889
 30
0.0
  0
VERTEX
  5
B9
330
B7
100
AcDbEntity
  8
Capa 1
 62
     7
420
 16777215
370
     9
100
AcDbVertex
100
AcDb2dVertex
 10
159.6332861077391
 20
165.490823668592
 30
0.0
  0
VERTEX
  5
BA
330
B7
100
AcDbEntity
  8
Capa 1
 62
     7
420
 16777215
370
     9
100
AcDbVertex
100
AcDb2dVertex
 10
159.7126646066444
 20
165.6495806664026
 30
0.0
  0
SEQEND
  5
BB
330
B7
100
AcDbEntity
  8
Capa 1
 62
     7
420
 16777215
370
     9
  0
POLYLINE
  5
BC
330
1F
100
AcDbEntity
  8
Capa 1
 62
     7
420
 16777215
370
     9
100
AcDb2dPolyline
 66
     1
 10
0.0
 20
0.0
 30
0.0
  0
VERTEX
  5
BD
330
BC
100
AcDbEntity
  8
Capa 1
 62
     7
420
 16777215
370
     9
100
AcDbVertex
100
AcDb2dVertex
 10
139.3397492908114
 20
165.4114518983889
 30
0.0
  0
VERTEX
  5
BE
330
BC
100
AcDbEntity
  8
Capa 1
 62
     7
420
 16777215
370
     9
100
AcDbVertex
100
AcDb2dVertex
 10
139.1545417649686
 20
165.490823668592
 30
0.0
  0
VERTEX
  5
BF
330
BC
100
AcDbEntity
  8
Capa 1
 62
     7
420
 16777215
370
     9
100
AcDbVertex
100
AcDb2dVertex
 10
139.0751632660633
 20
165.6495806664026
 30
0.0
  0
SEQEND
  5
C0
330
BC
100
AcDbEntity
  8
Capa 1
 62
     7
420
 16777215
370
     9
  0
POLYLINE
  5
C1
330
1F
100
AcDbEntity
  8
Capa 1
 62
     7
420
 16777215
370
     9
100
AcDb2dPolyline
 66
     1
 10
0.0
 20
0.0
 30
0.0
  0
VERTEX
  5
C2
330
C1
100
AcDbEntity
  8
Capa 1
 62
     7
420
 16777215
370
     9
100
AcDbVertex
100
AcDb2dVertex
 10
139.5778713301229
 20
187.318948663135
 30
0.0
  0
VERTEX
  5
C3
330
C1
100
AcDbEntity
  8
Capa 1
 62
     7
420
 16777215
370
     9
100
AcDbVertex
100
AcDb2dVertex
 10
138.5724552020038
 20
187.318948663135
 30
0.0
  0
SEQEND
  5
C4
330
C1
100
AcDbEntity
  8
Capa 1
 62
     7
420
 16777215
370
     9
  0
POLYLINE
  5
C5
330
1F
100
AcDbEntity
  8
Capa 1
 62
     7
420
 16777215
370
     9
100
AcDb2dPolyline
 66
     1
 10
0.0
 20
0.0
 30
0.0
  0
VERTEX
  5
C6
330
C5
100
AcDbEntity
  8
Capa 1
 62
     7
420
 16777215
370
     9
100
AcDbVertex
100
AcDb2dVertex
 10
138.3343331626922
 20
187.5835346878831
 30
0.0
  0
VERTEX
  5
C7
330
C5
100
AcDbEntity
  8
Capa 1
 62
     7
420
 16777215
370
     9
100
AcDbVertex
100
AcDb2dVertex
 10
138.3607904194266
 20
187.4512484042112
 30
0.0
  0
VERTEX
  5
C8
330
C5
100
AcDbEntity
  8
Capa 1
 62
     7
420
 16777215
370
     9
100
AcDbVertex
100
AcDb2dVertex
 10
138.4666261750662
 20
187.3718631766038
 30
0.0
  0
VERTEX
  5
C9
330
C5
100
AcDbEntity
  8
Capa 1
 62
     7
420
 16777215
370
     9
100
AcDbVertex
100
AcDb2dVertex
 10
138.5724552020038
 20
187.318948663135
 30
0.0
  0
SEQEND
  5
CA
330
C5
100
AcDbEntity
  8
Capa 1
 62
     7
420
 16777215
370
     9
  0
POLYLINE
  5
CB
330
1F
100
AcDbEntity
  8
Capa 1
 62
     7
420
 16777215
370
     9
100
AcDb2dPolyline
 66
     1
 10
0.0
 20
0.0
 30
0.0
  0
VERTEX
  5
CC
330
CB
100
AcDbEntity
  8
Capa 1
 62
     7
420
 16777215
370
     9
100
AcDbVertex
100
AcDb2dVertex
 10
139.5778713301229
 20
187.318948663135
 30
0.0
  0
VERTEX
  5
CD
330
CB
100
AcDbEntity
  8
Capa 1
 62
     7
420
 16777215
370
     9
100
AcDbVertex
100
AcDb2dVertex
 10
160.2153726707039
 20
187.318948663135
 30
0.0
  0
VERTEX
  5
CE
330
CB
100
AcDbEntity
  8
Capa 1
 62
     7
420
 16777215
370
     9
100
AcDbVertex
100
AcDb2dVertex
 10
160.347665683078
 20
187.3718631766038
 30
0.0
  0
VERTEX
  5
CF
330
CB
100
AcDbEntity
  8
Capa 1
 62
     7
420
 16777215
370
     9
100
AcDbVertex
100
AcDb2dVertex
 10
160.4270374532811
 20
187.4512484042112
 30
0.0
  0
VERTEX
  5
D0
330
CB
100
AcDbEntity
  8
Capa 1
 62
     7
420
 16777215
370
     9
100
AcDbVertex
100
AcDb2dVertex
 10
160.479958695452
 20
187.5835346878831
 30
0.0
  0
SEQEND
  5
D1
330
CB
100
AcDbEntity
  8
Capa 1
 62
     7
420
 16777215
370
     9
  0
POLYLINE
  5
D2
330
1F
100
AcDbEntity
  8
Capa 1
 62
     7
420
 16777215
370
     9
100
AcDb2dPolyline
 66
     1
 10
0.0
 20
0.0
 30
0.0
  0
VERTEX
  5
D3
330
D2
100
AcDbEntity
  8
Capa 1
 62
     7
420
 16777215
370
     9
100
AcDbVertex
100
AcDb2dVertex
 10
159.2364137993192
 20
189.5149951739182
 30
0.0
  0
VERTEX
  5
D4
330
D2
100
AcDbEntity
  8
Capa 1
 62
     7
420
 16777215
370
     9
100
AcDbVertex
100
AcDb2dVertex
 10
160.0566224015955
 20
189.5149951739182
 30
0.0
  0
SEQEND
  5
D5
330
D2
100
AcDbEntity
  8
Capa 1
 62
     7
420
 16777215
370
     9
  0
POLYLINE
  5
D6
330
1F
100
AcDbEntity
  8
Capa 1
 62
     7
420
 16777215
370
     9
100
AcDb2dPolyline
 66
     1
 10
0.0
 20
0.0
 30
0.0
  0
VERTEX
  5
D7
330
D6
100
AcDbEntity
  8
Capa 1
 62
     7
420
 16777215
370
     9
100
AcDbVertex
100
AcDb2dVertex
 10
160.479958695452
 20
187.5835346878831
 30
0.0
  0
VERTEX
  5
D8
330
D6
100
AcDbEntity
  8
Capa 1
 62
     7
420
 16777215
370
     9
100
AcDbVertex
100
AcDb2dVertex
 10
160.4534947100155
 20
189.1445801222326
 30
0.0
  0
SEQEND
  5
D9
330
D6
100
AcDbEntity
  8
Capa 1
 62
     7
420
 16777215
370
     9
  0
POLYLINE
  5
DA
330
1F
100
AcDbEntity
  8
Capa 1
 62
     7
420
 16777215
370
     9
100
AcDb2dPolyline
 66
     1
 10
0.0
 20
0.0
 30
0.0
  0
VERTEX
  5
DB
330
DA
100
AcDbEntity
  8
Capa 1
 62
     7
420
 16777215
370
     9
100
AcDbVertex
100
AcDb2dVertex
 10
138.3343331626922
 20
187.5835346878831
 30
0.0
  0
VERTEX
  5
DC
330
DA
100
AcDbEntity
  8
Capa 1
 62
     7
420
 16777215
370
     9
100
AcDbVertex
100
AcDb2dVertex
 10
138.3607904194266
 20
189.1445801222326
 30
0.0
  0
SEQEND
  5
DD
330
DA
100
AcDbEntity
  8
Capa 1
 62
     7
420
 16777215
370
     9
  0
POLYLINE
  5
DE
330
1F
100
AcDbEntity
  8
Capa 1
 62
     7
420
 16777215
370
     9
100
AcDb2dPolyline
 66
     1
 10
0.0
 20
0.0
 30
0.0
  0
VERTEX
  5
DF
330
DE
100
AcDbEntity
  8
Capa 1
 62
     7
420
 16777215
370
     9
100
AcDbVertex
100
AcDb2dVertex
 10
160.4534947100155
 20
189.1445801222326
 30
0.0
  0
VERTEX
  5
E0
330
DE
100
AcDbEntity
  8
Capa 1
 62
     7
420
 16777215
370
     9
100
AcDbVertex
100
AcDb2dVertex
 10
160.4005801965467
 20
189.3297809193733
 30
0.0
  0
VERTEX
  5
E1
330
DE
100
AcDbEntity
  8
Capa 1
 62
     7
420
 16777215
370
     9
100
AcDbVertex
100
AcDb2dVertex
 10
160.2418299274383
 20
189.4620806604495
 30
0.0
  0
VERTEX
  5
E2
330
DE
100
AcDbEntity
  8
Capa 1
 62
     7
420
 16777215
370
     9
100
AcDbVertex
100
AcDb2dVertex
 10
160.0566224015955
 20
189.5149951739182
 30
0.0
  0
SEQEND
  5
E3
330
DE
100
AcDbEntity
  8
Capa 1
 62
     7
420
 16777215
370
     9
  0
POLYLINE
  5
E4
330
1F
100
AcDbEntity
  8
Capa 1
 62
     7
420
 16777215
370
     9
100
AcDb2dPolyline
 66
     1
 10
0.0
 20
0.0
 30
0.0
  0
VERTEX
  5
E5
330
E4
100
AcDbEntity
  8
Capa 1
 62
     7
420
 16777215
370
     9
100
AcDbVertex
100
AcDb2dVertex
 10
139.5778713301229
 20
189.5149951739182
 30
0.0
  0
VERTEX
  5
E6
330
E4
100
AcDbEntity
  8
Capa 1
 62
     7
420
 16777215
370
     9
100
AcDbVertex
100
AcDb2dVertex
 10
138.7312054711122
 20
189.5149951739182
 30
0.0
  0
VERTEX
  5
E7
330
E4
100
AcDbEntity
  8
Capa 1
 62
     7
420
 16777215
370
     9
100
AcDbVertex
100
AcDb2dVertex
 10
138.5459979452694
 20
189.4620806604495
 30
0.0
  0
VERTEX
  5
E8
330
E4
100
AcDbEntity
  8
Capa 1
 62
     7
420
 16777215
370
     9
100
AcDbVertex
100
AcDb2dVertex
 10
138.4137049328954
 20
189.3297809193733
 30
0.0
  0
VERTEX
  5
E9
330
E4
100
AcDbEntity
  8
Capa 1
 62
     7
420
 16777215
370
     9
100
AcDbVertex
100
AcDb2dVertex
 10
138.3607904194266
 20
189.1445801222326
 30
0.0
  0
SEQEND
  5
EA
330
E4
100
AcDbEntity
  8
Capa 1
 62
     7
420
 16777215
370
     9
  0
POLYLINE
  5
EB
330
1F
100
AcDbEntity
  8
Capa 1
 62
     7
420
 16777215
370
     9
100
AcDb2dPolyline
 66
     1
 10
0.0
 20
0.0
 30
0.0
  0
VERTEX
  5
EC
330
EB
100
AcDbEntity
  8
Capa 1
 62
     7
420
 16777215
370
     9
100
AcDbVertex
100
AcDb2dVertex
 10
156.1143296593221
 20
156.7331217970022
 30
0.0
  0
VERTEX
  5
ED
330
EB
100
AcDbEntity
  8
Capa 1
 62
     7
420
 16777215
370
     9
100
AcDbVertex
100
AcDb2dVertex
 10
156.1407869160565
 20
156.7331217970022
 30
0.0
  0
SEQEND
  5
EE
330
EB
100
AcDbEntity
  8
Capa 1
 62
     7
420
 16777215
370
     9
  0
POLYLINE
  5
EF
330
1F
100
AcDbEntity
  8
Capa 1
 62
     7
420
 16777215
370
     9
100
AcDb2dPolyline
 66
     1
 10
0.0
 20
0.0
 30
0.0
  0
VERTEX
  5
F0
330
EF
100
AcDbEntity
  8
Capa 1
 62
     7
420
 16777215
370
     9
100
AcDbVertex
100
AcDb2dVertex
 10
142.69995547012
 20
156.7331217970022
 30
0.0
  0
VERTEX
  5
F1
330
EF
100
AcDbEntity
  8
Capa 1
 62
     7
420
 16777215
370
     9
100
AcDbVertex
100
AcDb2dVertex
 10
142.7264127268543
 20
156.7331217970022
 30
0.0
  0
SEQEND
  5
F2
330
EF
100
AcDbEntity
  8
Capa 1
 62
     7
420
 16777215
370
     9
  0
POLYLINE
  5
F3
330
1F
100
AcDbEntity
  8
Capa 1
 62
     7
420
 16777215
370
     9
100
AcDb2dPolyline
 66
     1
 10
0.0
 20
0.0
 30
0.0
  0
VERTEX
  5
F4
330
F3
100
AcDbEntity
  8
Capa 1
 62
     7
420
 16777215
370
     9
100
AcDbVertex
100
AcDb2dVertex
 10
156.0878724025877
 20
156.7331217970022
 30
0.0
  0
VERTEX
  5
F5
330
F3
100
AcDbEntity
  8
Capa 1
 62
     7
420
 16777215
370
     9
100
AcDbVertex
100
AcDb2dVertex
 10
156.1143296593221
 20
156.7331217970022
 30
0.0
  0
SEQEND
  5
F6
330
F3
100
AcDbEntity
  8
Capa 1
 62
     7
420
 16777215
370
     9
  0
POLYLINE
  5
F7
330
1F
100
AcDbEntity
  8
Capa 1
 62
     7
420
 16777215
370
     9
100
AcDb2dPolyline
 66
     1
 10
0.0
 20
0.0
 30
0.0
  0
VERTEX
  5
F8
330
F7
100
AcDbEntity
  8
Capa 1
 62
     7
420
 16777215
370
     9
100
AcDbVertex
100
AcDb2dVertex
 10
139.5778713301229
 20
189.5149951739182
 30
0.0
  0
VERTEX
  5
F9
330
F7
100
AcDbEntity
  8
Capa 1
 62
     7
420
 16777215
370
     9
100
AcDbVertex
100
AcDb2dVertex
 10
159.2364137993192
 20
189.5149951739182
 30
0.0
  0
SEQEND
  5
FA
330
F7
100
AcDbEntity
  8
Capa 1
 62
     7
420
 16777215
370
     9
  0
POLYLINE
  5
FB
330
1F
100
AcDbEntity
  8
Capa 1
 62
     7
420
 16777215
370
     9
100
AcDb2dPolyline
 66
     1
 10
0.0
 20
0.0
 30
0.0
  0
VERTEX
  5
FC
330
FB
100
AcDbEntity
  8
Capa 1
 62
     7
420
 16777215
370
     9
100
AcDbVertex
100
AcDb2dVertex
 10
143.096834507242
 20
155.2249976048235
 30
0.0
  0
VERTEX
  5
FD
330
FB
100
AcDbEntity
  8
Capa 1
 62
     7
420
 16777215
370
     9
100
AcDbVertex
100
AcDb2dVertex
 10
143.0703705218055
 20
155.7541629256174
 30
0.0
  0
VERTEX
  5
FE
330
FB
100
AcDbEntity
  8
Capa 1
 62
     7
420
 16777215
370
     9
100
AcDbVertex
100
AcDb2dVertex
 10
142.9380842381336
 20
156.256870989677
 30
0.0
  0
VERTEX
  5
FF
330
FB
100
AcDbEntity
  8
Capa 1
 62
     7
420
 16777215
370
     9
100
AcDbVertex
100
AcDb2dVertex
 10
142.69995547012
 20
156.7331217970022
 30
0.0
  0
SEQEND
  5
100
330
FB
100
AcDbEntity
  8
Capa 1
 62
     7
420
 16777215
370
     9
  0
POLYLINE
  5
101
330
1F
100
AcDbEntity
  8
Capa 1
 62
     7
420
 16777215
370
     9
100
AcDb2dPolyline
 66
     1
 10
0.0
 20
0.0
 30
0.0
  0
VERTEX
  5
102
330
101
100
AcDbEntity
  8
Capa 1
 62
     7
420
 16777215
370
     9
100
AcDbVertex
100
AcDb2dVertex
 10
156.1143296593221
 20
156.7331217970022
 30
0.0
  0
VERTEX
  5
103
330
101
100
AcDbEntity
  8
Capa 1
 62
     7
420
 16777215
370
     9
100
AcDbVertex
100
AcDb2dVertex
 10
155.8497503632762
 20
156.256870989677
 30
0.0
  0
VERTEX
  5
104
330
101
100
AcDbEntity
  8
Capa 1
 62
     7
420
 16777215
370
     9
100
AcDbVertex
100
AcDb2dVertex
 10
155.7174573509022
 20
155.7541629256174
 30
0.0
  0
VERTEX
  5
105
330
101
100
AcDbEntity
  8
Capa 1
 62
     7
420
 16777215
370
     9
100
AcDbVertex
100
AcDb2dVertex
 10
155.6910000941678
 20
155.2249976048235
 30
0.0
  0
SEQEND
  5
106
330
101
100
AcDbEntity
  8
Capa 1
 62
     7
420
 16777215
370
     9
  0
POLYLINE
  5
107
330
1F
100
AcDbEntity
  8
Capa 1
 62
     7
420
 16777215
370
     9
100
AcDb2dPolyline
 66
     1
 10
0.0
 20
0.0
 30
0.0
  0
VERTEX
  5
108
330
107
100
AcDbEntity
  8
Capa 1
 62
     7
420
 16777215
370
     9
100
AcDbVertex
100
AcDb2dVertex
 10
155.0824562744686
 20
155.3837478739319
 30
0.0
  0
VERTEX
  5
109
330
107
100
AcDbEntity
  8
Capa 1
 62
     7
420
 16777215
370
     9
100
AcDbVertex
100
AcDb2dVertex
 10
155.0559990177342
 20
155.3572906171975
 30
0.0
  0
VERTEX
  5
10A
330
107
100
AcDbEntity
  8
Capa 1
 62
     7
420
 16777215
370
     9
100
AcDbVertex
100
AcDb2dVertex
 10
154.976620518829
 20
155.3043693750266
 30
0.0
  0
VERTEX
  5
10B
330
107
100
AcDbEntity
  8
Capa 1
 62
     7
420
 16777215
370
     9
100
AcDbVertex
100
AcDb2dVertex
 10
154.844334235157
 20
155.2779121182922
 30
0.0
  0
VERTEX
  5
10C
330
107
100
AcDbEntity
  8
Capa 1
 62
     7
420
 16777215
370
     9
100
AcDbVertex
100
AcDb2dVertex
 10
154.6326627238778
 20
155.2249976048235
 30
0.0
  0
VERTEX
  5
10D
330
107
100
AcDbEntity
  8
Capa 1
 62
     7
420
 16777215
370
     9
100
AcDbVertex
100
AcDb2dVertex
 10
154.1299546598182
 20
155.1720830913547
 30
0.0
  0
VERTEX
  5
10E
330
107
100
AcDbEntity
  8
Capa 1
 62
     7
420
 16777215
370
     9
100
AcDbVertex
100
AcDb2dVertex
 10
153.4155818131815
 20
155.0927045924495
 30
0.0
  0
VERTEX
  5
10F
330
107
100
AcDbEntity
  8
Capa 1
 62
     7
420
 16777215
370
     9
100
AcDbVertex
100
AcDb2dVertex
 10
152.5689159541707
 20
155.0397900789807
 30
0.0
  0
VERTEX
  5
110
330
107
100
AcDbEntity
  8
Capa 1
 62
     7
420
 16777215
370
     9
100
AcDbVertex
100
AcDb2dVertex
 10
151.589957082786
 20
154.9868755655119
 30
0.0
  0
VERTEX
  5
111
330
107
100
AcDbEntity
  8
Capa 1
 62
     7
420
 16777215
370
     9
100
AcDbVertex
100
AcDb2dVertex
 10
149.3939173007049
 20
154.9604115800754
 30
0.0
  0
VERTEX
  5
112
330
107
100
AcDbEntity
  8
Capa 1
 62
     7
420
 16777215
370
     9
100
AcDbVertex
100
AcDb2dVertex
 10
147.2243280466561
 20
154.9868755655119
 30
0.0
  0
VERTEX
  5
113
330
107
100
AcDbEntity
  8
Capa 1
 62
     7
420
 16777215
370
     9
100
AcDbVertex
100
AcDb2dVertex
 10
146.2453759039735
 20
155.0397900789807
 30
0.0
  0
VERTEX
  5
114
330
107
100
AcDbEntity
  8
Capa 1
 62
     7
420
 16777215
370
     9
100
AcDbVertex
100
AcDb2dVertex
 10
145.3722460595262
 20
155.0927045924495
 30
0.0
  0
VERTEX
  5
115
330
107
100
AcDbEntity
  8
Capa 1
 62
     7
420
 16777215
370
     9
100
AcDbVertex
100
AcDb2dVertex
 10
144.6843304696239
 20
155.1720830913547
 30
0.0
  0
VERTEX
  5
116
330
107
100
AcDbEntity
  8
Capa 1
 62
     7
420
 16777215
370
     9
100
AcDbVertex
100
AcDb2dVertex
 10
144.1551651488299
 20
155.2249976048235
 30
0.0
  0
VERTEX
  5
117
330
107
100
AcDbEntity
  8
Capa 1
 62
     7
420
 16777215
370
     9
100
AcDbVertex
100
AcDb2dVertex
 10
143.8376646106131
 20
155.3043693750266
 30
0.0
  0
VERTEX
  5
118
330
107
100
AcDbEntity
  8
Capa 1
 62
     7
420
 16777215
370
     9
100
AcDbVertex
100
AcDb2dVertex
 10
143.75829284041
 20
155.3308333604631
 30
0.0
  0
VERTEX
  5
119
330
107
100
AcDbEntity
  8
Capa 1
 62
     7
420
 16777215
370
     9
100
AcDbVertex
100
AcDb2dVertex
 10
143.7318288549735
 20
155.3837478739319
 30
0.0
  0
SEQEND
  5
11A
330
107
100
AcDbEntity
  8
Capa 1
 62
     7
420
 16777215
370
     9
  0
POLYLINE
  5
11B
330
1F
100
AcDbEntity
  8
Capa 1
 62
     7
420
 16777215
370
     9
100
AcDb2dPolyline
 66
     1
 10
0.0
 20
0.0
 30
0.0
  0
VERTEX
  5
11C
330
11B
100
AcDbEntity
  8
Capa 1
 62
     7
420
 16777215
370
     9
100
AcDbVertex
100
AcDb2dVertex
 10
155.7174573509022
 20
155.1985403480891
 30
0.0
  0
VERTEX
  5
11D
330
11B
100
AcDbEntity
  8
Capa 1
 62
     7
420
 16777215
370
     9
100
AcDbVertex
100
AcDb2dVertex
 10
155.6910000941678
 20
155.2249976048235
 30
0.0
  0
SEQEND
  5
11E
330
11B
100
AcDbEntity
  8
Capa 1
 62
     7
420
 16777215
370
     9
  0
POLYLINE
  5
11F
330
1F
100
AcDbEntity
  8
Capa 1
 62
     7
420
 16777215
370
     9
100
AcDb2dPolyline
 66
     1
 10
0.0
 20
0.0
 30
0.0
  0
VERTEX
  5
120
330
11F
100
AcDbEntity
  8
Capa 1
 62
     7
420
 16777215
370
     9
100
AcDbVertex
100
AcDb2dVertex
 10
143.096834507242
 20
155.2249976048235
 30
0.0
  0
VERTEX
  5
121
330
11F
100
AcDbEntity
  8
Capa 1
 62
     7
420
 16777215
370
     9
100
AcDbVertex
100
AcDb2dVertex
 10
143.096834507242
 20
155.1985403480891
 30
0.0
  0
SEQEND
  5
122
330
11F
100
AcDbEntity
  8
Capa 1
 62
     7
420
 16777215
370
     9
  0
POLYLINE
  5
123
330
1F
100
AcDbEntity
  8
Capa 1
 62
     7
420
 16777215
370
     9
100
AcDb2dPolyline
 66
     1
 10
0.0
 20
0.0
 30
0.0
  0
VERTEX
  5
124
330
123
100
AcDbEntity
  8
Capa 1
 62
     7
420
 16777215
370
     9
100
AcDbVertex
100
AcDb2dVertex
 10
149.3939173007049
 20
154.7752040542327
 30
0.0
  0
VERTEX
  5
125
330
123
100
AcDbEntity
  8
Capa 1
 62
     7
420
 16777215
370
     9
100
AcDbVertex
100
AcDb2dVertex
 10
149.3939173007049
 20
155.1720830913547
 30
0.0
  0
SEQEND
  5
126
330
123
100
AcDbEntity
  8
Capa 1
 62
     7
420
 16777215
370
     9
  0
POLYLINE
  5
127
330
1F
100
AcDbEntity
  8
Capa 1
 62
     7
420
 16777215
370
     9
100
AcDb2dPolyline
 66
     1
 10
0.0
 20
0.0
 30
0.0
  0
VERTEX
  5
128
330
127
100
AcDbEntity
  8
Capa 1
 62
     7
420
 16777215
370
     9
100
AcDbVertex
100
AcDb2dVertex
 10
149.3939173007049
 20
152.0499989513577
 30
0.0
  0
VERTEX
  5
129
330
127
100
AcDbEntity
  8
Capa 1
 62
     7
420
 16777215
370
     9
100
AcDbVertex
100
AcDb2dVertex
 10
149.3939173007049
 20
154.3783317458127
 30
0.0
  0
SEQEND
  5
12A
330
127
100
AcDbEntity
  8
Capa 1
 62
     7
420
 16777215
370
     9
  0
POLYLINE
  5
12B
330
1F
100
AcDbEntity
  8
Capa 1
 62
     7
420
 16777215
370
     9
100
AcDb2dPolyline
 66
     1
 10
0.0
 20
0.0
 30
0.0
  0
VERTEX
  5
12C
330
12B
100
AcDbEntity
  8
Capa 1
 62
     7
420
 16777215
370
     9
100
AcDbVertex
100
AcDb2dVertex
 10
149.3939173007049
 20
151.2562476058156
 30
0.0
  0
VERTEX
  5
12D
330
12B
100
AcDbEntity
  8
Capa 1
 62
     7
420
 16777215
370
     9
100
AcDbVertex
100
AcDb2dVertex
 10
149.3939173007049
 20
151.6531199142356
 30
0.0
  0
SEQEND
  5
12E
330
12B
100
AcDbEntity
  8
Capa 1
 62
     7
420
 16777215
370
     9
  0
POLYLINE
  5
12F
330
1F
100
AcDbEntity
  8
Capa 1
 62
     7
420
 16777215
370
     9
100
AcDb2dPolyline
 66
     1
 10
0.0
 20
0.0
 30
0.0
  0
VERTEX
  5
130
330
12F
100
AcDbEntity
  8
Capa 1
 62
     7
420
 16777215
370
     9
100
AcDbVertex
100
AcDb2dVertex
 10
149.3939173007049
 20
148.5310425029406
 30
0.0
  0
VERTEX
  5
131
330
12F
100
AcDbEntity
  8
Capa 1
 62
     7
420
 16777215
370
     9
100
AcDbVertex
100
AcDb2dVertex
 10
149.3939173007049
 20
150.8858325541301
 30
0.0
  0
SEQEND
  5
132
330
12F
100
AcDbEntity
  8
Capa 1
 62
     7
420
 16777215
370
     9
  0
POLYLINE
  5
133
330
1F
100
AcDbEntity
  8
Capa 1
 62
     7
420
 16777215
370
     9
100
AcDb2dPolyline
 66
     1
 10
0.0
 20
0.0
 30
0.0
  0
VERTEX
  5
134
330
133
100
AcDbEntity
  8
Capa 1
 62
     7
420
 16777215
370
     9
100
AcDbVertex
100
AcDb2dVertex
 10
149.3939173007049
 20
147.7372911573987
 30
0.0
  0
VERTEX
  5
135
330
133
100
AcDbEntity
  8
Capa 1
 62
     7
420
 16777215
370
     9
100
AcDbVertex
100
AcDb2dVertex
 10
149.3939173007049
 20
148.1341634658186
 30
0.0
  0
SEQEND
  5
136
330
133
100
AcDbEntity
  8
Capa 1
 62
     7
420
 16777215
370
     9
  0
POLYLINE
  5
137
330
1F
100
AcDbEntity
  8
Capa 1
 62
     7
420
 16777215
370
     9
100
AcDb2dPolyline
 66
     1
 10
0.0
 20
0.0
 30
0.0
  0
VERTEX
  5
138
330
137
100
AcDbEntity
  8
Capa 1
 62
     7
420
 16777215
370
     9
100
AcDbVertex
100
AcDb2dVertex
 10
149.3939173007049
 20
145.0120793258215
 30
0.0
  0
VERTEX
  5
139
330
137
100
AcDbEntity
  8
Capa 1
 62
     7
420
 16777215
370
     9
100
AcDbVertex
100
AcDb2dVertex
 10
149.3939173007049
 20
147.3668761057131
 30
0.0
  0
SEQEND
  5
13A
330
137
100
AcDbEntity
  8
Capa 1
 62
     7
420
 16777215
370
     9
  0
POLYLINE
  5
13B
330
1F
100
AcDbEntity
  8
Capa 1
 62
     7
420
 16777215
370
     9
100
AcDb2dPolyline
 66
     1
 10
0.0
 20
0.0
 30
0.0
  0
VERTEX
  5
13C
330
13B
100
AcDbEntity
  8
Capa 1
 62
     7
420
 16777215
370
     9
100
AcDbVertex
100
AcDb2dVertex
 10
149.3939173007049
 20
144.244791965716
 30
0.0
  0
VERTEX
  5
13D
330
13B
100
AcDbEntity
  8
Capa 1
 62
     7
420
 16777215
370
     9
100
AcDbVertex
100
AcDb2dVertex
 10
149.3939173007049
 20
144.6152070174016
 30
0.0
  0
SEQEND
  5
13E
330
13B
100
AcDbEntity
  8
Capa 1
 62
     7
420
 16777215
370
     9
  0
POLYLINE
  5
13F
330
1F
100
AcDbEntity
  8
Capa 1
 62
     7
420
 16777215
370
     9
100
AcDb2dPolyline
 66
     1
 10
0.0
 20
0.0
 30
0.0
  0
VERTEX
  5
140
330
13F
100
AcDbEntity
  8
Capa 1
 62
     7
420
 16777215
370
     9
100
AcDbVertex
100
AcDb2dVertex
 10
149.3939173007049
 20
141.4931228774045
 30
0.0
  0
VERTEX
  5
141
330
13F
100
AcDbEntity
  8
Capa 1
 62
     7
420
 16777215
370
     9
100
AcDbVertex
100
AcDb2dVertex
 10
149.3939173007049
 20
143.847912928594
 30
0.0
  0
SEQEND
  5
142
330
13F
100
AcDbEntity
  8
Capa 1
 62
     7
420
 16777215
370
     9
  0
POLYLINE
  5
143
330
1F
100
AcDbEntity
  8
Capa 1
 62
     7
420
 16777215
370
     9
100
AcDb2dPolyline
 66
     1
 10
0.0
 20
0.0
 30
0.0
  0
VERTEX
  5
144
330
143
100
AcDbEntity
  8
Capa 1
 62
     7
420
 16777215
370
     9
100
AcDbVertex
100
AcDb2dVertex
 10
149.3939173007049
 20
140.7258287885969
 30
0.0
  0
VERTEX
  5
145
330
143
100
AcDbEntity
  8
Capa 1
 62
     7
420
 16777215
370
     9
100
AcDbVertex
100
AcDb2dVertex
 10
149.3939173007049
 20
141.0962505689846
 30
0.0
  0
SEQEND
  5
146
330
143
100
AcDbEntity
  8
Capa 1
 62
     7
420
 16777215
370
     9
  0
POLYLINE
  5
147
330
1F
100
AcDbEntity
  8
Capa 1
 62
     7
420
 16777215
370
     9
100
AcDb2dPolyline
 66
     1
 10
0.0
 20
0.0
 30
0.0
  0
VERTEX
  5
148
330
147
100
AcDbEntity
  8
Capa 1
 62
     7
420
 16777215
370
     9
100
AcDbVertex
100
AcDb2dVertex
 10
149.3939173007049
 20
139.0854115840442
 30
0.0
  0
VERTEX
  5
149
330
147
100
AcDbEntity
  8
Capa 1
 62
     7
420
 16777215
370
     9
100
AcDbVertex
100
AcDb2dVertex
 10
149.3939173007049
 20
140.328956480177
 30
0.0
  0
SEQEND
  5
14A
330
147
100
AcDbEntity
  8
Capa 1
 62
     7
420
 16777215
370
     9
  0
POLYLINE
  5
14B
330
1F
100
AcDbEntity
  8
Capa 1
 62
     7
420
 16777215
370
     9
100
AcDb2dPolyline
 66
     1
 10
0.0
 20
0.0
 30
0.0
  0
VERTEX
  5
14C
330
14B
100
AcDbEntity
  8
Capa 1
 62
     7
420
 16777215
370
     9
100
AcDbVertex
100
AcDb2dVertex
 10
149.3939173007049
 20
155.5689553997746
 30
0.0
  0
VERTEX
  5
14D
330
14B
100
AcDbEntity
  8
Capa 1
 62
     7
420
 16777215
370
     9
100
AcDbVertex
100
AcDb2dVertex
 10
149.3939173007049
 20
156.7860363104709
 30
0.0
  0
SEQEND
  5
14E
330
14B
100
AcDbEntity
  8
Capa 1
 62
     7
420
 16777215
370
     9
  0
POLYLINE
  5
14F
330
1F
100
AcDbEntity
  8
Capa 1
 62
     7
420
 16777215
370
     9
100
AcDb2dPolyline
 66
     1
 10
0.0
 20
0.0
 30
0.0
  0
VERTEX
  5
150
330
14F
100
AcDbEntity
  8
Capa 1
 62
     7
420
 16777215
370
     9
100
AcDbVertex
100
AcDb2dVertex
 10
166.5653632489335
 20
188.3772793047229
 30
0.0
  0
VERTEX
  5
151
330
14F
100
AcDbEntity
  8
Capa 1
 62
     7
420
 16777215
370
     9
100
AcDbVertex
100
AcDb2dVertex
 10
166.5653632489335
 20
166.813740334928
 30
0.0
  0
SEQEND
  5
152
330
14F
100
AcDbEntity
  8
Capa 1
 62
     7
420
 16777215
370
     9
  0
POLYLINE
  5
153
330
1F
100
AcDbEntity
  8
Capa 1
 62
     7
420
 16777215
370
     9
100
AcDb2dPolyline
 66
     1
 10
0.0
 20
0.0
 30
0.0
  0
VERTEX
  5
154
330
153
100
AcDbEntity
  8
Capa 1
 62
     7
420
 16777215
370
     9
100
AcDbVertex
100
AcDb2dVertex
 10
166.5653632489335
 20
141.5460373908733
 30
0.0
  0
VERTEX
  5
155
330
153
100
AcDbEntity
  8
Capa 1
 62
     7
420
 16777215
370
     9
100
AcDbVertex
100
AcDb2dVertex
 10
166.5653632489335
 20
163.691662923633
 30
0.0
  0
SEQEND
  5
156
330
153
100
AcDbEntity
  8
Capa 1
 62
     7
420
 16777215
370
     9
  0
POLYLINE
  5
157
330
1F
100
AcDbEntity
  8
Capa 1
 62
     7
420
 16777215
370
     9
100
AcDb2dPolyline
 66
     1
 10
0.0
 20
0.0
 30
0.0
  0
VERTEX
  5
158
330
157
100
AcDbEntity
  8
Capa 1
 62
     7
420
 16777215
370
     9
100
AcDbVertex
100
AcDb2dVertex
 10
150.3464121866532
 20
189.5149951739182
 30
0.0
  0
VERTEX
  5
159
330
157
100
AcDbEntity
  8
Capa 1
 62
     7
420
 16777215
370
     9
100
AcDbVertex
100
AcDb2dVertex
 10
167.2003643253671
 20
189.5149951739182
 30
0.0
  0
SEQEND
  5
15A
330
157
100
AcDbEntity
  8
Capa 1
 62
     7
420
 16777215
370
     9
  0
POLYLINE
  5
15B
330
1F
100
AcDbEntity
  8
Capa 1
 62
     7
420
 16777215
370
     9
100
AcDb2dPolyline
 66
     1
 10
0.0
 20
0.0
 30
0.0
  0
VERTEX
  5
15C
330
15B
100
AcDbEntity
  8
Capa 1
 62
     7
420
 16777215
370
     9
100
AcDbVertex
100
AcDb2dVertex
 10
157.1991242863465
 20
140.4083282503801
 30
0.0
  0
VERTEX
  5
15D
330
15B
100
AcDbEntity
  8
Capa 1
 62
     7
420
 16777215
370
     9
100
AcDbVertex
100
AcDb2dVertex
 10
167.2003643253671
 20
140.4083282503801
 30
0.0
  0
SEQEND
  5
15E
330
15B
100
AcDbEntity
  8
Capa 1
 62
     7
420
 16777215
370
     9
  0
POLYLINE
  5
15F
330
1F
100
AcDbEntity
  8
Capa 1
370
     0
100
AcDb2dPolyline
 66
     1
 10
0.0
 20
0.0
 30
0.0
  0
VERTEX
  5
160
330
15F
100
AcDbEntity
  8
Capa 1
370
     0
100
AcDbVertex
100
AcDb2dVertex
 10
166.3801624517928
 20
141.5460373908733
 30
0.0
  0
VERTEX
  5
161
330
15F
100
AcDbEntity
  8
Capa 1
370
     0
100
AcDbVertex
100
AcDb2dVertex
 10
166.7505775034784
 20
141.5460373908733
 30
0.0
  0
VERTEX
  5
162
330
15F
100
AcDbEntity
  8
Capa 1
370
     0
100
AcDbVertex
100
AcDb2dVertex
 10
166.5653632489335
 20
140.4083282503801
 30
0.0
  0
SEQEND
  5
164
330
15F
100
AcDbEntity
  8
Capa 1
370
     0
  0
HATCH
  5
163
330
1F
100
AcDbEntity
  8
Capa 1
 62
     7
420
 16777215
100
AcDbHatch
 10
0.0
 20
0.0
 30
0.0
210
0.0
220
0.0
230
1.0
  2
SOLID
 70
     1
 71
     0
 91
        1
 92
        1
 93
        3
 72
     1
 10
166.3801624517928
 20
141.5460373908733
 11
166.7505775034784
 21
141.5460373908733
 72
     1
 10
166.7505775034784
 20
141.5460373908733
 11
166.5653632489335
 21
140.4083282503801
 72
     1
 10
166.5653632489335
 20
140.4083282503801
 11
166.3801624517928
 21
141.5460373908733
 97
        0
 75
     0
 76
     1
 98
        0
  0
POLYLINE
  5
165
330
1F
100
AcDbEntity
  8
Capa 1
370
     0
100
AcDb2dPolyline
 66
     1
 10
0.0
 20
0.0
 30
0.0
  0
VERTEX
  5
166
330
165
100
AcDbEntity
  8
Capa 1
370
     0
100
AcDbVertex
100
AcDb2dVertex
 10
166.3801624517928
 20
188.3772793047229
 30
0.0
  0
VERTEX
  5
167
330
165
100
AcDbEntity
  8
Capa 1
370
     0
100
AcDbVertex
100
AcDb2dVertex
 10
166.7505775034784
 20
188.3772793047229
 30
0.0
  0
VERTEX
  5
168
330
165
100
AcDbEntity
  8
Capa 1
370
     0
100
AcDbVertex
100
AcDb2dVertex
 10
166.5653632489335
 20
189.5149951739182
 30
0.0
  0
SEQEND
  5
16A
330
165
100
AcDbEntity
  8
Capa 1
370
     0
  0
HATCH
  5
169
330
1F
100
AcDbEntity
  8
Capa 1
 62
     7
420
 16777215
100
AcDbHatch
 10
0.0
 20
0.0
 30
0.0
210
0.0
220
0.0
230
1.0
  2
SOLID
 70
     1
 71
     0
 91
        1
 92
        1
 93
        3
 72
     1
 10
166.3801624517928
 20
188.3772793047229
 11
166.7505775034784
 21
188.3772793047229
 72
     1
 10
166.7505775034784
 20
188.3772793047229
 11
166.5653632489335
 21
189.5149951739182
 72
     1
 10
166.5653632489335
 20
189.5149951739182
 11
166.3801624517928
 21
188.3772793047229
 97
        0
 75
     0
 76
     1
 98
        0
  0
POLYLINE
  5
16B
330
1F
100
AcDbEntity
  8
Capa 1
 62
     7
420
 16777215
370
     9
100
AcDb2dPolyline
 66
     1
 10
0.0
 20
0.0
 30
0.0
  0
VERTEX
  5
16C
330
16B
100
AcDbEntity
  8
Capa 1
 62
     7
420
 16777215
370
     9
100
AcDbVertex
100
AcDb2dVertex
 10
140.7684949840848
 20
152.9231220671028
 30
0.0
  0
VERTEX
  5
16D
330
16B
100
AcDbEntity
  8
Capa 1
 62
     7
420
 16777215
370
     9
100
AcDbVertex
100
AcDb2dVertex
 10
141.1653740212069
 20
152.9231220671028
 30
0.0
  0
SEQEND
  5
16E
330
16B
100
AcDbEntity
  8
Capa 1
 62
     7
420
 16777215
370
     9
  0
POLYLINE
  5
16F
330
1F
100
AcDbEntity
  8
Capa 1
 62
     7
420
 16777215
370
     9
100
AcDb2dPolyline
 66
     1
 10
0.0
 20
0.0
 30
0.0
  0
VERTEX
  5
170
330
16F
100
AcDbEntity
  8
Capa 1
 62
     7
420
 16777215
370
     9
100
AcDbVertex
100
AcDb2dVertex
 10
139.0222487525946
 20
152.9231220671028
 30
0.0
  0
VERTEX
  5
171
330
16F
100
AcDbEntity
  8
Capa 1
 62
     7
420
 16777215
370
     9
100
AcDbVertex
100
AcDb2dVertex
 10
140.3716226756649
 20
152.9231220671028
 30
0.0
  0
SEQEND
  5
172
330
16F
100
AcDbEntity
  8
Capa 1
 62
     7
420
 16777215
370
     9
  0
POLYLINE
  5
173
330
1F
100
AcDbEntity
  8
Capa 1
 62
     7
420
 16777215
370
     9
100
AcDb2dPolyline
 66
     1
 10
0.0
 20
0.0
 30
0.0
  0
VERTEX
  5
174
330
173
100
AcDbEntity
  8
Capa 1
 62
     7
420
 16777215
370
     9
100
AcDbVertex
100
AcDb2dVertex
 10
141.5622463296268
 20
152.9231220671028
 30
0.0
  0
VERTEX
  5
175
330
173
100
AcDbEntity
  8
Capa 1
 62
     7
420
 16777215
370
     9
100
AcDbVertex
100
AcDb2dVertex
 10
142.9116202526971
 20
152.9231220671028
 30
0.0
  0
SEQEND
  5
176
330
173
100
AcDbEntity
  8
Capa 1
 62
     7
420
 16777215
370
     9
  0
POLYLINE
  5
177
330
1F
100
AcDbEntity
  8
Capa 1
 62
     7
420
 16777215
370
     9
100
AcDb2dPolyline
 66
     1
 10
0.0
 20
0.0
 30
0.0
  0
VERTEX
  5
178
330
177
100
AcDbEntity
  8
Capa 1
 62
     7
420
 16777215
370
     9
100
AcDbVertex
100
AcDb2dVertex
 10
141.906204124578
 20
153.9285381952219
 30
0.0
  0
VERTEX
  5
179
330
177
100
AcDbEntity
  8
Capa 1
 62
     7
420
 16777215
370
     9
100
AcDbVertex
100
AcDb2dVertex
 10
141.906204124578
 20
151.9177059389836
 30
0.0
  0
SEQEND
  5
17A
330
177
100
AcDbEntity
  8
Capa 1
 62
     7
420
 16777215
370
     9
  0
POLYLINE
  5
17B
330
1F
100
AcDbEntity
  8
Capa 1
 62
     7
420
 16777215
370
     9
100
AcDb2dPolyline
 66
     1
 10
0.0
 20
0.0
 30
0.0
  0
VERTEX
  5
17C
330
17B
100
AcDbEntity
  8
Capa 1
 62
     7
420
 16777215
370
     9
100
AcDbVertex
100
AcDb2dVertex
 10
142.3824549319032
 20
152.9231220671028
 30
0.0
  0
VERTEX
  5
17D
330
17B
100
AcDbEntity
  8
Capa 1
 62
     7
420
 16777215
370
     9
100
AcDbVertex
100
AcDb2dVertex
 10
142.3295404184344
 20
153.1083295929456
 30
0.0
  0
VERTEX
  5
17E
330
17B
100
AcDbEntity
  8
Capa 1
 62
     7
420
 16777215
370
     9
100
AcDbVertex
100
AcDb2dVertex
 10
142.2237046627948
 20
153.2406226053196
 30
0.0
  0
VERTEX
  5
17F
330
17B
100
AcDbEntity
  8
Capa 1
 62
     7
420
 16777215
370
     9
100
AcDbVertex
100
AcDb2dVertex
 10
142.2237046627948
 20
153.2670798620539
 30
0.0
  0
SEQEND
  5
180
330
17B
100
AcDbEntity
  8
Capa 1
 62
     7
420
 16777215
370
     9
  0
POLYLINE
  5
181
330
1F
100
AcDbEntity
  8
Capa 1
 62
     7
420
 16777215
370
     9
100
AcDb2dPolyline
 66
     1
 10
0.0
 20
0.0
 30
0.0
  0
VERTEX
  5
182
330
181
100
AcDbEntity
  8
Capa 1
 62
     7
420
 16777215
370
     9
100
AcDbVertex
100
AcDb2dVertex
 10
142.038497136952
 20
153.3729156176936
 30
0.0
  0
VERTEX
  5
183
330
181
100
AcDbEntity
  8
Capa 1
 62
     7
420
 16777215
370
     9
100
AcDbVertex
100
AcDb2dVertex
 10
141.906204124578
 20
153.399372874428
 30
0.0
  0
VERTEX
  5
184
330
181
100
AcDbEntity
  8
Capa 1
 62
     7
420
 16777215
370
     9
100
AcDbVertex
100
AcDb2dVertex
 10
141.7209965987352
 20
153.3464583609592
 30
0.0
  0
VERTEX
  5
185
330
181
100
AcDbEntity
  8
Capa 1
 62
     7
420
 16777215
370
     9
100
AcDbVertex
100
AcDb2dVertex
 10
141.6680820852664
 20
153.3199943755227
 30
0.0
  0
SEQEND
  5
186
330
181
100
AcDbEntity
  8
Capa 1
 62
     7
420
 16777215
370
     9
  0
POLYLINE
  5
187
330
1F
100
AcDbEntity
  8
Capa 1
 62
     7
420
 16777215
370
     9
100
AcDb2dPolyline
 66
     1
 10
0.0
 20
0.0
 30
0.0
  0
VERTEX
  5
188
330
187
100
AcDbEntity
  8
Capa 1
 62
     7
420
 16777215
370
     9
100
AcDbVertex
100
AcDb2dVertex
 10
141.5357890728924
 20
153.1877080918508
 30
0.0
  0
VERTEX
  5
189
330
187
100
AcDbEntity
  8
Capa 1
 62
     7
420
 16777215
370
     9
100
AcDbVertex
100
AcDb2dVertex
 10
141.4564173026893
 20
153.1083295929456
 30
0.0
  0
VERTEX
  5
18A
330
187
100
AcDbEntity
  8
Capa 1
 62
     7
420
 16777215
370
     9
100
AcDbVertex
100
AcDb2dVertex
 10
141.4299533172528
 20
152.9231220671028
 30
0.0
  0
VERTEX
  5
18B
330
187
100
AcDbEntity
  8
Capa 1
 62
     7
420
 16777215
370
     9
100
AcDbVertex
100
AcDb2dVertex
 10
141.4564173026893
 20
152.8172863114631
 30
0.0
  0
SEQEND
  5
18C
330
187
100
AcDbEntity
  8
Capa 1
 62
     7
420
 16777215
370
     9
  0
POLYLINE
  5
18D
330
1F
100
AcDbEntity
  8
Capa 1
 62
     7
420
 16777215
370
     9
100
AcDb2dPolyline
 66
     1
 10
0.0
 20
0.0
 30
0.0
  0
VERTEX
  5
18E
330
18D
100
AcDbEntity
  8
Capa 1
 62
     7
420
 16777215
370
     9
100
AcDbVertex
100
AcDb2dVertex
 10
141.5357890728924
 20
152.6585360423547
 30
0.0
  0
VERTEX
  5
18F
330
18D
100
AcDbEntity
  8
Capa 1
 62
     7
420
 16777215
370
     9
100
AcDbVertex
100
AcDb2dVertex
 10
141.5622463296268
 20
152.5791642721516
 30
0.0
  0
VERTEX
  5
190
330
18D
100
AcDbEntity
  8
Capa 1
 62
     7
420
 16777215
370
     9
100
AcDbVertex
100
AcDb2dVertex
 10
141.7209965987352
 20
152.4997925019485
 30
0.0
  0
VERTEX
  5
191
330
18D
100
AcDbEntity
  8
Capa 1
 62
     7
420
 16777215
370
     9
100
AcDbVertex
100
AcDb2dVertex
 10
141.8532896111092
 20
152.4733285165119
 30
0.0
  0
SEQEND
  5
192
330
18D
100
AcDbEntity
  8
Capa 1
 62
     7
420
 16777215
370
     9
  0
POLYLINE
  5
193
330
1F
100
AcDbEntity
  8
Capa 1
 62
     7
420
 16777215
370
     9
100
AcDb2dPolyline
 66
     1
 10
0.0
 20
0.0
 30
0.0
  0
VERTEX
  5
194
330
193
100
AcDbEntity
  8
Capa 1
 62
     7
420
 16777215
370
     9
100
AcDbVertex
100
AcDb2dVertex
 10
142.038497136952
 20
152.4733285165119
 30
0.0
  0
VERTEX
  5
195
330
193
100
AcDbEntity
  8
Capa 1
 62
     7
420
 16777215
370
     9
100
AcDbVertex
100
AcDb2dVertex
 10
142.0914116504208
 20
152.4997925019485
 30
0.0
  0
VERTEX
  5
196
330
193
100
AcDbEntity
  8
Capa 1
 62
     7
420
 16777215
370
     9
100
AcDbVertex
100
AcDb2dVertex
 10
142.2237046627948
 20
152.5791642721516
 30
0.0
  0
VERTEX
  5
197
330
193
100
AcDbEntity
  8
Capa 1
 62
     7
420
 16777215
370
     9
100
AcDbVertex
100
AcDb2dVertex
 10
142.3295404184344
 20
152.73791454126
 30
0.0
  0
SEQEND
  5
198
330
193
100
AcDbEntity
  8
Capa 1
 62
     7
420
 16777215
370
     9
  0
POLYLINE
  5
199
330
1F
100
AcDbEntity
  8
Capa 1
 62
     7
420
 16777215
370
     9
100
AcDb2dPolyline
 66
     1
 10
0.0
 20
0.0
 30
0.0
  0
VERTEX
  5
19A
330
199
100
AcDbEntity
  8
Capa 1
 62
     7
420
 16777215
370
     9
100
AcDbVertex
100
AcDb2dVertex
 10
142.3824549319032
 20
152.9231220671028
 30
0.0
  0
VERTEX
  5
19B
330
199
100
AcDbEntity
  8
Capa 1
 62
     7
420
 16777215
370
     9
100
AcDbVertex
100
AcDb2dVertex
 10
142.4089121886375
 20
152.9231220671028
 30
0.0
  0
SEQEND
  5
19C
330
199
100
AcDbEntity
  8
Capa 1
 62
     7
420
 16777215
370
     9
  0
POLYLINE
  5
19D
330
1F
100
AcDbEntity
  8
Capa 1
 62
     7
420
 16777215
370
     9
100
AcDb2dPolyline
 66
     1
 10
0.0
 20
0.0
 30
0.0
  0
VERTEX
  5
19E
330
19D
100
AcDbEntity
  8
Capa 1
 62
     7
420
 16777215
370
     9
100
AcDbVertex
100
AcDb2dVertex
 10
141.906204124578
 20
148.3458282483957
 30
0.0
  0
VERTEX
  5
19F
330
19D
100
AcDbEntity
  8
Capa 1
 62
     7
420
 16777215
370
     9
100
AcDbVertex
100
AcDb2dVertex
 10
142.9116202526971
 20
148.3458282483957
 30
0.0
  0
SEQEND
  5
1A0
330
19D
100
AcDbEntity
  8
Capa 1
 62
     7
420
 16777215
370
     9
  0
POLYLINE
  5
1A1
330
1F
100
AcDbEntity
  8
Capa 1
 62
     7
420
 16777215
370
     9
100
AcDb2dPolyline
 66
     1
 10
0.0
 20
0.0
 30
0.0
  0
VERTEX
  5
1A2
330
1A1
100
AcDbEntity
  8
Capa 1
 62
     7
420
 16777215
370
     9
100
AcDbVertex
100
AcDb2dVertex
 10
149.3939173007049
 20
148.3458282483957
 30
0.0
  0
VERTEX
  5
1A3
330
1A1
100
AcDbEntity
  8
Capa 1
 62
     7
420
 16777215
370
     9
100
AcDbVertex
100
AcDb2dVertex
 10
147.8328718663553
 20
148.3458282483957
 30
0.0
  0
SEQEND
  5
1A4
330
1A1
100
AcDbEntity
  8
Capa 1
 62
     7
420
 16777215
370
     9
  0
POLYLINE
  5
1A5
330
1F
100
AcDbEntity
  8
Capa 1
 62
     7
420
 16777215
370
     9
100
AcDb2dPolyline
 66
     1
 10
0.0
 20
0.0
 30
0.0
  0
VERTEX
  5
1A6
330
1A5
100
AcDbEntity
  8
Capa 1
 62
     7
420
 16777215
370
     9
100
AcDbVertex
100
AcDb2dVertex
 10
140.7684949840848
 20
148.3458282483957
 30
0.0
  0
VERTEX
  5
1A7
330
1A5
100
AcDbEntity
  8
Capa 1
 62
     7
420
 16777215
370
     9
100
AcDbVertex
100
AcDb2dVertex
 10
139.6572498290282
 20
148.3458282483957
 30
0.0
  0
SEQEND
  5
1A8
330
1A5
100
AcDbEntity
  8
Capa 1
 62
     7
420
 16777215
370
     9
  0
POLYLINE
  5
1A9
330
1F
100
AcDbEntity
  8
Capa 1
 62
     7
420
 16777215
370
     9
100
AcDb2dPolyline
 66
     1
 10
0.0
 20
0.0
 30
0.0
  0
VERTEX
  5
1AA
330
1A9
100
AcDbEntity
  8
Capa 1
 62
     7
420
 16777215
370
     9
100
AcDbVertex
100
AcDb2dVertex
 10
150.531619712496
 20
148.3458282483957
 30
0.0
  0
VERTEX
  5
1AB
330
1A9
100
AcDbEntity
  8
Capa 1
 62
     7
420
 16777215
370
     9
100
AcDbVertex
100
AcDb2dVertex
 10
151.6428715962547
 20
148.3458282483957
 30
0.0
  0
SEQEND
  5
1AC
330
1A9
100
AcDbEntity
  8
Capa 1
 62
     7
420
 16777215
370
     9
  0
POLYLINE
  5
1AD
330
1F
100
AcDbEntity
  8
Capa 1
 62
     7
420
 16777215
370
     9
100
AcDb2dPolyline
 66
     1
 10
0.0
 20
0.0
 30
0.0
  0
VERTEX
  5
1AE
330
1AD
100
AcDbEntity
  8
Capa 1
 62
     7
420
 16777215
370
     9
100
AcDbVertex
100
AcDb2dVertex
 10
141.906204124578
 20
151.5208336305637
 30
0.0
  0
VERTEX
  5
1AF
330
1AD
100
AcDbEntity
  8
Capa 1
 62
     7
420
 16777215
370
     9
100
AcDbVertex
100
AcDb2dVertex
 10
141.906204124578
 20
147.7108339006643
 30
0.0
  0
SEQEND
  5
1B0
330
1AD
100
AcDbEntity
  8
Capa 1
 62
     7
420
 16777215
370
     9
  0
POLYLINE
  5
1B1
330
1F
100
AcDbEntity
  8
Capa 1
 62
     7
420
 16777215
370
     9
100
AcDb2dPolyline
 66
     1
 10
0.0
 20
0.0
 30
0.0
  0
VERTEX
  5
1B2
330
1B1
100
AcDbEntity
  8
Capa 1
 62
     7
420
 16777215
370
     9
100
AcDbVertex
100
AcDb2dVertex
 10
149.3939173007049
 20
149.4570801321545
 30
0.0
  0
VERTEX
  5
1B3
330
1B1
100
AcDbEntity
  8
Capa 1
 62
     7
420
 16777215
370
     9
100
AcDbVertex
100
AcDb2dVertex
 10
149.3939173007049
 20
147.7108339006643
 30
0.0
  0
SEQEND
  5
1B4
330
1B1
100
AcDbEntity
  8
Capa 1
 62
     7
420
 16777215
370
     9
  0
POLYLINE
  5
1B5
330
1F
100
AcDbEntity
  8
Capa 1
370
     0
100
AcDb2dPolyline
 66
     1
 10
0.0
 20
0.0
 30
0.0
  0
VERTEX
  5
1B6
330
1B5
100
AcDbEntity
  8
Capa 1
370
     0
100
AcDbVertex
100
AcDb2dVertex
 10
150.531619712496
 20
148.5310425029406
 30
0.0
  0
VERTEX
  5
1B7
330
1B5
100
AcDbEntity
  8
Capa 1
370
     0
100
AcDbVertex
100
AcDb2dVertex
 10
150.531619712496
 20
148.1341634658186
 30
0.0
  0
VERTEX
  5
1B8
330
1B5
100
AcDbEntity
  8
Capa 1
370
     0
100
AcDbVertex
100
AcDb2dVertex
 10
149.3939173007049
 20
148.3458282483957
 30
0.0
  0
SEQEND
  5
1BA
330
1B5
100
AcDbEntity
  8
Capa 1
370
     0
  0
HATCH
  5
1B9
330
1F
100
AcDbEntity
  8
Capa 1
 62
     7
420
 16777215
100
AcDbHatch
 10
0.0
 20
0.0
 30
0.0
210
0.0
220
0.0
230
1.0
  2
SOLID
 70
     1
 71
     0
 91
        1
 92
        1
 93
        3
 72
     1
 10
150.531619712496
 20
148.5310425029406
 11
150.531619712496
 21
148.1341634658186
 72
     1
 10
150.531619712496
 20
148.1341634658186
 11
149.3939173007049
 21
148.3458282483957
 72
     1
 10
149.3939173007049
 20
148.3458282483957
 11
150.531619712496
 21
148.5310425029406
 97
        0
 75
     0
 76
     1
 98
        0
  0
POLYLINE
  5
1BB
330
1F
100
AcDbEntity
  8
Capa 1
370
     0
100
AcDb2dPolyline
 66
     1
 10
0.0
 20
0.0
 30
0.0
  0
VERTEX
  5
1BC
330
1BB
100
AcDbEntity
  8
Capa 1
370
     0
100
AcDbVertex
100
AcDb2dVertex
 10
140.7684949840848
 20
148.5310425029406
 30
0.0
  0
VERTEX
  5
1BD
330
1BB
100
AcDbEntity
  8
Capa 1
370
     0
100
AcDbVertex
100
AcDb2dVertex
 10
140.7684949840848
 20
148.1341634658186
 30
0.0
  0
VERTEX
  5
1BE
330
1BB
100
AcDbEntity
  8
Capa 1
370
     0
100
AcDbVertex
100
AcDb2dVertex
 10
141.906204124578
 20
148.3458282483957
 30
0.0
  0
SEQEND
  5
1C0
330
1BB
100
AcDbEntity
  8
Capa 1
370
     0
  0
HATCH
  5
1BF
330
1F
100
AcDbEntity
  8
Capa 1
 62
     7
420
 16777215
100
AcDbHatch
 10
0.0
 20
0.0
 30
0.0
210
0.0
220
0.0
230
1.0
  2
SOLID
 70
     1
 71
     0
 91
        1
 92
        1
 93
        3
 72
     1
 10
140.7684949840848
 20
148.5310425029406
 11
140.7684949840848
 21
148.1341634658186
 72
     1
 10
140.7684949840848
 20
148.1341634658186
 11
141.906204124578
 21
148.3458282483957
 72
     1
 10
141.906204124578
 20
148.3458282483957
 11
140.7684949840848
 21
148.5310425029406
 97
        0
 75
     0
 76
     1
 98
        0
  0
POLYLINE
  5
1C1
330
1F
100
AcDbEntity
  8
Capa 1
 62
     7
420
 16777215
370
     9
100
AcDb2dPolyline
 66
     1
 10
0.0
 20
0.0
 30
0.0
  0
VERTEX
  5
1C2
330
1C1
100
AcDbEntity
  8
Capa 1
 62
     7
420
 16777215
370
     9
100
AcDbVertex
100
AcDb2dVertex
 10
136.9849592396219
 20
151.7854129266096
 30
0.0
  0
VERTEX
  5
1C3
330
1C1
100
AcDbEntity
  8
Capa 1
 62
     7
420
 16777215
370
     9
100
AcDbVertex
100
AcDb2dVertex
 10
136.9849592396219
 20
148.2399992214582
 30
0.0
  0
SEQEND
  5
1C4
330
1C1
100
AcDbEntity
  8
Capa 1
 62
     7
420
 16777215
370
     9
  0
POLYLINE
  5
1C5
330
1F
100
AcDbEntity
  8
Capa 1
 62
     7
420
 16777215
370
     9
100
AcDb2dPolyline
 66
     1
 10
0.0
 20
0.0
 30
0.0
  0
VERTEX
  5
1C6
330
1C5
100
AcDbEntity
  8
Capa 1
 62
     7
420
 16777215
370
     9
100
AcDbVertex
100
AcDb2dVertex
 10
136.9849592396219
 20
141.5460373908733
 30
0.0
  0
VERTEX
  5
1C7
330
1C5
100
AcDbEntity
  8
Capa 1
 62
     7
420
 16777215
370
     9
100
AcDbVertex
100
AcDb2dVertex
 10
136.9849592396219
 20
145.1179150814611
 30
0.0
  0
SEQEND
  5
1C8
330
1C5
100
AcDbEntity
  8
Capa 1
 62
     7
420
 16777215
370
     9
  0
POLYLINE
  5
1C9
330
1F
100
AcDbEntity
  8
Capa 1
 62
     7
420
 16777215
370
     9
100
AcDb2dPolyline
 66
     1
 10
0.0
 20
0.0
 30
0.0
  0
VERTEX
  5
1CA
330
1C9
100
AcDbEntity
  8
Capa 1
 62
     7
420
 16777215
370
     9
100
AcDbVertex
100
AcDb2dVertex
 10
138.0962043946786
 20
152.9231220671028
 30
0.0
  0
VERTEX
  5
1CB
330
1C9
100
AcDbEntity
  8
Capa 1
 62
     7
420
 16777215
370
     9
100
AcDbVertex
100
AcDb2dVertex
 10
136.3499581631883
 20
152.9231220671028
 30
0.0
  0
SEQEND
  5
1CC
330
1C9
100
AcDbEntity
  8
Capa 1
 62
     7
420
 16777215
370
     9
  0
POLYLINE
  5
1CD
330
1F
100
AcDbEntity
  8
Capa 1
 62
     7
420
 16777215
370
     9
100
AcDb2dPolyline
 66
     1
 10
0.0
 20
0.0
 30
0.0
  0
VERTEX
  5
1CE
330
1CD
100
AcDbEntity
  8
Capa 1
 62
     7
420
 16777215
370
     9
100
AcDbVertex
100
AcDb2dVertex
 10
141.5887035863612
 20
140.4083282503801
 30
0.0
  0
VERTEX
  5
1CF
330
1CD
100
AcDbEntity
  8
Capa 1
 62
     7
420
 16777215
370
     9
100
AcDbVertex
100
AcDb2dVertex
 10
136.3499581631883
 20
140.4083282503801
 30
0.0
  0
SEQEND
  5
1D0
330
1CD
100
AcDbEntity
  8
Capa 1
 62
     7
420
 16777215
370
     9
  0
POLYLINE
  5
1D1
330
1F
100
AcDbEntity
  8
Capa 1
370
     0
100
AcDb2dPolyline
 66
     1
 10
0.0
 20
0.0
 30
0.0
  0
VERTEX
  5
1D2
330
1D1
100
AcDbEntity
  8
Capa 1
370
     0
100
AcDbVertex
100
AcDb2dVertex
 10
136.799744985077
 20
141.5460373908733
 30
0.0
  0
VERTEX
  5
1D3
330
1D1
100
AcDbEntity
  8
Capa 1
370
     0
100
AcDbVertex
100
AcDb2dVertex
 10
137.1701667654647
 20
141.5460373908733
 30
0.0
  0
VERTEX
  5
1D4
330
1D1
100
AcDbEntity
  8
Capa 1
370
     0
100
AcDbVertex
100
AcDb2dVertex
 10
136.9849592396219
 20
140.4083282503801
 30
0.0
  0
SEQEND
  5
1D6
330
1D1
100
AcDbEntity
  8
Capa 1
370
     0
  0
HATCH
  5
1D5
330
1F
100
AcDbEntity
  8
Capa 1
 62
     7
420
 16777215
100
AcDbHatch
 10
0.0
 20
0.0
 30
0.0
210
0.0
220
0.0
230
1.0
  2
SOLID
 70
     1
 71
     0
 91
        1
 92
        1
 93
        3
 72
     1
 10
136.799744985077
 20
141.5460373908733
 11
137.1701667654647
 21
141.5460373908733
 72
     1
 10
137.1701667654647
 20
141.5460373908733
 11
136.9849592396219
 21
140.4083282503801
 72
     1
 10
136.9849592396219
 20
140.4083282503801
 11
136.799744985077
 21
141.5460373908733
 97
        0
 75
     0
 76
     1
 98
        0
  0
POLYLINE
  5
1D7
330
1F
100
AcDbEntity
  8
Capa 1
370
     0
100
AcDb2dPolyline
 66
     1
 10
0.0
 20
0.0
 30
0.0
  0
VERTEX
  5
1D8
330
1D7
100
AcDbEntity
  8
Capa 1
370
     0
100
AcDbVertex
100
AcDb2dVertex
 10
136.799744985077
 20
151.7854129266096
 30
0.0
  0
VERTEX
  5
1D9
330
1D7
100
AcDbEntity
  8
Capa 1
370
     0
100
AcDbVertex
100
AcDb2dVertex
 10
137.1701667654647
 20
151.7854129266096
 30
0.0
  0
VERTEX
  5
1DA
330
1D7
100
AcDbEntity
  8
Capa 1
370
     0
100
AcDbVertex
100
AcDb2dVertex
 10
136.9849592396219
 20
152.9231220671028
 30
0.0
  0
SEQEND
  5
1DC
330
1D7
100
AcDbEntity
  8
Capa 1
370
     0
  0
HATCH
  5
1DB
330
1F
100
AcDbEntity
  8
Capa 1
 62
     7
420
 16777215
100
AcDbHatch
 10
0.0
 20
0.0
 30
0.0
210
0.0
220
0.0
230
1.0
  2
SOLID
 70
     1
 71
     0
 91
        1
 92
        1
 93
        3
 72
     1
 10
136.799744985077
 20
151.7854129266096
 11
137.1701667654647
 21
151.7854129266096
 72
     1
 10
137.1701667654647
 20
151.7854129266096
 11
136.9849592396219
 21
152.9231220671028
 72
     1
 10
136.9849592396219
 20
152.9231220671028
 11
136.799744985077
 21
151.7854129266096
 97
        0
 75
     0
 76
     1
 98
        0
  0
POLYLINE
  5
1DD
330
1F
100
AcDbEntity
  8
Capa 1
 62
     7
420
 16777215
370
     9
100
AcDb2dPolyline
 66
     1
 10
0.0
 20
0.0
 30
0.0
  0
VERTEX
  5
1DE
330
1DD
100
AcDbEntity
  8
Capa 1
 62
     7
420
 16777215
370
     9
100
AcDbVertex
100
AcDb2dVertex
 10
155.1618280446717
 20
136.0956204564211
 30
0.0
  0
VERTEX
  5
1DF
330
1DD
100
AcDbEntity
  8
Capa 1
 62
     7
420
 16777215
370
     9
100
AcDbVertex
100
AcDb2dVertex
 10
151.9339148777372
 20
136.0956204564211
 30
0.0
  0
SEQEND
  5
1E0
330
1DD
100
AcDbEntity
  8
Capa 1
 62
     7
420
 16777215
370
     9
  0
POLYLINE
  5
1E1
330
1F
100
AcDbEntity
  8
Capa 1
 62
     7
420
 16777215
370
     9
100
AcDb2dPolyline
 66
     1
 10
0.0
 20
0.0
 30
0.0
  0
VERTEX
  5
1E2
330
1E1
100
AcDbEntity
  8
Capa 1
 62
     7
420
 16777215
370
     9
100
AcDbVertex
100
AcDb2dVertex
 10
143.6524570847704
 20
136.0956204564211
 30
0.0
  0
VERTEX
  5
1E3
330
1E1
100
AcDbEntity
  8
Capa 1
 62
     7
420
 16777215
370
     9
100
AcDbVertex
100
AcDb2dVertex
 10
146.8539129949706
 20
136.0956204564211
 30
0.0
  0
SEQEND
  5
1E4
330
1E1
100
AcDbEntity
  8
Capa 1
 62
     7
420
 16777215
370
     9
  0
POLYLINE
  5
1E5
330
1F
100
AcDbEntity
  8
Capa 1
 62
     7
420
 16777215
370
     9
100
AcDb2dPolyline
 66
     1
 10
0.0
 20
0.0
 30
0.0
  0
VERTEX
  5
1E6
330
1E5
100
AcDbEntity
  8
Capa 1
 62
     7
420
 16777215
370
     9
100
AcDbVertex
100
AcDb2dVertex
 10
156.2730799284305
 20
139.4822906211662
 30
0.0
  0
VERTEX
  5
1E7
330
1E5
100
AcDbEntity
  8
Capa 1
 62
     7
420
 16777215
370
     9
100
AcDbVertex
100
AcDb2dVertex
 10
156.2730799284305
 20
135.4606261086897
 30
0.0
  0
SEQEND
  5
1E8
330
1E5
100
AcDbEntity
  8
Capa 1
 62
     7
420
 16777215
370
     9
  0
POLYLINE
  5
1E9
330
1F
100
AcDbEntity
  8
Capa 1
 62
     7
420
 16777215
370
     9
100
AcDb2dPolyline
 66
     1
 10
0.0
 20
0.0
 30
0.0
  0
VERTEX
  5
1EA
330
1E9
100
AcDbEntity
  8
Capa 1
 62
     7
420
 16777215
370
     9
100
AcDbVertex
100
AcDb2dVertex
 10
142.5147479442772
 20
139.4822906211662
 30
0.0
  0
VERTEX
  5
1EB
330
1E9
100
AcDbEntity
  8
Capa 1
 62
     7
420
 16777215
370
     9
100
AcDbVertex
100
AcDb2dVertex
 10
142.5147479442772
 20
135.4606261086897
 30
0.0
  0
SEQEND
  5
1EC
330
1E9
100
AcDbEntity
  8
Capa 1
 62
     7
420
 16777215
370
     9
  0
POLYLINE
  5
1ED
330
1F
100
AcDbEntity
  8
Capa 1
370
     0
100
AcDb2dPolyline
 66
     1
 10
0.0
 20
0.0
 30
0.0
  0
VERTEX
  5
1EE
330
1ED
100
AcDbEntity
  8
Capa 1
370
     0
100
AcDbVertex
100
AcDb2dVertex
 10
143.6524570847704
 20
136.2808279822639
 30
0.0
  0
VERTEX
  5
1EF
330
1ED
100
AcDbEntity
  8
Capa 1
370
     0
100
AcDbVertex
100
AcDb2dVertex
 10
143.6524570847704
 20
135.9104129305784
 30
0.0
  0
VERTEX
  5
1F0
330
1ED
100
AcDbEntity
  8
Capa 1
370
     0
100
AcDbVertex
100
AcDb2dVertex
 10
142.5147479442772
 20
136.0956204564211
 30
0.0
  0
SEQEND
  5
1F2
330
1ED
100
AcDbEntity
  8
Capa 1
370
     0
  0
HATCH
  5
1F1
330
1F
100
AcDbEntity
  8
Capa 1
 62
     7
420
 16777215
100
AcDbHatch
 10
0.0
 20
0.0
 30
0.0
210
0.0
220
0.0
230
1.0
  2
SOLID
 70
     1
 71
     0
 91
        1
 92
        1
 93
        3
 72
     1
 10
143.6524570847704
 20
136.2808279822639
 11
143.6524570847704
 21
135.9104129305784
 72
     1
 10
143.6524570847704
 20
135.9104129305784
 11
142.5147479442772
 21
136.0956204564211
 72
     1
 10
142.5147479442772
 20
136.0956204564211
 11
143.6524570847704
 21
136.2808279822639
 97
        0
 75
     0
 76
     1
 98
        0
  0
POLYLINE
  5
1F3
330
1F
100
AcDbEntity
  8
Capa 1
370
     0
100
AcDb2dPolyline
 66
     1
 10
0.0
 20
0.0
 30
0.0
  0
VERTEX
  5
1F4
330
1F3
100
AcDbEntity
  8
Capa 1
370
     0
100
AcDbVertex
100
AcDb2dVertex
 10
155.1618280446717
 20
136.2808279822639
 30
0.0
  0
VERTEX
  5
1F5
330
1F3
100
AcDbEntity
  8
Capa 1
370
     0
100
AcDbVertex
100
AcDb2dVertex
 10
155.1618280446717
 20
135.9104129305784
 30
0.0
  0
VERTEX
  5
1F6
330
1F3
100
AcDbEntity
  8
Capa 1
370
     0
100
AcDbVertex
100
AcDb2dVertex
 10
156.2730799284305
 20
136.0956204564211
 30
0.0
  0
SEQEND
  5
1F8
330
1F3
100
AcDbEntity
  8
Capa 1
370
     0
  0
HATCH
  5
1F7
330
1F
100
AcDbEntity
  8
Capa 1
 62
     7
420
 16777215
100
AcDbHatch
 10
0.0
 20
0.0
 30
0.0
210
0.0
220
0.0
230
1.0
  2
SOLID
 70
     1
 71
     0
 91
        1
 92
        1
 93
        3
 72
     1
 10
155.1618280446717
 20
136.2808279822639
 11
155.1618280446717
 21
135.9104129305784
 72
     1
 10
155.1618280446717
 20
135.9104129305784
 11
156.2730799284305
 21
136.0956204564211
 72
     1
 10
156.2730799284305
 20
136.0956204564211
 11
155.1618280446718
 21
136.2808279822639
 97
        0
 75
     0
 76
     1
 98
        0
  0
POLYLINE
  5
1F9
330
1F
100
AcDbEntity
  8
Capa 1
 62
     7
420
 16777215
370
     9
100
AcDb2dPolyline
 66
     1
 10
0.0
 20
0.0
 30
0.0
  0
VERTEX
  5
1FA
330
1F9
100
AcDbEntity
  8
Capa 1
 62
     7
420
 16777215
370
     9
100
AcDbVertex
100
AcDb2dVertex
 10
77.78002775684928
 20
89.13208889454853
 30
0.0
  0
VERTEX
  5
1FB
330
1F9
100
AcDbEntity
  8
Capa 1
 62
     7
420
 16777215
370
     9
100
AcDbVertex
100
AcDb2dVertex
 10
77.93877802595767
 20
88.89396349088594
 30
0.0
  0
VERTEX
  5
1FC
330
1F9
100
AcDbEntity
  8
Capa 1
 62
     7
420
 16777215
370
     9
100
AcDbVertex
100
AcDb2dVertex
 10
78.17690342962156
 20
88.73521322177754
 30
0.0
  0
VERTEX
  5
1FD
330
1F9
100
AcDbEntity
  8
Capa 1
 62
     7
420
 16777215
370
     9
100
AcDbVertex
100
AcDb2dVertex
 10
78.44148609001725
 20
88.6293774661379
 30
0.0
  0
VERTEX
  5
1FE
330
1F9
100
AcDbEntity
  8
Capa 1
 62
     7
420
 16777215
370
     9
100
AcDbVertex
100
AcDb2dVertex
 10
78.70606875041423
 20
88.57646295266913
 30
0.0
  0
SEQEND
  5
1FF
330
1F9
100
AcDbEntity
  8
Capa 1
 62
     7
420
 16777215
370
     9
  0
POLYLINE
  5
200
330
1F
100
AcDbEntity
  8
Capa 1
 62
     7
420
 16777215
370
     9
100
AcDb2dPolyline
 66
     1
 10
0.0
 20
0.0
 30
0.0
  0
VERTEX
  5
201
330
200
100
AcDbEntity
  8
Capa 1
 62
     7
420
 16777215
370
     9
100
AcDbVertex
100
AcDb2dVertex
 10
78.70606875041423
 20
111.0924968084123
 30
0.0
  0
VERTEX
  5
202
330
200
100
AcDbEntity
  8
Capa 1
 62
     7
420
 16777215
370
     9
100
AcDbVertex
100
AcDb2dVertex
 10
78.44148609001725
 20
111.0395822949436
 30
0.0
  0
VERTEX
  5
203
330
200
100
AcDbEntity
  8
Capa 1
 62
     7
420
 16777215
370
     9
100
AcDbVertex
100
AcDb2dVertex
 10
78.17690342962156
 20
110.9337465393039
 30
0.0
  0
VERTEX
  5
204
330
200
100
AcDbEntity
  8
Capa 1
 62
     7
420
 16777215
370
     9
100
AcDbVertex
100
AcDb2dVertex
 10
77.93877802595767
 20
110.7749962701955
 30
0.0
  0
VERTEX
  5
205
330
200
100
AcDbEntity
  8
Capa 1
 62
     7
420
 16777215
370
     9
100
AcDbVertex
100
AcDb2dVertex
 10
77.78002775684928
 20
110.536874230884
 30
0.0
  0
SEQEND
  5
206
330
200
100
AcDbEntity
  8
Capa 1
 62
     7
420
 16777215
370
     9
  0
POLYLINE
  5
207
330
1F
100
AcDbEntity
  8
Capa 1
 62
     7
420
 16777215
370
     9
100
AcDb2dPolyline
 66
     1
 10
0.0
 20
0.0
 30
0.0
  0
VERTEX
  5
208
330
207
100
AcDbEntity
  8
Capa 1
 62
     7
420
 16777215
370
     9
100
AcDbVertex
100
AcDb2dVertex
 10
82.72773662724185
 20
94.82062786831222
 30
0.0
  0
VERTEX
  5
209
330
207
100
AcDbEntity
  8
Capa 1
 62
     7
420
 16777215
370
     9
100
AcDbVertex
100
AcDb2dVertex
 10
82.67481874942204
 20
95.00583875850604
 30
0.0
  0
VERTEX
  5
20A
330
207
100
AcDbEntity
  8
Capa 1
 62
     7
420
 16777215
370
     9
100
AcDbVertex
100
AcDb2dVertex
 10
82.56898635813346
 20
95.16458566326338
 30
0.0
  0
VERTEX
  5
20B
330
207
100
AcDbEntity
  8
Capa 1
 62
     7
420
 16777215
370
     9
100
AcDbVertex
100
AcDb2dVertex
 10
82.4366967101105
 20
95.27042141890303
 30
0.0
  0
VERTEX
  5
20C
330
207
100
AcDbEntity
  8
Capa 1
 62
     7
420
 16777215
370
     9
100
AcDbVertex
100
AcDb2dVertex
 10
82.25148581991667
 20
95.2968786756374
 30
0.0
  0
VERTEX
  5
20D
330
207
100
AcDbEntity
  8
Capa 1
 62
     7
420
 16777215
370
     9
100
AcDbVertex
100
AcDb2dVertex
 10
82.06627829407388
 20
95.27042141890303
 30
0.0
  0
VERTEX
  5
20E
330
207
100
AcDbEntity
  8
Capa 1
 62
     7
420
 16777215
370
     9
100
AcDbVertex
100
AcDb2dVertex
 10
81.90752802496549
 20
95.16458566326338
 30
0.0
  0
VERTEX
  5
20F
330
207
100
AcDbEntity
  8
Capa 1
 62
     7
420
 16777215
370
     9
100
AcDbVertex
100
AcDb2dVertex
 10
81.82815289041129
 20
95.00583875850604
 30
0.0
  0
VERTEX
  5
210
330
207
100
AcDbEntity
  8
Capa 1
 62
     7
420
 16777215
370
     9
100
AcDbVertex
100
AcDb2dVertex
 10
81.77523837694254
 20
94.82062786831222
 30
0.0
  0
VERTEX
  5
211
330
207
100
AcDbEntity
  8
Capa 1
 62
     7
420
 16777215
370
     9
100
AcDbVertex
100
AcDb2dVertex
 10
81.82815289041129
 20
94.66187759920382
 30
0.0
  0
VERTEX
  5
212
330
207
100
AcDbEntity
  8
Capa 1
 62
     7
420
 16777215
370
     9
100
AcDbVertex
100
AcDb2dVertex
 10
81.90752802496549
 20
94.50312733009542
 30
0.0
  0
VERTEX
  5
213
330
207
100
AcDbEntity
  8
Capa 1
 62
     7
420
 16777215
370
     9
100
AcDbVertex
100
AcDb2dVertex
 10
82.06627829407388
 20
94.39729493880684
 30
0.0
  0
VERTEX
  5
214
330
207
100
AcDbEntity
  8
Capa 1
 62
     7
420
 16777215
370
     9
100
AcDbVertex
100
AcDb2dVertex
 10
82.25148581991667
 20
94.37083768207246
 30
0.0
  0
VERTEX
  5
215
330
207
100
AcDbEntity
  8
Capa 1
 62
     7
420
 16777215
370
     9
100
AcDbVertex
100
AcDb2dVertex
 10
82.4366967101105
 20
94.39729493880684
 30
0.0
  0
VERTEX
  5
216
330
207
100
AcDbEntity
  8
Capa 1
 62
     7
420
 16777215
370
     9
100
AcDbVertex
100
AcDb2dVertex
 10
82.56898635813346
 20
94.50312733009542
 30
0.0
  0
VERTEX
  5
217
330
207
100
AcDbEntity
  8
Capa 1
 62
     7
420
 16777215
370
     9
100
AcDbVertex
100
AcDb2dVertex
 10
82.67481874942204
 20
94.66187759920382
 30
0.0
  0
VERTEX
  5
218
330
207
100
AcDbEntity
  8
Capa 1
 62
     7
420
 16777215
370
     9
100
AcDbVertex
100
AcDb2dVertex
 10
82.72773662724185
 20
94.82062786831222
 30
0.0
  0
SEQEND
  5
219
330
207
100
AcDbEntity
  8
Capa 1
 62
     7
420
 16777215
370
     9
  0
POLYLINE
  5
21A
330
1F
100
AcDbEntity
  8
Capa 1
 62
     7
420
 16777215
370
     9
100
AcDb2dPolyline
 66
     1
 10
0.0
 20
0.0
 30
0.0
  0
VERTEX
  5
21B
330
21A
100
AcDbEntity
  8
Capa 1
 62
     7
420
 16777215
370
     9
100
AcDbVertex
100
AcDb2dVertex
 10
82.72773662724185
 20
104.8218780003859
 30
0.0
  0
VERTEX
  5
21C
330
21A
100
AcDbEntity
  8
Capa 1
 62
     7
420
 16777215
370
     9
100
AcDbVertex
100
AcDb2dVertex
 10
82.67481874942204
 20
105.0070855262287
 30
0.0
  0
VERTEX
  5
21D
330
21A
100
AcDbEntity
  8
Capa 1
 62
     7
420
 16777215
370
     9
100
AcDbVertex
100
AcDb2dVertex
 10
82.56898635813346
 20
105.1658357953371
 30
0.0
  0
VERTEX
  5
21E
330
21A
100
AcDbEntity
  8
Capa 1
 62
     7
420
 16777215
370
     9
100
AcDbVertex
100
AcDb2dVertex
 10
82.4366967101105
 20
105.2716715509767
 30
0.0
  0
VERTEX
  5
21F
330
21A
100
AcDbEntity
  8
Capa 1
 62
     7
420
 16777215
370
     9
100
AcDbVertex
100
AcDb2dVertex
 10
82.25148581991667
 20
105.2981288077111
 30
0.0
  0
VERTEX
  5
220
330
21A
100
AcDbEntity
  8
Capa 1
 62
     7
420
 16777215
370
     9
100
AcDbVertex
100
AcDb2dVertex
 10
82.06627829407388
 20
105.2716715509767
 30
0.0
  0
VERTEX
  5
221
330
21A
100
AcDbEntity
  8
Capa 1
 62
     7
420
 16777215
370
     9
100
AcDbVertex
100
AcDb2dVertex
 10
81.90752802496549
 20
105.1658357953371
 30
0.0
  0
VERTEX
  5
222
330
21A
100
AcDbEntity
  8
Capa 1
 62
     7
420
 16777215
370
     9
100
AcDbVertex
100
AcDb2dVertex
 10
81.82815289041129
 20
105.0070855262287
 30
0.0
  0
VERTEX
  5
223
330
21A
100
AcDbEntity
  8
Capa 1
 62
     7
420
 16777215
370
     9
100
AcDbVertex
100
AcDb2dVertex
 10
81.77523837694254
 20
104.8218780003859
 30
0.0
  0
VERTEX
  5
224
330
21A
100
AcDbEntity
  8
Capa 1
 62
     7
420
 16777215
370
     9
100
AcDbVertex
100
AcDb2dVertex
 10
81.82815289041129
 20
104.6631277312775
 30
0.0
  0
VERTEX
  5
225
330
21A
100
AcDbEntity
  8
Capa 1
 62
     7
420
 16777215
370
     9
100
AcDbVertex
100
AcDb2dVertex
 10
81.90752802496549
 20
104.5043774621691
 30
0.0
  0
VERTEX
  5
226
330
21A
100
AcDbEntity
  8
Capa 1
 62
     7
420
 16777215
370
     9
100
AcDbVertex
100
AcDb2dVertex
 10
82.06627829407388
 20
104.3985450708806
 30
0.0
  0
VERTEX
  5
227
330
21A
100
AcDbEntity
  8
Capa 1
 62
     7
420
 16777215
370
     9
100
AcDbVertex
100
AcDb2dVertex
 10
82.25148581991667
 20
104.3720878141462
 30
0.0
  0
VERTEX
  5
228
330
21A
100
AcDbEntity
  8
Capa 1
 62
     7
420
 16777215
370
     9
100
AcDbVertex
100
AcDb2dVertex
 10
82.4366967101105
 20
104.3985450708806
 30
0.0
  0
VERTEX
  5
229
330
21A
100
AcDbEntity
  8
Capa 1
 62
     7
420
 16777215
370
     9
100
AcDbVertex
100
AcDb2dVertex
 10
82.56898635813346
 20
104.5043774621691
 30
0.0
  0
VERTEX
  5
22A
330
21A
100
AcDbEntity
  8
Capa 1
 62
     7
420
 16777215
370
     9
100
AcDbVertex
100
AcDb2dVertex
 10
82.67481874942204
 20
104.6631277312775
 30
0.0
  0
VERTEX
  5
22B
330
21A
100
AcDbEntity
  8
Capa 1
 62
     7
420
 16777215
370
     9
100
AcDbVertex
100
AcDb2dVertex
 10
82.72773662724185
 20
104.8218780003859
 30
0.0
  0
SEQEND
  5
22C
330
21A
100
AcDbEntity
  8
Capa 1
 62
     7
420
 16777215
370
     9
  0
POLYLINE
  5
22D
330
1F
100
AcDbEntity
  8
Capa 1
 62
     7
420
 16777215
370
     9
100
AcDb2dPolyline
 66
     1
 10
0.0
 20
0.0
 30
0.0
  0
VERTEX
  5
22E
330
22D
100
AcDbEntity
  8
Capa 1
 62
     7
420
 16777215
370
     9
100
AcDbVertex
100
AcDb2dVertex
 10
98.31168997743963
 20
111.0924968084123
 30
0.0
  0
VERTEX
  5
22F
330
22D
100
AcDbEntity
  8
Capa 1
 62
     7
420
 16777215
370
     9
100
AcDbVertex
100
AcDb2dVertex
 10
78.70606875041423
 20
111.0924968084123
 30
0.0
  0
SEQEND
  5
230
330
22D
100
AcDbEntity
  8
Capa 1
 62
     7
420
 16777215
370
     9
  0
POLYLINE
  5
231
330
1F
100
AcDbEntity
  8
Capa 1
 62
     7
420
 16777215
370
     9
100
AcDb2dPolyline
 66
     1
 10
0.0
 20
0.0
 30
0.0
  0
VERTEX
  5
232
330
231
100
AcDbEntity
  8
Capa 1
 62
     7
420
 16777215
370
     9
100
AcDbVertex
100
AcDb2dVertex
 10
98.31168997743963
 20
88.57646295266913
 30
0.0
  0
VERTEX
  5
233
330
231
100
AcDbEntity
  8
Capa 1
 62
     7
420
 16777215
370
     9
100
AcDbVertex
100
AcDb2dVertex
 10
99.42294186119841
 20
88.6293774661379
 30
0.0
  0
VERTEX
  5
234
330
231
100
AcDbEntity
  8
Capa 1
 62
     7
420
 16777215
370
     9
100
AcDbVertex
100
AcDb2dVertex
 10
100.5077364882228
 20
88.78812773524629
 30
0.0
  0
VERTEX
  5
235
330
231
100
AcDbEntity
  8
Capa 1
 62
     7
420
 16777215
370
     9
100
AcDbVertex
100
AcDb2dVertex
 10
101.5660671298107
 20
89.07917101672871
 30
0.0
  0
VERTEX
  5
236
330
231
100
AcDbEntity
  8
Capa 1
 62
     7
420
 16777215
370
     9
100
AcDbVertex
100
AcDb2dVertex
 10
102.6244045001007
 20
89.44958606841426
 30
0.0
  0
VERTEX
  5
237
330
231
100
AcDbEntity
  8
Capa 1
 62
     7
420
 16777215
370
     9
100
AcDbVertex
100
AcDb2dVertex
 10
103.6033566427834
 20
89.89937961900507
 30
0.0
  0
VERTEX
  5
238
330
231
100
AcDbEntity
  8
Capa 1
 62
     7
420
 16777215
370
     9
100
AcDbVertex
100
AcDb2dVertex
 10
104.5558582574338
 20
90.48146281761885
 30
0.0
  0
VERTEX
  5
239
330
231
100
AcDbEntity
  8
Capa 1
 62
     7
420
 16777215
370
     9
100
AcDbVertex
100
AcDb2dVertex
 10
105.4554453586154
 20
91.14292115078682
 30
0.0
  0
VERTEX
  5
23A
330
231
100
AcDbEntity
  8
Capa 1
 62
     7
420
 16777215
370
     9
100
AcDbVertex
100
AcDb2dVertex
 10
106.2756539608918
 20
91.88375461850899
 30
0.0
  0
VERTEX
  5
23B
330
231
100
AcDbEntity
  8
Capa 1
 62
     7
420
 16777215
370
     9
100
AcDbVertex
100
AcDb2dVertex
 10
107.0164840642629
 20
92.70396322078535
 30
0.0
  0
VERTEX
  5
23C
330
231
100
AcDbEntity
  8
Capa 1
 62
     7
420
 16777215
370
     9
100
AcDbVertex
100
AcDb2dVertex
 10
107.6514851406965
 20
93.57708633653047
 30
0.0
  0
VERTEX
  5
23D
330
231
100
AcDbEntity
  8
Capa 1
 62
     7
420
 16777215
370
     9
100
AcDbVertex
100
AcDb2dVertex
 10
108.2335649749592
 20
94.52958795118086
 30
0.0
  0
VERTEX
  5
23E
330
231
100
AcDbEntity
  8
Capa 1
 62
     7
420
 16777215
370
     9
100
AcDbVertex
100
AcDb2dVertex
 10
108.7098157822844
 20
95.5350040793
 30
0.0
  0
VERTEX
  5
23F
330
231
100
AcDbEntity
  8
Capa 1
 62
     7
420
 16777215
370
     9
100
AcDbVertex
100
AcDb2dVertex
 10
109.080237562672
 20
96.56687746415352
 30
0.0
  0
VERTEX
  5
240
330
231
100
AcDbEntity
  8
Capa 1
 62
     7
420
 16777215
370
     9
100
AcDbVertex
100
AcDb2dVertex
 10
109.3448168587179
 20
97.65167209117793
 30
0.0
  0
VERTEX
  5
241
330
231
100
AcDbEntity
  8
Capa 1
 62
     7
420
 16777215
370
     9
100
AcDbVertex
100
AcDb2dVertex
 10
109.5035671278263
 20
98.73646335385126
 30
0.0
  0
VERTEX
  5
242
330
231
100
AcDbEntity
  8
Capa 1
 62
     7
420
 16777215
370
     9
100
AcDbVertex
100
AcDb2dVertex
 10
109.5564816412951
 20
99.82125461652461
 30
0.0
  0
VERTEX
  5
243
330
231
100
AcDbEntity
  8
Capa 1
 62
     7
420
 16777215
370
     9
100
AcDbVertex
100
AcDb2dVertex
 10
109.5035671278263
 20
100.9325031359323
 30
0.0
  0
VERTEX
  5
244
330
231
100
AcDbEntity
  8
Capa 1
 62
     7
420
 16777215
370
     9
100
AcDbVertex
100
AcDb2dVertex
 10
109.3448168587179
 20
102.0172943986057
 30
0.0
  0
VERTEX
  5
245
330
231
100
AcDbEntity
  8
Capa 1
 62
     7
420
 16777215
370
     9
100
AcDbVertex
100
AcDb2dVertex
 10
109.080237562672
 20
103.102085661279
 30
0.0
  0
VERTEX
  5
246
330
231
100
AcDbEntity
  8
Capa 1
 62
     7
420
 16777215
370
     9
100
AcDbVertex
100
AcDb2dVertex
 10
108.7098157822844
 20
104.1339624104836
 30
0.0
  0
VERTEX
  5
247
330
231
100
AcDbEntity
  8
Capa 1
 62
     7
420
 16777215
370
     9
100
AcDbVertex
100
AcDb2dVertex
 10
108.2335649749592
 20
105.1393785386027
 30
0.0
  0
VERTEX
  5
248
330
231
100
AcDbEntity
  8
Capa 1
 62
     7
420
 16777215
370
     9
100
AcDbVertex
100
AcDb2dVertex
 10
107.6514851406965
 20
106.0918767889021
 30
0.0
  0
VERTEX
  5
249
330
231
100
AcDbEntity
  8
Capa 1
 62
     7
420
 16777215
370
     9
100
AcDbVertex
100
AcDb2dVertex
 10
107.0164840642629
 20
106.9649999046472
 30
0.0
  0
VERTEX
  5
24A
330
231
100
AcDbEntity
  8
Capa 1
 62
     7
420
 16777215
370
     9
100
AcDbVertex
100
AcDb2dVertex
 10
106.2756539608918
 20
107.7852085069236
 30
0.0
  0
VERTEX
  5
24B
330
231
100
AcDbEntity
  8
Capa 1
 62
     7
420
 16777215
370
     9
100
AcDbVertex
100
AcDb2dVertex
 10
105.4554453586154
 20
108.5260419746457
 30
0.0
  0
VERTEX
  5
24C
330
231
100
AcDbEntity
  8
Capa 1
 62
     7
420
 16777215
370
     9
100
AcDbVertex
100
AcDb2dVertex
 10
104.5558582574338
 20
109.1875003078137
 30
0.0
  0
VERTEX
  5
24D
330
231
100
AcDbEntity
  8
Capa 1
 62
     7
420
 16777215
370
     9
100
AcDbVertex
100
AcDb2dVertex
 10
103.6033566427834
 20
109.743122885342
 30
0.0
  0
VERTEX
  5
24E
330
231
100
AcDbEntity
  8
Capa 1
 62
     7
420
 16777215
370
     9
100
AcDbVertex
100
AcDb2dVertex
 10
102.6244045001007
 20
110.2193736926672
 30
0.0
  0
VERTEX
  5
24F
330
231
100
AcDbEntity
  8
Capa 1
 62
     7
420
 16777215
370
     9
100
AcDbVertex
100
AcDb2dVertex
 10
101.5660671298107
 20
110.5897887443528
 30
0.0
  0
VERTEX
  5
250
330
231
100
AcDbEntity
  8
Capa 1
 62
     7
420
 16777215
370
     9
100
AcDbVertex
100
AcDb2dVertex
 10
100.5077364882228
 20
110.8543747691008
 30
0.0
  0
VERTEX
  5
251
330
231
100
AcDbEntity
  8
Capa 1
 62
     7
420
 16777215
370
     9
100
AcDbVertex
100
AcDb2dVertex
 10
99.42294186119841
 20
111.0395822949436
 30
0.0
  0
VERTEX
  5
252
330
231
100
AcDbEntity
  8
Capa 1
 62
     7
420
 16777215
370
     9
100
AcDbVertex
100
AcDb2dVertex
 10
98.31168997743963
 20
111.0924968084123
 30
0.0
  0
SEQEND
  5
253
330
231
100
AcDbEntity
  8
Capa 1
 62
     7
420
 16777215
370
     9
  0
POLYLINE
  5
254
330
1F
100
AcDbEntity
  8
Capa 1
 62
     7
420
 16777215
370
     9
100
AcDb2dPolyline
 66
     1
 10
0.0
 20
0.0
 30
0.0
  0
VERTEX
  5
255
330
254
100
AcDbEntity
  8
Capa 1
 62
     7
420
 16777215
370
     9
100
AcDbVertex
100
AcDb2dVertex
 10
78.70606875041423
 20
88.57646295266913
 30
0.0
  0
VERTEX
  5
256
330
254
100
AcDbEntity
  8
Capa 1
 62
     7
420
 16777215
370
     9
100
AcDbVertex
100
AcDb2dVertex
 10
98.31168997743963
 20
88.57646295266913
 30
0.0
  0
SEQEND
  5
257
330
254
100
AcDbEntity
  8
Capa 1
 62
     7
420
 16777215
370
     9
  0
POLYLINE
  5
258
330
1F
100
AcDbEntity
  8
Capa 1
 62
     7
420
 16777215
370
     9
100
AcDb2dPolyline
 66
     1
 10
0.0
 20
0.0
 30
0.0
  0
VERTEX
  5
259
330
258
100
AcDbEntity
  8
Capa 1
 62
     7
420
 16777215
370
     9
100
AcDbVertex
100
AcDb2dVertex
 10
105.1379448203986
 20
99.82125461652461
 30
0.0
  0
VERTEX
  5
25A
330
258
100
AcDbEntity
  8
Capa 1
 62
     7
420
 16777215
370
     9
100
AcDbVertex
100
AcDb2dVertex
 10
105.1114875636642
 20
100.5356274631613
 30
0.0
  0
VERTEX
  5
25B
330
258
100
AcDbEntity
  8
Capa 1
 62
     7
420
 16777215
370
     9
100
AcDbVertex
100
AcDb2dVertex
 10
105.0056518080246
 20
101.2235464174147
 30
0.0
  0
VERTEX
  5
25C
330
258
100
AcDbEntity
  8
Capa 1
 62
     7
420
 16777215
370
     9
100
AcDbVertex
100
AcDb2dVertex
 10
104.8204442821818
 20
101.9114620073171
 30
0.0
  0
VERTEX
  5
25D
330
258
100
AcDbEntity
  8
Capa 1
 62
     7
420
 16777215
370
     9
100
AcDbVertex
100
AcDb2dVertex
 10
104.5823155141681
 20
102.5729203404851
 30
0.0
  0
VERTEX
  5
25E
330
258
100
AcDbEntity
  8
Capa 1
 62
     7
420
 16777215
370
     9
100
AcDbVertex
100
AcDb2dVertex
 10
104.2912789613878
 20
103.2079214169187
 30
0.0
  0
VERTEX
  5
25F
330
258
100
AcDbEntity
  8
Capa 1
 62
     7
420
 16777215
370
     9
100
AcDbVertex
100
AcDb2dVertex
 10
103.9208571810002
 20
103.8164618722668
 30
0.0
  0
VERTEX
  5
260
330
258
100
AcDbEntity
  8
Capa 1
 62
     7
420
 16777215
370
     9
100
AcDbVertex
100
AcDb2dVertex
 10
103.5239848725802
 20
104.3985450708806
 30
0.0
  0
VERTEX
  5
261
330
258
100
AcDbEntity
  8
Capa 1
 62
     7
420
 16777215
370
     9
100
AcDbVertex
100
AcDb2dVertex
 10
103.0477340652551
 20
104.9012531349401
 30
0.0
  0
VERTEX
  5
262
330
258
100
AcDbEntity
  8
Capa 1
 62
     7
420
 16777215
370
     9
100
AcDbVertex
100
AcDb2dVertex
 10
102.5185687444611
 20
105.3775039422653
 30
0.0
  0
VERTEX
  5
263
330
258
100
AcDbEntity
  8
Capa 1
 62
     7
420
 16777215
370
     9
100
AcDbVertex
100
AcDb2dVertex
 10
101.9629461669328
 20
105.8008368717707
 30
0.0
  0
VERTEX
  5
264
330
258
100
AcDbEntity
  8
Capa 1
 62
     7
420
 16777215
370
     9
100
AcDbVertex
100
AcDb2dVertex
 10
101.3544023472336
 20
106.1712519234563
 30
0.0
  0
VERTEX
  5
265
330
258
100
AcDbEntity
  8
Capa 1
 62
     7
420
 16777215
370
     9
100
AcDbVertex
100
AcDb2dVertex
 10
100.7194012708
 20
106.4622918405876
 30
0.0
  0
VERTEX
  5
266
330
258
100
AcDbEntity
  8
Capa 1
 62
     7
420
 16777215
370
     9
100
AcDbVertex
100
AcDb2dVertex
 10
100.057942937632
 20
106.7004172442502
 30
0.0
  0
VERTEX
  5
267
330
258
100
AcDbEntity
  8
Capa 1
 62
     7
420
 16777215
370
     9
100
AcDbVertex
100
AcDb2dVertex
 10
99.39648460446404
 20
106.8591675133586
 30
0.0
  0
VERTEX
  5
268
330
258
100
AcDbEntity
  8
Capa 1
 62
     7
420
 16777215
370
     9
100
AcDbVertex
100
AcDb2dVertex
 10
98.6821117578273
 20
106.9649999046472
 30
0.0
  0
VERTEX
  5
269
330
258
100
AcDbEntity
  8
Capa 1
 62
     7
420
 16777215
370
     9
100
AcDbVertex
100
AcDb2dVertex
 10
97.99419616792495
 20
107.017917782467
 30
0.0
  0
VERTEX
  5
26A
330
258
100
AcDbEntity
  8
Capa 1
 62
     7
420
 16777215
370
     9
100
AcDbVertex
100
AcDb2dVertex
 10
89.13065181199333
 20
107.017917782467
 30
0.0
  0
VERTEX
  5
26B
330
258
100
AcDbEntity
  8
Capa 1
 62
     7
420
 16777215
370
     9
100
AcDbVertex
100
AcDb2dVertex
 10
88.65440436901919
 20
106.9649999046472
 30
0.0
  0
VERTEX
  5
26C
330
258
100
AcDbEntity
  8
Capa 1
 62
     7
420
 16777215
370
     9
100
AcDbVertex
100
AcDb2dVertex
 10
88.178153561694
 20
106.8327102566242
 30
0.0
  0
VERTEX
  5
26D
330
258
100
AcDbEntity
  8
Capa 1
 62
     7
420
 16777215
370
     9
100
AcDbVertex
100
AcDb2dVertex
 10
87.72836337545425
 20
106.5945848529616
 30
0.0
  0
VERTEX
  5
26E
330
258
100
AcDbEntity
  8
Capa 1
 62
     7
420
 16777215
370
     9
100
AcDbVertex
100
AcDb2dVertex
 10
87.35794495941764
 20
106.3035415714792
 30
0.0
  0
VERTEX
  5
26F
330
258
100
AcDbEntity
  8
Capa 1
 62
     7
420
 16777215
370
     9
100
AcDbVertex
100
AcDb2dVertex
 10
87.01398716446647
 20
105.9331298841447
 30
0.0
  0
VERTEX
  5
270
330
258
100
AcDbEntity
  8
Capa 1
 62
     7
420
 16777215
370
     9
100
AcDbVertex
100
AcDb2dVertex
 10
86.77586176080516
 20
105.5097969546394
 30
0.0
  0
VERTEX
  5
271
330
258
100
AcDbEntity
  8
Capa 1
 62
     7
420
 16777215
370
     9
100
AcDbVertex
100
AcDb2dVertex
 10
86.61711149169547
 20
105.0335461473142
 30
0.0
  0
VERTEX
  5
272
330
258
100
AcDbEntity
  8
Capa 1
 62
     7
420
 16777215
370
     9
100
AcDbVertex
100
AcDb2dVertex
 10
86.53773635714127
 20
104.557295339989
 30
0.0
  0
VERTEX
  5
273
330
258
100
AcDbEntity
  8
Capa 1
 62
     7
420
 16777215
370
     9
100
AcDbVertex
100
AcDb2dVertex
 10
86.4319039658527
 20
102.2025052887995
 30
0.0
  0
VERTEX
  5
274
330
258
100
AcDbEntity
  8
Capa 1
 62
     7
420
 16777215
370
     9
100
AcDbVertex
100
AcDb2dVertex
 10
86.37898608803287
 20
99.82125461652461
 30
0.0
  0
SEQEND
  5
275
330
258
100
AcDbEntity
  8
Capa 1
 62
     7
420
 16777215
370
     9
  0
POLYLINE
  5
276
330
1F
100
AcDbEntity
  8
Capa 1
 62
     7
420
 16777215
370
     9
100
AcDb2dPolyline
 66
     1
 10
0.0
 20
0.0
 30
0.0
  0
VERTEX
  5
277
330
276
100
AcDbEntity
  8
Capa 1
 62
     7
420
 16777215
370
     9
100
AcDbVertex
100
AcDb2dVertex
 10
86.53773635714127
 20
95.11167114979463
 30
0.0
  0
VERTEX
  5
278
330
276
100
AcDbEntity
  8
Capa 1
 62
     7
420
 16777215
370
     9
100
AcDbVertex
100
AcDb2dVertex
 10
86.4319039658527
 20
97.46646120098409
 30
0.0
  0
VERTEX
  5
279
330
276
100
AcDbEntity
  8
Capa 1
 62
     7
420
 16777215
370
     9
100
AcDbVertex
100
AcDb2dVertex
 10
86.37898608803287
 20
99.82125461652461
 30
0.0
  0
SEQEND
  5
27A
330
276
100
AcDbEntity
  8
Capa 1
 62
     7
420
 16777215
370
     9
  0
POLYLINE
  5
27B
330
1F
100
AcDbEntity
  8
Capa 1
 62
     7
420
 16777215
370
     9
100
AcDb2dPolyline
 66
     1
 10
0.0
 20
0.0
 30
0.0
  0
VERTEX
  5
27C
330
27B
100
AcDbEntity
  8
Capa 1
 62
     7
420
 16777215
370
     9
100
AcDbVertex
100
AcDb2dVertex
 10
89.13065181199333
 20
92.65104534296553
 30
0.0
  0
VERTEX
  5
27D
330
27B
100
AcDbEntity
  8
Capa 1
 62
     7
420
 16777215
370
     9
100
AcDbVertex
100
AcDb2dVertex
 10
88.65440436901919
 20
92.70396322078535
 30
0.0
  0
VERTEX
  5
27E
330
27B
100
AcDbEntity
  8
Capa 1
 62
     7
420
 16777215
370
     9
100
AcDbVertex
100
AcDb2dVertex
 10
88.178153561694
 20
92.8362528688083
 30
0.0
  0
VERTEX
  5
27F
330
27B
100
AcDbEntity
  8
Capa 1
 62
     7
420
 16777215
370
     9
100
AcDbVertex
100
AcDb2dVertex
 10
87.72836337545425
 20
93.0743782724709
 30
0.0
  0
VERTEX
  5
280
330
27B
100
AcDbEntity
  8
Capa 1
 62
     7
420
 16777215
370
     9
100
AcDbVertex
100
AcDb2dVertex
 10
87.35794495941764
 20
93.36542155395331
 30
0.0
  0
VERTEX
  5
281
330
27B
100
AcDbEntity
  8
Capa 1
 62
     7
420
 16777215
370
     9
100
AcDbVertex
100
AcDb2dVertex
 10
87.01398716446647
 20
93.73583660563887
 30
0.0
  0
VERTEX
  5
282
330
27B
100
AcDbEntity
  8
Capa 1
 62
     7
420
 16777215
370
     9
100
AcDbVertex
100
AcDb2dVertex
 10
86.77586176080516
 20
94.15916953514424
 30
0.0
  0
VERTEX
  5
283
330
27B
100
AcDbEntity
  8
Capa 1
 62
     7
420
 16777215
370
     9
100
AcDbVertex
100
AcDb2dVertex
 10
86.61711149169547
 20
94.63542034246943
 30
0.0
  0
VERTEX
  5
284
330
27B
100
AcDbEntity
  8
Capa 1
 62
     7
420
 16777215
370
     9
100
AcDbVertex
100
AcDb2dVertex
 10
86.53773635714127
 20
95.11167114979463
 30
0.0
  0
SEQEND
  5
285
330
27B
100
AcDbEntity
  8
Capa 1
 62
     7
420
 16777215
370
     9
  0
POLYLINE
  5
286
330
1F
100
AcDbEntity
  8
Capa 1
 62
     7
420
 16777215
370
     9
100
AcDb2dPolyline
 66
     1
 10
0.0
 20
0.0
 30
0.0
  0
VERTEX
  5
287
330
286
100
AcDbEntity
  8
Capa 1
 62
     7
420
 16777215
370
     9
100
AcDbVertex
100
AcDb2dVertex
 10
97.99419616792495
 20
92.65104534296553
 30
0.0
  0
VERTEX
  5
288
330
286
100
AcDbEntity
  8
Capa 1
 62
     7
420
 16777215
370
     9
100
AcDbVertex
100
AcDb2dVertex
 10
89.13065181199333
 20
92.65104534296553
 30
0.0
  0
SEQEND
  5
289
330
286
100
AcDbEntity
  8
Capa 1
 62
     7
420
 16777215
370
     9
  0
POLYLINE
  5
28A
330
1F
100
AcDbEntity
  8
Capa 1
 62
     7
420
 16777215
370
     9
100
AcDb2dPolyline
 66
     1
 10
0.0
 20
0.0
 30
0.0
  0
VERTEX
  5
28B
330
28A
100
AcDbEntity
  8
Capa 1
 62
     7
420
 16777215
370
     9
100
AcDbVertex
100
AcDb2dVertex
 10
105.1379448203986
 20
99.82125461652461
 30
0.0
  0
VERTEX
  5
28C
330
28A
100
AcDbEntity
  8
Capa 1
 62
     7
420
 16777215
370
     9
100
AcDbVertex
100
AcDb2dVertex
 10
105.1114875636642
 20
99.1333356622712
 30
0.0
  0
VERTEX
  5
28D
330
28A
100
AcDbEntity
  8
Capa 1
 62
     7
420
 16777215
370
     9
100
AcDbVertex
100
AcDb2dVertex
 10
105.0056518080246
 20
98.44542007236885
 30
0.0
  0
VERTEX
  5
28E
330
28A
100
AcDbEntity
  8
Capa 1
 62
     7
420
 16777215
370
     9
100
AcDbVertex
100
AcDb2dVertex
 10
104.8204442821818
 20
97.7575044824665
 30
0.0
  0
VERTEX
  5
28F
330
28A
100
AcDbEntity
  8
Capa 1
 62
     7
420
 16777215
370
     9
100
AcDbVertex
100
AcDb2dVertex
 10
104.5823155141681
 20
97.09604614929853
 30
0.0
  0
VERTEX
  5
290
330
28A
100
AcDbEntity
  8
Capa 1
 62
     7
420
 16777215
370
     9
100
AcDbVertex
100
AcDb2dVertex
 10
104.2912789613878
 20
96.46104507286495
 30
0.0
  0
VERTEX
  5
291
330
28A
100
AcDbEntity
  8
Capa 1
 62
     7
420
 16777215
370
     9
100
AcDbVertex
100
AcDb2dVertex
 10
103.9208571810002
 20
95.8525046175168
 30
0.0
  0
VERTEX
  5
292
330
28A
100
AcDbEntity
  8
Capa 1
 62
     7
420
 16777215
370
     9
100
AcDbVertex
100
AcDb2dVertex
 10
103.5239848725802
 20
95.27042141890303
 30
0.0
  0
VERTEX
  5
293
330
28A
100
AcDbEntity
  8
Capa 1
 62
     7
420
 16777215
370
     9
100
AcDbVertex
100
AcDb2dVertex
 10
103.0477340652551
 20
94.76771335484345
 30
0.0
  0
VERTEX
  5
294
330
28A
100
AcDbEntity
  8
Capa 1
 62
     7
420
 16777215
370
     9
100
AcDbVertex
100
AcDb2dVertex
 10
102.5185687444611
 20
94.29146254751826
 30
0.0
  0
VERTEX
  5
295
330
28A
100
AcDbEntity
  8
Capa 1
 62
     7
420
 16777215
370
     9
100
AcDbVertex
100
AcDb2dVertex
 10
101.9629461669328
 20
93.86812961801289
 30
0.0
  0
VERTEX
  5
296
330
28A
100
AcDbEntity
  8
Capa 1
 62
     7
420
 16777215
370
     9
100
AcDbVertex
100
AcDb2dVertex
 10
101.3544023472336
 20
93.49771120197627
 30
0.0
  0
VERTEX
  5
297
330
28A
100
AcDbEntity
  8
Capa 1
 62
     7
420
 16777215
370
     9
100
AcDbVertex
100
AcDb2dVertex
 10
100.7194012708
 20
93.20667128484492
 30
0.0
  0
VERTEX
  5
298
330
28A
100
AcDbEntity
  8
Capa 1
 62
     7
420
 16777215
370
     9
100
AcDbVertex
100
AcDb2dVertex
 10
100.057942937632
 20
92.96854588118232
 30
0.0
  0
VERTEX
  5
299
330
28A
100
AcDbEntity
  8
Capa 1
 62
     7
420
 16777215
370
     9
100
AcDbVertex
100
AcDb2dVertex
 10
99.39648460446404
 20
92.78333835533955
 30
0.0
  0
VERTEX
  5
29A
330
28A
100
AcDbEntity
  8
Capa 1
 62
     7
420
 16777215
370
     9
100
AcDbVertex
100
AcDb2dVertex
 10
98.6821117578273
 20
92.70396322078535
 30
0.0
  0
VERTEX
  5
29B
330
28A
100
AcDbEntity
  8
Capa 1
 62
     7
420
 16777215
370
     9
100
AcDbVertex
100
AcDb2dVertex
 10
97.99419616792495
 20
92.65104534296553
 30
0.0
  0
SEQEND
  5
29C
330
28A
100
AcDbEntity
  8
Capa 1
 62
     7
420
 16777215
370
     9
  0
POLYLINE
  5
29D
330
1F
100
AcDbEntity
  8
Capa 1
 62
     7
420
 16777215
370
     9
100
AcDb2dPolyline
 66
     1
 10
0.0
 20
0.0
 30
0.0
  0
VERTEX
  5
29E
330
29D
100
AcDbEntity
  8
Capa 1
 62
     7
420
 16777215
370
     9
100
AcDbVertex
100
AcDb2dVertex
 10
68.30794630992185
 20
89.02625313890888
 30
0.0
  0
VERTEX
  5
29F
330
29D
100
AcDbEntity
  8
Capa 1
 62
     7
420
 16777215
370
     9
100
AcDbVertex
100
AcDb2dVertex
 10
68.30794630992185
 20
89.1585461512829
 30
0.0
  0
SEQEND
  5
2A0
330
29D
100
AcDbEntity
  8
Capa 1
 62
     7
420
 16777215
370
     9
  0
POLYLINE
  5
2A1
330
1F
100
AcDbEntity
  8
Capa 1
 62
     7
420
 16777215
370
     9
100
AcDb2dPolyline
 66
     1
 10
0.0
 20
0.0
 30
0.0
  0
VERTEX
  5
2A2
330
2A1
100
AcDbEntity
  8
Capa 1
 62
     7
420
 16777215
370
     9
100
AcDbVertex
100
AcDb2dVertex
 10
68.30794630992185
 20
110.6162460010871
 30
0.0
  0
VERTEX
  5
2A3
330
2A1
100
AcDbEntity
  8
Capa 1
 62
     7
420
 16777215
370
     9
100
AcDbVertex
100
AcDb2dVertex
 10
68.30794630992185
 20
89.1585461512829
 30
0.0
  0
SEQEND
  5
2A4
330
2A1
100
AcDbEntity
  8
Capa 1
 62
     7
420
 16777215
370
     9
  0
POLYLINE
  5
2A5
330
1F
100
AcDbEntity
  8
Capa 1
 62
     7
420
 16777215
370
     9
100
AcDb2dPolyline
 66
     1
 10
0.0
 20
0.0
 30
0.0
  0
VERTEX
  5
2A6
330
2A5
100
AcDbEntity
  8
Capa 1
 62
     7
420
 16777215
370
     9
100
AcDbVertex
100
AcDb2dVertex
 10
74.12877829605826
 20
99.82125461652461
 30
0.0
  0
VERTEX
  5
2A7
330
2A5
100
AcDbEntity
  8
Capa 1
 62
     7
420
 16777215
370
     9
100
AcDbVertex
100
AcDb2dVertex
 10
74.07586041823845
 20
100.1652124114758
 30
0.0
  0
VERTEX
  5
2A8
330
2A5
100
AcDbEntity
  8
Capa 1
 62
     7
420
 16777215
370
     9
100
AcDbVertex
100
AcDb2dVertex
 10
73.97002802694986
 20
100.4562523286071
 30
0.0
  0
VERTEX
  5
2A9
330
2A5
100
AcDbEntity
  8
Capa 1
 62
     7
420
 16777215
370
     9
100
AcDbVertex
100
AcDb2dVertex
 10
73.7583632443727
 20
100.7208383533552
 30
0.0
  0
VERTEX
  5
2AA
330
2A5
100
AcDbEntity
  8
Capa 1
 62
     7
420
 16777215
370
     9
100
AcDbVertex
100
AcDb2dVertex
 10
73.49377721962595
 20
100.9060458791979
 30
0.0
  0
VERTEX
  5
2AB
330
2A5
100
AcDbEntity
  8
Capa 1
 62
     7
420
 16777215
370
     9
100
AcDbVertex
100
AcDb2dVertex
 10
73.20273730249332
 20
101.0383355272209
 30
0.0
  0
VERTEX
  5
2AC
330
2A5
100
AcDbEntity
  8
Capa 1
 62
     7
420
 16777215
370
     9
100
AcDbVertex
100
AcDb2dVertex
 10
72.8852367642778
 20
101.0912534050407
 30
0.0
  0
VERTEX
  5
2AD
330
2A5
100
AcDbEntity
  8
Capa 1
 62
     7
420
 16777215
370
     9
100
AcDbVertex
100
AcDb2dVertex
 10
72.54127896932535
 20
101.0383355272209
 30
0.0
  0
VERTEX
  5
2AE
330
2A5
100
AcDbEntity
  8
Capa 1
 62
     7
420
 16777215
370
     9
100
AcDbVertex
100
AcDb2dVertex
 10
72.25023568784293
 20
100.9060458791979
 30
0.0
  0
VERTEX
  5
2AF
330
2A5
100
AcDbEntity
  8
Capa 1
 62
     7
420
 16777215
370
     9
100
AcDbVertex
100
AcDb2dVertex
 10
71.98565302744596
 20
100.7208383533552
 30
0.0
  0
VERTEX
  5
2B0
330
2A5
100
AcDbEntity
  8
Capa 1
 62
     7
420
 16777215
370
     9
100
AcDbVertex
100
AcDb2dVertex
 10
71.80044550160318
 20
100.4562523286071
 30
0.0
  0
VERTEX
  5
2B1
330
2A5
100
AcDbEntity
  8
Capa 1
 62
     7
420
 16777215
370
     9
100
AcDbVertex
100
AcDb2dVertex
 10
71.66815248922916
 20
100.1652124114758
 30
0.0
  0
VERTEX
  5
2B2
330
2A5
100
AcDbEntity
  8
Capa 1
 62
     7
420
 16777215
370
     9
100
AcDbVertex
100
AcDb2dVertex
 10
71.61523797576169
 20
99.82125461652461
 30
0.0
  0
VERTEX
  5
2B3
330
2A5
100
AcDbEntity
  8
Capa 1
 62
     7
420
 16777215
370
     9
100
AcDbVertex
100
AcDb2dVertex
 10
71.66815248922916
 20
99.50375407830781
 30
0.0
  0
VERTEX
  5
2B4
330
2A5
100
AcDbEntity
  8
Capa 1
 62
     7
420
 16777215
370
     9
100
AcDbVertex
100
AcDb2dVertex
 10
71.80044550160318
 20
99.21271079682539
 30
0.0
  0
VERTEX
  5
2B5
330
2A5
100
AcDbEntity
  8
Capa 1
 62
     7
420
 16777215
370
     9
100
AcDbVertex
100
AcDb2dVertex
 10
71.98565302744596
 20
98.94812813642842
 30
0.0
  0
VERTEX
  5
2B6
330
2A5
100
AcDbEntity
  8
Capa 1
 62
     7
420
 16777215
370
     9
100
AcDbVertex
100
AcDb2dVertex
 10
72.25023568784293
 20
98.76292061058564
 30
0.0
  0
VERTEX
  5
2B7
330
2A5
100
AcDbEntity
  8
Capa 1
 62
     7
420
 16777215
370
     9
100
AcDbVertex
100
AcDb2dVertex
 10
72.54127896932535
 20
98.63062759821163
 30
0.0
  0
VERTEX
  5
2B8
330
2A5
100
AcDbEntity
  8
Capa 1
 62
     7
420
 16777215
370
     9
100
AcDbVertex
100
AcDb2dVertex
 10
72.8852367642778
 20
98.57771308474287
 30
0.0
  0
VERTEX
  5
2B9
330
2A5
100
AcDbEntity
  8
Capa 1
 62
     7
420
 16777215
370
     9
100
AcDbVertex
100
AcDb2dVertex
 10
73.20273730249332
 20
98.63062759821163
 30
0.0
  0
VERTEX
  5
2BA
330
2A5
100
AcDbEntity
  8
Capa 1
 62
     7
420
 16777215
370
     9
100
AcDbVertex
100
AcDb2dVertex
 10
73.49377721962595
 20
98.76292061058564
 30
0.0
  0
VERTEX
  5
2BB
330
2A5
100
AcDbEntity
  8
Capa 1
 62
     7
420
 16777215
370
     9
100
AcDbVertex
100
AcDb2dVertex
 10
73.7583632443727
 20
98.94812813642842
 30
0.0
  0
VERTEX
  5
2BC
330
2A5
100
AcDbEntity
  8
Capa 1
 62
     7
420
 16777215
370
     9
100
AcDbVertex
100
AcDb2dVertex
 10
73.97002802694986
 20
99.21271079682539
 30
0.0
  0
VERTEX
  5
2BD
330
2A5
100
AcDbEntity
  8
Capa 1
 62
     7
420
 16777215
370
     9
100
AcDbVertex
100
AcDb2dVertex
 10
74.07586041823845
 20
99.50375407830781
 30
0.0
  0
VERTEX
  5
2BE
330
2A5
100
AcDbEntity
  8
Capa 1
 62
     7
420
 16777215
370
     9
100
AcDbVertex
100
AcDb2dVertex
 10
74.12877829605826
 20
99.82125461652461
 30
0.0
  0
SEQEND
  5
2BF
330
2A5
100
AcDbEntity
  8
Capa 1
 62
     7
420
 16777215
370
     9
  0
POLYLINE
  5
2C0
330
1F
100
AcDbEntity
  8
Capa 1
 62
     7
420
 16777215
370
     9
100
AcDb2dPolyline
 66
     1
 10
0.0
 20
0.0
 30
0.0
  0
VERTEX
  5
2C1
330
2C0
100
AcDbEntity
  8
Capa 1
 62
     7
420
 16777215
370
     9
100
AcDbVertex
100
AcDb2dVertex
 10
78.12398555180174
 20
109.6637511151389
 30
0.0
  0
VERTEX
  5
2C2
330
2C0
100
AcDbEntity
  8
Capa 1
 62
     7
420
 16777215
370
     9
100
AcDbVertex
100
AcDb2dVertex
 10
78.09752829506607
 20
109.9812516533557
 30
0.0
  0
VERTEX
  5
2C3
330
2C0
100
AcDbEntity
  8
Capa 1
 62
     7
420
 16777215
370
     9
100
AcDbVertex
100
AcDb2dVertex
 10
77.96523528269206
 20
110.272288206136
 30
0.0
  0
VERTEX
  5
2C4
330
2C0
100
AcDbEntity
  8
Capa 1
 62
     7
420
 16777215
370
     9
100
AcDbVertex
100
AcDb2dVertex
 10
77.78002775684928
 20
110.536874230884
 30
0.0
  0
VERTEX
  5
2C5
330
2C0
100
AcDbEntity
  8
Capa 1
 62
     7
420
 16777215
370
     9
100
AcDbVertex
100
AcDb2dVertex
 10
77.51544509645359
 20
110.7485390134612
 30
0.0
  0
VERTEX
  5
2C6
330
2C0
100
AcDbEntity
  8
Capa 1
 62
     7
420
 16777215
370
     9
100
AcDbVertex
100
AcDb2dVertex
 10
77.22440517932095
 20
110.8543747691008
 30
0.0
  0
VERTEX
  5
2C7
330
2C0
100
AcDbEntity
  8
Capa 1
 62
     7
420
 16777215
370
     9
100
AcDbVertex
100
AcDb2dVertex
 10
76.88044402001871
 20
110.9072892825696
 30
0.0
  0
SEQEND
  5
2C8
330
2C0
100
AcDbEntity
  8
Capa 1
 62
     7
420
 16777215
370
     9
  0
POLYLINE
  5
2C9
330
1F
100
AcDbEntity
  8
Capa 1
 62
     7
420
 16777215
370
     9
100
AcDb2dPolyline
 66
     1
 10
0.0
 20
0.0
 30
0.0
  0
VERTEX
  5
2CA
330
2C9
100
AcDbEntity
  8
Capa 1
 62
     7
420
 16777215
370
     9
100
AcDbVertex
100
AcDb2dVertex
 10
68.57252897031753
 20
110.9072892825696
 30
0.0
  0
VERTEX
  5
2CB
330
2C9
100
AcDbEntity
  8
Capa 1
 62
     7
420
 16777215
370
     9
100
AcDbVertex
100
AcDb2dVertex
 10
68.44023764011905
 20
110.8808320258352
 30
0.0
  0
VERTEX
  5
2CC
330
2C9
100
AcDbEntity
  8
Capa 1
 62
     7
420
 16777215
370
     9
100
AcDbVertex
100
AcDb2dVertex
 10
68.36086250556485
 20
110.7749962701955
 30
0.0
  0
VERTEX
  5
2CD
330
2C9
100
AcDbEntity
  8
Capa 1
 62
     7
420
 16777215
370
     9
100
AcDbVertex
100
AcDb2dVertex
 10
68.30794630992185
 20
110.6427099865236
 30
0.0
  0
VERTEX
  5
2CE
330
2C9
100
AcDbEntity
  8
Capa 1
 62
     7
420
 16777215
370
     9
100
AcDbVertex
100
AcDb2dVertex
 10
68.30794630992185
 20
110.6162460010871
 30
0.0
  0
SEQEND
  5
2CF
330
2C9
100
AcDbEntity
  8
Capa 1
 62
     7
420
 16777215
370
     9
  0
POLYLINE
  5
2D0
330
1F
100
AcDbEntity
  8
Capa 1
 62
     7
420
 16777215
370
     9
100
AcDb2dPolyline
 66
     1
 10
0.0
 20
0.0
 30
0.0
  0
VERTEX
  5
2D1
330
2D0
100
AcDbEntity
  8
Capa 1
 62
     7
420
 16777215
370
     9
100
AcDbVertex
100
AcDb2dVertex
 10
78.12398555180174
 20
90.00521201029365
 30
0.0
  0
VERTEX
  5
2D2
330
2D0
100
AcDbEntity
  8
Capa 1
 62
     7
420
 16777215
370
     9
100
AcDbVertex
100
AcDb2dVertex
 10
78.12398555180174
 20
109.6637511151389
 30
0.0
  0
SEQEND
  5
2D3
330
2D0
100
AcDbEntity
  8
Capa 1
 62
     7
420
 16777215
370
     9
  0
POLYLINE
  5
2D4
330
1F
100
AcDbEntity
  8
Capa 1
 62
     7
420
 16777215
370
     9
100
AcDb2dPolyline
 66
     1
 10
0.0
 20
0.0
 30
0.0
  0
VERTEX
  5
2D5
330
2D4
100
AcDbEntity
  8
Capa 1
 62
     7
420
 16777215
370
     9
100
AcDbVertex
100
AcDb2dVertex
 10
76.88044402001871
 20
110.9072892825696
 30
0.0
  0
VERTEX
  5
2D6
330
2D4
100
AcDbEntity
  8
Capa 1
 62
     7
420
 16777215
370
     9
100
AcDbVertex
100
AcDb2dVertex
 10
68.57252897031753
 20
110.9072892825696
 30
0.0
  0
SEQEND
  5
2D7
330
2D4
100
AcDbEntity
  8
Capa 1
 62
     7
420
 16777215
370
     9
  0
POLYLINE
  5
2D8
330
1F
100
AcDbEntity
  8
Capa 1
 62
     7
420
 16777215
370
     9
100
AcDb2dPolyline
 66
     1
 10
0.0
 20
0.0
 30
0.0
  0
VERTEX
  5
2D9
330
2D8
100
AcDbEntity
  8
Capa 1
 62
     7
420
 16777215
370
     9
100
AcDbVertex
100
AcDb2dVertex
 10
76.88044402001871
 20
88.76167047851192
 30
0.0
  0
VERTEX
  5
2DA
330
2D8
100
AcDbEntity
  8
Capa 1
 62
     7
420
 16777215
370
     9
100
AcDbVertex
100
AcDb2dVertex
 10
77.22440517932095
 20
88.81458835633174
 30
0.0
  0
VERTEX
  5
2DB
330
2D8
100
AcDbEntity
  8
Capa 1
 62
     7
420
 16777215
370
     9
100
AcDbVertex
100
AcDb2dVertex
 10
77.51544509645359
 20
88.92042074762031
 30
0.0
  0
VERTEX
  5
2DC
330
2D8
100
AcDbEntity
  8
Capa 1
 62
     7
420
 16777215
370
     9
100
AcDbVertex
100
AcDb2dVertex
 10
77.78002775684928
 20
89.13208889454853
 30
0.0
  0
VERTEX
  5
2DD
330
2D8
100
AcDbEntity
  8
Capa 1
 62
     7
420
 16777215
370
     9
100
AcDbVertex
100
AcDb2dVertex
 10
77.96523528269206
 20
89.3966715549455
 30
0.0
  0
VERTEX
  5
2DE
330
2D8
100
AcDbEntity
  8
Capa 1
 62
     7
420
 16777215
370
     9
100
AcDbVertex
100
AcDb2dVertex
 10
78.09752829506607
 20
89.68771147207686
 30
0.0
  0
VERTEX
  5
2DF
330
2D8
100
AcDbEntity
  8
Capa 1
 62
     7
420
 16777215
370
     9
100
AcDbVertex
100
AcDb2dVertex
 10
78.12398555180174
 20
90.00521201029365
 30
0.0
  0
SEQEND
  5
2E0
330
2D8
100
AcDbEntity
  8
Capa 1
 62
     7
420
 16777215
370
     9
  0
POLYLINE
  5
2E1
330
1F
100
AcDbEntity
  8
Capa 1
 62
     7
420
 16777215
370
     9
100
AcDb2dPolyline
 66
     1
 10
0.0
 20
0.0
 30
0.0
  0
VERTEX
  5
2E2
330
2E1
100
AcDbEntity
  8
Capa 1
 62
     7
420
 16777215
370
     9
100
AcDbVertex
100
AcDb2dVertex
 10
68.30794630992185
 20
88.99979588217451
 30
0.0
  0
VERTEX
  5
2E3
330
2E1
100
AcDbEntity
  8
Capa 1
 62
     7
420
 16777215
370
     9
100
AcDbVertex
100
AcDb2dVertex
 10
68.36086250556485
 20
88.89396349088594
 30
0.0
  0
VERTEX
  5
2E4
330
2E1
100
AcDbEntity
  8
Capa 1
 62
     7
420
 16777215
370
     9
100
AcDbVertex
100
AcDb2dVertex
 10
68.44023764011905
 20
88.78812773524629
 30
0.0
  0
VERTEX
  5
2E5
330
2E1
100
AcDbEntity
  8
Capa 1
 62
     7
420
 16777215
370
     9
100
AcDbVertex
100
AcDb2dVertex
 10
68.57252897031753
 20
88.76167047851192
 30
0.0
  0
SEQEND
  5
2E6
330
2E1
100
AcDbEntity
  8
Capa 1
 62
     7
420
 16777215
370
     9
  0
POLYLINE
  5
2E7
330
1F
100
AcDbEntity
  8
Capa 1
 62
     7
420
 16777215
370
     9
100
AcDb2dPolyline
 66
     1
 10
0.0
 20
0.0
 30
0.0
  0
VERTEX
  5
2E8
330
2E7
100
AcDbEntity
  8
Capa 1
 62
     7
420
 16777215
370
     9
100
AcDbVertex
100
AcDb2dVertex
 10
68.57252897031753
 20
88.76167047851192
 30
0.0
  0
VERTEX
  5
2E9
330
2E7
100
AcDbEntity
  8
Capa 1
 62
     7
420
 16777215
370
     9
100
AcDbVertex
100
AcDb2dVertex
 10
76.88044402001871
 20
88.76167047851192
 30
0.0
  0
SEQEND
  5
2EA
330
2E7
100
AcDbEntity
  8
Capa 1
 62
     7
420
 16777215
370
     9
  0
POLYLINE
  5
2EB
330
1F
100
AcDbEntity
  8
Capa 1
 62
     7
420
 16777215
370
     9
100
AcDb2dPolyline
 66
     1
 10
0.0
 20
0.0
 30
0.0
  0
VERTEX
  5
2EC
330
2EB
100
AcDbEntity
  8
Capa 1
 62
     7
420
 16777215
370
     9
100
AcDbVertex
100
AcDb2dVertex
 10
68.30794630992185
 20
88.99979588217451
 30
0.0
  0
VERTEX
  5
2ED
330
2EB
100
AcDbEntity
  8
Capa 1
 62
     7
420
 16777215
370
     9
100
AcDbVertex
100
AcDb2dVertex
 10
68.30794630992185
 20
89.02625313890888
 30
0.0
  0
SEQEND
  5
2EE
330
2EB
100
AcDbEntity
  8
Capa 1
 62
     7
420
 16777215
370
     9
  0
POLYLINE
  5
2EF
330
1F
100
AcDbEntity
  8
Capa 1
 62
     7
420
 16777215
370
     9
100
AcDb2dPolyline
 66
     1
 10
0.0
 20
0.0
 30
0.0
  0
VERTEX
  5
2F0
330
2EF
100
AcDbEntity
  8
Capa 1
 62
     7
420
 16777215
370
     9
100
AcDbVertex
100
AcDb2dVertex
 10
105.4289813731789
 20
99.82125461652461
 30
0.0
  0
VERTEX
  5
2F1
330
2EF
100
AcDbEntity
  8
Capa 1
 62
     7
420
 16777215
370
     9
100
AcDbVertex
100
AcDb2dVertex
 10
105.3760668597101
 20
100.7737528668239
 30
0.0
  0
VERTEX
  5
2F2
330
2EF
100
AcDbEntity
  8
Capa 1
 62
     7
420
 16777215
370
     9
100
AcDbVertex
100
AcDb2dVertex
 10
105.2173165906017
 20
101.6733366036545
 30
0.0
  0
VERTEX
  5
2F3
330
2EF
100
AcDbEntity
  8
Capa 1
 62
     7
420
 16777215
370
     9
100
AcDbVertex
100
AcDb2dVertex
 10
104.9262733091193
 20
102.5729203404851
 30
0.0
  0
VERTEX
  5
2F4
330
2EF
100
AcDbEntity
  8
Capa 1
 62
     7
420
 16777215
370
     9
100
AcDbVertex
100
AcDb2dVertex
 10
104.5294010006994
 20
103.4195861994958
 30
0.0
  0
VERTEX
  5
2F5
330
2EF
100
AcDbEntity
  8
Capa 1
 62
     7
420
 16777215
370
     9
100
AcDbVertex
100
AcDb2dVertex
 10
104.0266929366398
 20
104.2133375450378
 30
0.0
  0
VERTEX
  5
2F6
330
2EF
100
AcDbEntity
  8
Capa 1
 62
     7
420
 16777215
370
     9
100
AcDbVertex
100
AcDb2dVertex
 10
103.444606373675
 20
104.9277103916745
 30
0.0
  0
VERTEX
  5
2F7
330
2EF
100
AcDbEntity
  8
Capa 1
 62
     7
420
 16777215
370
     9
100
AcDbVertex
100
AcDb2dVertex
 10
102.783148040507
 20
105.5627114681081
 30
0.0
  0
VERTEX
  5
2F8
330
2EF
100
AcDbEntity
  8
Capa 1
 62
     7
420
 16777215
370
     9
100
AcDbVertex
100
AcDb2dVertex
 10
102.0158606804015
 20
106.1183340456364
 30
0.0
  0
VERTEX
  5
2F9
330
2EF
100
AcDbEntity
  8
Capa 1
 62
     7
420
 16777215
370
     9
100
AcDbVertex
100
AcDb2dVertex
 10
101.2221093348595
 20
106.5945848529616
 30
0.0
  0
VERTEX
  5
2FA
330
2EF
100
AcDbEntity
  8
Capa 1
 62
     7
420
 16777215
370
     9
100
AcDbVertex
100
AcDb2dVertex
 10
100.3489862191144
 20
106.9385426479128
 30
0.0
  0
VERTEX
  5
2FB
330
2EF
100
AcDbEntity
  8
Capa 1
 62
     7
420
 16777215
370
     9
100
AcDbVertex
100
AcDb2dVertex
 10
99.4493991179328
 20
107.1766680515754
 30
0.0
  0
VERTEX
  5
2FC
330
2EF
100
AcDbEntity
  8
Capa 1
 62
     7
420
 16777215
370
     9
100
AcDbVertex
100
AcDb2dVertex
 10
98.5233614887189
 20
107.3089576995984
 30
0.0
  0
VERTEX
  5
2FD
330
2EF
100
AcDbEntity
  8
Capa 1
 62
     7
420
 16777215
370
     9
100
AcDbVertex
100
AcDb2dVertex
 10
94.79273689337369
 20
107.3618755774182
 30
0.0
  0
VERTEX
  5
2FE
330
2EF
100
AcDbEntity
  8
Capa 1
 62
     7
420
 16777215
370
     9
100
AcDbVertex
100
AcDb2dVertex
 10
91.06211229802848
 20
107.3883328341526
 30
0.0
  0
VERTEX
  5
2FF
330
2EF
100
AcDbEntity
  8
Capa 1
 62
     7
420
 16777215
370
     9
100
AcDbVertex
100
AcDb2dVertex
 10
89.21002694654753
 20
107.3883328341526
 30
0.0
  0
VERTEX
  5
300
330
2EF
100
AcDbEntity
  8
Capa 1
 62
     7
420
 16777215
370
     9
100
AcDbVertex
100
AcDb2dVertex
 10
88.7337795035734
 20
107.3618755774182
 30
0.0
  0
VERTEX
  5
301
330
2EF
100
AcDbEntity
  8
Capa 1
 62
     7
420
 16777215
370
     9
100
AcDbVertex
100
AcDb2dVertex
 10
88.28398595298258
 20
107.282500442864
 30
0.0
  0
VERTEX
  5
302
330
2EF
100
AcDbEntity
  8
Capa 1
 62
     7
420
 16777215
370
     9
100
AcDbVertex
100
AcDb2dVertex
 10
87.86065302347721
 20
107.0972929170212
 30
0.0
  0
VERTEX
  5
303
330
2EF
100
AcDbEntity
  8
Capa 1
 62
     7
420
 16777215
370
     9
100
AcDbVertex
100
AcDb2dVertex
 10
87.43732009397313
 20
106.885624770093
 30
0.0
  0
VERTEX
  5
304
330
2EF
100
AcDbEntity
  8
Capa 1
 62
     7
420
 16777215
370
     9
100
AcDbVertex
100
AcDb2dVertex
 10
87.09336229902067
 20
106.5681242318762
 30
0.0
  0
VERTEX
  5
305
330
2EF
100
AcDbEntity
  8
Capa 1
 62
     7
420
 16777215
370
     9
100
AcDbVertex
100
AcDb2dVertex
 10
86.77586176080516
 20
106.224166436925
 30
0.0
  0
VERTEX
  5
306
330
2EF
100
AcDbEntity
  8
Capa 1
 62
     7
420
 16777215
370
     9
100
AcDbVertex
100
AcDb2dVertex
 10
86.53773635714127
 20
105.8272941285051
 30
0.0
  0
VERTEX
  5
307
330
2EF
100
AcDbEntity
  8
Capa 1
 62
     7
420
 16777215
370
     9
100
AcDbVertex
100
AcDb2dVertex
 10
86.3525288312985
 20
105.4039611989997
 30
0.0
  0
VERTEX
  5
308
330
2EF
100
AcDbEntity
  8
Capa 1
 62
     7
420
 16777215
370
     9
100
AcDbVertex
100
AcDb2dVertex
 10
86.22023581892448
 20
104.95417101276
 30
0.0
  0
VERTEX
  5
309
330
2EF
100
AcDbEntity
  8
Capa 1
 62
     7
420
 16777215
370
     9
100
AcDbVertex
100
AcDb2dVertex
 10
86.1937785621901
 20
104.5043774621691
 30
0.0
  0
VERTEX
  5
30A
330
2EF
100
AcDbEntity
  8
Capa 1
 62
     7
420
 16777215
370
     9
100
AcDbVertex
100
AcDb2dVertex
 10
86.14086068437028
 20
103.5518792118698
 30
0.0
  0
VERTEX
  5
30B
330
2EF
100
AcDbEntity
  8
Capa 1
 62
     7
420
 16777215
370
     9
100
AcDbVertex
100
AcDb2dVertex
 10
86.0350282930817
 20
99.82125461652461
 30
0.0
  0
VERTEX
  5
30C
330
2EF
100
AcDbEntity
  8
Capa 1
 62
     7
420
 16777215
370
     9
100
AcDbVertex
100
AcDb2dVertex
 10
86.14086068437028
 20
96.11708727791377
 30
0.0
  0
VERTEX
  5
30D
330
2EF
100
AcDbEntity
  8
Capa 1
 62
     7
420
 16777215
370
     9
100
AcDbVertex
100
AcDb2dVertex
 10
86.1937785621901
 20
95.16458566326338
 30
0.0
  0
VERTEX
  5
30E
330
2EF
100
AcDbEntity
  8
Capa 1
 62
     7
420
 16777215
370
     9
100
AcDbVertex
100
AcDb2dVertex
 10
86.22023581892448
 20
94.71479547702363
 30
0.0
  0
VERTEX
  5
30F
330
2EF
100
AcDbEntity
  8
Capa 1
 62
     7
420
 16777215
370
     9
100
AcDbVertex
100
AcDb2dVertex
 10
86.3525288312985
 20
94.26500529078388
 30
0.0
  0
VERTEX
  5
310
330
2EF
100
AcDbEntity
  8
Capa 1
 62
     7
420
 16777215
370
     9
100
AcDbVertex
100
AcDb2dVertex
 10
86.53773635714127
 20
93.84166899692745
 30
0.0
  0
VERTEX
  5
311
330
2EF
100
AcDbEntity
  8
Capa 1
 62
     7
420
 16777215
370
     9
100
AcDbVertex
100
AcDb2dVertex
 10
86.77586176080516
 20
93.44479668850751
 30
0.0
  0
VERTEX
  5
312
330
2EF
100
AcDbEntity
  8
Capa 1
 62
     7
420
 16777215
370
     9
100
AcDbVertex
100
AcDb2dVertex
 10
87.09336229902067
 20
93.10083889355634
 30
0.0
  0
VERTEX
  5
313
330
2EF
100
AcDbEntity
  8
Capa 1
 62
     7
420
 16777215
370
     9
100
AcDbVertex
100
AcDb2dVertex
 10
87.43732009397313
 20
92.78333835533955
 30
0.0
  0
VERTEX
  5
314
330
2EF
100
AcDbEntity
  8
Capa 1
 62
     7
420
 16777215
370
     9
100
AcDbVertex
100
AcDb2dVertex
 10
87.86065302347721
 20
92.57167020841133
 30
0.0
  0
VERTEX
  5
315
330
2EF
100
AcDbEntity
  8
Capa 1
 62
     7
420
 16777215
370
     9
100
AcDbVertex
100
AcDb2dVertex
 10
88.28398595298258
 20
92.38646268256855
 30
0.0
  0
VERTEX
  5
316
330
2EF
100
AcDbEntity
  8
Capa 1
 62
     7
420
 16777215
370
     9
100
AcDbVertex
100
AcDb2dVertex
 10
88.7337795035734
 20
92.30708754801435
 30
0.0
  0
VERTEX
  5
317
330
2EF
100
AcDbEntity
  8
Capa 1
 62
     7
420
 16777215
370
     9
100
AcDbVertex
100
AcDb2dVertex
 10
89.21002694654753
 20
92.28063029127998
 30
0.0
  0
VERTEX
  5
318
330
2EF
100
AcDbEntity
  8
Capa 1
 62
     7
420
 16777215
370
     9
100
AcDbVertex
100
AcDb2dVertex
 10
91.06211229802848
 20
92.28063029127998
 30
0.0
  0
VERTEX
  5
319
330
2EF
100
AcDbEntity
  8
Capa 1
 62
     7
420
 16777215
370
     9
100
AcDbVertex
100
AcDb2dVertex
 10
94.79273689337369
 20
92.30708754801435
 30
0.0
  0
VERTEX
  5
31A
330
2EF
100
AcDbEntity
  8
Capa 1
 62
     7
420
 16777215
370
     9
100
AcDbVertex
100
AcDb2dVertex
 10
98.5233614887189
 20
92.36000542583417
 30
0.0
  0
VERTEX
  5
31B
330
2EF
100
AcDbEntity
  8
Capa 1
 62
     7
420
 16777215
370
     9
100
AcDbVertex
100
AcDb2dVertex
 10
99.4493991179328
 20
92.49229507385714
 30
0.0
  0
VERTEX
  5
31C
330
2EF
100
AcDbEntity
  8
Capa 1
 62
     7
420
 16777215
370
     9
100
AcDbVertex
100
AcDb2dVertex
 10
100.3489862191144
 20
92.73042047751973
 30
0.0
  0
VERTEX
  5
31D
330
2EF
100
AcDbEntity
  8
Capa 1
 62
     7
420
 16777215
370
     9
100
AcDbVertex
100
AcDb2dVertex
 10
101.2221093348595
 20
93.0743782724709
 30
0.0
  0
VERTEX
  5
31E
330
2EF
100
AcDbEntity
  8
Capa 1
 62
     7
420
 16777215
370
     9
100
AcDbVertex
100
AcDb2dVertex
 10
102.0158606804015
 20
93.5506290797961
 30
0.0
  0
VERTEX
  5
31F
330
2EF
100
AcDbEntity
  8
Capa 1
 62
     7
420
 16777215
370
     9
100
AcDbVertex
100
AcDb2dVertex
 10
102.783148040507
 20
94.10625502167548
 30
0.0
  0
VERTEX
  5
320
330
2EF
100
AcDbEntity
  8
Capa 1
 62
     7
420
 16777215
370
     9
100
AcDbVertex
100
AcDb2dVertex
 10
103.444606373675
 20
94.74125273375802
 30
0.0
  0
VERTEX
  5
321
330
2EF
100
AcDbEntity
  8
Capa 1
 62
     7
420
 16777215
370
     9
100
AcDbVertex
100
AcDb2dVertex
 10
104.0266929366398
 20
95.4556289447458
 30
0.0
  0
VERTEX
  5
322
330
2EF
100
AcDbEntity
  8
Capa 1
 62
     7
420
 16777215
370
     9
100
AcDbVertex
100
AcDb2dVertex
 10
104.5294010006994
 20
96.24938029028779
 30
0.0
  0
VERTEX
  5
323
330
2EF
100
AcDbEntity
  8
Capa 1
 62
     7
420
 16777215
370
     9
100
AcDbVertex
100
AcDb2dVertex
 10
104.9262733091193
 20
97.09604614929853
 30
0.0
  0
VERTEX
  5
324
330
2EF
100
AcDbEntity
  8
Capa 1
 62
     7
420
 16777215
370
     9
100
AcDbVertex
100
AcDb2dVertex
 10
105.2173165906017
 20
97.9956298861291
 30
0.0
  0
VERTEX
  5
325
330
2EF
100
AcDbEntity
  8
Capa 1
 62
     7
420
 16777215
370
     9
100
AcDbVertex
100
AcDb2dVertex
 10
105.3760668597101
 20
98.89521362295966
 30
0.0
  0
VERTEX
  5
326
330
2EF
100
AcDbEntity
  8
Capa 1
 62
     7
420
 16777215
370
     9
100
AcDbVertex
100
AcDb2dVertex
 10
105.4289813731789
 20
99.82125461652461
 30
0.0
  0
SEQEND
  5
327
330
2EF
100
AcDbEntity
  8
Capa 1
 62
     7
420
 16777215
370
     9
  0
POLYLINE
  5
328
330
1F
100
AcDbEntity
  8
Capa 1
 62
     7
420
 16777215
370
     9
100
AcDb2dPolyline
 66
     1
 10
0.0
 20
0.0
 30
0.0
  0
VERTEX
  5
329
330
328
100
AcDbEntity
  8
Capa 1
 62
     7
420
 16777215
370
     9
100
AcDbVertex
100
AcDb2dVertex
 10
73.33503031486734
 20
94.82062786831222
 30
0.0
  0
VERTEX
  5
32A
330
328
100
AcDbEntity
  8
Capa 1
 62
     7
420
 16777215
370
     9
100
AcDbVertex
100
AcDb2dVertex
 10
73.30856969378189
 20
95.00583875850604
 30
0.0
  0
VERTEX
  5
32B
330
328
100
AcDbEntity
  8
Capa 1
 62
     7
420
 16777215
370
     9
100
AcDbVertex
100
AcDb2dVertex
 10
73.20273730249332
 20
95.16458566326338
 30
0.0
  0
VERTEX
  5
32C
330
328
100
AcDbEntity
  8
Capa 1
 62
     7
420
 16777215
370
     9
100
AcDbVertex
100
AcDb2dVertex
 10
73.17628004575894
 20
95.19104628434883
 30
0.0
  0
SEQEND
  5
32D
330
328
100
AcDbEntity
  8
Capa 1
 62
     7
420
 16777215
370
     9
  0
POLYLINE
  5
32E
330
1F
100
AcDbEntity
  8
Capa 1
 62
     7
420
 16777215
370
     9
100
AcDb2dPolyline
 66
     1
 10
0.0
 20
0.0
 30
0.0
  0
VERTEX
  5
32F
330
32E
100
AcDbEntity
  8
Capa 1
 62
     7
420
 16777215
370
     9
100
AcDbVertex
100
AcDb2dVertex
 10
73.01752977665055
 20
95.27042141890303
 30
0.0
  0
VERTEX
  5
330
330
32E
100
AcDbEntity
  8
Capa 1
 62
     7
420
 16777215
370
     9
100
AcDbVertex
100
AcDb2dVertex
 10
72.8852367642778
 20
95.2968786756374
 30
0.0
  0
VERTEX
  5
331
330
32E
100
AcDbEntity
  8
Capa 1
 62
     7
420
 16777215
370
     9
100
AcDbVertex
100
AcDb2dVertex
 10
72.70002923843374
 20
95.27042141890303
 30
0.0
  0
VERTEX
  5
332
330
32E
100
AcDbEntity
  8
Capa 1
 62
     7
420
 16777215
370
     9
100
AcDbVertex
100
AcDb2dVertex
 10
72.64711136061393
 20
95.24396079781758
 30
0.0
  0
SEQEND
  5
333
330
32E
100
AcDbEntity
  8
Capa 1
 62
     7
420
 16777215
370
     9
  0
POLYLINE
  5
334
330
1F
100
AcDbEntity
  8
Capa 1
 62
     7
420
 16777215
370
     9
100
AcDb2dPolyline
 66
     1
 10
0.0
 20
0.0
 30
0.0
  0
VERTEX
  5
335
330
334
100
AcDbEntity
  8
Capa 1
 62
     7
420
 16777215
370
     9
100
AcDbVertex
100
AcDb2dVertex
 10
72.51482171259097
 20
95.11167114979463
 30
0.0
  0
VERTEX
  5
336
330
334
100
AcDbEntity
  8
Capa 1
 62
     7
420
 16777215
370
     9
100
AcDbVertex
100
AcDb2dVertex
 10
72.43544657803677
 20
95.00583875850604
 30
0.0
  0
VERTEX
  5
337
330
334
100
AcDbEntity
  8
Capa 1
 62
     7
420
 16777215
370
     9
100
AcDbVertex
100
AcDb2dVertex
 10
72.40898595695133
 20
94.82062786831222
 30
0.0
  0
VERTEX
  5
338
330
334
100
AcDbEntity
  8
Capa 1
 62
     7
420
 16777215
370
     9
100
AcDbVertex
100
AcDb2dVertex
 10
72.43544657803677
 20
94.74125273375802
 30
0.0
  0
SEQEND
  5
339
330
334
100
AcDbEntity
  8
Capa 1
 62
     7
420
 16777215
370
     9
  0
POLYLINE
  5
33A
330
1F
100
AcDbEntity
  8
Capa 1
 62
     7
420
 16777215
370
     9
100
AcDb2dPolyline
 66
     1
 10
0.0
 20
0.0
 30
0.0
  0
VERTEX
  5
33B
330
33A
100
AcDbEntity
  8
Capa 1
 62
     7
420
 16777215
370
     9
100
AcDbVertex
100
AcDb2dVertex
 10
72.51482171259097
 20
94.55604520791523
 30
0.0
  0
VERTEX
  5
33C
330
33A
100
AcDbEntity
  8
Capa 1
 62
     7
420
 16777215
370
     9
100
AcDbVertex
100
AcDb2dVertex
 10
72.54127896932535
 20
94.50312733009542
 30
0.0
  0
VERTEX
  5
33D
330
33A
100
AcDbEntity
  8
Capa 1
 62
     7
420
 16777215
370
     9
100
AcDbVertex
100
AcDb2dVertex
 10
72.70002923843374
 20
94.39729493880684
 30
0.0
  0
VERTEX
  5
33E
330
33A
100
AcDbEntity
  8
Capa 1
 62
     7
420
 16777215
370
     9
100
AcDbVertex
100
AcDb2dVertex
 10
72.83231888645798
 20
94.37083768207246
 30
0.0
  0
SEQEND
  5
33F
330
33A
100
AcDbEntity
  8
Capa 1
 62
     7
420
 16777215
370
     9
  0
POLYLINE
  5
340
330
1F
100
AcDbEntity
  8
Capa 1
 62
     7
420
 16777215
370
     9
100
AcDb2dPolyline
 66
     1
 10
0.0
 20
0.0
 30
0.0
  0
VERTEX
  5
341
330
340
100
AcDbEntity
  8
Capa 1
 62
     7
420
 16777215
370
     9
100
AcDbVertex
100
AcDb2dVertex
 10
73.01752977665055
 20
94.39729493880684
 30
0.0
  0
VERTEX
  5
342
330
340
100
AcDbEntity
  8
Capa 1
 62
     7
420
 16777215
370
     9
100
AcDbVertex
100
AcDb2dVertex
 10
73.04398703338492
 20
94.39729493880684
 30
0.0
  0
VERTEX
  5
343
330
340
100
AcDbEntity
  8
Capa 1
 62
     7
420
 16777215
370
     9
100
AcDbVertex
100
AcDb2dVertex
 10
73.20273730249332
 20
94.50312733009542
 30
0.0
  0
VERTEX
  5
344
330
340
100
AcDbEntity
  8
Capa 1
 62
     7
420
 16777215
370
     9
100
AcDbVertex
100
AcDb2dVertex
 10
73.30856969378189
 20
94.63542034246943
 30
0.0
  0
SEQEND
  5
345
330
340
100
AcDbEntity
  8
Capa 1
 62
     7
420
 16777215
370
     9
  0
POLYLINE
  5
346
330
1F
100
AcDbEntity
  8
Capa 1
 62
     7
420
 16777215
370
     9
100
AcDb2dPolyline
 66
     1
 10
0.0
 20
0.0
 30
0.0
  0
VERTEX
  5
347
330
346
100
AcDbEntity
  8
Capa 1
 62
     7
420
 16777215
370
     9
100
AcDbVertex
100
AcDb2dVertex
 10
73.33503031486734
 20
94.82062786831222
 30
0.0
  0
VERTEX
  5
348
330
346
100
AcDbEntity
  8
Capa 1
 62
     7
420
 16777215
370
     9
100
AcDbVertex
100
AcDb2dVertex
 10
73.36148757160171
 20
94.82062786831222
 30
0.0
  0
SEQEND
  5
349
330
346
100
AcDbEntity
  8
Capa 1
 62
     7
420
 16777215
370
     9
  0
POLYLINE
  5
34A
330
1F
100
AcDbEntity
  8
Capa 1
 62
     7
420
 16777215
370
     9
100
AcDb2dPolyline
 66
     1
 10
0.0
 20
0.0
 30
0.0
  0
VERTEX
  5
34B
330
34A
100
AcDbEntity
  8
Capa 1
 62
     7
420
 16777215
370
     9
100
AcDbVertex
100
AcDb2dVertex
 10
73.33503031486734
 20
104.8218780003859
 30
0.0
  0
VERTEX
  5
34C
330
34A
100
AcDbEntity
  8
Capa 1
 62
     7
420
 16777215
370
     9
100
AcDbVertex
100
AcDb2dVertex
 10
73.30856969378189
 20
105.0070855262287
 30
0.0
  0
VERTEX
  5
34D
330
34A
100
AcDbEntity
  8
Capa 1
 62
     7
420
 16777215
370
     9
100
AcDbVertex
100
AcDb2dVertex
 10
73.20273730249332
 20
105.1658357953371
 30
0.0
  0
VERTEX
  5
34E
330
34A
100
AcDbEntity
  8
Capa 1
 62
     7
420
 16777215
370
     9
100
AcDbVertex
100
AcDb2dVertex
 10
73.17628004575894
 20
105.1658357953371
 30
0.0
  0
SEQEND
  5
34F
330
34A
100
AcDbEntity
  8
Capa 1
 62
     7
420
 16777215
370
     9
  0
POLYLINE
  5
350
330
1F
100
AcDbEntity
  8
Capa 1
 62
     7
420
 16777215
370
     9
100
AcDb2dPolyline
 66
     1
 10
0.0
 20
0.0
 30
0.0
  0
VERTEX
  5
351
330
350
100
AcDbEntity
  8
Capa 1
 62
     7
420
 16777215
370
     9
100
AcDbVertex
100
AcDb2dVertex
 10
73.01752977665055
 20
105.2716715509767
 30
0.0
  0
VERTEX
  5
352
330
350
100
AcDbEntity
  8
Capa 1
 62
     7
420
 16777215
370
     9
100
AcDbVertex
100
AcDb2dVertex
 10
72.8852367642778
 20
105.2981288077111
 30
0.0
  0
VERTEX
  5
353
330
350
100
AcDbEntity
  8
Capa 1
 62
     7
420
 16777215
370
     9
100
AcDbVertex
100
AcDb2dVertex
 10
72.70002923843374
 20
105.2716715509767
 30
0.0
  0
VERTEX
  5
354
330
350
100
AcDbEntity
  8
Capa 1
 62
     7
420
 16777215
370
     9
100
AcDbVertex
100
AcDb2dVertex
 10
72.64711136061393
 20
105.2452109298913
 30
0.0
  0
SEQEND
  5
355
330
350
100
AcDbEntity
  8
Capa 1
 62
     7
420
 16777215
370
     9
  0
POLYLINE
  5
356
330
1F
100
AcDbEntity
  8
Capa 1
 62
     7
420
 16777215
370
     9
100
AcDb2dPolyline
 66
     1
 10
0.0
 20
0.0
 30
0.0
  0
VERTEX
  5
357
330
356
100
AcDbEntity
  8
Capa 1
 62
     7
420
 16777215
370
     9
100
AcDbVertex
100
AcDb2dVertex
 10
72.51482171259097
 20
105.1129212818684
 30
0.0
  0
VERTEX
  5
358
330
356
100
AcDbEntity
  8
Capa 1
 62
     7
420
 16777215
370
     9
100
AcDbVertex
100
AcDb2dVertex
 10
72.43544657803677
 20
105.0070855262287
 30
0.0
  0
VERTEX
  5
359
330
356
100
AcDbEntity
  8
Capa 1
 62
     7
420
 16777215
370
     9
100
AcDbVertex
100
AcDb2dVertex
 10
72.40898595695133
 20
104.8218780003859
 30
0.0
  0
VERTEX
  5
35A
330
356
100
AcDbEntity
  8
Capa 1
 62
     7
420
 16777215
370
     9
100
AcDbVertex
100
AcDb2dVertex
 10
72.43544657803677
 20
104.7425028658317
 30
0.0
  0
SEQEND
  5
35B
330
356
100
AcDbEntity
  8
Capa 1
 62
     7
420
 16777215
370
     9
  0
POLYLINE
  5
35C
330
1F
100
AcDbEntity
  8
Capa 1
 62
     7
420
 16777215
370
     9
100
AcDb2dPolyline
 66
     1
 10
0.0
 20
0.0
 30
0.0
  0
VERTEX
  5
35D
330
35C
100
AcDbEntity
  8
Capa 1
 62
     7
420
 16777215
370
     9
100
AcDbVertex
100
AcDb2dVertex
 10
72.51482171259097
 20
104.557295339989
 30
0.0
  0
VERTEX
  5
35E
330
35C
100
AcDbEntity
  8
Capa 1
 62
     7
420
 16777215
370
     9
100
AcDbVertex
100
AcDb2dVertex
 10
72.54127896932535
 20
104.5043774621691
 30
0.0
  0
VERTEX
  5
35F
330
35C
100
AcDbEntity
  8
Capa 1
 62
     7
420
 16777215
370
     9
100
AcDbVertex
100
AcDb2dVertex
 10
72.70002923843374
 20
104.3985450708806
 30
0.0
  0
VERTEX
  5
360
330
35C
100
AcDbEntity
  8
Capa 1
 62
     7
420
 16777215
370
     9
100
AcDbVertex
100
AcDb2dVertex
 10
72.83231888645798
 20
104.3720878141462
 30
0.0
  0
SEQEND
  5
361
330
35C
100
AcDbEntity
  8
Capa 1
 62
     7
420
 16777215
370
     9
  0
POLYLINE
  5
362
330
1F
100
AcDbEntity
  8
Capa 1
 62
     7
420
 16777215
370
     9
100
AcDb2dPolyline
 66
     1
 10
0.0
 20
0.0
 30
0.0
  0
VERTEX
  5
363
330
362
100
AcDbEntity
  8
Capa 1
 62
     7
420
 16777215
370
     9
100
AcDbVertex
100
AcDb2dVertex
 10
73.01752977665055
 20
104.3985450708806
 30
0.0
  0
VERTEX
  5
364
330
362
100
AcDbEntity
  8
Capa 1
 62
     7
420
 16777215
370
     9
100
AcDbVertex
100
AcDb2dVertex
 10
73.04398703338492
 20
104.3985450708806
 30
0.0
  0
VERTEX
  5
365
330
362
100
AcDbEntity
  8
Capa 1
 62
     7
420
 16777215
370
     9
100
AcDbVertex
100
AcDb2dVertex
 10
73.20273730249332
 20
104.5043774621691
 30
0.0
  0
VERTEX
  5
366
330
362
100
AcDbEntity
  8
Capa 1
 62
     7
420
 16777215
370
     9
100
AcDbVertex
100
AcDb2dVertex
 10
73.30856969378189
 20
104.6366704745432
 30
0.0
  0
SEQEND
  5
367
330
362
100
AcDbEntity
  8
Capa 1
 62
     7
420
 16777215
370
     9
  0
POLYLINE
  5
368
330
1F
100
AcDbEntity
  8
Capa 1
 62
     7
420
 16777215
370
     9
100
AcDb2dPolyline
 66
     1
 10
0.0
 20
0.0
 30
0.0
  0
VERTEX
  5
369
330
368
100
AcDbEntity
  8
Capa 1
 62
     7
420
 16777215
370
     9
100
AcDbVertex
100
AcDb2dVertex
 10
73.33503031486734
 20
104.8218780003859
 30
0.0
  0
VERTEX
  5
36A
330
368
100
AcDbEntity
  8
Capa 1
 62
     7
420
 16777215
370
     9
100
AcDbVertex
100
AcDb2dVertex
 10
73.36148757160171
 20
104.8218780003859
 30
0.0
  0
SEQEND
  5
36B
330
368
100
AcDbEntity
  8
Capa 1
 62
     7
420
 16777215
370
     9
  0
POLYLINE
  5
36C
330
1F
100
AcDbEntity
  8
Capa 1
 62
     7
420
 16777215
370
     9
100
AcDb2dPolyline
 66
     1
 10
0.0
 20
0.0
 30
0.0
  0
VERTEX
  5
36D
330
36C
100
AcDbEntity
  8
Capa 1
 62
     7
420
 16777215
370
     9
100
AcDbVertex
100
AcDb2dVertex
 10
72.8852367642778
 20
104.9806282694943
 30
0.0
  0
VERTEX
  5
36E
330
36C
100
AcDbEntity
  8
Capa 1
 62
     7
420
 16777215
370
     9
100
AcDbVertex
100
AcDb2dVertex
 10
72.8852367642778
 20
104.8218780003859
 30
0.0
  0
VERTEX
  5
36F
330
36C
100
AcDbEntity
  8
Capa 1
 62
     7
420
 16777215
370
     9
100
AcDbVertex
100
AcDb2dVertex
 10
72.72648649516813
 20
104.8218780003859
 30
0.0
  0
SEQEND
  5
370
330
36C
100
AcDbEntity
  8
Capa 1
 62
     7
420
 16777215
370
     9
  0
POLYLINE
  5
371
330
1F
100
AcDbEntity
  8
Capa 1
 62
     7
420
 16777215
370
     9
100
AcDb2dPolyline
 66
     1
 10
0.0
 20
0.0
 30
0.0
  0
VERTEX
  5
372
330
371
100
AcDbEntity
  8
Capa 1
 62
     7
420
 16777215
370
     9
100
AcDbVertex
100
AcDb2dVertex
 10
72.8852367642778
 20
104.689588352363
 30
0.0
  0
VERTEX
  5
373
330
371
100
AcDbEntity
  8
Capa 1
 62
     7
420
 16777215
370
     9
100
AcDbVertex
100
AcDb2dVertex
 10
72.8852367642778
 20
104.8218780003859
 30
0.0
  0
VERTEX
  5
374
330
371
100
AcDbEntity
  8
Capa 1
 62
     7
420
 16777215
370
     9
100
AcDbVertex
100
AcDb2dVertex
 10
73.04398703338492
 20
104.8218780003859
 30
0.0
  0
SEQEND
  5
375
330
371
100
AcDbEntity
  8
Capa 1
 62
     7
420
 16777215
370
     9
  0
POLYLINE
  5
376
330
1F
100
AcDbEntity
  8
Capa 1
 62
     7
420
 16777215
370
     9
100
AcDb2dPolyline
 66
     1
 10
0.0
 20
0.0
 30
0.0
  0
VERTEX
  5
377
330
376
100
AcDbEntity
  8
Capa 1
 62
     7
420
 16777215
370
     9
100
AcDbVertex
100
AcDb2dVertex
 10
73.20273730249332
 20
104.8218780003859
 30
0.0
  0
VERTEX
  5
378
330
376
100
AcDbEntity
  8
Capa 1
 62
     7
420
 16777215
370
     9
100
AcDbVertex
100
AcDb2dVertex
 10
73.49377721962595
 20
104.8218780003859
 30
0.0
  0
SEQEND
  5
379
330
376
100
AcDbEntity
  8
Capa 1
 62
     7
420
 16777215
370
     9
  0
POLYLINE
  5
37A
330
1F
100
AcDbEntity
  8
Capa 1
 62
     7
420
 16777215
370
     9
100
AcDb2dPolyline
 66
     1
 10
0.0
 20
0.0
 30
0.0
  0
VERTEX
  5
37B
330
37A
100
AcDbEntity
  8
Capa 1
 62
     7
420
 16777215
370
     9
100
AcDbVertex
100
AcDb2dVertex
 10
72.8852367642778
 20
104.5308380832546
 30
0.0
  0
VERTEX
  5
37C
330
37A
100
AcDbEntity
  8
Capa 1
 62
     7
420
 16777215
370
     9
100
AcDbVertex
100
AcDb2dVertex
 10
72.8852367642778
 20
104.2133375450378
 30
0.0
  0
SEQEND
  5
37D
330
37A
100
AcDbEntity
  8
Capa 1
 62
     7
420
 16777215
370
     9
  0
POLYLINE
  5
37E
330
1F
100
AcDbEntity
  8
Capa 1
 62
     7
420
 16777215
370
     9
100
AcDb2dPolyline
 66
     1
 10
0.0
 20
0.0
 30
0.0
  0
VERTEX
  5
37F
330
37E
100
AcDbEntity
  8
Capa 1
 62
     7
420
 16777215
370
     9
100
AcDbVertex
100
AcDb2dVertex
 10
72.56773622605974
 20
104.8218780003859
 30
0.0
  0
VERTEX
  5
380
330
37E
100
AcDbEntity
  8
Capa 1
 62
     7
420
 16777215
370
     9
100
AcDbVertex
100
AcDb2dVertex
 10
72.25023568784293
 20
104.8218780003859
 30
0.0
  0
SEQEND
  5
381
330
37E
100
AcDbEntity
  8
Capa 1
 62
     7
420
 16777215
370
     9
  0
POLYLINE
  5
382
330
1F
100
AcDbEntity
  8
Capa 1
 62
     7
420
 16777215
370
     9
100
AcDb2dPolyline
 66
     1
 10
0.0
 20
0.0
 30
0.0
  0
VERTEX
  5
383
330
382
100
AcDbEntity
  8
Capa 1
 62
     7
420
 16777215
370
     9
100
AcDbVertex
100
AcDb2dVertex
 10
72.8852367642778
 20
105.1393785386027
 30
0.0
  0
VERTEX
  5
384
330
382
100
AcDbEntity
  8
Capa 1
 62
     7
420
 16777215
370
     9
100
AcDbVertex
100
AcDb2dVertex
 10
72.8852367642778
 20
105.4568790768195
 30
0.0
  0
SEQEND
  5
385
330
382
100
AcDbEntity
  8
Capa 1
 62
     7
420
 16777215
370
     9
  0
POLYLINE
  5
386
330
1F
100
AcDbEntity
  8
Capa 1
 62
     7
420
 16777215
370
     9
100
AcDb2dPolyline
 66
     1
 10
0.0
 20
0.0
 30
0.0
  0
VERTEX
  5
387
330
386
100
AcDbEntity
  8
Capa 1
 62
     7
420
 16777215
370
     9
100
AcDbVertex
100
AcDb2dVertex
 10
72.8852367642778
 20
94.97937813742061
 30
0.0
  0
VERTEX
  5
388
330
386
100
AcDbEntity
  8
Capa 1
 62
     7
420
 16777215
370
     9
100
AcDbVertex
100
AcDb2dVertex
 10
72.8852367642778
 20
94.82062786831222
 30
0.0
  0
VERTEX
  5
389
330
386
100
AcDbEntity
  8
Capa 1
 62
     7
420
 16777215
370
     9
100
AcDbVertex
100
AcDb2dVertex
 10
72.72648649516813
 20
94.82062786831222
 30
0.0
  0
SEQEND
  5
38A
330
386
100
AcDbEntity
  8
Capa 1
 62
     7
420
 16777215
370
     9
  0
POLYLINE
  5
38B
330
1F
100
AcDbEntity
  8
Capa 1
 62
     7
420
 16777215
370
     9
100
AcDb2dPolyline
 66
     1
 10
0.0
 20
0.0
 30
0.0
  0
VERTEX
  5
38C
330
38B
100
AcDbEntity
  8
Capa 1
 62
     7
420
 16777215
370
     9
100
AcDbVertex
100
AcDb2dVertex
 10
72.8852367642778
 20
94.68833822028925
 30
0.0
  0
VERTEX
  5
38D
330
38B
100
AcDbEntity
  8
Capa 1
 62
     7
420
 16777215
370
     9
100
AcDbVertex
100
AcDb2dVertex
 10
72.8852367642778
 20
94.82062786831222
 30
0.0
  0
VERTEX
  5
38E
330
38B
100
AcDbEntity
  8
Capa 1
 62
     7
420
 16777215
370
     9
100
AcDbVertex
100
AcDb2dVertex
 10
73.04398703338492
 20
94.82062786831222
 30
0.0
  0
SEQEND
  5
38F
330
38B
100
AcDbEntity
  8
Capa 1
 62
     7
420
 16777215
370
     9
  0
POLYLINE
  5
390
330
1F
100
AcDbEntity
  8
Capa 1
 62
     7
420
 16777215
370
     9
100
AcDb2dPolyline
 66
     1
 10
0.0
 20
0.0
 30
0.0
  0
VERTEX
  5
391
330
390
100
AcDbEntity
  8
Capa 1
 62
     7
420
 16777215
370
     9
100
AcDbVertex
100
AcDb2dVertex
 10
72.67357198169937
 20
99.82125461652461
 30
0.0
  0
VERTEX
  5
392
330
390
100
AcDbEntity
  8
Capa 1
 62
     7
420
 16777215
370
     9
100
AcDbVertex
100
AcDb2dVertex
 10
73.0704442901193
 20
99.82125461652461
 30
0.0
  0
SEQEND
  5
393
330
390
100
AcDbEntity
  8
Capa 1
 62
     7
420
 16777215
370
     9
  0
POLYLINE
  5
394
330
1F
100
AcDbEntity
  8
Capa 1
 62
     7
420
 16777215
370
     9
100
AcDb2dPolyline
 66
     1
 10
0.0
 20
0.0
 30
0.0
  0
VERTEX
  5
395
330
394
100
AcDbEntity
  8
Capa 1
 62
     7
420
 16777215
370
     9
100
AcDbVertex
100
AcDb2dVertex
 10
70.927319021507
 20
99.82125461652461
 30
0.0
  0
VERTEX
  5
396
330
394
100
AcDbEntity
  8
Capa 1
 62
     7
420
 16777215
370
     9
100
AcDbVertex
100
AcDb2dVertex
 10
72.30315356566275
 20
99.82125461652461
 30
0.0
  0
SEQEND
  5
397
330
394
100
AcDbEntity
  8
Capa 1
 62
     7
420
 16777215
370
     9
  0
POLYLINE
  5
398
330
1F
100
AcDbEntity
  8
Capa 1
 62
     7
420
 16777215
370
     9
100
AcDb2dPolyline
 66
     1
 10
0.0
 20
0.0
 30
0.0
  0
VERTEX
  5
399
330
398
100
AcDbEntity
  8
Capa 1
 62
     7
420
 16777215
370
     9
100
AcDbVertex
100
AcDb2dVertex
 10
73.20273730249332
 20
94.82062786831222
 30
0.0
  0
VERTEX
  5
39A
330
398
100
AcDbEntity
  8
Capa 1
 62
     7
420
 16777215
370
     9
100
AcDbVertex
100
AcDb2dVertex
 10
73.49377721962595
 20
94.82062786831222
 30
0.0
  0
SEQEND
  5
39B
330
398
100
AcDbEntity
  8
Capa 1
 62
     7
420
 16777215
370
     9
  0
POLYLINE
  5
39C
330
1F
100
AcDbEntity
  8
Capa 1
 62
     7
420
 16777215
370
     9
100
AcDb2dPolyline
 66
     1
 10
0.0
 20
0.0
 30
0.0
  0
VERTEX
  5
39D
330
39C
100
AcDbEntity
  8
Capa 1
 62
     7
420
 16777215
370
     9
100
AcDbVertex
100
AcDb2dVertex
 10
72.8852367642778
 20
94.52958795118086
 30
0.0
  0
VERTEX
  5
39E
330
39C
100
AcDbEntity
  8
Capa 1
 62
     7
420
 16777215
370
     9
100
AcDbVertex
100
AcDb2dVertex
 10
72.8852367642778
 20
94.21208741296407
 30
0.0
  0
SEQEND
  5
39F
330
39C
100
AcDbEntity
  8
Capa 1
 62
     7
420
 16777215
370
     9
  0
POLYLINE
  5
3A0
330
1F
100
AcDbEntity
  8
Capa 1
 62
     7
420
 16777215
370
     9
100
AcDb2dPolyline
 66
     1
 10
0.0
 20
0.0
 30
0.0
  0
VERTEX
  5
3A1
330
3A0
100
AcDbEntity
  8
Capa 1
 62
     7
420
 16777215
370
     9
100
AcDbVertex
100
AcDb2dVertex
 10
72.56773622605974
 20
94.82062786831222
 30
0.0
  0
VERTEX
  5
3A2
330
3A0
100
AcDbEntity
  8
Capa 1
 62
     7
420
 16777215
370
     9
100
AcDbVertex
100
AcDb2dVertex
 10
72.25023568784293
 20
94.82062786831222
 30
0.0
  0
SEQEND
  5
3A3
330
3A0
100
AcDbEntity
  8
Capa 1
 62
     7
420
 16777215
370
     9
  0
POLYLINE
  5
3A4
330
1F
100
AcDbEntity
  8
Capa 1
 62
     7
420
 16777215
370
     9
100
AcDb2dPolyline
 66
     1
 10
0.0
 20
0.0
 30
0.0
  0
VERTEX
  5
3A5
330
3A4
100
AcDbEntity
  8
Capa 1
 62
     7
420
 16777215
370
     9
100
AcDbVertex
100
AcDb2dVertex
 10
72.8852367642778
 20
95.138128406529
 30
0.0
  0
VERTEX
  5
3A6
330
3A4
100
AcDbEntity
  8
Capa 1
 62
     7
420
 16777215
370
     9
100
AcDbVertex
100
AcDb2dVertex
 10
72.8852367642778
 20
95.4556289447458
 30
0.0
  0
SEQEND
  5
3A7
330
3A4
100
AcDbEntity
  8
Capa 1
 62
     7
420
 16777215
370
     9
  0
POLYLINE
  5
3A8
330
1F
100
AcDbEntity
  8
Capa 1
 62
     7
420
 16777215
370
     9
100
AcDb2dPolyline
 66
     1
 10
0.0
 20
0.0
 30
0.0
  0
VERTEX
  5
3A9
330
3A8
100
AcDbEntity
  8
Capa 1
 62
     7
420
 16777215
370
     9
100
AcDbVertex
100
AcDb2dVertex
 10
73.4673199628903
 20
99.82125461652461
 30
0.0
  0
VERTEX
  5
3AA
330
3A8
100
AcDbEntity
  8
Capa 1
 62
     7
420
 16777215
370
     9
100
AcDbVertex
100
AcDb2dVertex
 10
74.84315450704605
 20
99.82125461652461
 30
0.0
  0
SEQEND
  5
3AB
330
3A8
100
AcDbEntity
  8
Capa 1
 62
     7
420
 16777215
370
     9
  0
POLYLINE
  5
3AC
330
1F
100
AcDbEntity
  8
Capa 1
 62
     7
420
 16777215
370
     9
100
AcDb2dPolyline
 66
     1
 10
0.0
 20
0.0
 30
0.0
  0
VERTEX
  5
3AD
330
3AC
100
AcDbEntity
  8
Capa 1
 62
     7
420
 16777215
370
     9
100
AcDbVertex
100
AcDb2dVertex
 10
72.8852367642778
 20
100.0858372769216
 30
0.0
  0
VERTEX
  5
3AE
330
3AC
100
AcDbEntity
  8
Capa 1
 62
     7
420
 16777215
370
     9
100
AcDbVertex
100
AcDb2dVertex
 10
72.8852367642778
 20
99.68896160415059
 30
0.0
  0
SEQEND
  5
3AF
330
3AC
100
AcDbEntity
  8
Capa 1
 62
     7
420
 16777215
370
     9
  0
POLYLINE
  5
3B0
330
1F
100
AcDbEntity
  8
Capa 1
 62
     7
420
 16777215
370
     9
100
AcDb2dPolyline
 66
     1
 10
0.0
 20
0.0
 30
0.0
  0
VERTEX
  5
3B1
330
3B0
100
AcDbEntity
  8
Capa 1
 62
     7
420
 16777215
370
     9
100
AcDbVertex
100
AcDb2dVertex
 10
72.8852367642778
 20
102.1495874109797
 30
0.0
  0
VERTEX
  5
3B2
330
3B0
100
AcDbEntity
  8
Capa 1
 62
     7
420
 16777215
370
     9
100
AcDbVertex
100
AcDb2dVertex
 10
72.8852367642778
 20
100.4827129496926
 30
0.0
  0
SEQEND
  5
3B3
330
3B0
100
AcDbEntity
  8
Capa 1
 62
     7
420
 16777215
370
     9
  0
POLYLINE
  5
3B4
330
1F
100
AcDbEntity
  8
Capa 1
 62
     7
420
 16777215
370
     9
100
AcDb2dPolyline
 66
     1
 10
0.0
 20
0.0
 30
0.0
  0
VERTEX
  5
3B5
330
3B4
100
AcDbEntity
  8
Capa 1
 62
     7
420
 16777215
370
     9
100
AcDbVertex
100
AcDb2dVertex
 10
72.8852367642778
 20
99.31854655246504
 30
0.0
  0
VERTEX
  5
3B6
330
3B4
100
AcDbEntity
  8
Capa 1
 62
     7
420
 16777215
370
     9
100
AcDbVertex
100
AcDb2dVertex
 10
72.8852367642778
 20
97.65167209117793
 30
0.0
  0
SEQEND
  5
3B7
330
3B4
100
AcDbEntity
  8
Capa 1
 62
     7
420
 16777215
370
     9
  0
POLYLINE
  5
3B8
330
1F
100
AcDbEntity
  8
Capa 1
 62
     7
420
 16777215
370
     9
100
AcDb2dPolyline
 66
     1
 10
0.0
 20
0.0
 30
0.0
  0
VERTEX
  5
3B9
330
3B8
100
AcDbEntity
  8
Capa 1
 62
     7
420
 16777215
370
     9
100
AcDbVertex
100
AcDb2dVertex
 10
66.08533992969568
 20
95.95833700880537
 30
0.0
  0
VERTEX
  5
3BA
330
3B8
100
AcDbEntity
  8
Capa 1
 62
     7
420
 16777215
370
     9
100
AcDbVertex
100
AcDb2dVertex
 10
66.08533992969568
 20
98.26021254652608
 30
0.0
  0
SEQEND
  5
3BB
330
3B8
100
AcDbEntity
  8
Capa 1
 62
     7
420
 16777215
370
     9
  0
POLYLINE
  5
3BC
330
1F
100
AcDbEntity
  8
Capa 1
 62
     7
420
 16777215
370
     9
100
AcDb2dPolyline
 66
     1
 10
0.0
 20
0.0
 30
0.0
  0
VERTEX
  5
3BD
330
3BC
100
AcDbEntity
  8
Capa 1
 62
     7
420
 16777215
370
     9
100
AcDbVertex
100
AcDb2dVertex
 10
66.08533992969568
 20
103.7106294809782
 30
0.0
  0
VERTEX
  5
3BE
330
3BC
100
AcDbEntity
  8
Capa 1
 62
     7
420
 16777215
370
     9
100
AcDbVertex
100
AcDb2dVertex
 10
66.08533992969568
 20
101.4087539432575
 30
0.0
  0
SEQEND
  5
3BF
330
3BC
100
AcDbEntity
  8
Capa 1
 62
     7
420
 16777215
370
     9
  0
POLYLINE
  5
3C0
330
1F
100
AcDbEntity
  8
Capa 1
 62
     7
420
 16777215
370
     9
100
AcDb2dPolyline
 66
     1
 10
0.0
 20
0.0
 30
0.0
  0
VERTEX
  5
3C1
330
3C0
100
AcDbEntity
  8
Capa 1
 62
     7
420
 16777215
370
     9
100
AcDbVertex
100
AcDb2dVertex
 10
71.9327385139772
 20
94.82062786831222
 30
0.0
  0
VERTEX
  5
3C2
330
3C0
100
AcDbEntity
  8
Capa 1
 62
     7
420
 16777215
370
     9
100
AcDbVertex
100
AcDb2dVertex
 10
65.476797792172
 20
94.82062786831222
 30
0.0
  0
SEQEND
  5
3C3
330
3C0
100
AcDbEntity
  8
Capa 1
 62
     7
420
 16777215
370
     9
  0
POLYLINE
  5
3C4
330
1F
100
AcDbEntity
  8
Capa 1
 62
     7
420
 16777215
370
     9
100
AcDb2dPolyline
 66
     1
 10
0.0
 20
0.0
 30
0.0
  0
VERTEX
  5
3C5
330
3C4
100
AcDbEntity
  8
Capa 1
 62
     7
420
 16777215
370
     9
100
AcDbVertex
100
AcDb2dVertex
 10
71.9327385139772
 20
104.8218780003859
 30
0.0
  0
VERTEX
  5
3C6
330
3C4
100
AcDbEntity
  8
Capa 1
 62
     7
420
 16777215
370
     9
100
AcDbVertex
100
AcDb2dVertex
 10
65.476797792172
 20
104.8218780003859
 30
0.0
  0
SEQEND
  5
3C7
330
3C4
100
AcDbEntity
  8
Capa 1
 62
     7
420
 16777215
370
     9
  0
POLYLINE
  5
3C8
330
1F
100
AcDbEntity
  8
Capa 1
370
     0
100
AcDb2dPolyline
 66
     1
 10
0.0
 20
0.0
 30
0.0
  0
VERTEX
  5
3C9
330
3C8
100
AcDbEntity
  8
Capa 1
370
     0
100
AcDbVertex
100
AcDb2dVertex
 10
65.90013072167737
 20
103.7106294809782
 30
0.0
  0
VERTEX
  5
3CA
330
3C8
100
AcDbEntity
  8
Capa 1
370
     0
100
AcDbVertex
100
AcDb2dVertex
 10
66.29700639444836
 20
103.7106294809782
 30
0.0
  0
VERTEX
  5
3CB
330
3C8
100
AcDbEntity
  8
Capa 1
370
     0
100
AcDbVertex
100
AcDb2dVertex
 10
66.08533992969568
 20
104.8218780003859
 30
0.0
  0
SEQEND
  5
3CD
330
3C8
100
AcDbEntity
  8
Capa 1
370
     0
  0
HATCH
  5
3CC
330
1F
100
AcDbEntity
  8
Capa 1
 62
     7
420
 16777215
100
AcDbHatch
 10
0.0
 20
0.0
 30
0.0
210
0.0
220
0.0
230
1.0
  2
SOLID
 70
     1
 71
     0
 91
        1
 92
        1
 93
        3
 72
     1
 10
65.90013072167737
 20
103.7106294809782
 11
66.29700639444836
 21
103.7106294809782
 72
     1
 10
66.29700639444836
 20
103.7106294809782
 11
66.08533992969568
 21
104.821878000386
 72
     1
 10
66.08533992969568
 20
104.8218780003859
 11
65.90013072167737
 21
103.7106294809782
 97
        0
 75
     0
 76
     1
 98
        0
  0
POLYLINE
  5
3CE
330
1F
100
AcDbEntity
  8
Capa 1
370
     0
100
AcDb2dPolyline
 66
     1
 10
0.0
 20
0.0
 30
0.0
  0
VERTEX
  5
3CF
330
3CE
100
AcDbEntity
  8
Capa 1
370
     0
100
AcDbVertex
100
AcDb2dVertex
 10
65.90013072167737
 20
95.95833700880537
 30
0.0
  0
VERTEX
  5
3D0
330
3CE
100
AcDbEntity
  8
Capa 1
370
     0
100
AcDbVertex
100
AcDb2dVertex
 10
66.29700639444836
 20
95.95833700880537
 30
0.0
  0
VERTEX
  5
3D1
330
3CE
100
AcDbEntity
  8
Capa 1
370
     0
100
AcDbVertex
100
AcDb2dVertex
 10
66.08533992969568
 20
94.82062786831222
 30
0.0
  0
SEQEND
  5
3D3
330
3CE
100
AcDbEntity
  8
Capa 1
370
     0
  0
HATCH
  5
3D2
330
1F
100
AcDbEntity
  8
Capa 1
 62
     7
420
 16777215
100
AcDbHatch
 10
0.0
 20
0.0
 30
0.0
210
0.0
220
0.0
230
1.0
  2
SOLID
 70
     1
 71
     0
 91
        1
 92
        1
 93
        3
 72
     1
 10
65.90013072167737
 20
95.95833700880537
 11
66.29700639444836
 21
95.95833700880537
 72
     1
 10
66.29700639444836
 20
95.95833700880537
 11
66.08533992969568
 21
94.82062786831222
 72
     1
 10
66.08533992969568
 20
94.82062786831222
 11
65.90013072167737
 21
95.95833700880537
 97
        0
 75
     0
 76
     1
 98
        0
  0
POLYLINE
  5
3D4
330
1F
100
AcDbEntity
  8
Capa 1
 62
     7
420
 16777215
370
     9
100
AcDb2dPolyline
 66
     1
 10
0.0
 20
0.0
 30
0.0
  0
VERTEX
  5
3D5
330
3D4
100
AcDbEntity
  8
Capa 1
 62
     7
420
 16777215
370
     9
100
AcDbVertex
100
AcDb2dVertex
 10
82.25148581991667
 20
104.9806282694943
 30
0.0
  0
VERTEX
  5
3D6
330
3D4
100
AcDbEntity
  8
Capa 1
 62
     7
420
 16777215
370
     9
100
AcDbVertex
100
AcDb2dVertex
 10
82.25148581991667
 20
104.8218780003859
 30
0.0
  0
VERTEX
  5
3D7
330
3D4
100
AcDbEntity
  8
Capa 1
 62
     7
420
 16777215
370
     9
100
AcDbVertex
100
AcDb2dVertex
 10
82.09273555080955
 20
104.8218780003859
 30
0.0
  0
SEQEND
  5
3D8
330
3D4
100
AcDbEntity
  8
Capa 1
 62
     7
420
 16777215
370
     9
  0
POLYLINE
  5
3D9
330
1F
100
AcDbEntity
  8
Capa 1
 62
     7
420
 16777215
370
     9
100
AcDb2dPolyline
 66
     1
 10
0.0
 20
0.0
 30
0.0
  0
VERTEX
  5
3DA
330
3D9
100
AcDbEntity
  8
Capa 1
 62
     7
420
 16777215
370
     9
100
AcDbVertex
100
AcDb2dVertex
 10
82.25148581991667
 20
104.689588352363
 30
0.0
  0
VERTEX
  5
3DB
330
3D9
100
AcDbEntity
  8
Capa 1
 62
     7
420
 16777215
370
     9
100
AcDbVertex
100
AcDb2dVertex
 10
82.25148581991667
 20
104.8218780003859
 30
0.0
  0
VERTEX
  5
3DC
330
3D9
100
AcDbEntity
  8
Capa 1
 62
     7
420
 16777215
370
     9
100
AcDbVertex
100
AcDb2dVertex
 10
82.41023608902506
 20
104.8218780003859
 30
0.0
  0
SEQEND
  5
3DD
330
3D9
100
AcDbEntity
  8
Capa 1
 62
     7
420
 16777215
370
     9
  0
POLYLINE
  5
3DE
330
1F
100
AcDbEntity
  8
Capa 1
 62
     7
420
 16777215
370
     9
100
AcDb2dPolyline
 66
     1
 10
0.0
 20
0.0
 30
0.0
  0
VERTEX
  5
3DF
330
3DE
100
AcDbEntity
  8
Capa 1
 62
     7
420
 16777215
370
     9
100
AcDbVertex
100
AcDb2dVertex
 10
82.56898635813346
 20
104.8218780003859
 30
0.0
  0
VERTEX
  5
3E0
330
3DE
100
AcDbEntity
  8
Capa 1
 62
     7
420
 16777215
370
     9
100
AcDbVertex
100
AcDb2dVertex
 10
82.88648689635025
 20
104.8218780003859
 30
0.0
  0
SEQEND
  5
3E1
330
3DE
100
AcDbEntity
  8
Capa 1
 62
     7
420
 16777215
370
     9
  0
POLYLINE
  5
3E2
330
1F
100
AcDbEntity
  8
Capa 1
 62
     7
420
 16777215
370
     9
100
AcDb2dPolyline
 66
     1
 10
0.0
 20
0.0
 30
0.0
  0
VERTEX
  5
3E3
330
3E2
100
AcDbEntity
  8
Capa 1
 62
     7
420
 16777215
370
     9
100
AcDbVertex
100
AcDb2dVertex
 10
82.25148581991667
 20
104.5308380832546
 30
0.0
  0
VERTEX
  5
3E4
330
3E2
100
AcDbEntity
  8
Capa 1
 62
     7
420
 16777215
370
     9
100
AcDbVertex
100
AcDb2dVertex
 10
82.25148581991667
 20
104.2133375450378
 30
0.0
  0
SEQEND
  5
3E5
330
3E2
100
AcDbEntity
  8
Capa 1
 62
     7
420
 16777215
370
     9
  0
POLYLINE
  5
3E6
330
1F
100
AcDbEntity
  8
Capa 1
 62
     7
420
 16777215
370
     9
100
AcDb2dPolyline
 66
     1
 10
0.0
 20
0.0
 30
0.0
  0
VERTEX
  5
3E7
330
3E6
100
AcDbEntity
  8
Capa 1
 62
     7
420
 16777215
370
     9
100
AcDbVertex
100
AcDb2dVertex
 10
81.93398528169988
 20
104.8218780003859
 30
0.0
  0
VERTEX
  5
3E8
330
3E6
100
AcDbEntity
  8
Capa 1
 62
     7
420
 16777215
370
     9
100
AcDbVertex
100
AcDb2dVertex
 10
81.61648810783413
 20
104.8218780003859
 30
0.0
  0
SEQEND
  5
3E9
330
3E6
100
AcDbEntity
  8
Capa 1
 62
     7
420
 16777215
370
     9
  0
POLYLINE
  5
3EA
330
1F
100
AcDbEntity
  8
Capa 1
 62
     7
420
 16777215
370
     9
100
AcDb2dPolyline
 66
     1
 10
0.0
 20
0.0
 30
0.0
  0
VERTEX
  5
3EB
330
3EA
100
AcDbEntity
  8
Capa 1
 62
     7
420
 16777215
370
     9
100
AcDbVertex
100
AcDb2dVertex
 10
82.25148581991667
 20
105.1393785386027
 30
0.0
  0
VERTEX
  5
3EC
330
3EA
100
AcDbEntity
  8
Capa 1
 62
     7
420
 16777215
370
     9
100
AcDbVertex
100
AcDb2dVertex
 10
82.25148581991667
 20
105.4568790768195
 30
0.0
  0
SEQEND
  5
3ED
330
3EA
100
AcDbEntity
  8
Capa 1
 62
     7
420
 16777215
370
     9
  0
POLYLINE
  5
3EE
330
1F
100
AcDbEntity
  8
Capa 1
 62
     7
420
 16777215
370
     9
100
AcDb2dPolyline
 66
     1
 10
0.0
 20
0.0
 30
0.0
  0
VERTEX
  5
3EF
330
3EE
100
AcDbEntity
  8
Capa 1
 62
     7
420
 16777215
370
     9
100
AcDbVertex
100
AcDb2dVertex
 10
82.09273555080955
 20
94.82062786831222
 30
0.0
  0
VERTEX
  5
3F0
330
3EE
100
AcDbEntity
  8
Capa 1
 62
     7
420
 16777215
370
     9
100
AcDbVertex
100
AcDb2dVertex
 10
82.25148581991667
 20
94.82062786831222
 30
0.0
  0
VERTEX
  5
3F1
330
3EE
100
AcDbEntity
  8
Capa 1
 62
     7
420
 16777215
370
     9
100
AcDbVertex
100
AcDb2dVertex
 10
82.25148581991667
 20
94.68833822028925
 30
0.0
  0
SEQEND
  5
3F2
330
3EE
100
AcDbEntity
  8
Capa 1
 62
     7
420
 16777215
370
     9
  0
POLYLINE
  5
3F3
330
1F
100
AcDbEntity
  8
Capa 1
 62
     7
420
 16777215
370
     9
100
AcDb2dPolyline
 66
     1
 10
0.0
 20
0.0
 30
0.0
  0
VERTEX
  5
3F4
330
3F3
100
AcDbEntity
  8
Capa 1
 62
     7
420
 16777215
370
     9
100
AcDbVertex
100
AcDb2dVertex
 10
82.41023608902506
 20
94.82062786831222
 30
0.0
  0
VERTEX
  5
3F5
330
3F3
100
AcDbEntity
  8
Capa 1
 62
     7
420
 16777215
370
     9
100
AcDbVertex
100
AcDb2dVertex
 10
82.25148581991667
 20
94.82062786831222
 30
0.0
  0
VERTEX
  5
3F6
330
3F3
100
AcDbEntity
  8
Capa 1
 62
     7
420
 16777215
370
     9
100
AcDbVertex
100
AcDb2dVertex
 10
82.25148581991667
 20
94.97937813742061
 30
0.0
  0
SEQEND
  5
3F7
330
3F3
100
AcDbEntity
  8
Capa 1
 62
     7
420
 16777215
370
     9
  0
POLYLINE
  5
3F8
330
1F
100
AcDbEntity
  8
Capa 1
 62
     7
420
 16777215
370
     9
100
AcDb2dPolyline
 66
     1
 10
0.0
 20
0.0
 30
0.0
  0
VERTEX
  5
3F9
330
3F8
100
AcDbEntity
  8
Capa 1
 62
     7
420
 16777215
370
     9
100
AcDbVertex
100
AcDb2dVertex
 10
80.4523217106066
 20
95.95833700880537
 30
0.0
  0
VERTEX
  5
3FA
330
3F8
100
AcDbEntity
  8
Capa 1
 62
     7
420
 16777215
370
     9
100
AcDbVertex
100
AcDb2dVertex
 10
80.4523217106066
 20
98.26021254652608
 30
0.0
  0
SEQEND
  5
3FB
330
3F8
100
AcDbEntity
  8
Capa 1
 62
     7
420
 16777215
370
     9
  0
POLYLINE
  5
3FC
330
1F
100
AcDbEntity
  8
Capa 1
 62
     7
420
 16777215
370
     9
100
AcDb2dPolyline
 66
     1
 10
0.0
 20
0.0
 30
0.0
  0
VERTEX
  5
3FD
330
3FC
100
AcDbEntity
  8
Capa 1
 62
     7
420
 16777215
370
     9
100
AcDbVertex
100
AcDb2dVertex
 10
80.4523217106066
 20
103.7106294809782
 30
0.0
  0
VERTEX
  5
3FE
330
3FC
100
AcDbEntity
  8
Capa 1
 62
     7
420
 16777215
370
     9
100
AcDbVertex
100
AcDb2dVertex
 10
80.4523217106066
 20
101.4087539432575
 30
0.0
  0
SEQEND
  5
3FF
330
3FC
100
AcDbEntity
  8
Capa 1
 62
     7
420
 16777215
370
     9
  0
POLYLINE
  5
400
330
1F
100
AcDbEntity
  8
Capa 1
 62
     7
420
 16777215
370
     9
100
AcDb2dPolyline
 66
     1
 10
0.0
 20
0.0
 30
0.0
  0
VERTEX
  5
401
330
400
100
AcDbEntity
  8
Capa 1
 62
     7
420
 16777215
370
     9
100
AcDbVertex
100
AcDb2dVertex
 10
81.32544482635173
 20
94.82062786831222
 30
0.0
  0
VERTEX
  5
402
330
400
100
AcDbEntity
  8
Capa 1
 62
     7
420
 16777215
370
     9
100
AcDbVertex
100
AcDb2dVertex
 10
79.817320634173
 20
94.82062786831222
 30
0.0
  0
SEQEND
  5
403
330
400
100
AcDbEntity
  8
Capa 1
 62
     7
420
 16777215
370
     9
  0
POLYLINE
  5
404
330
1F
100
AcDbEntity
  8
Capa 1
 62
     7
420
 16777215
370
     9
100
AcDb2dPolyline
 66
     1
 10
0.0
 20
0.0
 30
0.0
  0
VERTEX
  5
405
330
404
100
AcDbEntity
  8
Capa 1
 62
     7
420
 16777215
370
     9
100
AcDbVertex
100
AcDb2dVertex
 10
81.32544482635173
 20
104.8218780003859
 30
0.0
  0
VERTEX
  5
406
330
404
100
AcDbEntity
  8
Capa 1
 62
     7
420
 16777215
370
     9
100
AcDbVertex
100
AcDb2dVertex
 10
79.817320634173
 20
104.8218780003859
 30
0.0
  0
SEQEND
  5
407
330
404
100
AcDbEntity
  8
Capa 1
 62
     7
420
 16777215
370
     9
  0
POLYLINE
  5
408
330
1F
100
AcDbEntity
  8
Capa 1
 62
     7
420
 16777215
370
     9
100
AcDb2dPolyline
 66
     1
 10
0.0
 20
0.0
 30
0.0
  0
VERTEX
  5
409
330
408
100
AcDbEntity
  8
Capa 1
 62
     7
420
 16777215
370
     9
100
AcDbVertex
100
AcDb2dVertex
 10
82.25148581991667
 20
95.138128406529
 30
0.0
  0
VERTEX
  5
40A
330
408
100
AcDbEntity
  8
Capa 1
 62
     7
420
 16777215
370
     9
100
AcDbVertex
100
AcDb2dVertex
 10
82.25148581991667
 20
95.4556289447458
 30
0.0
  0
SEQEND
  5
40B
330
408
100
AcDbEntity
  8
Capa 1
 62
     7
420
 16777215
370
     9
  0
POLYLINE
  5
40C
330
1F
100
AcDbEntity
  8
Capa 1
 62
     7
420
 16777215
370
     9
100
AcDb2dPolyline
 66
     1
 10
0.0
 20
0.0
 30
0.0
  0
VERTEX
  5
40D
330
40C
100
AcDbEntity
  8
Capa 1
 62
     7
420
 16777215
370
     9
100
AcDbVertex
100
AcDb2dVertex
 10
82.56898635813346
 20
94.82062786831222
 30
0.0
  0
VERTEX
  5
40E
330
40C
100
AcDbEntity
  8
Capa 1
 62
     7
420
 16777215
370
     9
100
AcDbVertex
100
AcDb2dVertex
 10
82.88648689635025
 20
94.82062786831222
 30
0.0
  0
SEQEND
  5
40F
330
40C
100
AcDbEntity
  8
Capa 1
 62
     7
420
 16777215
370
     9
  0
POLYLINE
  5
410
330
1F
100
AcDbEntity
  8
Capa 1
 62
     7
420
 16777215
370
     9
100
AcDb2dPolyline
 66
     1
 10
0.0
 20
0.0
 30
0.0
  0
VERTEX
  5
411
330
410
100
AcDbEntity
  8
Capa 1
 62
     7
420
 16777215
370
     9
100
AcDbVertex
100
AcDb2dVertex
 10
82.25148581991667
 20
94.52958795118086
 30
0.0
  0
VERTEX
  5
412
330
410
100
AcDbEntity
  8
Capa 1
 62
     7
420
 16777215
370
     9
100
AcDbVertex
100
AcDb2dVertex
 10
82.25148581991667
 20
94.21208741296407
 30
0.0
  0
SEQEND
  5
413
330
410
100
AcDbEntity
  8
Capa 1
 62
     7
420
 16777215
370
     9
  0
POLYLINE
  5
414
330
1F
100
AcDbEntity
  8
Capa 1
 62
     7
420
 16777215
370
     9
100
AcDb2dPolyline
 66
     1
 10
0.0
 20
0.0
 30
0.0
  0
VERTEX
  5
415
330
414
100
AcDbEntity
  8
Capa 1
 62
     7
420
 16777215
370
     9
100
AcDbVertex
100
AcDb2dVertex
 10
81.93398528169988
 20
94.82062786831222
 30
0.0
  0
VERTEX
  5
416
330
414
100
AcDbEntity
  8
Capa 1
 62
     7
420
 16777215
370
     9
100
AcDbVertex
100
AcDb2dVertex
 10
81.61648810783413
 20
94.82062786831222
 30
0.0
  0
SEQEND
  5
417
330
414
100
AcDbEntity
  8
Capa 1
 62
     7
420
 16777215
370
     9
  0
POLYLINE
  5
418
330
1F
100
AcDbEntity
  8
Capa 1
370
     0
100
AcDb2dPolyline
 66
     1
 10
0.0
 20
0.0
 30
0.0
  0
VERTEX
  5
419
330
418
100
AcDbEntity
  8
Capa 1
370
     0
100
AcDbVertex
100
AcDb2dVertex
 10
80.26711082041275
 20
103.7106294809782
 30
0.0
  0
VERTEX
  5
41A
330
418
100
AcDbEntity
  8
Capa 1
370
     0
100
AcDbVertex
100
AcDb2dVertex
 10
80.63752923644937
 20
103.7106294809782
 30
0.0
  0
VERTEX
  5
41B
330
418
100
AcDbEntity
  8
Capa 1
370
     0
100
AcDbVertex
100
AcDb2dVertex
 10
80.4523217106066
 20
104.8218780003859
 30
0.0
  0
SEQEND
  5
41D
330
418
100
AcDbEntity
  8
Capa 1
370
     0
  0
HATCH
  5
41C
330
1F
100
AcDbEntity
  8
Capa 1
 62
     7
420
 16777215
100
AcDbHatch
 10
0.0
 20
0.0
 30
0.0
210
0.0
220
0.0
230
1.0
  2
SOLID
 70
     1
 71
     0
 91
        1
 92
        1
 93
        3
 72
     1
 10
80.26711082041275
 20
103.7106294809782
 11
80.63752923644937
 21
103.7106294809782
 72
     1
 10
80.63752923644937
 20
103.7106294809782
 11
80.4523217106066
 21
104.821878000386
 72
     1
 10
80.4523217106066
 20
104.8218780003859
 11
80.26711082041275
 21
103.7106294809782
 97
        0
 75
     0
 76
     1
 98
        0
  0
POLYLINE
  5
41E
330
1F
100
AcDbEntity
  8
Capa 1
370
     0
100
AcDb2dPolyline
 66
     1
 10
0.0
 20
0.0
 30
0.0
  0
VERTEX
  5
41F
330
41E
100
AcDbEntity
  8
Capa 1
370
     0
100
AcDbVertex
100
AcDb2dVertex
 10
80.26711082041275
 20
95.95833700880537
 30
0.0
  0
VERTEX
  5
420
330
41E
100
AcDbEntity
  8
Capa 1
370
     0
100
AcDbVertex
100
AcDb2dVertex
 10
80.63752923644937
 20
95.95833700880537
 30
0.0
  0
VERTEX
  5
421
330
41E
100
AcDbEntity
  8
Capa 1
370
     0
100
AcDbVertex
100
AcDb2dVertex
 10
80.4523217106066
 20
94.82062786831222
 30
0.0
  0
SEQEND
  5
423
330
41E
100
AcDbEntity
  8
Capa 1
370
     0
  0
HATCH
  5
422
330
1F
100
AcDbEntity
  8
Capa 1
 62
     7
420
 16777215
100
AcDbHatch
 10
0.0
 20
0.0
 30
0.0
210
0.0
220
0.0
230
1.0
  2
SOLID
 70
     1
 71
     0
 91
        1
 92
        1
 93
        3
 72
     1
 10
80.26711082041275
 20
95.95833700880537
 11
80.63752923644937
 21
95.95833700880537
 72
     1
 10
80.63752923644937
 20
95.95833700880537
 11
80.4523217106066
 21
94.82062786831222
 72
     1
 10
80.4523217106066
 20
94.82062786831222
 11
80.26711082041275
 21
95.95833700880537
 97
        0
 75
     0
 76
     1
 98
        0
  0
POLYLINE
  5
424
330
1F
100
AcDbEntity
  8
Capa 1
 62
     7
420
 16777215
370
     9
100
AcDb2dPolyline
 66
     1
 10
0.0
 20
0.0
 30
0.0
  0
VERTEX
  5
425
330
424
100
AcDbEntity
  8
Capa 1
 62
     7
420
 16777215
370
     9
100
AcDbVertex
100
AcDb2dVertex
 10
62.59283905583752
 20
108.7112495004885
 30
0.0
  0
VERTEX
  5
426
330
424
100
AcDbEntity
  8
Capa 1
 62
     7
420
 16777215
370
     9
100
AcDbVertex
100
AcDb2dVertex
 10
62.59283905583752
 20
90.95771362494403
 30
0.0
  0
SEQEND
  5
427
330
424
100
AcDbEntity
  8
Capa 1
 62
     7
420
 16777215
370
     9
  0
POLYLINE
  5
428
330
1F
100
AcDbEntity
  8
Capa 1
 62
     7
420
 16777215
370
     9
100
AcDb2dPolyline
 66
     1
 10
0.0
 20
0.0
 30
0.0
  0
VERTEX
  5
429
330
428
100
AcDbEntity
  8
Capa 1
 62
     7
420
 16777215
370
     9
100
AcDbVertex
100
AcDb2dVertex
 10
68.57252897031753
 20
88.76167047851192
 30
0.0
  0
VERTEX
  5
42A
330
428
100
AcDbEntity
  8
Capa 1
 62
     7
420
 16777215
370
     9
100
AcDbVertex
100
AcDb2dVertex
 10
61.64033912336267
 20
88.76167047851192
 30
0.0
  0
SEQEND
  5
42B
330
428
100
AcDbEntity
  8
Capa 1
 62
     7
420
 16777215
370
     9
  0
POLYLINE
  5
42C
330
1F
100
AcDbEntity
  8
Capa 1
 62
     7
420
 16777215
370
     9
100
AcDb2dPolyline
 66
     1
 10
0.0
 20
0.0
 30
0.0
  0
VERTEX
  5
42D
330
42C
100
AcDbEntity
  8
Capa 1
 62
     7
420
 16777215
370
     9
100
AcDbVertex
100
AcDb2dVertex
 10
68.57252897031753
 20
110.9072892825696
 30
0.0
  0
VERTEX
  5
42E
330
42C
100
AcDbEntity
  8
Capa 1
 62
     7
420
 16777215
370
     9
100
AcDbVertex
100
AcDb2dVertex
 10
61.64033912336267
 20
110.9072892825696
 30
0.0
  0
SEQEND
  5
42F
330
42C
100
AcDbEntity
  8
Capa 1
 62
     7
420
 16777215
370
     9
  0
POLYLINE
  5
430
330
1F
100
AcDbEntity
  8
Capa 1
370
     0
100
AcDb2dPolyline
 66
     1
 10
0.0
 20
0.0
 30
0.0
  0
VERTEX
  5
431
330
430
100
AcDbEntity
  8
Capa 1
370
     0
100
AcDbVertex
100
AcDb2dVertex
 10
62.22242400415197
 20
108.7112495004885
 30
0.0
  0
VERTEX
  5
432
330
430
100
AcDbEntity
  8
Capa 1
370
     0
100
AcDbVertex
100
AcDb2dVertex
 10
62.93679853296423
 20
108.7112495004885
 30
0.0
  0
VERTEX
  5
433
330
430
100
AcDbEntity
  8
Capa 1
370
     0
100
AcDbVertex
100
AcDb2dVertex
 10
62.59283905583752
 20
110.9072892825696
 30
0.0
  0
SEQEND
  5
435
330
430
100
AcDbEntity
  8
Capa 1
370
     0
  0
HATCH
  5
434
330
1F
100
AcDbEntity
  8
Capa 1
 62
     7
420
 16777215
100
AcDbHatch
 10
0.0
 20
0.0
 30
0.0
210
0.0
220
0.0
230
1.0
  2
SOLID
 70
     1
 71
     0
 91
        1
 92
        1
 93
        3
 72
     1
 10
62.22242400415197
 20
108.7112495004885
 11
62.93679853296423
 21
108.7112495004885
 72
     1
 10
62.93679853296423
 20
108.7112495004885
 11
62.59283905583752
 21
110.9072892825696
 72
     1
 10
62.59283905583752
 20
110.9072892825696
 11
62.22242400415197
 21
108.7112495004885
 97
        0
 75
     0
 76
     1
 98
        0
  0
POLYLINE
  5
436
330
1F
100
AcDbEntity
  8
Capa 1
370
     0
100
AcDb2dPolyline
 66
     1
 10
0.0
 20
0.0
 30
0.0
  0
VERTEX
  5
437
330
436
100
AcDbEntity
  8
Capa 1
370
     0
100
AcDbVertex
100
AcDb2dVertex
 10
62.22242400415197
 20
90.95771362494403
 30
0.0
  0
VERTEX
  5
438
330
436
100
AcDbEntity
  8
Capa 1
370
     0
100
AcDbVertex
100
AcDb2dVertex
 10
62.93679853296423
 20
90.95771362494403
 30
0.0
  0
VERTEX
  5
439
330
436
100
AcDbEntity
  8
Capa 1
370
     0
100
AcDbVertex
100
AcDb2dVertex
 10
62.59283905583752
 20
88.76167047851192
 30
0.0
  0
SEQEND
  5
43B
330
436
100
AcDbEntity
  8
Capa 1
370
     0
  0
HATCH
  5
43A
330
1F
100
AcDbEntity
  8
Capa 1
 62
     7
420
 16777215
100
AcDbHatch
 10
0.0
 20
0.0
 30
0.0
210
0.0
220
0.0
230
1.0
  2
SOLID
 70
     1
 71
     0
 91
        1
 92
        1
 93
        3
 72
     1
 10
62.22242400415197
 20
90.95771362494403
 11
62.93679853296423
 21
90.95771362494403
 72
     1
 10
62.93679853296423
 20
90.95771362494403
 11
62.59283905583752
 21
88.76167047851192
 72
     1
 10
62.59283905583752
 20
88.76167047851192
 11
62.22242400415197
 21
90.95771362494403
 97
        0
 75
     0
 76
     1
 98
        0
  0
POLYLINE
  5
43C
330
1F
100
AcDbEntity
  8
Capa 1
 62
     7
420
 16777215
370
     9
100
AcDb2dPolyline
 66
     1
 10
0.0
 20
0.0
 30
0.0
  0
VERTEX
  5
43D
330
43C
100
AcDbEntity
  8
Capa 1
 62
     7
420
 16777215
370
     9
100
AcDbVertex
100
AcDb2dVertex
 10
75.95440302645378
 20
115.9079126664309
 30
0.0
  0
VERTEX
  5
43E
330
43C
100
AcDbEntity
  8
Capa 1
 62
     7
420
 16777215
370
     9
100
AcDbVertex
100
AcDb2dVertex
 10
70.50398609200163
 20
115.9079126664309
 30
0.0
  0
SEQEND
  5
43F
330
43C
100
AcDbEntity
  8
Capa 1
 62
     7
420
 16777215
370
     9
  0
POLYLINE
  5
440
330
1F
100
AcDbEntity
  8
Capa 1
 62
     7
420
 16777215
370
     9
100
AcDb2dPolyline
 66
     1
 10
0.0
 20
0.0
 30
0.0
  0
VERTEX
  5
441
330
440
100
AcDbEntity
  8
Capa 1
 62
     7
420
 16777215
370
     9
100
AcDbVertex
100
AcDb2dVertex
 10
68.30794630992185
 20
110.5104169741496
 30
0.0
  0
VERTEX
  5
442
330
440
100
AcDbEntity
  8
Capa 1
 62
     7
420
 16777215
370
     9
100
AcDbVertex
100
AcDb2dVertex
 10
68.30794630992185
 20
116.8339570243469
 30
0.0
  0
SEQEND
  5
443
330
440
100
AcDbEntity
  8
Capa 1
 62
     7
420
 16777215
370
     9
  0
POLYLINE
  5
444
330
1F
100
AcDbEntity
  8
Capa 1
 62
     7
420
 16777215
370
     9
100
AcDb2dPolyline
 66
     1
 10
0.0
 20
0.0
 30
0.0
  0
VERTEX
  5
445
330
444
100
AcDbEntity
  8
Capa 1
 62
     7
420
 16777215
370
     9
100
AcDbVertex
100
AcDb2dVertex
 10
78.12398555180174
 20
109.6637511151389
 30
0.0
  0
VERTEX
  5
446
330
444
100
AcDbEntity
  8
Capa 1
 62
     7
420
 16777215
370
     9
100
AcDbVertex
100
AcDb2dVertex
 10
78.12398555180174
 20
116.8339570243469
 30
0.0
  0
SEQEND
  5
447
330
444
100
AcDbEntity
  8
Capa 1
 62
     7
420
 16777215
370
     9
  0
POLYLINE
  5
448
330
1F
100
AcDbEntity
  8
Capa 1
370
     0
100
AcDb2dPolyline
 66
     1
 10
0.0
 20
0.0
 30
0.0
  0
VERTEX
  5
449
330
448
100
AcDbEntity
  8
Capa 1
370
     0
100
AcDbVertex
100
AcDb2dVertex
 10
75.95440302645378
 20
116.2518704613821
 30
0.0
  0
VERTEX
  5
44A
330
448
100
AcDbEntity
  8
Capa 1
370
     0
100
AcDbVertex
100
AcDb2dVertex
 10
75.95440302645378
 20
115.5374976147453
 30
0.0
  0
VERTEX
  5
44B
330
448
100
AcDbEntity
  8
Capa 1
370
     0
100
AcDbVertex
100
AcDb2dVertex
 10
78.12398555180174
 20
115.9079126664309
 30
0.0
  0
SEQEND
  5
44D
330
448
100
AcDbEntity
  8
Capa 1
370
     0
  0
HATCH
  5
44C
330
1F
100
AcDbEntity
  8
Capa 1
 62
     7
420
 16777215
100
AcDbHatch
 10
0.0
 20
0.0
 30
0.0
210
0.0
220
0.0
230
1.0
  2
SOLID
 70
     1
 71
     0
 91
        1
 92
        1
 93
        3
 72
     1
 10
75.95440302645378
 20
116.2518704613821
 11
75.95440302645378
 21
115.5374976147453
 72
     1
 10
75.95440302645378
 20
115.5374976147453
 11
78.12398555180174
 21
115.9079126664309
 72
     1
 10
78.12398555180174
 20
115.9079126664309
 11
75.95440302645378
 21
116.2518704613821
 97
        0
 75
     0
 76
     1
 98
        0
  0
POLYLINE
  5
44E
330
1F
100
AcDbEntity
  8
Capa 1
370
     0
100
AcDb2dPolyline
 66
     1
 10
0.0
 20
0.0
 30
0.0
  0
VERTEX
  5
44F
330
44E
100
AcDbEntity
  8
Capa 1
370
     0
100
AcDbVertex
100
AcDb2dVertex
 10
70.50398609200163
 20
116.2518704613821
 30
0.0
  0
VERTEX
  5
450
330
44E
100
AcDbEntity
  8
Capa 1
370
     0
100
AcDbVertex
100
AcDb2dVertex
 10
70.50398609200163
 20
115.5374976147453
 30
0.0
  0
VERTEX
  5
451
330
44E
100
AcDbEntity
  8
Capa 1
370
     0
100
AcDbVertex
100
AcDb2dVertex
 10
68.30794630992185
 20
115.9079126664309
 30
0.0
  0
SEQEND
  5
453
330
44E
100
AcDbEntity
  8
Capa 1
370
     0
  0
HATCH
  5
452
330
1F
100
AcDbEntity
  8
Capa 1
 62
     7
420
 16777215
100
AcDbHatch
 10
0.0
 20
0.0
 30
0.0
210
0.0
220
0.0
230
1.0
  2
SOLID
 70
     1
 71
     0
 91
        1
 92
        1
 93
        3
 72
     1
 10
70.50398609200163
 20
116.2518704613821
 11
70.50398609200163
 21
115.5374976147453
 72
     1
 10
70.50398609200163
 20
115.5374976147453
 11
68.30794630992185
 21
115.9079126664309
 72
     1
 10
68.30794630992185
 20
115.9079126664309
 11
70.50398609200163
 21
116.2518704613821
 97
        0
 75
     0
 76
     1
 98
        0
  0
POLYLINE
  5
454
330
1F
100
AcDbEntity
  8
Capa 1
 62
     7
420
 16777215
370
     9
100
AcDb2dPolyline
 66
     1
 10
0.0
 20
0.0
 30
0.0
  0
VERTEX
  5
455
330
454
100
AcDbEntity
  8
Capa 1
 62
     7
420
 16777215
370
     9
100
AcDbVertex
100
AcDb2dVertex
 10
84.44752896634878
 20
115.8285408962278
 30
0.0
  0
VERTEX
  5
456
330
454
100
AcDbEntity
  8
Capa 1
 62
     7
420
 16777215
370
     9
100
AcDbVertex
100
AcDb2dVertex
 10
107.360441859214
 20
115.8285408962278
 30
0.0
  0
SEQEND
  5
457
330
454
100
AcDbEntity
  8
Capa 1
 62
     7
420
 16777215
370
     9
  0
POLYLINE
  5
458
330
1F
100
AcDbEntity
  8
Capa 1
 62
     7
420
 16777215
370
     9
100
AcDb2dPolyline
 66
     1
 10
0.0
 20
0.0
 30
0.0
  0
VERTEX
  5
459
330
458
100
AcDbEntity
  8
Capa 1
 62
     7
420
 16777215
370
     9
100
AcDbVertex
100
AcDb2dVertex
 10
109.5564816412951
 20
99.82125461652461
 30
0.0
  0
VERTEX
  5
45A
330
458
100
AcDbEntity
  8
Capa 1
 62
     7
420
 16777215
370
     9
100
AcDbVertex
100
AcDb2dVertex
 10
109.5564816412951
 20
116.7545785254416
 30
0.0
  0
SEQEND
  5
45B
330
458
100
AcDbEntity
  8
Capa 1
 62
     7
420
 16777215
370
     9
  0
POLYLINE
  5
45C
330
1F
100
AcDbEntity
  8
Capa 1
 62
     7
420
 16777215
370
     9
100
AcDb2dPolyline
 66
     1
 10
0.0
 20
0.0
 30
0.0
  0
VERTEX
  5
45D
330
45C
100
AcDbEntity
  8
Capa 1
 62
     7
420
 16777215
370
     9
100
AcDbVertex
100
AcDb2dVertex
 10
82.25148581991667
 20
104.8218780003859
 30
0.0
  0
VERTEX
  5
45E
330
45C
100
AcDbEntity
  8
Capa 1
 62
     7
420
 16777215
370
     9
100
AcDbVertex
100
AcDb2dVertex
 10
82.25148581991667
 20
116.7545785254416
 30
0.0
  0
SEQEND
  5
45F
330
45C
100
AcDbEntity
  8
Capa 1
 62
     7
420
 16777215
370
     9
  0
POLYLINE
  5
460
330
1F
100
AcDbEntity
  8
Capa 1
370
     0
100
AcDb2dPolyline
 66
     1
 10
0.0
 20
0.0
 30
0.0
  0
VERTEX
  5
461
330
460
100
AcDbEntity
  8
Capa 1
370
     0
100
AcDbVertex
100
AcDb2dVertex
 10
84.44752896634878
 20
116.1724986911789
 30
0.0
  0
VERTEX
  5
462
330
460
100
AcDbEntity
  8
Capa 1
370
     0
100
AcDbVertex
100
AcDb2dVertex
 10
84.44752896634878
 20
115.4581258445422
 30
0.0
  0
VERTEX
  5
463
330
460
100
AcDbEntity
  8
Capa 1
370
     0
100
AcDbVertex
100
AcDb2dVertex
 10
82.25148581991667
 20
115.8285408962278
 30
0.0
  0
SEQEND
  5
465
330
460
100
AcDbEntity
  8
Capa 1
370
     0
  0
HATCH
  5
464
330
1F
100
AcDbEntity
  8
Capa 1
 62
     7
420
 16777215
100
AcDbHatch
 10
0.0
 20
0.0
 30
0.0
210
0.0
220
0.0
230
1.0
  2
SOLID
 70
     1
 71
     0
 91
        1
 92
        1
 93
        3
 72
     1
 10
84.44752896634878
 20
116.1724986911789
 11
84.44752896634878
 21
115.4581258445422
 72
     1
 10
84.44752896634878
 20
115.4581258445422
 11
82.25148581991667
 21
115.8285408962278
 72
     1
 10
82.25148581991667
 20
115.8285408962278
 11
84.44752896634878
 21
116.1724986911789
 97
        0
 75
     0
 76
     1
 98
        0
  0
POLYLINE
  5
466
330
1F
100
AcDbEntity
  8
Capa 1
370
     0
100
AcDb2dPolyline
 66
     1
 10
0.0
 20
0.0
 30
0.0
  0
VERTEX
  5
467
330
466
100
AcDbEntity
  8
Capa 1
370
     0
100
AcDbVertex
100
AcDb2dVertex
 10
107.360441859214
 20
116.1724986911789
 30
0.0
  0
VERTEX
  5
468
330
466
100
AcDbEntity
  8
Capa 1
370
     0
100
AcDbVertex
100
AcDb2dVertex
 10
107.360441859214
 20
115.4581258445422
 30
0.0
  0
VERTEX
  5
469
330
466
100
AcDbEntity
  8
Capa 1
370
     0
100
AcDbVertex
100
AcDb2dVertex
 10
109.5564816412951
 20
115.8285408962278
 30
0.0
  0
SEQEND
  5
46B
330
466
100
AcDbEntity
  8
Capa 1
370
     0
  0
HATCH
  5
46A
330
1F
100
AcDbEntity
  8
Capa 1
 62
     7
420
 16777215
100
AcDbHatch
 10
0.0
 20
0.0
 30
0.0
210
0.0
220
0.0
230
1.0
  2
SOLID
 70
     1
 71
     0
 91
        1
 92
        1
 93
        3
 72
     1
 10
107.360441859214
 20
116.1724986911789
 11
107.360441859214
 21
115.4581258445422
 72
     1
 10
107.360441859214
 20
115.4581258445422
 11
109.5564816412951
 21
115.8285408962278
 72
     1
 10
109.5564816412951
 20
115.8285408962278
 11
107.360441859214
 21
116.1724986911789
 97
        0
 75
     0
 76
     1
 98
        0
  0
POLYLINE
  5
46C
330
1F
100
AcDbEntity
  8
Capa 1
 62
     7
420
 16777215
370
     9
100
AcDb2dPolyline
 66
     1
 10
0.0
 20
0.0
 30
0.0
  0
VERTEX
  5
46D
330
46C
100
AcDbEntity
  8
Capa 1
 62
     7
420
 16777215
370
     9
100
AcDbVertex
100
AcDb2dVertex
 10
117.0177375606876
 20
108.8964570263313
 30
0.0
  0
VERTEX
  5
46E
330
46C
100
AcDbEntity
  8
Capa 1
 62
     7
420
 16777215
370
     9
100
AcDbVertex
100
AcDb2dVertex
 10
117.0177375606876
 20
90.7725027347502
 30
0.0
  0
SEQEND
  5
46F
330
46C
100
AcDbEntity
  8
Capa 1
 62
     7
420
 16777215
370
     9
  0
POLYLINE
  5
470
330
1F
100
AcDbEntity
  8
Capa 1
 62
     7
420
 16777215
370
     9
100
AcDb2dPolyline
 66
     1
 10
0.0
 20
0.0
 30
0.0
  0
VERTEX
  5
471
330
470
100
AcDbEntity
  8
Capa 1
 62
     7
420
 16777215
370
     9
100
AcDbVertex
100
AcDb2dVertex
 10
98.31168997743963
 20
88.57646295266913
 30
0.0
  0
VERTEX
  5
472
330
470
100
AcDbEntity
  8
Capa 1
 62
     7
420
 16777215
370
     9
100
AcDbVertex
100
AcDb2dVertex
 10
117.9437751899015
 20
88.57646295266913
 30
0.0
  0
SEQEND
  5
473
330
470
100
AcDbEntity
  8
Capa 1
 62
     7
420
 16777215
370
     9
  0
POLYLINE
  5
474
330
1F
100
AcDbEntity
  8
Capa 1
 62
     7
420
 16777215
370
     9
100
AcDb2dPolyline
 66
     1
 10
0.0
 20
0.0
 30
0.0
  0
VERTEX
  5
475
330
474
100
AcDbEntity
  8
Capa 1
 62
     7
420
 16777215
370
     9
100
AcDbVertex
100
AcDb2dVertex
 10
98.31168997743963
 20
111.0924968084123
 30
0.0
  0
VERTEX
  5
476
330
474
100
AcDbEntity
  8
Capa 1
 62
     7
420
 16777215
370
     9
100
AcDbVertex
100
AcDb2dVertex
 10
117.9437751899015
 20
111.0924968084123
 30
0.0
  0
SEQEND
  5
477
330
474
100
AcDbEntity
  8
Capa 1
 62
     7
420
 16777215
370
     9
  0
POLYLINE
  5
478
330
1F
100
AcDbEntity
  8
Capa 1
370
     0
100
AcDb2dPolyline
 66
     1
 10
0.0
 20
0.0
 30
0.0
  0
VERTEX
  5
479
330
478
100
AcDbEntity
  8
Capa 1
370
     0
100
AcDbVertex
100
AcDb2dVertex
 10
116.6473157803
 20
108.8964570263313
 30
0.0
  0
VERTEX
  5
47A
330
478
100
AcDbEntity
  8
Capa 1
370
     0
100
AcDbVertex
100
AcDb2dVertex
 10
117.3616953556388
 20
108.8964570263313
 30
0.0
  0
VERTEX
  5
47B
330
478
100
AcDbEntity
  8
Capa 1
370
     0
100
AcDbVertex
100
AcDb2dVertex
 10
117.0177375606876
 20
111.0924968084123
 30
0.0
  0
SEQEND
  5
47D
330
478
100
AcDbEntity
  8
Capa 1
370
     0
  0
HATCH
  5
47C
330
1F
100
AcDbEntity
  8
Capa 1
 62
     7
420
 16777215
100
AcDbHatch
 10
0.0
 20
0.0
 30
0.0
210
0.0
220
0.0
230
1.0
  2
SOLID
 70
     1
 71
     0
 91
        1
 92
        1
 93
        3
 72
     1
 10
116.6473157803
 20
108.8964570263313
 11
117.3616953556388
 21
108.8964570263313
 72
     1
 10
117.3616953556388
 20
108.8964570263313
 11
117.0177375606876
 21
111.0924968084123
 72
     1
 10
117.0177375606876
 20
111.0924968084123
 11
116.6473157803
 21
108.8964570263313
 97
        0
 75
     0
 76
     1
 98
        0
  0
POLYLINE
  5
47E
330
1F
100
AcDbEntity
  8
Capa 1
370
     0
100
AcDb2dPolyline
 66
     1
 10
0.0
 20
0.0
 30
0.0
  0
VERTEX
  5
47F
330
47E
100
AcDbEntity
  8
Capa 1
370
     0
100
AcDbVertex
100
AcDb2dVertex
 10
116.6473157803
 20
90.7725027347502
 30
0.0
  0
VERTEX
  5
480
330
47E
100
AcDbEntity
  8
Capa 1
370
     0
100
AcDbVertex
100
AcDb2dVertex
 10
117.3616953556388
 20
90.7725027347502
 30
0.0
  0
VERTEX
  5
481
330
47E
100
AcDbEntity
  8
Capa 1
370
     0
100
AcDbVertex
100
AcDb2dVertex
 10
117.0177375606876
 20
88.57646295266913
 30
0.0
  0
SEQEND
  5
483
330
47E
100
AcDbEntity
  8
Capa 1
370
     0
  0
HATCH
  5
482
330
1F
100
AcDbEntity
  8
Capa 1
 62
     7
420
 16777215
100
AcDbHatch
 10
0.0
 20
0.0
 30
0.0
210
0.0
220
0.0
230
1.0
  2
SOLID
 70
     1
 71
     0
 91
        1
 92
        1
 93
        3
 72
     1
 10
116.6473157803
 20
90.7725027347502
 11
117.3616953556388
 21
90.7725027347502
 72
     1
 10
117.3616953556388
 20
90.7725027347502
 11
117.0177375606876
 21
88.57646295266915
 72
     1
 10
117.0177375606876
 20
88.57646295266913
 11
116.6473157803
 21
90.77250273475019
 97
        0
 75
     0
 76
     1
 98
        0
  0
POLYLINE
  5
484
330
1F
100
AcDbEntity
  8
Capa 1
 62
     7
420
 16777215
370
     9
100
AcDb2dPolyline
 66
     1
 10
0.0
 20
0.0
 30
0.0
  0
VERTEX
  5
485
330
484
100
AcDbEntity
  8
Capa 1
 62
     7
420
 16777215
370
     9
100
AcDbVertex
100
AcDb2dVertex
 10
70.50398609200163
 20
83.126046018217
 30
0.0
  0
VERTEX
  5
486
330
484
100
AcDbEntity
  8
Capa 1
 62
     7
420
 16777215
370
     9
100
AcDbVertex
100
AcDb2dVertex
 10
107.360441859214
 20
83.126046018217
 30
0.0
  0
SEQEND
  5
487
330
484
100
AcDbEntity
  8
Capa 1
 62
     7
420
 16777215
370
     9
  0
POLYLINE
  5
488
330
1F
100
AcDbEntity
  8
Capa 1
 62
     7
420
 16777215
370
     9
100
AcDb2dPolyline
 66
     1
 10
0.0
 20
0.0
 30
0.0
  0
VERTEX
  5
489
330
488
100
AcDbEntity
  8
Capa 1
 62
     7
420
 16777215
370
     9
100
AcDbVertex
100
AcDb2dVertex
 10
109.5564816412951
 20
99.6625043474162
 30
0.0
  0
VERTEX
  5
48A
330
488
100
AcDbEntity
  8
Capa 1
 62
     7
420
 16777215
370
     9
100
AcDbVertex
100
AcDb2dVertex
 10
109.5564816412951
 20
82.20000502465204
 30
0.0
  0
SEQEND
  5
48B
330
488
100
AcDbEntity
  8
Capa 1
 62
     7
420
 16777215
370
     9
  0
POLYLINE
  5
48C
330
1F
100
AcDbEntity
  8
Capa 1
 62
     7
420
 16777215
370
     9
100
AcDb2dPolyline
 66
     1
 10
0.0
 20
0.0
 30
0.0
  0
VERTEX
  5
48D
330
48C
100
AcDbEntity
  8
Capa 1
 62
     7
420
 16777215
370
     9
100
AcDbVertex
100
AcDb2dVertex
 10
68.30794630992185
 20
88.84104561306611
 30
0.0
  0
VERTEX
  5
48E
330
48C
100
AcDbEntity
  8
Capa 1
 62
     7
420
 16777215
370
     9
100
AcDbVertex
100
AcDb2dVertex
 10
68.30794630992185
 20
82.20000502465204
 30
0.0
  0
SEQEND
  5
48F
330
48C
100
AcDbEntity
  8
Capa 1
 62
     7
420
 16777215
370
     9
  0
POLYLINE
  5
490
330
1F
100
AcDbEntity
  8
Capa 1
370
     0
100
AcDb2dPolyline
 66
     1
 10
0.0
 20
0.0
 30
0.0
  0
VERTEX
  5
491
330
490
100
AcDbEntity
  8
Capa 1
370
     0
100
AcDbVertex
100
AcDb2dVertex
 10
70.50398609200163
 20
83.49646106990254
 30
0.0
  0
VERTEX
  5
492
330
490
100
AcDbEntity
  8
Capa 1
370
     0
100
AcDbVertex
100
AcDb2dVertex
 10
70.50398609200163
 20
82.75562760218038
 30
0.0
  0
VERTEX
  5
493
330
490
100
AcDbEntity
  8
Capa 1
370
     0
100
AcDbVertex
100
AcDb2dVertex
 10
68.30794630992185
 20
83.126046018217
 30
0.0
  0
SEQEND
  5
495
330
490
100
AcDbEntity
  8
Capa 1
370
     0
  0
HATCH
  5
494
330
1F
100
AcDbEntity
  8
Capa 1
 62
     7
420
 16777215
100
AcDbHatch
 10
0.0
 20
0.0
 30
0.0
210
0.0
220
0.0
230
1.0
  2
SOLID
 70
     1
 71
     0
 91
        1
 92
        1
 93
        3
 72
     1
 10
70.50398609200163
 20
83.49646106990254
 11
70.50398609200163
 21
82.75562760218037
 72
     1
 10
70.50398609200163
 20
82.75562760218038
 11
68.30794630992185
 21
83.126046018217
 72
     1
 10
68.30794630992185
 20
83.126046018217
 11
70.50398609200163
 21
83.49646106990255
 97
        0
 75
     0
 76
     1
 98
        0
  0
POLYLINE
  5
496
330
1F
100
AcDbEntity
  8
Capa 1
370
     0
100
AcDb2dPolyline
 66
     1
 10
0.0
 20
0.0
 30
0.0
  0
VERTEX
  5
497
330
496
100
AcDbEntity
  8
Capa 1
370
     0
100
AcDbVertex
100
AcDb2dVertex
 10
107.360441859214
 20
83.49646106990254
 30
0.0
  0
VERTEX
  5
498
330
496
100
AcDbEntity
  8
Capa 1
370
     0
100
AcDbVertex
100
AcDb2dVertex
 10
107.360441859214
 20
82.75562760218038
 30
0.0
  0
VERTEX
  5
499
330
496
100
AcDbEntity
  8
Capa 1
370
     0
100
AcDbVertex
100
AcDb2dVertex
 10
109.5564816412951
 20
83.126046018217
 30
0.0
  0
SEQEND
  5
49B
330
496
100
AcDbEntity
  8
Capa 1
370
     0
  0
HATCH
  5
49A
330
1F
100
AcDbEntity
  8
Capa 1
 62
     7
420
 16777215
100
AcDbHatch
 10
0.0
 20
0.0
 30
0.0
210
0.0
220
0.0
230
1.0
  2
SOLID
 70
     1
 71
     0
 91
        1
 92
        1
 93
        3
 72
     1
 10
107.360441859214
 20
83.49646106990254
 11
107.360441859214
 21
82.75562760218037
 72
     1
 10
107.360441859214
 20
82.75562760218038
 11
109.5564816412951
 21
83.126046018217
 72
     1
 10
109.5564816412951
 20
83.126046018217
 11
107.360441859214
 21
83.49646106990255
 97
        0
 75
     0
 76
     1
 98
        0
  0
POLYLINE
  5
49C
330
1F
100
AcDbEntity
  8
Capa 1
 62
     7
420
 16777215
370
     9
100
AcDb2dPolyline
 66
     1
 10
0.0
 20
0.0
 30
0.0
  0
VERTEX
  5
49D
330
49C
100
AcDbEntity
  8
Capa 1
 62
     7
420
 16777215
370
     9
100
AcDbVertex
100
AcDb2dVertex
 10
91.82940302248502
 20
97.12250340603292
 30
0.0
  0
VERTEX
  5
49E
330
49C
100
AcDbEntity
  8
Capa 1
 62
     7
420
 16777215
370
     9
100
AcDbVertex
100
AcDb2dVertex
 10
94.3164860860485
 20
97.12250340603292
 30
0.0
  0
SEQEND
  5
49F
330
49C
100
AcDbEntity
  8
Capa 1
 62
     7
420
 16777215
370
     9
  0
POLYLINE
  5
4A0
330
1F
100
AcDbEntity
  8
Capa 1
 62
     7
420
 16777215
370
     9
100
AcDb2dPolyline
 66
     1
 10
0.0
 20
0.0
 30
0.0
  0
VERTEX
  5
4A1
330
4A0
100
AcDbEntity
  8
Capa 1
 62
     7
420
 16777215
370
     9
100
AcDbVertex
100
AcDb2dVertex
 10
91.82940302248502
 20
102.5464630837507
 30
0.0
  0
VERTEX
  5
4A2
330
4A0
100
AcDbEntity
  8
Capa 1
 62
     7
420
 16777215
370
     9
100
AcDbVertex
100
AcDb2dVertex
 10
94.3164860860485
 20
102.5464630837507
 30
0.0
  0
SEQEND
  5
4A3
330
4A0
100
AcDbEntity
  8
Capa 1
 62
     7
420
 16777215
370
     9
  0
POLYLINE
  5
4A4
330
1F
100
AcDbEntity
  8
Capa 1
 62
     7
420
 16777215
370
     9
100
AcDb2dPolyline
 66
     1
 10
0.0
 20
0.0
 30
0.0
  0
VERTEX
  5
4A5
330
4A4
100
AcDbEntity
  8
Capa 1
 62
     7
420
 16777215
370
     9
100
AcDbVertex
100
AcDb2dVertex
 10
94.29002882931412
 20
102.5464630837507
 30
0.0
  0
VERTEX
  5
4A6
330
4A4
100
AcDbEntity
  8
Capa 1
 62
     7
420
 16777215
370
     9
100
AcDbVertex
100
AcDb2dVertex
 10
94.81919415010807
 20
102.4935452059309
 30
0.0
  0
VERTEX
  5
4A7
330
4A4
100
AcDbEntity
  8
Capa 1
 62
     7
420
 16777215
370
     9
100
AcDbVertex
100
AcDb2dVertex
 10
95.32190221416893
 20
102.3347949368225
 30
0.0
  0
VERTEX
  5
4A8
330
4A4
100
AcDbEntity
  8
Capa 1
 62
     7
420
 16777215
370
     9
100
AcDbVertex
100
AcDb2dVertex
 10
95.79815302149284
 20
102.0966695331599
 30
0.0
  0
VERTEX
  5
4A9
330
4A4
100
AcDbEntity
  8
Capa 1
 62
     7
420
 16777215
370
     9
100
AcDbVertex
100
AcDb2dVertex
 10
96.19502869426383
 20
101.7527117382087
 30
0.0
  0
VERTEX
  5
4AA
330
4A4
100
AcDbEntity
  8
Capa 1
 62
     7
420
 16777215
370
     9
100
AcDbVertex
100
AcDb2dVertex
 10
96.538986489215
 20
101.3293788087033
 30
0.0
  0
VERTEX
  5
4AB
330
4A4
100
AcDbEntity
  8
Capa 1
 62
     7
420
 16777215
370
     9
100
AcDbVertex
100
AcDb2dVertex
 10
96.7771118928776
 20
100.8795886224636
 30
0.0
  0
VERTEX
  5
4AC
330
4A4
100
AcDbEntity
  8
Capa 1
 62
     7
420
 16777215
370
     9
100
AcDbVertex
100
AcDb2dVertex
 10
96.935862161986
 20
100.3504199373186
 30
0.0
  0
VERTEX
  5
4AD
330
4A4
100
AcDbEntity
  8
Capa 1
 62
     7
420
 16777215
370
     9
100
AcDbVertex
100
AcDb2dVertex
 10
96.98877667545476
 20
99.82125461652461
 30
0.0
  0
SEQEND
  5
4AE
330
4A4
100
AcDbEntity
  8
Capa 1
 62
     7
420
 16777215
370
     9
  0
POLYLINE
  5
4AF
330
1F
100
AcDbEntity
  8
Capa 1
 62
     7
420
 16777215
370
     9
100
AcDb2dPolyline
 66
     1
 10
0.0
 20
0.0
 30
0.0
  0
VERTEX
  5
4B0
330
4AF
100
AcDbEntity
  8
Capa 1
 62
     7
420
 16777215
370
     9
100
AcDbVertex
100
AcDb2dVertex
 10
94.29002882931412
 20
97.12250340603292
 30
0.0
  0
VERTEX
  5
4B1
330
4AF
100
AcDbEntity
  8
Capa 1
 62
     7
420
 16777215
370
     9
100
AcDbVertex
100
AcDb2dVertex
 10
94.81919415010807
 20
97.17542128385273
 30
0.0
  0
VERTEX
  5
4B2
330
4AF
100
AcDbEntity
  8
Capa 1
 62
     7
420
 16777215
370
     9
100
AcDbVertex
100
AcDb2dVertex
 10
95.32190221416893
 20
97.33417155296112
 30
0.0
  0
VERTEX
  5
4B3
330
4AF
100
AcDbEntity
  8
Capa 1
 62
     7
420
 16777215
370
     9
100
AcDbVertex
100
AcDb2dVertex
 10
95.79815302149284
 20
97.57229695662373
 30
0.0
  0
VERTEX
  5
4B4
330
4AF
100
AcDbEntity
  8
Capa 1
 62
     7
420
 16777215
370
     9
100
AcDbVertex
100
AcDb2dVertex
 10
96.19502869426383
 20
97.9162547515749
 30
0.0
  0
VERTEX
  5
4B5
330
4AF
100
AcDbEntity
  8
Capa 1
 62
     7
420
 16777215
370
     9
100
AcDbVertex
100
AcDb2dVertex
 10
96.538986489215
 20
98.33958768108027
 30
0.0
  0
VERTEX
  5
4B6
330
4AF
100
AcDbEntity
  8
Capa 1
 62
     7
420
 16777215
370
     9
100
AcDbVertex
100
AcDb2dVertex
 10
96.7771118928776
 20
98.78937786732003
 30
0.0
  0
VERTEX
  5
4B7
330
4AF
100
AcDbEntity
  8
Capa 1
 62
     7
420
 16777215
370
     9
100
AcDbVertex
100
AcDb2dVertex
 10
96.935862161986
 20
99.31854655246504
 30
0.0
  0
VERTEX
  5
4B8
330
4AF
100
AcDbEntity
  8
Capa 1
 62
     7
420
 16777215
370
     9
100
AcDbVertex
100
AcDb2dVertex
 10
96.98877667545476
 20
99.82125461652461
 30
0.0
  0
SEQEND
  5
4B9
330
4AF
100
AcDbEntity
  8
Capa 1
 62
     7
420
 16777215
370
     9
  0
POLYLINE
  5
4BA
330
1F
100
AcDbEntity
  8
Capa 1
 62
     7
420
 16777215
370
     9
100
AcDb2dPolyline
 66
     1
 10
0.0
 20
0.0
 30
0.0
  0
VERTEX
  5
4BB
330
4BA
100
AcDbEntity
  8
Capa 1
 62
     7
420
 16777215
370
     9
100
AcDbVertex
100
AcDb2dVertex
 10
91.82940302248502
 20
102.5464630837507
 30
0.0
  0
VERTEX
  5
4BC
330
4BA
100
AcDbEntity
  8
Capa 1
 62
     7
420
 16777215
370
     9
100
AcDbVertex
100
AcDb2dVertex
 10
91.43252734971404
 20
102.0172943986057
 30
0.0
  0
VERTEX
  5
4BD
330
4BA
100
AcDbEntity
  8
Capa 1
 62
     7
420
 16777215
370
     9
100
AcDbVertex
100
AcDb2dVertex
 10
91.14148743258268
 20
101.4352111999919
 30
0.0
  0
VERTEX
  5
4BE
330
4BA
100
AcDbEntity
  8
Capa 1
 62
     7
420
 16777215
370
     9
100
AcDbVertex
100
AcDb2dVertex
 10
90.92981928565446
 20
100.8266707446437
 30
0.0
  0
VERTEX
  5
4BF
330
4BA
100
AcDbEntity
  8
Capa 1
 62
     7
420
 16777215
370
     9
100
AcDbVertex
100
AcDb2dVertex
 10
90.82398689436587
 20
100.1652124114758
 30
0.0
  0
VERTEX
  5
4C0
330
4BA
100
AcDbEntity
  8
Capa 1
 62
     7
420
 16777215
370
     9
100
AcDbVertex
100
AcDb2dVertex
 10
90.82398689436587
 20
99.50375407830781
 30
0.0
  0
VERTEX
  5
4C1
330
4BA
100
AcDbEntity
  8
Capa 1
 62
     7
420
 16777215
370
     9
100
AcDbVertex
100
AcDb2dVertex
 10
90.92981928565446
 20
98.84229574513985
 30
0.0
  0
VERTEX
  5
4C2
330
4BA
100
AcDbEntity
  8
Capa 1
 62
     7
420
 16777215
370
     9
100
AcDbVertex
100
AcDb2dVertex
 10
91.14148743258268
 20
98.23375528979169
 30
0.0
  0
VERTEX
  5
4C3
330
4BA
100
AcDbEntity
  8
Capa 1
 62
     7
420
 16777215
370
     9
100
AcDbVertex
100
AcDb2dVertex
 10
91.43252734971404
 20
97.62521147009248
 30
0.0
  0
VERTEX
  5
4C4
330
4BA
100
AcDbEntity
  8
Capa 1
 62
     7
420
 16777215
370
     9
100
AcDbVertex
100
AcDb2dVertex
 10
91.82940302248502
 20
97.12250340603292
 30
0.0
  0
SEQEND
  5
4C5
330
4BA
100
AcDbEntity
  8
Capa 1
 62
     7
420
 16777215
370
     9
  0
POLYLINE
  5
4C6
330
1F
100
AcDbEntity
  8
Capa 1
 62
     7
420
 16777215
370
     9
100
AcDb2dPolyline
 66
     1
 10
0.0
 20
0.0
 30
0.0
  0
VERTEX
  5
4C7
330
4C6
100
AcDbEntity
  8
Capa 1
 62
     7
420
 16777215
370
     9
100
AcDbVertex
100
AcDb2dVertex
 10
76.88044402001871
 20
187.2924914064006
 30
0.0
  0
VERTEX
  5
4C8
330
4C6
100
AcDbEntity
  8
Capa 1
 62
     7
420
 16777215
370
     9
100
AcDbVertex
100
AcDb2dVertex
 10
77.8329456346691
 20
187.2924914064006
 30
0.0
  0
SEQEND
  5
4C9
330
4C6
100
AcDbEntity
  8
Capa 1
 62
     7
420
 16777215
370
     9
  0
POLYLINE
  5
4CA
330
1F
100
AcDbEntity
  8
Capa 1
 62
     7
420
 16777215
370
     9
100
AcDb2dPolyline
 66
     1
 10
0.0
 20
0.0
 30
0.0
  0
VERTEX
  5
4CB
330
4CA
100
AcDbEntity
  8
Capa 1
 62
     7
420
 16777215
370
     9
100
AcDbVertex
100
AcDb2dVertex
 10
78.12398555180174
 20
187.054362638387
 30
0.0
  0
VERTEX
  5
4CC
330
4CA
100
AcDbEntity
  8
Capa 1
 62
     7
420
 16777215
370
     9
100
AcDbVertex
100
AcDb2dVertex
 10
77.93877802595767
 20
187.10729060926
 30
0.0
  0
VERTEX
  5
4CD
330
4CA
100
AcDbEntity
  8
Capa 1
 62
     7
420
 16777215
370
     9
100
AcDbVertex
100
AcDb2dVertex
 10
77.8329456346691
 20
187.2924914064006
 30
0.0
  0
SEQEND
  5
4CE
330
4CA
100
AcDbEntity
  8
Capa 1
 62
     7
420
 16777215
370
     9
  0
POLYLINE
  5
4CF
330
1F
100
AcDbEntity
  8
Capa 1
 62
     7
420
 16777215
370
     9
100
AcDb2dPolyline
 66
     1
 10
0.0
 20
0.0
 30
0.0
  0
VERTEX
  5
4D0
330
4CF
100
AcDbEntity
  8
Capa 1
 62
     7
420
 16777215
370
     9
100
AcDbVertex
100
AcDb2dVertex
 10
73.4673199628903
 20
183.8529134568889
 30
0.0
  0
VERTEX
  5
4D1
330
4CF
100
AcDbEntity
  8
Capa 1
 62
     7
420
 16777215
370
     9
100
AcDbVertex
100
AcDb2dVertex
 10
73.41440208507048
 20
184.0910287674996
 30
0.0
  0
VERTEX
  5
4D2
330
4CF
100
AcDbEntity
  8
Capa 1
 62
     7
420
 16777215
370
     9
100
AcDbVertex
100
AcDb2dVertex
 10
73.30856969378189
 20
184.2762430220432
 30
0.0
  0
VERTEX
  5
4D3
330
4CF
100
AcDbEntity
  8
Capa 1
 62
     7
420
 16777215
370
     9
100
AcDbVertex
100
AcDb2dVertex
 10
73.09690491120475
 20
184.4085293057151
 30
0.0
  0
VERTEX
  5
4D4
330
4CF
100
AcDbEntity
  8
Capa 1
 62
     7
420
 16777215
370
     9
100
AcDbVertex
100
AcDb2dVertex
 10
72.8852367642778
 20
184.4614572765881
 30
0.0
  0
VERTEX
  5
4D5
330
4CF
100
AcDbEntity
  8
Capa 1
 62
     7
420
 16777215
370
     9
100
AcDbVertex
100
AcDb2dVertex
 10
72.64711136061393
 20
184.4085293057151
 30
0.0
  0
VERTEX
  5
4D6
330
4CF
100
AcDbEntity
  8
Capa 1
 62
     7
420
 16777215
370
     9
100
AcDbVertex
100
AcDb2dVertex
 10
72.46190383477115
 20
184.2762430220432
 30
0.0
  0
VERTEX
  5
4D7
330
4CF
100
AcDbEntity
  8
Capa 1
 62
     7
420
 16777215
370
     9
100
AcDbVertex
100
AcDb2dVertex
 10
72.32961082239713
 20
184.0910287674996
 30
0.0
  0
VERTEX
  5
4D8
330
4CF
100
AcDbEntity
  8
Capa 1
 62
     7
420
 16777215
370
     9
100
AcDbVertex
100
AcDb2dVertex
 10
72.27669630892966
 20
183.8529134568889
 30
0.0
  0
VERTEX
  5
4D9
330
4CF
100
AcDbEntity
  8
Capa 1
 62
     7
420
 16777215
370
     9
100
AcDbVertex
100
AcDb2dVertex
 10
72.32961082239713
 20
183.6412419456096
 30
0.0
  0
VERTEX
  5
4DA
330
4CF
100
AcDbEntity
  8
Capa 1
 62
     7
420
 16777215
370
     9
100
AcDbVertex
100
AcDb2dVertex
 10
72.46190383477115
 20
183.4295704343316
 30
0.0
  0
VERTEX
  5
4DB
330
4CF
100
AcDbEntity
  8
Capa 1
 62
     7
420
 16777215
370
     9
100
AcDbVertex
100
AcDb2dVertex
 10
72.64711136061393
 20
183.2972841506584
 30
0.0
  0
VERTEX
  5
4DC
330
4CF
100
AcDbEntity
  8
Capa 1
 62
     7
420
 16777215
370
     9
100
AcDbVertex
100
AcDb2dVertex
 10
72.8852367642778
 20
183.2708268939241
 30
0.0
  0
VERTEX
  5
4DD
330
4CF
100
AcDbEntity
  8
Capa 1
 62
     7
420
 16777215
370
     9
100
AcDbVertex
100
AcDb2dVertex
 10
73.09690491120475
 20
183.2972841506584
 30
0.0
  0
VERTEX
  5
4DE
330
4CF
100
AcDbEntity
  8
Capa 1
 62
     7
420
 16777215
370
     9
100
AcDbVertex
100
AcDb2dVertex
 10
73.30856969378189
 20
183.4295704343316
 30
0.0
  0
VERTEX
  5
4DF
330
4CF
100
AcDbEntity
  8
Capa 1
 62
     7
420
 16777215
370
     9
100
AcDbVertex
100
AcDb2dVertex
 10
73.41440208507048
 20
183.6412419456096
 30
0.0
  0
VERTEX
  5
4E0
330
4CF
100
AcDbEntity
  8
Capa 1
 62
     7
420
 16777215
370
     9
100
AcDbVertex
100
AcDb2dVertex
 10
73.4673199628903
 20
183.8529134568889
 30
0.0
  0
SEQEND
  5
4E1
330
4CF
100
AcDbEntity
  8
Capa 1
 62
     7
420
 16777215
370
     9
  0
POLYLINE
  5
4E2
330
1F
100
AcDbEntity
  8
Capa 1
 62
     7
420
 16777215
370
     9
100
AcDb2dPolyline
 66
     1
 10
0.0
 20
0.0
 30
0.0
  0
VERTEX
  5
4E3
330
4E2
100
AcDbEntity
  8
Capa 1
 62
     7
420
 16777215
370
     9
100
AcDbVertex
100
AcDb2dVertex
 10
76.88044402001871
 20
187.054362638387
 30
0.0
  0
VERTEX
  5
4E4
330
4E2
100
AcDbEntity
  8
Capa 1
 62
     7
420
 16777215
370
     9
100
AcDbVertex
100
AcDb2dVertex
 10
68.57252897031753
 20
187.054362638387
 30
0.0
  0
SEQEND
  5
4E5
330
4E2
100
AcDbEntity
  8
Capa 1
 62
     7
420
 16777215
370
     9
  0
POLYLINE
  5
4E6
330
1F
100
AcDbEntity
  8
Capa 1
 62
     7
420
 16777215
370
     9
100
AcDb2dPolyline
 66
     1
 10
0.0
 20
0.0
 30
0.0
  0
VERTEX
  5
4E7
330
4E6
100
AcDbEntity
  8
Capa 1
 62
     7
420
 16777215
370
     9
100
AcDbVertex
100
AcDb2dVertex
 10
68.30794630992185
 20
165.676037923137
 30
0.0
  0
VERTEX
  5
4E8
330
4E6
100
AcDbEntity
  8
Capa 1
 62
     7
420
 16777215
370
     9
100
AcDbVertex
100
AcDb2dVertex
 10
68.30794630992185
 20
187.054362638387
 30
0.0
  0
VERTEX
  5
4E9
330
4E6
100
AcDbEntity
  8
Capa 1
 62
     7
420
 16777215
370
     9
100
AcDbVertex
100
AcDb2dVertex
 10
68.57252897031753
 20
187.054362638387
 30
0.0
  0
SEQEND
  5
4EA
330
4E6
100
AcDbEntity
  8
Capa 1
 62
     7
420
 16777215
370
     9
  0
POLYLINE
  5
4EB
330
1F
100
AcDbEntity
  8
Capa 1
 62
     7
420
 16777215
370
     9
100
AcDb2dPolyline
 66
     1
 10
0.0
 20
0.0
 30
0.0
  0
VERTEX
  5
4EC
330
4EB
100
AcDbEntity
  8
Capa 1
 62
     7
420
 16777215
370
     9
100
AcDbVertex
100
AcDb2dVertex
 10
77.38315208407829
 20
165.6495806664026
 30
0.0
  0
VERTEX
  5
4ED
330
4EB
100
AcDbEntity
  8
Capa 1
 62
     7
420
 16777215
370
     9
100
AcDbVertex
100
AcDb2dVertex
 10
78.12398555180174
 20
187.054362638387
 30
0.0
  0
VERTEX
  5
4EE
330
4EB
100
AcDbEntity
  8
Capa 1
 62
     7
420
 16777215
370
     9
100
AcDbVertex
100
AcDb2dVertex
 10
76.88044402001871
 20
187.054362638387
 30
0.0
  0
SEQEND
  5
4EF
330
4EB
100
AcDbEntity
  8
Capa 1
 62
     7
420
 16777215
370
     9
  0
POLYLINE
  5
4F0
330
1F
100
AcDbEntity
  8
Capa 1
 62
     7
420
 16777215
370
     9
100
AcDb2dPolyline
 66
     1
 10
0.0
 20
0.0
 30
0.0
  0
VERTEX
  5
4F1
330
4F0
100
AcDbEntity
  8
Capa 1
 62
     7
420
 16777215
370
     9
100
AcDbVertex
100
AcDb2dVertex
 10
76.88044402001871
 20
187.2924914064006
 30
0.0
  0
VERTEX
  5
4F2
330
4F0
100
AcDbEntity
  8
Capa 1
 62
     7
420
 16777215
370
     9
100
AcDbVertex
100
AcDb2dVertex
 10
68.62544684813736
 20
187.2924914064006
 30
0.0
  0
SEQEND
  5
4F3
330
4F0
100
AcDbEntity
  8
Capa 1
 62
     7
420
 16777215
370
     9
  0
POLYLINE
  5
4F4
330
1F
100
AcDbEntity
  8
Capa 1
 62
     7
420
 16777215
370
     9
100
AcDb2dPolyline
 66
     1
 10
0.0
 20
0.0
 30
0.0
  0
VERTEX
  5
4F5
330
4F4
100
AcDbEntity
  8
Capa 1
 62
     7
420
 16777215
370
     9
100
AcDbVertex
100
AcDb2dVertex
 10
68.33440524883046
 20
187.054362638387
 30
0.0
  0
VERTEX
  5
4F6
330
4F4
100
AcDbEntity
  8
Capa 1
 62
     7
420
 16777215
370
     9
100
AcDbVertex
100
AcDb2dVertex
 10
68.46669657902896
 20
187.0808333525256
 30
0.0
  0
VERTEX
  5
4F7
330
4F4
100
AcDbEntity
  8
Capa 1
 62
     7
420
 16777215
370
     9
100
AcDbVertex
100
AcDb2dVertex
 10
68.57252897031753
 20
187.1602051227287
 30
0.0
  0
VERTEX
  5
4F8
330
4F4
100
AcDbEntity
  8
Capa 1
 62
     7
420
 16777215
370
     9
100
AcDbVertex
100
AcDb2dVertex
 10
68.62544684813736
 20
187.2924914064006
 30
0.0
  0
SEQEND
  5
4F9
330
4F4
100
AcDbEntity
  8
Capa 1
 62
     7
420
 16777215
370
     9
  0
POLYLINE
  5
4FA
330
1F
100
AcDbEntity
  8
Capa 1
 62
     7
420
 16777215
370
     9
100
AcDb2dPolyline
 66
     1
 10
0.0
 20
0.0
 30
0.0
  0
VERTEX
  5
4FB
330
4FA
100
AcDbEntity
  8
Capa 1
 62
     7
420
 16777215
370
     9
100
AcDbVertex
100
AcDb2dVertex
 10
77.14503004476676
 20
165.4114518983889
 30
0.0
  0
VERTEX
  5
4FC
330
4FA
100
AcDbEntity
  8
Capa 1
 62
     7
420
 16777215
370
     9
100
AcDbVertex
100
AcDb2dVertex
 10
77.30378031387515
 20
165.490823668592
 30
0.0
  0
VERTEX
  5
4FD
330
4FA
100
AcDbEntity
  8
Capa 1
 62
     7
420
 16777215
370
     9
100
AcDbVertex
100
AcDb2dVertex
 10
77.38315208407829
 20
165.6495806664026
 30
0.0
  0
SEQEND
  5
4FE
330
4FA
100
AcDbEntity
  8
Capa 1
 62
     7
420
 16777215
370
     9
  0
POLYLINE
  5
4FF
330
1F
100
AcDbEntity
  8
Capa 1
 62
     7
420
 16777215
370
     9
100
AcDb2dPolyline
 66
     1
 10
0.0
 20
0.0
 30
0.0
  0
VERTEX
  5
500
330
4FF
100
AcDbEntity
  8
Capa 1
 62
     7
420
 16777215
370
     9
100
AcDbVertex
100
AcDb2dVertex
 10
76.88044402001871
 20
165.4114518983889
 30
0.0
  0
VERTEX
  5
501
330
4FF
100
AcDbEntity
  8
Capa 1
 62
     7
420
 16777215
370
     9
100
AcDbVertex
100
AcDb2dVertex
 10
77.14503004476676
 20
165.4114518983889
 30
0.0
  0
SEQEND
  5
502
330
4FF
100
AcDbEntity
  8
Capa 1
 62
     7
420
 16777215
370
     9
  0
POLYLINE
  5
503
330
1F
100
AcDbEntity
  8
Capa 1
 62
     7
420
 16777215
370
     9
100
AcDb2dPolyline
 66
     1
 10
0.0
 20
0.0
 30
0.0
  0
VERTEX
  5
504
330
503
100
AcDbEntity
  8
Capa 1
 62
     7
420
 16777215
370
     9
100
AcDbVertex
100
AcDb2dVertex
 10
68.30794630992185
 20
165.676037923137
 30
0.0
  0
VERTEX
  5
505
330
503
100
AcDbEntity
  8
Capa 1
 62
     7
420
 16777215
370
     9
100
AcDbVertex
100
AcDb2dVertex
 10
68.36086250556485
 20
165.5437381820608
 30
0.0
  0
VERTEX
  5
506
330
503
100
AcDbEntity
  8
Capa 1
 62
     7
420
 16777215
370
     9
100
AcDbVertex
100
AcDb2dVertex
 10
68.44023764011905
 20
165.4643664118577
 30
0.0
  0
VERTEX
  5
507
330
503
100
AcDbEntity
  8
Capa 1
 62
     7
420
 16777215
370
     9
100
AcDbVertex
100
AcDb2dVertex
 10
68.57252897031753
 20
165.4114518983889
 30
0.0
  0
SEQEND
  5
508
330
503
100
AcDbEntity
  8
Capa 1
 62
     7
420
 16777215
370
     9
  0
POLYLINE
  5
509
330
1F
100
AcDbEntity
  8
Capa 1
 62
     7
420
 16777215
370
     9
100
AcDb2dPolyline
 66
     1
 10
0.0
 20
0.0
 30
0.0
  0
VERTEX
  5
50A
330
509
100
AcDbEntity
  8
Capa 1
 62
     7
420
 16777215
370
     9
100
AcDbVertex
100
AcDb2dVertex
 10
68.57252897031753
 20
187.318948663135
 30
0.0
  0
VERTEX
  5
50B
330
509
100
AcDbEntity
  8
Capa 1
 62
     7
420
 16777215
370
     9
100
AcDbVertex
100
AcDb2dVertex
 10
77.88586351248892
 20
187.318948663135
 30
0.0
  0
VERTEX
  5
50C
330
509
100
AcDbEntity
  8
Capa 1
 62
     7
420
 16777215
370
     9
100
AcDbVertex
100
AcDb2dVertex
 10
78.01815316051187
 20
187.3718631766038
 30
0.0
  0
VERTEX
  5
50D
330
509
100
AcDbEntity
  8
Capa 1
 62
     7
420
 16777215
370
     9
100
AcDbVertex
100
AcDb2dVertex
 10
78.09752829506607
 20
187.4512484042112
 30
0.0
  0
VERTEX
  5
50E
330
509
100
AcDbEntity
  8
Capa 1
 62
     7
420
 16777215
370
     9
100
AcDbVertex
100
AcDb2dVertex
 10
78.12398555180174
 20
187.5835346878831
 30
0.0
  0
SEQEND
  5
50F
330
509
100
AcDbEntity
  8
Capa 1
 62
     7
420
 16777215
370
     9
  0
POLYLINE
  5
510
330
1F
100
AcDbEntity
  8
Capa 1
 62
     7
420
 16777215
370
     9
100
AcDb2dPolyline
 66
     1
 10
0.0
 20
0.0
 30
0.0
  0
VERTEX
  5
511
330
510
100
AcDbEntity
  8
Capa 1
 62
     7
420
 16777215
370
     9
100
AcDbVertex
100
AcDb2dVertex
 10
68.30794630992185
 20
187.5835346878831
 30
0.0
  0
VERTEX
  5
512
330
510
100
AcDbEntity
  8
Capa 1
 62
     7
420
 16777215
370
     9
100
AcDbVertex
100
AcDb2dVertex
 10
68.36086250556485
 20
187.4512484042112
 30
0.0
  0
VERTEX
  5
513
330
510
100
AcDbEntity
  8
Capa 1
 62
     7
420
 16777215
370
     9
100
AcDbVertex
100
AcDb2dVertex
 10
68.44023764011905
 20
187.3718631766038
 30
0.0
  0
VERTEX
  5
514
330
510
100
AcDbEntity
  8
Capa 1
 62
     7
420
 16777215
370
     9
100
AcDbVertex
100
AcDb2dVertex
 10
68.57252897031753
 20
187.318948663135
 30
0.0
  0
SEQEND
  5
515
330
510
100
AcDbEntity
  8
Capa 1
 62
     7
420
 16777215
370
     9
  0
POLYLINE
  5
516
330
1F
100
AcDbEntity
  8
Capa 1
 62
     7
420
 16777215
370
     9
100
AcDb2dPolyline
 66
     1
 10
0.0
 20
0.0
 30
0.0
  0
VERTEX
  5
517
330
516
100
AcDbEntity
  8
Capa 1
 62
     7
420
 16777215
370
     9
100
AcDbVertex
100
AcDb2dVertex
 10
68.30794630992185
 20
189.1445801222326
 30
0.0
  0
VERTEX
  5
518
330
516
100
AcDbEntity
  8
Capa 1
 62
     7
420
 16777215
370
     9
100
AcDbVertex
100
AcDb2dVertex
 10
68.30794630992185
 20
189.2768664059045
 30
0.0
  0
SEQEND
  5
519
330
516
100
AcDbEntity
  8
Capa 1
 62
     7
420
 16777215
370
     9
  0
POLYLINE
  5
51A
330
1F
100
AcDbEntity
  8
Capa 1
 62
     7
420
 16777215
370
     9
100
AcDb2dPolyline
 66
     1
 10
0.0
 20
0.0
 30
0.0
  0
VERTEX
  5
51B
330
51A
100
AcDbEntity
  8
Capa 1
 62
     7
420
 16777215
370
     9
100
AcDbVertex
100
AcDb2dVertex
 10
68.57252897031753
 20
189.5149951739182
 30
0.0
  0
VERTEX
  5
51C
330
51A
100
AcDbEntity
  8
Capa 1
 62
     7
420
 16777215
370
     9
100
AcDbVertex
100
AcDb2dVertex
 10
76.88044402001871
 20
189.5149951739182
 30
0.0
  0
SEQEND
  5
51D
330
51A
100
AcDbEntity
  8
Capa 1
 62
     7
420
 16777215
370
     9
  0
POLYLINE
  5
51E
330
1F
100
AcDbEntity
  8
Capa 1
 62
     7
420
 16777215
370
     9
100
AcDb2dPolyline
 66
     1
 10
0.0
 20
0.0
 30
0.0
  0
VERTEX
  5
51F
330
51E
100
AcDbEntity
  8
Capa 1
 62
     7
420
 16777215
370
     9
100
AcDbVertex
100
AcDb2dVertex
 10
68.30794630992185
 20
187.5835346878831
 30
0.0
  0
VERTEX
  5
520
330
51E
100
AcDbEntity
  8
Capa 1
 62
     7
420
 16777215
370
     9
100
AcDbVertex
100
AcDb2dVertex
 10
68.30794630992185
 20
189.1445801222326
 30
0.0
  0
SEQEND
  5
521
330
51E
100
AcDbEntity
  8
Capa 1
 62
     7
420
 16777215
370
     9
  0
POLYLINE
  5
522
330
1F
100
AcDbEntity
  8
Capa 1
 62
     7
420
 16777215
370
     9
100
AcDb2dPolyline
 66
     1
 10
0.0
 20
0.0
 30
0.0
  0
VERTEX
  5
523
330
522
100
AcDbEntity
  8
Capa 1
 62
     7
420
 16777215
370
     9
100
AcDbVertex
100
AcDb2dVertex
 10
78.09752829506607
 20
189.1445801222326
 30
0.0
  0
VERTEX
  5
524
330
522
100
AcDbEntity
  8
Capa 1
 62
     7
420
 16777215
370
     9
100
AcDbVertex
100
AcDb2dVertex
 10
78.12398555180174
 20
187.5835346878831
 30
0.0
  0
SEQEND
  5
525
330
522
100
AcDbEntity
  8
Capa 1
 62
     7
420
 16777215
370
     9
  0
POLYLINE
  5
526
330
1F
100
AcDbEntity
  8
Capa 1
 62
     7
420
 16777215
370
     9
100
AcDb2dPolyline
 66
     1
 10
0.0
 20
0.0
 30
0.0
  0
VERTEX
  5
527
330
526
100
AcDbEntity
  8
Capa 1
 62
     7
420
 16777215
370
     9
100
AcDbVertex
100
AcDb2dVertex
 10
68.57252897031753
 20
189.5149951739182
 30
0.0
  0
VERTEX
  5
528
330
526
100
AcDbEntity
  8
Capa 1
 62
     7
420
 16777215
370
     9
100
AcDbVertex
100
AcDb2dVertex
 10
68.44023764011905
 20
189.4885379171838
 30
0.0
  0
VERTEX
  5
529
330
526
100
AcDbEntity
  8
Capa 1
 62
     7
420
 16777215
370
     9
100
AcDbVertex
100
AcDb2dVertex
 10
68.36086250556485
 20
189.3826954328433
 30
0.0
  0
VERTEX
  5
52A
330
526
100
AcDbEntity
  8
Capa 1
 62
     7
420
 16777215
370
     9
100
AcDbVertex
100
AcDb2dVertex
 10
68.30794630992185
 20
189.2768664059045
 30
0.0
  0
SEQEND
  5
52B
330
526
100
AcDbEntity
  8
Capa 1
 62
     7
420
 16777215
370
     9
  0
POLYLINE
  5
52C
330
1F
100
AcDbEntity
  8
Capa 1
 62
     7
420
 16777215
370
     9
100
AcDb2dPolyline
 66
     1
 10
0.0
 20
0.0
 30
0.0
  0
VERTEX
  5
52D
330
52C
100
AcDbEntity
  8
Capa 1
 62
     7
420
 16777215
370
     9
100
AcDbVertex
100
AcDb2dVertex
 10
76.88044402001871
 20
189.5149951739182
 30
0.0
  0
VERTEX
  5
52E
330
52C
100
AcDbEntity
  8
Capa 1
 62
     7
420
 16777215
370
     9
100
AcDbVertex
100
AcDb2dVertex
 10
77.72711324338051
 20
189.5149951739182
 30
0.0
  0
SEQEND
  5
52F
330
52C
100
AcDbEntity
  8
Capa 1
 62
     7
420
 16777215
370
     9
  0
POLYLINE
  5
530
330
1F
100
AcDbEntity
  8
Capa 1
 62
     7
420
 16777215
370
     9
100
AcDb2dPolyline
 66
     1
 10
0.0
 20
0.0
 30
0.0
  0
VERTEX
  5
531
330
530
100
AcDbEntity
  8
Capa 1
 62
     7
420
 16777215
370
     9
100
AcDbVertex
100
AcDb2dVertex
 10
78.09752829506607
 20
189.1445801222326
 30
0.0
  0
VERTEX
  5
532
330
530
100
AcDbEntity
  8
Capa 1
 62
     7
420
 16777215
370
     9
100
AcDbVertex
100
AcDb2dVertex
 10
78.04461041724626
 20
189.3297809193733
 30
0.0
  0
VERTEX
  5
533
330
530
100
AcDbEntity
  8
Capa 1
 62
     7
420
 16777215
370
     9
100
AcDbVertex
100
AcDb2dVertex
 10
77.9123207692233
 20
189.4620806604495
 30
0.0
  0
VERTEX
  5
534
330
530
100
AcDbEntity
  8
Capa 1
 62
     7
420
 16777215
370
     9
100
AcDbVertex
100
AcDb2dVertex
 10
77.72711324338051
 20
189.5149951739182
 30
0.0
  0
SEQEND
  5
535
330
530
100
AcDbEntity
  8
Capa 1
 62
     7
420
 16777215
370
     9
  0
POLYLINE
  5
536
330
1F
100
AcDbEntity
  8
Capa 1
 62
     7
420
 16777215
370
     9
100
AcDb2dPolyline
 66
     1
 10
0.0
 20
0.0
 30
0.0
  0
VERTEX
  5
537
330
536
100
AcDbEntity
  8
Capa 1
 62
     7
420
 16777215
370
     9
100
AcDbVertex
100
AcDb2dVertex
 10
76.95981915457291
 20
165.4114518983889
 30
0.0
  0
VERTEX
  5
538
330
536
100
AcDbEntity
  8
Capa 1
 62
     7
420
 16777215
370
     9
100
AcDbVertex
100
AcDb2dVertex
 10
78.09752829506607
 20
165.4114518983889
 30
0.0
  0
SEQEND
  5
539
330
536
100
AcDbEntity
  8
Capa 1
 62
     7
420
 16777215
370
     9
  0
POLYLINE
  5
53A
330
1F
100
AcDbEntity
  8
Capa 1
 62
     7
420
 16777215
370
     9
100
AcDb2dPolyline
 66
     1
 10
0.0
 20
0.0
 30
0.0
  0
VERTEX
  5
53B
330
53A
100
AcDbEntity
  8
Capa 1
 62
     7
420
 16777215
370
     9
100
AcDbVertex
100
AcDb2dVertex
 10
109.5564816412951
 20
165.0410368467033
 30
0.0
  0
VERTEX
  5
53C
330
53A
100
AcDbEntity
  8
Capa 1
 62
     7
420
 16777215
370
     9
100
AcDbVertex
100
AcDb2dVertex
 10
109.5035671278263
 20
165.226237643844
 30
0.0
  0
VERTEX
  5
53D
330
53A
100
AcDbEntity
  8
Capa 1
 62
     7
420
 16777215
370
     9
100
AcDbVertex
100
AcDb2dVertex
 10
109.3712741154523
 20
165.3585373849214
 30
0.0
  0
VERTEX
  5
53E
330
53A
100
AcDbEntity
  8
Capa 1
 62
     7
420
 16777215
370
     9
100
AcDbVertex
100
AcDb2dVertex
 10
109.1860665896096
 20
165.4114518983889
 30
0.0
  0
SEQEND
  5
53F
330
53A
100
AcDbEntity
  8
Capa 1
 62
     7
420
 16777215
370
     9
  0
POLYLINE
  5
540
330
1F
100
AcDbEntity
  8
Capa 1
 62
     7
420
 16777215
370
     9
100
AcDb2dPolyline
 66
     1
 10
0.0
 20
0.0
 30
0.0
  0
VERTEX
  5
541
330
540
100
AcDbEntity
  8
Capa 1
 62
     7
420
 16777215
370
     9
100
AcDbVertex
100
AcDb2dVertex
 10
102.0687751938703
 20
156.8918720661106
 30
0.0
  0
VERTEX
  5
542
330
540
100
AcDbEntity
  8
Capa 1
 62
     7
420
 16777215
370
     9
100
AcDbVertex
100
AcDb2dVertex
 10
104.106064706843
 20
158.7968752954114
 30
0.0
  0
VERTEX
  5
543
330
540
100
AcDbEntity
  8
Capa 1
 62
     7
420
 16777215
370
     9
100
AcDbVertex
100
AcDb2dVertex
 10
106.0375251928781
 20
160.7812502949153
 30
0.0
  0
VERTEX
  5
544
330
540
100
AcDbEntity
  8
Capa 1
 62
     7
420
 16777215
370
     9
100
AcDbVertex
100
AcDb2dVertex
 10
107.889607180008
 20
162.8449970646223
 30
0.0
  0
VERTEX
  5
545
330
540
100
AcDbEntity
  8
Capa 1
 62
     7
420
 16777215
370
     9
100
AcDbVertex
100
AcDb2dVertex
 10
108.7627370244552
 20
163.9297916916467
 30
0.0
  0
VERTEX
  5
546
330
540
100
AcDbEntity
  8
Capa 1
 62
     7
420
 16777215
370
     9
100
AcDbVertex
100
AcDb2dVertex
 10
109.2125238463439
 20
164.4589570124407
 30
0.0
  0
VERTEX
  5
547
330
540
100
AcDbEntity
  8
Capa 1
 62
     7
420
 16777215
370
     9
100
AcDbVertex
100
AcDb2dVertex
 10
109.4241953576232
 20
164.7235363084866
 30
0.0
  0
VERTEX
  5
548
330
540
100
AcDbEntity
  8
Capa 1
 62
     7
420
 16777215
370
     9
100
AcDbVertex
100
AcDb2dVertex
 10
109.5300243845607
 20
164.8822798488928
 30
0.0
  0
VERTEX
  5
549
330
540
100
AcDbEntity
  8
Capa 1
 62
     7
420
 16777215
370
     9
100
AcDbVertex
100
AcDb2dVertex
 10
109.5564816412951
 20
165.0410368467033
 30
0.0
  0
SEQEND
  5
54A
330
540
100
AcDbEntity
  8
Capa 1
 62
     7
420
 16777215
370
     9
  0
POLYLINE
  5
54B
330
1F
100
AcDbEntity
  8
Capa 1
 62
     7
420
 16777215
370
     9
100
AcDb2dPolyline
 66
     1
 10
0.0
 20
0.0
 30
0.0
  0
VERTEX
  5
54C
330
54B
100
AcDbEntity
  8
Capa 1
 62
     7
420
 16777215
370
     9
100
AcDbVertex
100
AcDb2dVertex
 10
101.2750238483283
 20
154.7487467974983
 30
0.0
  0
VERTEX
  5
54D
330
54B
100
AcDbEntity
  8
Capa 1
 62
     7
420
 16777215
370
     9
100
AcDbVertex
100
AcDb2dVertex
 10
101.2750238483283
 20
155.3572906171975
 30
0.0
  0
VERTEX
  5
54E
330
54B
100
AcDbEntity
  8
Capa 1
 62
     7
420
 16777215
370
     9
100
AcDbVertex
100
AcDb2dVertex
 10
101.4073168607023
 20
155.9129131947258
 30
0.0
  0
VERTEX
  5
54F
330
54B
100
AcDbEntity
  8
Capa 1
 62
     7
420
 16777215
370
     9
100
AcDbVertex
100
AcDb2dVertex
 10
101.6983601421847
 20
156.4420785155198
 30
0.0
  0
VERTEX
  5
550
330
54B
100
AcDbEntity
  8
Capa 1
 62
     7
420
 16777215
370
     9
100
AcDbVertex
100
AcDb2dVertex
 10
102.0952324506047
 20
156.8918720661106
 30
0.0
  0
SEQEND
  5
551
330
54B
100
AcDbEntity
  8
Capa 1
 62
     7
420
 16777215
370
     9
  0
POLYLINE
  5
552
330
1F
100
AcDbEntity
  8
Capa 1
 62
     7
420
 16777215
370
     9
100
AcDb2dPolyline
 66
     1
 10
0.0
 20
0.0
 30
0.0
  0
VERTEX
  5
553
330
552
100
AcDbEntity
  8
Capa 1
 62
     7
420
 16777215
370
     9
100
AcDbVertex
100
AcDb2dVertex
 10
102.3598184753527
 20
140.4083282503801
 30
0.0
  0
VERTEX
  5
554
330
552
100
AcDbEntity
  8
Capa 1
 62
     7
420
 16777215
370
     9
100
AcDbVertex
100
AcDb2dVertex
 10
102.2010682062443
 20
144.0066631977024
 30
0.0
  0
VERTEX
  5
555
330
552
100
AcDbEntity
  8
Capa 1
 62
     7
420
 16777215
370
     9
100
AcDbVertex
100
AcDb2dVertex
 10
101.9629461669328
 20
147.6049981450246
 30
0.0
  0
VERTEX
  5
556
330
552
100
AcDbEntity
  8
Capa 1
 62
     7
420
 16777215
370
     9
100
AcDbVertex
100
AcDb2dVertex
 10
101.645445628716
 20
151.1768758356125
 30
0.0
  0
VERTEX
  5
557
330
552
100
AcDbEntity
  8
Capa 1
 62
     7
420
 16777215
370
     9
100
AcDbVertex
100
AcDb2dVertex
 10
101.2750238483283
 20
154.7487467974983
 30
0.0
  0
SEQEND
  5
558
330
552
100
AcDbEntity
  8
Capa 1
 62
     7
420
 16777215
370
     9
  0
POLYLINE
  5
559
330
1F
100
AcDbEntity
  8
Capa 1
 62
     7
420
 16777215
370
     9
100
AcDb2dPolyline
 66
     1
 10
0.0
 20
0.0
 30
0.0
  0
VERTEX
  5
55A
330
559
100
AcDbEntity
  8
Capa 1
 62
     7
420
 16777215
370
     9
100
AcDbVertex
100
AcDb2dVertex
 10
69.26044624239542
 20
163.3212478719475
 30
0.0
  0
VERTEX
  5
55B
330
559
100
AcDbEntity
  8
Capa 1
 62
     7
420
 16777215
370
     9
100
AcDbVertex
100
AcDb2dVertex
 10
69.3927375725939
 20
162.8449970646223
 30
0.0
  0
VERTEX
  5
55C
330
559
100
AcDbEntity
  8
Capa 1
 62
     7
420
 16777215
370
     9
100
AcDbVertex
100
AcDb2dVertex
 10
69.68377748972526
 20
162.4481247562024
 30
0.0
  0
VERTEX
  5
55D
330
559
100
AcDbEntity
  8
Capa 1
 62
     7
420
 16777215
370
     9
100
AcDbVertex
100
AcDb2dVertex
 10
70.1071137835817
 20
162.1835387314543
 30
0.0
  0
VERTEX
  5
55E
330
559
100
AcDbEntity
  8
Capa 1
 62
     7
420
 16777215
370
     9
100
AcDbVertex
100
AcDb2dVertex
 10
70.58336122655582
 20
162.0512457190803
 30
0.0
  0
SEQEND
  5
55F
330
559
100
AcDbEntity
  8
Capa 1
 62
     7
420
 16777215
370
     9
  0
POLYLINE
  5
560
330
1F
100
AcDbEntity
  8
Capa 1
 62
     7
420
 16777215
370
     9
100
AcDb2dPolyline
 66
     1
 10
0.0
 20
0.0
 30
0.0
  0
VERTEX
  5
561
330
560
100
AcDbEntity
  8
Capa 1
 62
     7
420
 16777215
370
     9
100
AcDbVertex
100
AcDb2dVertex
 10
69.2339873034855
 20
163.6122911534299
 30
0.0
  0
VERTEX
  5
562
330
560
100
AcDbEntity
  8
Capa 1
 62
     7
420
 16777215
370
     9
100
AcDbVertex
100
AcDb2dVertex
 10
69.26044624239542
 20
163.3212478719475
 30
0.0
  0
SEQEND
  5
563
330
560
100
AcDbEntity
  8
Capa 1
 62
     7
420
 16777215
370
     9
  0
POLYLINE
  5
564
330
1F
100
AcDbEntity
  8
Capa 1
 62
     7
420
 16777215
370
     9
100
AcDb2dPolyline
 66
     1
 10
0.0
 20
0.0
 30
0.0
  0
VERTEX
  5
565
330
564
100
AcDbEntity
  8
Capa 1
 62
     7
420
 16777215
370
     9
100
AcDbVertex
100
AcDb2dVertex
 10
78.46794671110268
 20
148.1077062090842
 30
0.0
  0
VERTEX
  5
566
330
564
100
AcDbEntity
  8
Capa 1
 62
     7
420
 16777215
370
     9
100
AcDbVertex
100
AcDb2dVertex
 10
78.44148609001725
 20
148.2664564781926
 30
0.0
  0
VERTEX
  5
567
330
564
100
AcDbEntity
  8
Capa 1
 62
     7
420
 16777215
370
     9
100
AcDbVertex
100
AcDb2dVertex
 10
78.33565369872868
 20
148.3722922338322
 30
0.0
  0
VERTEX
  5
568
330
564
100
AcDbEntity
  8
Capa 1
 62
     7
420
 16777215
370
     9
100
AcDbVertex
100
AcDb2dVertex
 10
78.17690342962156
 20
148.425206747301
 30
0.0
  0
SEQEND
  5
569
330
564
100
AcDbEntity
  8
Capa 1
 62
     7
420
 16777215
370
     9
  0
POLYLINE
  5
56A
330
1F
100
AcDbEntity
  8
Capa 1
 62
     7
420
 16777215
370
     9
100
AcDb2dPolyline
 66
     1
 10
0.0
 20
0.0
 30
0.0
  0
VERTEX
  5
56B
330
56A
100
AcDbEntity
  8
Capa 1
 62
     7
420
 16777215
370
     9
100
AcDbVertex
100
AcDb2dVertex
 10
71.40356982883219
 20
161.9718739488772
 30
0.0
  0
VERTEX
  5
56C
330
56A
100
AcDbEntity
  8
Capa 1
 62
     7
420
 16777215
370
     9
100
AcDbVertex
100
AcDb2dVertex
 10
71.48294496338639
 20
161.9718739488772
 30
0.0
  0
SEQEND
  5
56D
330
56A
100
AcDbEntity
  8
Capa 1
 62
     7
420
 16777215
370
     9
  0
POLYLINE
  5
56E
330
1F
100
AcDbEntity
  8
Capa 1
 62
     7
420
 16777215
370
     9
100
AcDb2dPolyline
 66
     1
 10
0.0
 20
0.0
 30
0.0
  0
VERTEX
  5
56F
330
56E
100
AcDbEntity
  8
Capa 1
 62
     7
420
 16777215
370
     9
100
AcDbVertex
100
AcDb2dVertex
 10
70.58336122655582
 20
162.0512457190803
 30
0.0
  0
VERTEX
  5
570
330
56E
100
AcDbEntity
  8
Capa 1
 62
     7
420
 16777215
370
     9
100
AcDbVertex
100
AcDb2dVertex
 10
71.37711257209781
 20
161.9718739488772
 30
0.0
  0
SEQEND
  5
571
330
56E
100
AcDbEntity
  8
Capa 1
 62
     7
420
 16777215
370
     9
  0
POLYLINE
  5
572
330
1F
100
AcDbEntity
  8
Capa 1
 62
     7
420
 16777215
370
     9
100
AcDb2dPolyline
 66
     1
 10
0.0
 20
0.0
 30
0.0
  0
VERTEX
  5
573
330
572
100
AcDbEntity
  8
Capa 1
 62
     7
420
 16777215
370
     9
100
AcDbVertex
100
AcDb2dVertex
 10
75.18711230199723
 20
148.4781212607698
 30
0.0
  0
VERTEX
  5
574
330
572
100
AcDbEntity
  8
Capa 1
 62
     7
420
 16777215
370
     9
100
AcDbVertex
100
AcDb2dVertex
 10
78.17690342962156
 20
148.425206747301
 30
0.0
  0
SEQEND
  5
575
330
572
100
AcDbEntity
  8
Capa 1
 62
     7
420
 16777215
370
     9
  0
POLYLINE
  5
576
330
1F
100
AcDbEntity
  8
Capa 1
 62
     7
420
 16777215
370
     9
100
AcDb2dPolyline
 66
     1
 10
0.0
 20
0.0
 30
0.0
  0
VERTEX
  5
577
330
576
100
AcDbEntity
  8
Capa 1
 62
     7
420
 16777215
370
     9
100
AcDbVertex
100
AcDb2dVertex
 10
78.60023635912565
 20
154.9074970666067
 30
0.0
  0
VERTEX
  5
578
330
576
100
AcDbEntity
  8
Capa 1
 62
     7
420
 16777215
370
     9
100
AcDbVertex
100
AcDb2dVertex
 10
75.18711230199723
 20
154.8545825531379
 30
0.0
  0
SEQEND
  5
579
330
576
100
AcDbEntity
  8
Capa 1
 62
     7
420
 16777215
370
     9
  0
POLYLINE
  5
57A
330
1F
100
AcDbEntity
  8
Capa 1
 62
     7
420
 16777215
370
     9
100
AcDb2dPolyline
 66
     1
 10
0.0
 20
0.0
 30
0.0
  0
VERTEX
  5
57B
330
57A
100
AcDbEntity
  8
Capa 1
 62
     7
420
 16777215
370
     9
100
AcDbVertex
100
AcDb2dVertex
 10
78.89127964060934
 20
155.1985403480891
 30
0.0
  0
VERTEX
  5
57C
330
57A
100
AcDbEntity
  8
Capa 1
 62
     7
420
 16777215
370
     9
100
AcDbVertex
100
AcDb2dVertex
 10
78.81190450605386
 20
155.0133328222463
 30
0.0
  0
VERTEX
  5
57D
330
57A
100
AcDbEntity
  8
Capa 1
 62
     7
420
 16777215
370
     9
100
AcDbVertex
100
AcDb2dVertex
 10
78.60023635912565
 20
154.9074970666067
 30
0.0
  0
SEQEND
  5
57E
330
57A
100
AcDbEntity
  8
Capa 1
 62
     7
420
 16777215
370
     9
  0
POLYLINE
  5
57F
330
1F
100
AcDbEntity
  8
Capa 1
 62
     7
420
 16777215
370
     9
100
AcDb2dPolyline
 66
     1
 10
0.0
 20
0.0
 30
0.0
  0
VERTEX
  5
580
330
57F
100
AcDbEntity
  8
Capa 1
 62
     7
420
 16777215
370
     9
100
AcDbVertex
100
AcDb2dVertex
 10
75.6898203660568
 20
160.040413462842
 30
0.0
  0
VERTEX
  5
581
330
57F
100
AcDbEntity
  8
Capa 1
 62
     7
420
 16777215
370
     9
100
AcDbVertex
100
AcDb2dVertex
 10
76.21898568685074
 20
159.7229129246252
 30
0.0
  0
VERTEX
  5
582
330
57F
100
AcDbEntity
  8
Capa 1
 62
     7
420
 16777215
370
     9
100
AcDbVertex
100
AcDb2dVertex
 10
76.61586135962175
 20
159.2995833594709
 30
0.0
  0
SEQEND
  5
583
330
57F
100
AcDbEntity
  8
Capa 1
 62
     7
420
 16777215
370
     9
  0
POLYLINE
  5
584
330
1F
100
AcDbEntity
  8
Capa 1
 62
     7
420
 16777215
370
     9
100
AcDb2dPolyline
 66
     1
 10
0.0
 20
0.0
 30
0.0
  0
VERTEX
  5
585
330
584
100
AcDbEntity
  8
Capa 1
 62
     7
420
 16777215
370
     9
100
AcDbVertex
100
AcDb2dVertex
 10
78.46794671110268
 20
156.7066645402678
 30
0.0
  0
VERTEX
  5
586
330
584
100
AcDbEntity
  8
Capa 1
 62
     7
420
 16777215
370
     9
100
AcDbVertex
100
AcDb2dVertex
 10
78.67961149367984
 20
156.3627067453166
 30
0.0
  0
VERTEX
  5
587
330
584
100
AcDbEntity
  8
Capa 1
 62
     7
420
 16777215
370
     9
100
AcDbVertex
100
AcDb2dVertex
 10
78.81190450605386
 20
156.0187489503654
 30
0.0
  0
VERTEX
  5
588
330
584
100
AcDbEntity
  8
Capa 1
 62
     7
420
 16777215
370
     9
100
AcDbVertex
100
AcDb2dVertex
 10
78.89127964060934
 20
155.6218699132434
 30
0.0
  0
VERTEX
  5
589
330
584
100
AcDbEntity
  8
Capa 1
 62
     7
420
 16777215
370
     9
100
AcDbVertex
100
AcDb2dVertex
 10
78.91773689734244
 20
155.2249976048235
 30
0.0
  0
SEQEND
  5
58A
330
584
100
AcDbEntity
  8
Capa 1
 62
     7
420
 16777215
370
     9
  0
POLYLINE
  5
58B
330
1F
100
AcDbEntity
  8
Capa 1
 62
     7
420
 16777215
370
     9
100
AcDb2dPolyline
 66
     1
 10
0.0
 20
0.0
 30
0.0
  0
VERTEX
  5
58C
330
58B
100
AcDbEntity
  8
Capa 1
 62
     7
420
 16777215
370
     9
100
AcDbVertex
100
AcDb2dVertex
 10
68.30794630992185
 20
165.0410368467033
 30
0.0
  0
VERTEX
  5
58D
330
58B
100
AcDbEntity
  8
Capa 1
 62
     7
420
 16777215
370
     9
100
AcDbVertex
100
AcDb2dVertex
 10
68.30794630992185
 20
165.226237643844
 30
0.0
  0
SEQEND
  5
58E
330
58B
100
AcDbEntity
  8
Capa 1
 62
     7
420
 16777215
370
     9
  0
POLYLINE
  5
58F
330
1F
100
AcDbEntity
  8
Capa 1
 62
     7
420
 16777215
370
     9
100
AcDb2dPolyline
 66
     1
 10
0.0
 20
0.0
 30
0.0
  0
VERTEX
  5
590
330
58F
100
AcDbEntity
  8
Capa 1
 62
     7
420
 16777215
370
     9
100
AcDbVertex
100
AcDb2dVertex
 10
68.49315551793887
 20
165.4114518983889
 30
0.0
  0
VERTEX
  5
591
330
58F
100
AcDbEntity
  8
Capa 1
 62
     7
420
 16777215
370
     9
100
AcDbVertex
100
AcDb2dVertex
 10
68.57252897031753
 20
165.4114518983889
 30
0.0
  0
SEQEND
  5
592
330
58F
100
AcDbEntity
  8
Capa 1
 62
     7
420
 16777215
370
     9
  0
POLYLINE
  5
593
330
1F
100
AcDbEntity
  8
Capa 1
 62
     7
420
 16777215
370
     9
100
AcDb2dPolyline
 66
     1
 10
0.0
 20
0.0
 30
0.0
  0
VERTEX
  5
594
330
593
100
AcDbEntity
  8
Capa 1
 62
     7
420
 16777215
370
     9
100
AcDbVertex
100
AcDb2dVertex
 10
78.09752829506607
 20
165.4114518983889
 30
0.0
  0
VERTEX
  5
595
330
593
100
AcDbEntity
  8
Capa 1
 62
     7
420
 16777215
370
     9
100
AcDbVertex
100
AcDb2dVertex
 10
78.70606875041423
 20
165.4114518983889
 30
0.0
  0
SEQEND
  5
596
330
593
100
AcDbEntity
  8
Capa 1
 62
     7
420
 16777215
370
     9
  0
POLYLINE
  5
597
330
1F
100
AcDbEntity
  8
Capa 1
 62
     7
420
 16777215
370
     9
100
AcDb2dPolyline
 66
     1
 10
0.0
 20
0.0
 30
0.0
  0
VERTEX
  5
598
330
597
100
AcDbEntity
  8
Capa 1
 62
     7
420
 16777215
370
     9
100
AcDbVertex
100
AcDb2dVertex
 10
68.57252897031753
 20
165.4114518983889
 30
0.0
  0
VERTEX
  5
599
330
597
100
AcDbEntity
  8
Capa 1
 62
     7
420
 16777215
370
     9
100
AcDbVertex
100
AcDb2dVertex
 10
76.88044402001871
 20
165.4114518983889
 30
0.0
  0
SEQEND
  5
59A
330
597
100
AcDbEntity
  8
Capa 1
 62
     7
420
 16777215
370
     9
  0
POLYLINE
  5
59B
330
1F
100
AcDbEntity
  8
Capa 1
 62
     7
420
 16777215
370
     9
100
AcDb2dPolyline
 66
     1
 10
0.0
 20
0.0
 30
0.0
  0
VERTEX
  5
59C
330
59B
100
AcDbEntity
  8
Capa 1
 62
     7
420
 16777215
370
     9
100
AcDbVertex
100
AcDb2dVertex
 10
71.48294496338639
 20
161.9454166921428
 30
0.0
  0
VERTEX
  5
59D
330
59B
100
AcDbEntity
  8
Capa 1
 62
     7
420
 16777215
370
     9
100
AcDbVertex
100
AcDb2dVertex
 10
75.71627762279118
 20
160.040413462842
 30
0.0
  0
SEQEND
  5
59E
330
59B
100
AcDbEntity
  8
Capa 1
 62
     7
420
 16777215
370
     9
  0
POLYLINE
  5
59F
330
1F
100
AcDbEntity
  8
Capa 1
 62
     7
420
 16777215
370
     9
100
AcDb2dPolyline
 66
     1
 10
0.0
 20
0.0
 30
0.0
  0
VERTEX
  5
5A0
330
59F
100
AcDbEntity
  8
Capa 1
 62
     7
420
 16777215
370
     9
100
AcDbVertex
100
AcDb2dVertex
 10
68.49315551793887
 20
165.4114518983889
 30
0.0
  0
VERTEX
  5
5A1
330
59F
100
AcDbEntity
  8
Capa 1
 62
     7
420
 16777215
370
     9
100
AcDbVertex
100
AcDb2dVertex
 10
68.36086250556485
 20
165.3585373849214
 30
0.0
  0
VERTEX
  5
5A2
330
59F
100
AcDbEntity
  8
Capa 1
 62
     7
420
 16777215
370
     9
100
AcDbVertex
100
AcDb2dVertex
 10
68.30794630992185
 20
165.226237643844
 30
0.0
  0
SEQEND
  5
5A3
330
59F
100
AcDbEntity
  8
Capa 1
 62
     7
420
 16777215
370
     9
  0
POLYLINE
  5
5A4
330
1F
100
AcDbEntity
  8
Capa 1
 62
     7
420
 16777215
370
     9
100
AcDb2dPolyline
 66
     1
 10
0.0
 20
0.0
 30
0.0
  0
VERTEX
  5
5A5
330
5A4
100
AcDbEntity
  8
Capa 1
 62
     7
420
 16777215
370
     9
100
AcDbVertex
100
AcDb2dVertex
 10
68.30794630992185
 20
165.0410368467033
 30
0.0
  0
VERTEX
  5
5A6
330
5A4
100
AcDbEntity
  8
Capa 1
 62
     7
420
 16777215
370
     9
100
AcDbVertex
100
AcDb2dVertex
 10
68.30794630992185
 20
164.0885419607551
 30
0.0
  0
SEQEND
  5
5A7
330
5A4
100
AcDbEntity
  8
Capa 1
 62
     7
420
 16777215
370
     9
  0
POLYLINE
  5
5A8
330
1F
100
AcDbEntity
  8
Capa 1
 62
     7
420
 16777215
370
     9
100
AcDb2dPolyline
 66
     1
 10
0.0
 20
0.0
 30
0.0
  0
VERTEX
  5
5A9
330
5A8
100
AcDbEntity
  8
Capa 1
 62
     7
420
 16777215
370
     9
100
AcDbVertex
100
AcDb2dVertex
 10
68.54607171358316
 20
163.7974986792727
 30
0.0
  0
VERTEX
  5
5AA
330
5A8
100
AcDbEntity
  8
Capa 1
 62
     7
420
 16777215
370
     9
100
AcDbVertex
100
AcDb2dVertex
 10
68.38732144447476
 20
163.9033277062102
 30
0.0
  0
VERTEX
  5
5AB
330
5A8
100
AcDbEntity
  8
Capa 1
 62
     7
420
 16777215
370
     9
100
AcDbVertex
100
AcDb2dVertex
 10
68.30794630992185
 20
164.0885419607551
 30
0.0
  0
SEQEND
  5
5AC
330
5A8
100
AcDbEntity
  8
Capa 1
 62
     7
420
 16777215
370
     9
  0
POLYLINE
  5
5AD
330
1F
100
AcDbEntity
  8
Capa 1
 62
     7
420
 16777215
370
     9
100
AcDb2dPolyline
 66
     1
 10
0.0
 20
0.0
 30
0.0
  0
VERTEX
  5
5AE
330
5AD
100
AcDbEntity
  8
Capa 1
 62
     7
420
 16777215
370
     9
100
AcDbVertex
100
AcDb2dVertex
 10
74.02294590476968
 20
162.3158317438283
 30
0.0
  0
VERTEX
  5
5AF
330
5AD
100
AcDbEntity
  8
Capa 1
 62
     7
420
 16777215
370
     9
100
AcDbVertex
100
AcDb2dVertex
 10
68.54607171358316
 20
163.7974986792727
 30
0.0
  0
SEQEND
  5
5B0
330
5AD
100
AcDbEntity
  8
Capa 1
 62
     7
420
 16777215
370
     9
  0
POLYLINE
  5
5B1
330
1F
100
AcDbEntity
  8
Capa 1
 62
     7
420
 16777215
370
     9
100
AcDb2dPolyline
 66
     1
 10
0.0
 20
0.0
 30
0.0
  0
VERTEX
  5
5B2
330
5B1
100
AcDbEntity
  8
Capa 1
 62
     7
420
 16777215
370
     9
100
AcDbVertex
100
AcDb2dVertex
 10
74.89606902051482
 20
161.7072879241291
 30
0.0
  0
VERTEX
  5
5B3
330
5B1
100
AcDbEntity
  8
Capa 1
 62
     7
420
 16777215
370
     9
100
AcDbVertex
100
AcDb2dVertex
 10
74.52565396882926
 20
162.0777029758147
 30
0.0
  0
VERTEX
  5
5B4
330
5B1
100
AcDbEntity
  8
Capa 1
 62
     7
420
 16777215
370
     9
100
AcDbVertex
100
AcDb2dVertex
 10
74.02294590476968
 20
162.3158317438283
 30
0.0
  0
SEQEND
  5
5B5
330
5B1
100
AcDbEntity
  8
Capa 1
 62
     7
420
 16777215
370
     9
  0
POLYLINE
  5
5B6
330
1F
100
AcDbEntity
  8
Capa 1
 62
     7
420
 16777215
370
     9
100
AcDb2dPolyline
 66
     1
 10
0.0
 20
0.0
 30
0.0
  0
VERTEX
  5
5B7
330
5B6
100
AcDbEntity
  8
Capa 1
 62
     7
420
 16777215
370
     9
100
AcDbVertex
100
AcDb2dVertex
 10
78.01815316051187
 20
157.3416656167014
 30
0.0
  0
VERTEX
  5
5B8
330
5B6
100
AcDbEntity
  8
Capa 1
 62
     7
420
 16777215
370
     9
100
AcDbVertex
100
AcDb2dVertex
 10
76.98627977565836
 20
158.7968752954114
 30
0.0
  0
VERTEX
  5
5B9
330
5B6
100
AcDbEntity
  8
Capa 1
 62
     7
420
 16777215
370
     9
100
AcDbVertex
100
AcDb2dVertex
 10
75.95440302645378
 20
160.2520782454192
 30
0.0
  0
VERTEX
  5
5BA
330
5B6
100
AcDbEntity
  8
Capa 1
 62
     7
420
 16777215
370
     9
100
AcDbVertex
100
AcDb2dVertex
 10
74.89606902051482
 20
161.7072879241291
 30
0.0
  0
SEQEND
  5
5BB
330
5B6
100
AcDbEntity
  8
Capa 1
 62
     7
420
 16777215
370
     9
  0
POLYLINE
  5
5BC
330
1F
100
AcDbEntity
  8
Capa 1
 62
     7
420
 16777215
370
     9
100
AcDb2dPolyline
 66
     1
 10
0.0
 20
0.0
 30
0.0
  0
VERTEX
  5
5BD
330
5BC
100
AcDbEntity
  8
Capa 1
 62
     7
420
 16777215
370
     9
100
AcDbVertex
100
AcDb2dVertex
 10
78.91773689734244
 20
155.1985403480891
 30
0.0
  0
VERTEX
  5
5BE
330
5BC
100
AcDbEntity
  8
Capa 1
 62
     7
420
 16777215
370
     9
100
AcDbVertex
100
AcDb2dVertex
 10
77.9916959037775
 20
140.4083282503801
 30
0.0
  0
VERTEX
  5
5BF
330
5BC
100
AcDbEntity
  8
Capa 1
 62
     7
420
 16777215
370
     9
100
AcDbVertex
100
AcDb2dVertex
 10
102.3598184753527
 20
140.4083282503801
 30
0.0
  0
SEQEND
  5
5C0
330
5BC
100
AcDbEntity
  8
Capa 1
 62
     7
420
 16777215
370
     9
  0
POLYLINE
  5
5C1
330
1F
100
AcDbEntity
  8
Capa 1
 62
     7
420
 16777215
370
     9
100
AcDb2dPolyline
 66
     1
 10
0.0
 20
0.0
 30
0.0
  0
VERTEX
  5
5C2
330
5C1
100
AcDbEntity
  8
Capa 1
 62
     7
420
 16777215
370
     9
100
AcDbVertex
100
AcDb2dVertex
 10
78.62669361586002
 20
156.4949997576906
 30
0.0
  0
VERTEX
  5
5C3
330
5C1
100
AcDbEntity
  8
Capa 1
 62
     7
420
 16777215
370
     9
100
AcDbVertex
100
AcDb2dVertex
 10
78.41502883328288
 20
156.7860363104709
 30
0.0
  0
VERTEX
  5
5C4
330
5C1
100
AcDbEntity
  8
Capa 1
 62
     7
420
 16777215
370
     9
100
AcDbVertex
100
AcDb2dVertex
 10
78.22982130744138
 20
157.0770795919533
 30
0.0
  0
VERTEX
  5
5C5
330
5C1
100
AcDbEntity
  8
Capa 1
 62
     7
420
 16777215
370
     9
100
AcDbVertex
100
AcDb2dVertex
 10
78.01815316051187
 20
157.3416656167014
 30
0.0
  0
SEQEND
  5
5C6
330
5C1
100
AcDbEntity
  8
Capa 1
 62
     7
420
 16777215
370
     9
  0
POLYLINE
  5
5C7
330
1F
100
AcDbEntity
  8
Capa 1
 62
     7
420
 16777215
370
     9
100
AcDb2dPolyline
 66
     1
 10
0.0
 20
0.0
 30
0.0
  0
VERTEX
  5
5C8
330
5C7
100
AcDbEntity
  8
Capa 1
 62
     7
420
 16777215
370
     9
100
AcDbVertex
100
AcDb2dVertex
 10
78.91773689734244
 20
155.4895836295715
 30
0.0
  0
VERTEX
  5
5C9
330
5C7
100
AcDbEntity
  8
Capa 1
 62
     7
420
 16777215
370
     9
100
AcDbVertex
100
AcDb2dVertex
 10
78.86481901952263
 20
156.0187489503654
 30
0.0
  0
VERTEX
  5
5CA
330
5C7
100
AcDbEntity
  8
Capa 1
 62
     7
420
 16777215
370
     9
100
AcDbVertex
100
AcDb2dVertex
 10
78.62669361586002
 20
156.4949997576906
 30
0.0
  0
SEQEND
  5
5CB
330
5C7
100
AcDbEntity
  8
Capa 1
 62
     7
420
 16777215
370
     9
  0
POLYLINE
  5
5CC
330
1F
100
AcDbEntity
  8
Capa 1
 62
     7
420
 16777215
370
     9
100
AcDb2dPolyline
 66
     1
 10
0.0
 20
0.0
 30
0.0
  0
VERTEX
  5
5CD
330
5CC
100
AcDbEntity
  8
Capa 1
 62
     7
420
 16777215
370
     9
100
AcDbVertex
100
AcDb2dVertex
 10
78.91773689734244
 20
155.1985403480891
 30
0.0
  0
VERTEX
  5
5CE
330
5CC
100
AcDbEntity
  8
Capa 1
 62
     7
420
 16777215
370
     9
100
AcDbVertex
100
AcDb2dVertex
 10
78.91773689734244
 20
155.4895836295715
 30
0.0
  0
SEQEND
  5
5CF
330
5CC
100
AcDbEntity
  8
Capa 1
 62
     7
420
 16777215
370
     9
  0
POLYLINE
  5
5D0
330
1F
100
AcDbEntity
  8
Capa 1
 62
     7
420
 16777215
370
     9
100
AcDb2dPolyline
 66
     1
 10
0.0
 20
0.0
 30
0.0
  0
VERTEX
  5
5D1
330
5D0
100
AcDbEntity
  8
Capa 1
 62
     7
420
 16777215
370
     9
100
AcDbVertex
100
AcDb2dVertex
 10
75.18711230199723
 20
154.8545825531379
 30
0.0
  0
VERTEX
  5
5D2
330
5D0
100
AcDbEntity
  8
Capa 1
 62
     7
420
 16777215
370
     9
100
AcDbVertex
100
AcDb2dVertex
 10
75.18711230199723
 20
148.4781212607698
 30
0.0
  0
SEQEND
  5
5D3
330
5D0
100
AcDbEntity
  8
Capa 1
 62
     7
420
 16777215
370
     9
  0
POLYLINE
  5
5D4
330
1F
100
AcDbEntity
  8
Capa 1
 62
     7
420
 16777215
370
     9
100
AcDb2dPolyline
 66
     1
 10
0.0
 20
0.0
 30
0.0
  0
VERTEX
  5
5D5
330
5D4
100
AcDbEntity
  8
Capa 1
 62
     7
420
 16777215
370
     9
100
AcDbVertex
100
AcDb2dVertex
 10
71.37711257209781
 20
161.9718739488772
 30
0.0
  0
VERTEX
  5
5D6
330
5D4
100
AcDbEntity
  8
Capa 1
 62
     7
420
 16777215
370
     9
100
AcDbVertex
100
AcDb2dVertex
 10
71.53586284120621
 20
161.9718739488772
 30
0.0
  0
VERTEX
  5
5D7
330
5D4
100
AcDbEntity
  8
Capa 1
 62
     7
420
 16777215
370
     9
100
AcDbVertex
100
AcDb2dVertex
 10
71.853363379423
 20
161.9454166921428
 30
0.0
  0
VERTEX
  5
5D8
330
5D4
100
AcDbEntity
  8
Capa 1
 62
     7
420
 16777215
370
     9
100
AcDbVertex
100
AcDb2dVertex
 10
72.51482171259097
 20
161.8924954499719
 30
0.0
  0
VERTEX
  5
5D9
330
5D4
100
AcDbEntity
  8
Capa 1
 62
     7
420
 16777215
370
     9
100
AcDbVertex
100
AcDb2dVertex
 10
73.1498194246735
 20
161.8660381932375
 30
0.0
  0
VERTEX
  5
5DA
330
5D4
100
AcDbEntity
  8
Capa 1
 62
     7
420
 16777215
370
     9
100
AcDbVertex
100
AcDb2dVertex
 10
74.89606902051482
 20
161.7072879241291
 30
0.0
  0
SEQEND
  5
5DB
330
5D4
100
AcDbEntity
  8
Capa 1
 62
     7
420
 16777215
370
     9
  0
POLYLINE
  5
5DC
330
1F
100
AcDbEntity
  8
Capa 1
 62
     7
420
 16777215
370
     9
100
AcDb2dPolyline
 66
     1
 10
0.0
 20
0.0
 30
0.0
  0
VERTEX
  5
5DD
330
5DC
100
AcDbEntity
  8
Capa 1
 62
     7
420
 16777215
370
     9
100
AcDbVertex
100
AcDb2dVertex
 10
76.95981915457291
 20
165.4114518983889
 30
0.0
  0
VERTEX
  5
5DE
330
5DC
100
AcDbEntity
  8
Capa 1
 62
     7
420
 16777215
370
     9
100
AcDbVertex
100
AcDb2dVertex
 10
109.1860665896096
 20
165.4114518983889
 30
0.0
  0
SEQEND
  5
5DF
330
5DC
100
AcDbEntity
  8
Capa 1
 62
     7
420
 16777215
370
     9
  0
POLYLINE
  5
5E0
330
1F
100
AcDbEntity
  8
Capa 1
 62
     7
420
 16777215
370
     9
100
AcDb2dPolyline
 66
     1
 10
0.0
 20
0.0
 30
0.0
  0
VERTEX
  5
5E1
330
5E0
100
AcDbEntity
  8
Capa 1
 62
     7
420
 16777215
370
     9
100
AcDbVertex
100
AcDb2dVertex
 10
100.6400295005968
 20
155.5424981430403
 30
0.0
  0
VERTEX
  5
5E2
330
5E0
100
AcDbEntity
  8
Capa 1
 62
     7
420
 16777215
370
     9
100
AcDbVertex
100
AcDb2dVertex
 10
100.587108258426
 20
155.5424981430403
 30
0.0
  0
VERTEX
  5
5E3
330
5E0
100
AcDbEntity
  8
Capa 1
 62
     7
420
 16777215
370
     9
100
AcDbVertex
100
AcDb2dVertex
 10
100.4812792314884
 20
155.5689553997746
 30
0.0
  0
VERTEX
  5
5E4
330
5E0
100
AcDbEntity
  8
Capa 1
 62
     7
420
 16777215
370
     9
100
AcDbVertex
100
AcDb2dVertex
 10
100.2960649769435
 20
155.5689553997746
 30
0.0
  0
VERTEX
  5
5E5
330
5E0
100
AcDbEntity
  8
Capa 1
 62
     7
420
 16777215
370
     9
100
AcDbVertex
100
AcDb2dVertex
 10
100.057942937632
 20
155.595412656509
 30
0.0
  0
VERTEX
  5
5E6
330
5E0
100
AcDbEntity
  8
Capa 1
 62
     7
420
 16777215
370
     9
100
AcDbVertex
100
AcDb2dVertex
 10
99.74044239941522
 20
155.6218699132434
 30
0.0
  0
VERTEX
  5
5E7
330
5E0
100
AcDbEntity
  8
Capa 1
 62
     7
420
 16777215
370
     9
100
AcDbVertex
100
AcDb2dVertex
 10
99.37002734772966
 20
155.6483338986799
 30
0.0
  0
VERTEX
  5
5E8
330
5E0
100
AcDbEntity
  8
Capa 1
 62
     7
420
 16777215
370
     9
100
AcDbVertex
100
AcDb2dVertex
 10
98.94669105387322
 20
155.7012484121487
 30
0.0
  0
VERTEX
  5
5E9
330
5E0
100
AcDbEntity
  8
Capa 1
 62
     7
420
 16777215
370
     9
100
AcDbVertex
100
AcDb2dVertex
 10
98.44398298981365
 20
155.727705668883
 30
0.0
  0
VERTEX
  5
5EA
330
5E0
100
AcDbEntity
  8
Capa 1
 62
     7
420
 16777215
370
     9
100
AcDbVertex
100
AcDb2dVertex
 10
97.9148176690197
 20
155.7541629256174
 30
0.0
  0
VERTEX
  5
5EB
330
5E0
100
AcDbEntity
  8
Capa 1
 62
     7
420
 16777215
370
     9
100
AcDbVertex
100
AcDb2dVertex
 10
97.35919509149265
 20
155.8070841677883
 30
0.0
  0
VERTEX
  5
5EC
330
5E0
100
AcDbEntity
  8
Capa 1
 62
     7
420
 16777215
370
     9
100
AcDbVertex
100
AcDb2dVertex
 10
96.7506546361445
 20
155.8335414245227
 30
0.0
  0
VERTEX
  5
5ED
330
5E0
100
AcDbEntity
  8
Capa 1
 62
     7
420
 16777215
370
     9
100
AcDbVertex
100
AcDb2dVertex
 10
96.142110816444
 20
155.8864559379914
 30
0.0
  0
VERTEX
  5
5EE
330
5E0
100
AcDbEntity
  8
Capa 1
 62
     7
420
 16777215
370
     9
100
AcDbVertex
100
AcDb2dVertex
 10
95.50711310436148
 20
155.9393704514602
 30
0.0
  0
VERTEX
  5
5EF
330
5E0
100
AcDbEntity
  8
Capa 1
 62
     7
420
 16777215
370
     9
100
AcDbVertex
100
AcDb2dVertex
 10
95.21606982287906
 20
155.9393704514602
 30
0.0
  0
VERTEX
  5
5F0
330
5E0
100
AcDbEntity
  8
Capa 1
 62
     7
420
 16777215
370
     9
100
AcDbVertex
100
AcDb2dVertex
 10
94.89856928466227
 20
155.9658277081946
 30
0.0
  0
SEQEND
  5
5F1
330
5E0
100
AcDbEntity
  8
Capa 1
 62
     7
420
 16777215
370
     9
  0
POLYLINE
  5
5F2
330
1F
100
AcDbEntity
  8
Capa 1
 62
     7
420
 16777215
370
     9
100
AcDb2dPolyline
 66
     1
 10
0.0
 20
0.0
 30
0.0
  0
VERTEX
  5
5F3
330
5F2
100
AcDbEntity
  8
Capa 1
 62
     7
420
 16777215
370
     9
100
AcDbVertex
100
AcDb2dVertex
 10
94.8721120279279
 20
155.9658277081946
 30
0.0
  0
VERTEX
  5
5F4
330
5F2
100
AcDbEntity
  8
Capa 1
 62
     7
420
 16777215
370
     9
100
AcDbVertex
100
AcDb2dVertex
 10
85.90273528070769
 20
155.9393704514602
 30
0.0
  0
SEQEND
  5
5F5
330
5F2
100
AcDbEntity
  8
Capa 1
 62
     7
420
 16777215
370
     9
  0
POLYLINE
  5
5F6
330
1F
100
AcDbEntity
  8
Capa 1
 62
     7
420
 16777215
370
     9
100
AcDb2dPolyline
 66
     1
 10
0.0
 20
0.0
 30
0.0
  0
VERTEX
  5
5F7
330
5F6
100
AcDbEntity
  8
Capa 1
 62
     7
420
 16777215
370
     9
100
AcDbVertex
100
AcDb2dVertex
 10
77.88586351248892
 20
164.6706217950178
 30
0.0
  0
VERTEX
  5
5F8
330
5F6
100
AcDbEntity
  8
Capa 1
 62
     7
420
 16777215
370
     9
100
AcDbVertex
100
AcDb2dVertex
 10
77.78002775684928
 20
164.8558225921585
 30
0.0
  0
VERTEX
  5
5F9
330
5F6
100
AcDbEntity
  8
Capa 1
 62
     7
420
 16777215
370
     9
100
AcDbVertex
100
AcDb2dVertex
 10
77.7535705001149
 20
165.0410368467033
 30
0.0
  0
VERTEX
  5
5FA
330
5F6
100
AcDbEntity
  8
Capa 1
 62
     7
420
 16777215
370
     9
100
AcDbVertex
100
AcDb2dVertex
 10
77.78002775684928
 20
165.226237643844
 30
0.0
  0
VERTEX
  5
5FB
330
5F6
100
AcDbEntity
  8
Capa 1
 62
     7
420
 16777215
370
     9
100
AcDbVertex
100
AcDb2dVertex
 10
77.9123207692233
 20
165.3585373849214
 30
0.0
  0
VERTEX
  5
5FC
330
5F6
100
AcDbEntity
  8
Capa 1
 62
     7
420
 16777215
370
     9
100
AcDbVertex
100
AcDb2dVertex
 10
78.09752829506607
 20
165.4114518983889
 30
0.0
  0
SEQEND
  5
5FD
330
5F6
100
AcDbEntity
  8
Capa 1
 62
     7
420
 16777215
370
     9
  0
POLYLINE
  5
5FE
330
1F
100
AcDbEntity
  8
Capa 1
 62
     7
420
 16777215
370
     9
100
AcDb2dPolyline
 66
     1
 10
0.0
 20
0.0
 30
0.0
  0
VERTEX
  5
5FF
330
5FE
100
AcDbEntity
  8
Capa 1
 62
     7
420
 16777215
370
     9
100
AcDbVertex
100
AcDb2dVertex
 10
77.88586351248892
 20
164.6706217950178
 30
0.0
  0
VERTEX
  5
600
330
5FE
100
AcDbEntity
  8
Capa 1
 62
     7
420
 16777215
370
     9
100
AcDbVertex
100
AcDb2dVertex
 10
77.9123207692233
 20
164.6177072815491
 30
0.0
  0
VERTEX
  5
601
330
5FE
100
AcDbEntity
  8
Capa 1
 62
     7
420
 16777215
370
     9
100
AcDbVertex
100
AcDb2dVertex
 10
79.817320634173
 20
161.6808306673948
 30
0.0
  0
SEQEND
  5
602
330
5FE
100
AcDbEntity
  8
Capa 1
 62
     7
420
 16777215
370
     9
  0
POLYLINE
  5
603
330
1F
100
AcDbEntity
  8
Capa 1
 62
     7
420
 16777215
370
     9
100
AcDb2dPolyline
 66
     1
 10
0.0
 20
0.0
 30
0.0
  0
VERTEX
  5
604
330
603
100
AcDbEntity
  8
Capa 1
 62
     7
420
 16777215
370
     9
100
AcDbVertex
100
AcDb2dVertex
 10
82.56898635813346
 20
157.5533303992785
 30
0.0
  0
VERTEX
  5
605
330
603
100
AcDbEntity
  8
Capa 1
 62
     7
420
 16777215
370
     9
100
AcDbVertex
100
AcDb2dVertex
 10
82.91294415308464
 20
157.0770795919533
 30
0.0
  0
VERTEX
  5
606
330
603
100
AcDbEntity
  8
Capa 1
 62
     7
420
 16777215
370
     9
100
AcDbVertex
100
AcDb2dVertex
 10
83.33627708259
 20
156.653750026799
 30
0.0
  0
SEQEND
  5
607
330
603
100
AcDbEntity
  8
Capa 1
 62
     7
420
 16777215
370
     9
  0
POLYLINE
  5
608
330
1F
100
AcDbEntity
  8
Capa 1
 62
     7
420
 16777215
370
     9
100
AcDb2dPolyline
 66
     1
 10
0.0
 20
0.0
 30
0.0
  0
VERTEX
  5
609
330
608
100
AcDbEntity
  8
Capa 1
 62
     7
420
 16777215
370
     9
100
AcDbVertex
100
AcDb2dVertex
 10
83.33627708259
 20
156.653750026799
 30
0.0
  0
VERTEX
  5
60A
330
608
100
AcDbEntity
  8
Capa 1
 62
     7
420
 16777215
370
     9
100
AcDbVertex
100
AcDb2dVertex
 10
84.89731915258854
 20
155.1985403480891
 30
0.0
  0
SEQEND
  5
60B
330
608
100
AcDbEntity
  8
Capa 1
 62
     7
420
 16777215
370
     9
  0
POLYLINE
  5
60C
330
1F
100
AcDbEntity
  8
Capa 1
 62
     7
420
 16777215
370
     9
100
AcDb2dPolyline
 66
     1
 10
0.0
 20
0.0
 30
0.0
  0
VERTEX
  5
60D
330
60C
100
AcDbEntity
  8
Capa 1
 62
     7
420
 16777215
370
     9
100
AcDbVertex
100
AcDb2dVertex
 10
79.817320634173
 20
161.6808306673948
 30
0.0
  0
VERTEX
  5
60E
330
60C
100
AcDbEntity
  8
Capa 1
 62
     7
420
 16777215
370
     9
100
AcDbVertex
100
AcDb2dVertex
 10
82.56898635813346
 20
157.5533303992785
 30
0.0
  0
SEQEND
  5
60F
330
60C
100
AcDbEntity
  8
Capa 1
 62
     7
420
 16777215
370
     9
  0
POLYLINE
  5
610
330
1F
100
AcDbEntity
  8
Capa 1
 62
     7
420
 16777215
370
     9
100
AcDb2dPolyline
 66
     1
 10
0.0
 20
0.0
 30
0.0
  0
VERTEX
  5
611
330
610
100
AcDbEntity
  8
Capa 1
 62
     7
420
 16777215
370
     9
100
AcDbVertex
100
AcDb2dVertex
 10
115.3773203561349
 20
141.5460373908733
 30
0.0
  0
VERTEX
  5
612
330
610
100
AcDbEntity
  8
Capa 1
 62
     7
420
 16777215
370
     9
100
AcDbVertex
100
AcDb2dVertex
 10
115.3773203561349
 20
151.3620833614553
 30
0.0
  0
SEQEND
  5
613
330
610
100
AcDbEntity
  8
Capa 1
 62
     7
420
 16777215
370
     9
  0
POLYLINE
  5
614
330
1F
100
AcDbEntity
  8
Capa 1
 62
     7
420
 16777215
370
     9
100
AcDb2dPolyline
 66
     1
 10
0.0
 20
0.0
 30
0.0
  0
VERTEX
  5
615
330
614
100
AcDbEntity
  8
Capa 1
 62
     7
420
 16777215
370
     9
100
AcDbVertex
100
AcDb2dVertex
 10
115.3773203561349
 20
164.3002067433322
 30
0.0
  0
VERTEX
  5
616
330
614
100
AcDbEntity
  8
Capa 1
 62
     7
420
 16777215
370
     9
100
AcDbVertex
100
AcDb2dVertex
 10
115.3773203561349
 20
154.4841675014524
 30
0.0
  0
SEQEND
  5
617
330
614
100
AcDbEntity
  8
Capa 1
 62
     7
420
 16777215
370
     9
  0
POLYLINE
  5
618
330
1F
100
AcDbEntity
  8
Capa 1
 62
     7
420
 16777215
370
     9
100
AcDb2dPolyline
 66
     1
 10
0.0
 20
0.0
 30
0.0
  0
VERTEX
  5
619
330
618
100
AcDbEntity
  8
Capa 1
 62
     7
420
 16777215
370
     9
100
AcDbVertex
100
AcDb2dVertex
 10
103.3123200900031
 20
140.4083282503801
 30
0.0
  0
VERTEX
  5
61A
330
618
100
AcDbEntity
  8
Capa 1
 62
     7
420
 16777215
370
     9
100
AcDbVertex
100
AcDb2dVertex
 10
116.0123147038664
 20
140.4083282503801
 30
0.0
  0
SEQEND
  5
61B
330
618
100
AcDbEntity
  8
Capa 1
 62
     7
420
 16777215
370
     9
  0
POLYLINE
  5
61C
330
1F
100
AcDbEntity
  8
Capa 1
 62
     7
420
 16777215
370
     9
100
AcDb2dPolyline
 66
     1
 10
0.0
 20
0.0
 30
0.0
  0
VERTEX
  5
61D
330
61C
100
AcDbEntity
  8
Capa 1
 62
     7
420
 16777215
370
     9
100
AcDbVertex
100
AcDb2dVertex
 10
110.1121109475256
 20
165.4114518983889
 30
0.0
  0
VERTEX
  5
61E
330
61C
100
AcDbEntity
  8
Capa 1
 62
     7
420
 16777215
370
     9
100
AcDbVertex
100
AcDb2dVertex
 10
116.0123147038664
 20
165.4114518983889
 30
0.0
  0
SEQEND
  5
61F
330
61C
100
AcDbEntity
  8
Capa 1
 62
     7
420
 16777215
370
     9
  0
POLYLINE
  5
620
330
1F
100
AcDbEntity
  8
Capa 1
370
     0
100
AcDb2dPolyline
 66
     1
 10
0.0
 20
0.0
 30
0.0
  0
VERTEX
  5
621
330
620
100
AcDbEntity
  8
Capa 1
370
     0
100
AcDbVertex
100
AcDb2dVertex
 10
115.19210610159
 20
164.3002067433322
 30
0.0
  0
VERTEX
  5
622
330
620
100
AcDbEntity
  8
Capa 1
370
     0
100
AcDbVertex
100
AcDb2dVertex
 10
115.5625278819777
 20
164.3002067433322
 30
0.0
  0
VERTEX
  5
623
330
620
100
AcDbEntity
  8
Capa 1
370
     0
100
AcDbVertex
100
AcDb2dVertex
 10
115.3773203561349
 20
165.4114518983889
 30
0.0
  0
SEQEND
  5
625
330
620
100
AcDbEntity
  8
Capa 1
370
     0
  0
HATCH
  5
624
330
1F
100
AcDbEntity
  8
Capa 1
 62
     7
420
 16777215
100
AcDbHatch
 10
0.0
 20
0.0
 30
0.0
210
0.0
220
0.0
230
1.0
  2
SOLID
 70
     1
 71
     0
 91
        1
 92
        1
 93
        3
 72
     1
 10
115.19210610159
 20
164.3002067433322
 11
115.5625278819777
 21
164.3002067433322
 72
     1
 10
115.5625278819777
 20
164.3002067433322
 11
115.3773203561349
 21
165.4114518983889
 72
     1
 10
115.3773203561349
 20
165.4114518983889
 11
115.19210610159
 21
164.3002067433323
 97
        0
 75
     0
 76
     1
 98
        0
  0
POLYLINE
  5
626
330
1F
100
AcDbEntity
  8
Capa 1
370
     0
100
AcDb2dPolyline
 66
     1
 10
0.0
 20
0.0
 30
0.0
  0
VERTEX
  5
627
330
626
100
AcDbEntity
  8
Capa 1
370
     0
100
AcDbVertex
100
AcDb2dVertex
 10
115.19210610159
 20
141.5460373908733
 30
0.0
  0
VERTEX
  5
628
330
626
100
AcDbEntity
  8
Capa 1
370
     0
100
AcDbVertex
100
AcDb2dVertex
 10
115.5625278819777
 20
141.5460373908733
 30
0.0
  0
VERTEX
  5
629
330
626
100
AcDbEntity
  8
Capa 1
370
     0
100
AcDbVertex
100
AcDb2dVertex
 10
115.3773203561349
 20
140.4083282503801
 30
0.0
  0
SEQEND
  5
62B
330
626
100
AcDbEntity
  8
Capa 1
370
     0
  0
HATCH
  5
62A
330
1F
100
AcDbEntity
  8
Capa 1
 62
     7
420
 16777215
100
AcDbHatch
 10
0.0
 20
0.0
 30
0.0
210
0.0
220
0.0
230
1.0
  2
SOLID
 70
     1
 71
     0
 91
        1
 92
        1
 93
        3
 72
     1
 10
115.19210610159
 20
141.5460373908733
 11
115.5625278819777
 21
141.5460373908733
 72
     1
 10
115.5625278819777
 20
141.5460373908733
 11
115.3773203561349
 21
140.4083282503801
 72
     1
 10
115.3773203561349
 20
140.4083282503801
 11
115.19210610159
 21
141.5460373908733
 97
        0
 75
     0
 76
     1
 98
        0
  0
POLYLINE
  5
62C
330
1F
100
AcDbEntity
  8
Capa 1
 62
     7
420
 16777215
370
     9
100
AcDb2dPolyline
 66
     1
 10
0.0
 20
0.0
 30
0.0
  0
VERTEX
  5
62D
330
62C
100
AcDbEntity
  8
Capa 1
 62
     7
420
 16777215
370
     9
100
AcDbVertex
100
AcDb2dVertex
 10
80.18773568585856
 20
134.9579180446301
 30
0.0
  0
VERTEX
  5
62E
330
62C
100
AcDbEntity
  8
Capa 1
 62
     7
420
 16777215
370
     9
100
AcDbVertex
100
AcDb2dVertex
 10
100.190235950006
 20
134.9579180446301
 30
0.0
  0
SEQEND
  5
62F
330
62C
100
AcDbEntity
  8
Capa 1
 62
     7
420
 16777215
370
     9
  0
POLYLINE
  5
630
330
1F
100
AcDbEntity
  8
Capa 1
 62
     7
420
 16777215
370
     9
100
AcDb2dPolyline
 66
     1
 10
0.0
 20
0.0
 30
0.0
  0
VERTEX
  5
631
330
630
100
AcDbEntity
  8
Capa 1
 62
     7
420
 16777215
370
     9
100
AcDbVertex
100
AcDb2dVertex
 10
102.3598184753527
 20
140.4083282503801
 30
0.0
  0
VERTEX
  5
632
330
630
100
AcDbEntity
  8
Capa 1
 62
     7
420
 16777215
370
     9
100
AcDbVertex
100
AcDb2dVertex
 10
102.3598184753527
 20
134.0318736867141
 30
0.0
  0
SEQEND
  5
633
330
630
100
AcDbEntity
  8
Capa 1
 62
     7
420
 16777215
370
     9
  0
POLYLINE
  5
634
330
1F
100
AcDbEntity
  8
Capa 1
 62
     7
420
 16777215
370
     9
100
AcDb2dPolyline
 66
     1
 10
0.0
 20
0.0
 30
0.0
  0
VERTEX
  5
635
330
634
100
AcDbEntity
  8
Capa 1
 62
     7
420
 16777215
370
     9
100
AcDbVertex
100
AcDb2dVertex
 10
77.9916959037775
 20
140.4083282503801
 30
0.0
  0
VERTEX
  5
636
330
634
100
AcDbEntity
  8
Capa 1
 62
     7
420
 16777215
370
     9
100
AcDbVertex
100
AcDb2dVertex
 10
77.9916959037775
 20
134.0318736867141
 30
0.0
  0
SEQEND
  5
637
330
634
100
AcDbEntity
  8
Capa 1
 62
     7
420
 16777215
370
     9
  0
POLYLINE
  5
638
330
1F
100
AcDbEntity
  8
Capa 1
370
     0
100
AcDb2dPolyline
 66
     1
 10
0.0
 20
0.0
 30
0.0
  0
VERTEX
  5
639
330
638
100
AcDbEntity
  8
Capa 1
370
     0
100
AcDbVertex
100
AcDb2dVertex
 10
80.18773568585856
 20
135.3283330963156
 30
0.0
  0
VERTEX
  5
63A
330
638
100
AcDbEntity
  8
Capa 1
370
     0
100
AcDbVertex
100
AcDb2dVertex
 10
80.18773568585856
 20
134.6139535209768
 30
0.0
  0
VERTEX
  5
63B
330
638
100
AcDbEntity
  8
Capa 1
370
     0
100
AcDbVertex
100
AcDb2dVertex
 10
77.9916959037775
 20
134.9579180446301
 30
0.0
  0
SEQEND
  5
63D
330
638
100
AcDbEntity
  8
Capa 1
370
     0
  0
HATCH
  5
63C
330
1F
100
AcDbEntity
  8
Capa 1
 62
     7
420
 16777215
100
AcDbHatch
 10
0.0
 20
0.0
 30
0.0
210
0.0
220
0.0
230
1.0
  2
SOLID
 70
     1
 71
     0
 91
        1
 92
        1
 93
        3
 72
     1
 10
80.18773568585856
 20
135.3283330963156
 11
80.18773568585856
 21
134.6139535209768
 72
     1
 10
80.18773568585856
 20
134.6139535209768
 11
77.9916959037775
 21
134.9579180446301
 72
     1
 10
77.9916959037775
 20
134.9579180446301
 11
80.18773568585856
 21
135.3283330963156
 97
        0
 75
     0
 76
     1
 98
        0
  0
POLYLINE
  5
63E
330
1F
100
AcDbEntity
  8
Capa 1
370
     0
100
AcDb2dPolyline
 66
     1
 10
0.0
 20
0.0
 30
0.0
  0
VERTEX
  5
63F
330
63E
100
AcDbEntity
  8
Capa 1
370
     0
100
AcDbVertex
100
AcDb2dVertex
 10
100.190235950006
 20
135.3283330963156
 30
0.0
  0
VERTEX
  5
640
330
63E
100
AcDbEntity
  8
Capa 1
370
     0
100
AcDbVertex
100
AcDb2dVertex
 10
100.190235950006
 20
134.6139535209768
 30
0.0
  0
VERTEX
  5
641
330
63E
100
AcDbEntity
  8
Capa 1
370
     0
100
AcDbVertex
100
AcDb2dVertex
 10
102.3598184753527
 20
134.9579180446301
 30
0.0
  0
SEQEND
  5
643
330
63E
100
AcDbEntity
  8
Capa 1
370
     0
  0
HATCH
  5
642
330
1F
100
AcDbEntity
  8
Capa 1
 62
     7
420
 16777215
100
AcDbHatch
 10
0.0
 20
0.0
 30
0.0
210
0.0
220
0.0
230
1.0
  2
SOLID
 70
     1
 71
     0
 91
        1
 92
        1
 93
        3
 72
     1
 10
100.190235950006
 20
135.3283330963156
 11
100.190235950006
 21
134.6139535209768
 72
     1
 10
100.190235950006
 20
134.6139535209768
 11
102.3598184753527
 21
134.9579180446301
 72
     1
 10
102.3598184753527
 20
134.9579180446301
 11
100.190235950006
 21
135.3283330963156
 97
        0
 75
     0
 76
     1
 98
        0
  0
POLYLINE
  5
644
330
1F
100
AcDbEntity
  8
Capa 1
 62
     7
420
 16777215
370
     9
100
AcDb2dPolyline
 66
     1
 10
0.0
 20
0.0
 30
0.0
  0
VERTEX
  5
645
330
644
100
AcDbEntity
  8
Capa 1
 62
     7
420
 16777215
370
     9
100
AcDbVertex
100
AcDb2dVertex
 10
75.18711230199723
 20
157.5004158858098
 30
0.0
  0
VERTEX
  5
646
330
644
100
AcDbEntity
  8
Capa 1
 62
     7
420
 16777215
370
     9
100
AcDbVertex
100
AcDb2dVertex
 10
74.20815343061375
 20
157.5004158858098
 30
0.0
  0
SEQEND
  5
647
330
644
100
AcDbEntity
  8
Capa 1
 62
     7
420
 16777215
370
     9
  0
POLYLINE
  5
648
330
1F
100
AcDbEntity
  8
Capa 1
 62
     7
420
 16777215
370
     9
100
AcDb2dPolyline
 66
     1
 10
0.0
 20
0.0
 30
0.0
  0
VERTEX
  5
649
330
648
100
AcDbEntity
  8
Capa 1
 62
     7
420
 16777215
370
     9
100
AcDbVertex
100
AcDb2dVertex
 10
68.30794630992185
 20
157.5004158858098
 30
0.0
  0
VERTEX
  5
64A
330
648
100
AcDbEntity
  8
Capa 1
 62
     7
420
 16777215
370
     9
100
AcDbVertex
100
AcDb2dVertex
 10
69.28690518130533
 20
157.5004158858098
 30
0.0
  0
SEQEND
  5
64B
330
648
100
AcDbEntity
  8
Capa 1
 62
     7
420
 16777215
370
     9
  0
POLYLINE
  5
64C
330
1F
100
AcDbEntity
  8
Capa 1
 62
     7
420
 16777215
370
     9
100
AcDb2dPolyline
 66
     1
 10
0.0
 20
0.0
 30
0.0
  0
VERTEX
  5
64D
330
64C
100
AcDbEntity
  8
Capa 1
 62
     7
420
 16777215
370
     9
100
AcDbVertex
100
AcDb2dVertex
 10
76.32482144249039
 20
157.5004158858098
 30
0.0
  0
VERTEX
  5
64E
330
64C
100
AcDbEntity
  8
Capa 1
 62
     7
420
 16777215
370
     9
100
AcDbVertex
100
AcDb2dVertex
 10
77.43606996189811
 20
157.5004158858098
 30
0.0
  0
SEQEND
  5
64F
330
64C
100
AcDbEntity
  8
Capa 1
 62
     7
420
 16777215
370
     9
  0
POLYLINE
  5
650
330
1F
100
AcDbEntity
  8
Capa 1
 62
     7
420
 16777215
370
     9
100
AcDb2dPolyline
 66
     1
 10
0.0
 20
0.0
 30
0.0
  0
VERTEX
  5
651
330
650
100
AcDbEntity
  8
Capa 1
 62
     7
420
 16777215
370
     9
100
AcDbVertex
100
AcDb2dVertex
 10
67.19659013127892
 20
157.5004158858098
 30
0.0
  0
VERTEX
  5
652
330
650
100
AcDbEntity
  8
Capa 1
 62
     7
420
 16777215
370
     9
100
AcDbVertex
100
AcDb2dVertex
 10
66.05888099078577
 20
157.5004158858098
 30
0.0
  0
SEQEND
  5
653
330
650
100
AcDbEntity
  8
Capa 1
 62
     7
420
 16777215
370
     9
  0
POLYLINE
  5
654
330
1F
100
AcDbEntity
  8
Capa 1
 62
     7
420
 16777215
370
     9
100
AcDb2dPolyline
 66
     1
 10
0.0
 20
0.0
 30
0.0
  0
VERTEX
  5
655
330
654
100
AcDbEntity
  8
Capa 1
 62
     7
420
 16777215
370
     9
100
AcDbVertex
100
AcDb2dVertex
 10
75.18711230199723
 20
155.8070841677883
 30
0.0
  0
VERTEX
  5
656
330
654
100
AcDbEntity
  8
Capa 1
 62
     7
420
 16777215
370
     9
100
AcDbVertex
100
AcDb2dVertex
 10
75.18711230199723
 20
158.1354169622434
 30
0.0
  0
SEQEND
  5
657
330
654
100
AcDbEntity
  8
Capa 1
 62
     7
420
 16777215
370
     9
  0
POLYLINE
  5
658
330
1F
100
AcDbEntity
  8
Capa 1
 62
     7
420
 16777215
370
     9
100
AcDb2dPolyline
 66
     1
 10
0.0
 20
0.0
 30
0.0
  0
VERTEX
  5
659
330
658
100
AcDbEntity
  8
Capa 1
 62
     7
420
 16777215
370
     9
100
AcDbVertex
100
AcDb2dVertex
 10
68.30794630992185
 20
164.7235363084866
 30
0.0
  0
VERTEX
  5
65A
330
658
100
AcDbEntity
  8
Capa 1
 62
     7
420
 16777215
370
     9
100
AcDbVertex
100
AcDb2dVertex
 10
68.30794630992185
 20
156.8918720661106
 30
0.0
  0
SEQEND
  5
65B
330
658
100
AcDbEntity
  8
Capa 1
 62
     7
420
 16777215
370
     9
  0
POLYLINE
  5
65C
330
1F
100
AcDbEntity
  8
Capa 1
370
     0
100
AcDb2dPolyline
 66
     1
 10
0.0
 20
0.0
 30
0.0
  0
VERTEX
  5
65D
330
65C
100
AcDbEntity
  8
Capa 1
370
     0
100
AcDbVertex
100
AcDb2dVertex
 10
67.19659013127892
 20
157.6856234116526
 30
0.0
  0
VERTEX
  5
65E
330
65C
100
AcDbEntity
  8
Capa 1
370
     0
100
AcDbVertex
100
AcDb2dVertex
 10
67.19659013127892
 20
157.315208359967
 30
0.0
  0
VERTEX
  5
65F
330
65C
100
AcDbEntity
  8
Capa 1
370
     0
100
AcDbVertex
100
AcDb2dVertex
 10
68.30794630992185
 20
157.5004158858098
 30
0.0
  0
SEQEND
  5
661
330
65C
100
AcDbEntity
  8
Capa 1
370
     0
  0
HATCH
  5
660
330
1F
100
AcDbEntity
  8
Capa 1
 62
     7
420
 16777215
100
AcDbHatch
 10
0.0
 20
0.0
 30
0.0
210
0.0
220
0.0
230
1.0
  2
SOLID
 70
     1
 71
     0
 91
        1
 92
        1
 93
        3
 72
     1
 10
67.19659013127892
 20
157.6856234116526
 11
67.19659013127892
 21
157.315208359967
 72
     1
 10
67.19659013127892
 20
157.315208359967
 11
68.30794630992185
 21
157.5004158858098
 72
     1
 10
68.30794630992185
 20
157.5004158858098
 11
67.19659013127892
 21
157.6856234116526
 97
        0
 75
     0
 76
     1
 98
        0
  0
POLYLINE
  5
662
330
1F
100
AcDbEntity
  8
Capa 1
370
     0
100
AcDb2dPolyline
 66
     1
 10
0.0
 20
0.0
 30
0.0
  0
VERTEX
  5
663
330
662
100
AcDbEntity
  8
Capa 1
370
     0
100
AcDbVertex
100
AcDb2dVertex
 10
76.32482144249039
 20
157.6856234116526
 30
0.0
  0
VERTEX
  5
664
330
662
100
AcDbEntity
  8
Capa 1
370
     0
100
AcDbVertex
100
AcDb2dVertex
 10
76.32482144249039
 20
157.315208359967
 30
0.0
  0
VERTEX
  5
665
330
662
100
AcDbEntity
  8
Capa 1
370
     0
100
AcDbVertex
100
AcDb2dVertex
 10
75.18711230199723
 20
157.5004158858098
 30
0.0
  0
SEQEND
  5
667
330
662
100
AcDbEntity
  8
Capa 1
370
     0
  0
HATCH
  5
666
330
1F
100
AcDbEntity
  8
Capa 1
 62
     7
420
 16777215
100
AcDbHatch
 10
0.0
 20
0.0
 30
0.0
210
0.0
220
0.0
230
1.0
  2
SOLID
 70
     1
 71
     0
 91
        1
 92
        1
 93
        3
 72
     1
 10
76.32482144249039
 20
157.6856234116526
 11
76.32482144249039
 21
157.315208359967
 72
     1
 10
76.32482144249039
 20
157.315208359967
 11
75.18711230199723
 21
157.5004158858098
 72
     1
 10
75.18711230199723
 20
157.5004158858098
 11
76.32482144249039
 21
157.6856234116526
 97
        0
 75
     0
 76
     1
 98
        0
  0
POLYLINE
  5
668
330
1F
100
AcDbEntity
  8
Capa 1
 62
     7
420
 16777215
370
     9
100
AcDb2dPolyline
 66
     1
 10
0.0
 20
0.0
 30
0.0
  0
VERTEX
  5
669
330
668
100
AcDbEntity
  8
Capa 1
 62
     7
420
 16777215
370
     9
100
AcDbVertex
100
AcDb2dVertex
 10
78.0710710383317
 20
151.6002054007668
 30
0.0
  0
VERTEX
  5
66A
330
668
100
AcDbEntity
  8
Capa 1
 62
     7
420
 16777215
370
     9
100
AcDbVertex
100
AcDb2dVertex
 10
78.30919644199429
 20
151.6002054007668
 30
0.0
  0
SEQEND
  5
66B
330
668
100
AcDbEntity
  8
Capa 1
 62
     7
420
 16777215
370
     9
  0
POLYLINE
  5
66C
330
1F
100
AcDbEntity
  8
Capa 1
 62
     7
420
 16777215
370
     9
100
AcDb2dPolyline
 66
     1
 10
0.0
 20
0.0
 30
0.0
  0
VERTEX
  5
66D
330
66C
100
AcDbEntity
  8
Capa 1
 62
     7
420
 16777215
370
     9
100
AcDbVertex
100
AcDb2dVertex
 10
76.66877923744156
 20
151.6002054007668
 30
0.0
  0
VERTEX
  5
66E
330
66C
100
AcDbEntity
  8
Capa 1
 62
     7
420
 16777215
370
     9
100
AcDbVertex
100
AcDb2dVertex
 10
77.8329456346691
 20
151.6002054007668
 30
0.0
  0
SEQEND
  5
66F
330
66C
100
AcDbEntity
  8
Capa 1
 62
     7
420
 16777215
370
     9
  0
POLYLINE
  5
670
330
1F
100
AcDbEntity
  8
Capa 1
 62
     7
420
 16777215
370
     9
100
AcDb2dPolyline
 66
     1
 10
0.0
 20
0.0
 30
0.0
  0
VERTEX
  5
671
330
670
100
AcDbEntity
  8
Capa 1
 62
     7
420
 16777215
370
     9
100
AcDbVertex
100
AcDb2dVertex
 10
76.19252843011765
 20
151.6002054007668
 30
0.0
  0
VERTEX
  5
672
330
670
100
AcDbEntity
  8
Capa 1
 62
     7
420
 16777215
370
     9
100
AcDbVertex
100
AcDb2dVertex
 10
76.43065383377896
 20
151.6002054007668
 30
0.0
  0
SEQEND
  5
673
330
670
100
AcDbEntity
  8
Capa 1
 62
     7
420
 16777215
370
     9
  0
POLYLINE
  5
674
330
1F
100
AcDbEntity
  8
Capa 1
 62
     7
420
 16777215
370
     9
100
AcDb2dPolyline
 66
     1
 10
0.0
 20
0.0
 30
0.0
  0
VERTEX
  5
675
330
674
100
AcDbEntity
  8
Capa 1
 62
     7
420
 16777215
370
     9
100
AcDbVertex
100
AcDb2dVertex
 10
74.65794698120327
 20
151.6002054007668
 30
0.0
  0
VERTEX
  5
676
330
674
100
AcDbEntity
  8
Capa 1
 62
     7
420
 16777215
370
     9
100
AcDbVertex
100
AcDb2dVertex
 10
75.95440302645378
 20
151.6002054007668
 30
0.0
  0
SEQEND
  5
677
330
674
100
AcDbEntity
  8
Capa 1
 62
     7
420
 16777215
370
     9
  0
POLYLINE
  5
678
330
1F
100
AcDbEntity
  8
Capa 1
 62
     7
420
 16777215
370
     9
100
AcDb2dPolyline
 66
     1
 10
0.0
 20
0.0
 30
0.0
  0
VERTEX
  5
679
330
678
100
AcDbEntity
  8
Capa 1
 62
     7
420
 16777215
370
     9
100
AcDbVertex
100
AcDb2dVertex
 10
78.54732184565688
 20
151.6002054007668
 30
0.0
  0
VERTEX
  5
67A
330
678
100
AcDbEntity
  8
Capa 1
 62
     7
420
 16777215
370
     9
100
AcDbVertex
100
AcDb2dVertex
 10
79.84377789090739
 20
151.6002054007668
 30
0.0
  0
SEQEND
  5
67B
330
678
100
AcDbEntity
  8
Capa 1
 62
     7
420
 16777215
370
     9
  0
POLYLINE
  5
67C
330
1F
100
AcDbEntity
  8
Capa 1
 62
     7
420
 16777215
370
     9
100
AcDb2dPolyline
 66
     1
 10
0.0
 20
0.0
 30
0.0
  0
VERTEX
  5
67D
330
67C
100
AcDbEntity
  8
Capa 1
 62
     7
420
 16777215
370
     9
100
AcDbVertex
100
AcDb2dVertex
 10
62.11658993068787
 20
182.741654844428
 30
0.0
  0
VERTEX
  5
67E
330
67C
100
AcDbEntity
  8
Capa 1
 62
     7
420
 16777215
370
     9
100
AcDbVertex
100
AcDb2dVertex
 10
62.11658993068787
 20
163.691662923633
 30
0.0
  0
SEQEND
  5
67F
330
67C
100
AcDbEntity
  8
Capa 1
 62
     7
420
 16777215
370
     9
  0
POLYLINE
  5
680
330
1F
100
AcDbEntity
  8
Capa 1
 62
     7
420
 16777215
370
     9
100
AcDb2dPolyline
 66
     1
 10
0.0
 20
0.0
 30
0.0
  0
VERTEX
  5
681
330
680
100
AcDbEntity
  8
Capa 1
 62
     7
420
 16777215
370
     9
100
AcDbVertex
100
AcDb2dVertex
 10
62.11658993068787
 20
141.5460373908733
 30
0.0
  0
VERTEX
  5
682
330
680
100
AcDbEntity
  8
Capa 1
 62
     7
420
 16777215
370
     9
100
AcDbVertex
100
AcDb2dVertex
 10
62.11658993068787
 20
160.569578783636
 30
0.0
  0
SEQEND
  5
683
330
680
100
AcDbEntity
  8
Capa 1
 62
     7
420
 16777215
370
     9
  0
POLYLINE
  5
684
330
1F
100
AcDbEntity
  8
Capa 1
 62
     7
420
 16777215
370
     9
100
AcDb2dPolyline
 66
     1
 10
0.0
 20
0.0
 30
0.0
  0
VERTEX
  5
685
330
684
100
AcDbEntity
  8
Capa 1
 62
     7
420
 16777215
370
     9
100
AcDbVertex
100
AcDb2dVertex
 10
67.35534040038732
 20
183.8529134568889
 30
0.0
  0
VERTEX
  5
686
330
684
100
AcDbEntity
  8
Capa 1
 62
     7
420
 16777215
370
     9
100
AcDbVertex
100
AcDb2dVertex
 10
61.48159053643109
 20
183.8529134568889
 30
0.0
  0
SEQEND
  5
687
330
684
100
AcDbEntity
  8
Capa 1
 62
     7
420
 16777215
370
     9
  0
POLYLINE
  5
688
330
1F
100
AcDbEntity
  8
Capa 1
 62
     7
420
 16777215
370
     9
100
AcDb2dPolyline
 66
     1
 10
0.0
 20
0.0
 30
0.0
  0
VERTEX
  5
689
330
688
100
AcDbEntity
  8
Capa 1
 62
     7
420
 16777215
370
     9
100
AcDbVertex
100
AcDb2dVertex
 10
77.06565491021256
 20
140.4083282503801
 30
0.0
  0
VERTEX
  5
68A
330
688
100
AcDbEntity
  8
Capa 1
 62
     7
420
 16777215
370
     9
100
AcDbVertex
100
AcDb2dVertex
 10
61.48159053643109
 20
140.4083282503801
 30
0.0
  0
SEQEND
  5
68B
330
688
100
AcDbEntity
  8
Capa 1
 62
     7
420
 16777215
370
     9
  0
POLYLINE
  5
68C
330
1F
100
AcDbEntity
  8
Capa 1
370
     0
100
AcDb2dPolyline
 66
     1
 10
0.0
 20
0.0
 30
0.0
  0
VERTEX
  5
68D
330
68C
100
AcDbEntity
  8
Capa 1
370
     0
100
AcDbVertex
100
AcDb2dVertex
 10
61.93138240484509
 20
141.5460373908733
 30
0.0
  0
VERTEX
  5
68E
330
68C
100
AcDbEntity
  8
Capa 1
370
     0
100
AcDbVertex
100
AcDb2dVertex
 10
62.30179745653064
 20
141.5460373908733
 30
0.0
  0
VERTEX
  5
68F
330
68C
100
AcDbEntity
  8
Capa 1
370
     0
100
AcDbVertex
100
AcDb2dVertex
 10
62.11658993068787
 20
140.4083282503801
 30
0.0
  0
SEQEND
  5
691
330
68C
100
AcDbEntity
  8
Capa 1
370
     0
  0
HATCH
  5
690
330
1F
100
AcDbEntity
  8
Capa 1
 62
     7
420
 16777215
100
AcDbHatch
 10
0.0
 20
0.0
 30
0.0
210
0.0
220
0.0
230
1.0
  2
SOLID
 70
     1
 71
     0
 91
        1
 92
        1
 93
        3
 72
     1
 10
61.93138240484509
 20
141.5460373908733
 11
62.30179745653064
 21
141.5460373908733
 72
     1
 10
62.30179745653064
 20
141.5460373908733
 11
62.11658993068786
 21
140.4083282503801
 72
     1
 10
62.11658993068787
 20
140.4083282503801
 11
61.93138240484509
 21
141.5460373908733
 97
        0
 75
     0
 76
     1
 98
        0
  0
POLYLINE
  5
692
330
1F
100
AcDbEntity
  8
Capa 1
370
     0
100
AcDb2dPolyline
 66
     1
 10
0.0
 20
0.0
 30
0.0
  0
VERTEX
  5
693
330
692
100
AcDbEntity
  8
Capa 1
370
     0
100
AcDbVertex
100
AcDb2dVertex
 10
61.93138240484509
 20
182.741654844428
 30
0.0
  0
VERTEX
  5
694
330
692
100
AcDbEntity
  8
Capa 1
370
     0
100
AcDbVertex
100
AcDb2dVertex
 10
62.30179745653064
 20
182.741654844428
 30
0.0
  0
VERTEX
  5
695
330
692
100
AcDbEntity
  8
Capa 1
370
     0
100
AcDbVertex
100
AcDb2dVertex
 10
62.11658993068787
 20
183.8529134568889
 30
0.0
  0
SEQEND
  5
697
330
692
100
AcDbEntity
  8
Capa 1
370
     0
  0
HATCH
  5
696
330
1F
100
AcDbEntity
  8
Capa 1
 62
     7
420
 16777215
100
AcDbHatch
 10
0.0
 20
0.0
 30
0.0
210
0.0
220
0.0
230
1.0
  2
SOLID
 70
     1
 71
     0
 91
        1
 92
        1
 93
        3
 72
     1
 10
61.93138240484509
 20
182.741654844428
 11
62.30179745653064
 21
182.741654844428
 72
     1
 10
62.30179745653064
 20
182.741654844428
 11
62.11658993068786
 21
183.8529134568889
 72
     1
 10
62.11658993068787
 20
183.8529134568889
 11
61.93138240484509
 21
182.741654844428
 97
        0
 75
     0
 76
     1
 98
        0
  0
POLYLINE
  5
698
330
1F
100
AcDbEntity
  8
Capa 1
 62
     7
420
 16777215
370
     9
100
AcDb2dPolyline
 66
     1
 10
0.0
 20
0.0
 30
0.0
  0
VERTEX
  5
699
330
698
100
AcDbEntity
  8
Capa 1
 62
     7
420
 16777215
370
     9
100
AcDbVertex
100
AcDb2dVertex
 10
75.05481928962321
 20
192.9016586099612
 30
0.0
  0
VERTEX
  5
69A
330
698
100
AcDbEntity
  8
Capa 1
 62
     7
420
 16777215
370
     9
100
AcDbVertex
100
AcDb2dVertex
 10
77.25086243605533
 20
192.9016586099612
 30
0.0
  0
SEQEND
  5
69B
330
698
100
AcDbEntity
  8
Capa 1
 62
     7
420
 16777215
370
     9
  0
POLYLINE
  5
69C
330
1F
100
AcDbEntity
  8
Capa 1
 62
     7
420
 16777215
370
     9
100
AcDb2dPolyline
 66
     1
 10
0.0
 20
0.0
 30
0.0
  0
VERTEX
  5
69D
330
69C
100
AcDbEntity
  8
Capa 1
 62
     7
420
 16777215
370
     9
100
AcDbVertex
100
AcDb2dVertex
 10
66.13825612533996
 20
192.9016586099612
 30
0.0
  0
VERTEX
  5
69E
330
69C
100
AcDbEntity
  8
Capa 1
 62
     7
420
 16777215
370
     9
100
AcDbVertex
100
AcDb2dVertex
 10
63.94221466108337
 20
192.9016586099612
 30
0.0
  0
SEQEND
  5
69F
330
69C
100
AcDbEntity
  8
Capa 1
 62
     7
420
 16777215
370
     9
  0
POLYLINE
  5
6A0
330
1F
100
AcDbEntity
  8
Capa 1
 62
     7
420
 16777215
370
     9
100
AcDb2dPolyline
 66
     1
 10
0.0
 20
0.0
 30
0.0
  0
VERTEX
  5
6A1
330
6A0
100
AcDbEntity
  8
Capa 1
 62
     7
420
 16777215
370
     9
100
AcDbVertex
100
AcDb2dVertex
 10
72.8852367642778
 20
191.7110416847014
 30
0.0
  0
VERTEX
  5
6A2
330
6A0
100
AcDbEntity
  8
Capa 1
 62
     7
420
 16777215
370
     9
100
AcDbVertex
100
AcDb2dVertex
 10
72.8852367642778
 20
193.8277029678772
 30
0.0
  0
SEQEND
  5
6A3
330
6A0
100
AcDbEntity
  8
Capa 1
 62
     7
420
 16777215
370
     9
  0
POLYLINE
  5
6A4
330
1F
100
AcDbEntity
  8
Capa 1
 62
     7
420
 16777215
370
     9
100
AcDb2dPolyline
 66
     1
 10
0.0
 20
0.0
 30
0.0
  0
VERTEX
  5
6A5
330
6A4
100
AcDbEntity
  8
Capa 1
 62
     7
420
 16777215
370
     9
100
AcDbVertex
100
AcDb2dVertex
 10
68.30794630992185
 20
189.9647819958069
 30
0.0
  0
VERTEX
  5
6A6
330
6A4
100
AcDbEntity
  8
Capa 1
 62
     7
420
 16777215
370
     9
100
AcDbVertex
100
AcDb2dVertex
 10
68.30794630992185
 20
193.8277029678772
 30
0.0
  0
SEQEND
  5
6A7
330
6A4
100
AcDbEntity
  8
Capa 1
 62
     7
420
 16777215
370
     9
  0
POLYLINE
  5
6A8
330
1F
100
AcDbEntity
  8
Capa 1
370
     0
100
AcDb2dPolyline
 66
     1
 10
0.0
 20
0.0
 30
0.0
  0
VERTEX
  5
6A9
330
6A8
100
AcDbEntity
  8
Capa 1
370
     0
100
AcDbVertex
100
AcDb2dVertex
 10
66.13825612533996
 20
193.2720736616467
 30
0.0
  0
VERTEX
  5
6AA
330
6A8
100
AcDbEntity
  8
Capa 1
370
     0
100
AcDbVertex
100
AcDb2dVertex
 10
66.13825612533996
 20
192.5312435582756
 30
0.0
  0
VERTEX
  5
6AB
330
6A8
100
AcDbEntity
  8
Capa 1
370
     0
100
AcDbVertex
100
AcDb2dVertex
 10
68.30794630992185
 20
192.9016586099612
 30
0.0
  0
SEQEND
  5
6AD
330
6A8
100
AcDbEntity
  8
Capa 1
370
     0
  0
HATCH
  5
6AC
330
1F
100
AcDbEntity
  8
Capa 1
 62
     7
420
 16777215
100
AcDbHatch
 10
0.0
 20
0.0
 30
0.0
210
0.0
220
0.0
230
1.0
  2
SOLID
 70
     1
 71
     0
 91
        1
 92
        1
 93
        3
 72
     1
 10
66.13825612533996
 20
193.2720736616467
 11
66.13825612533996
 21
192.5312435582756
 72
     1
 10
66.13825612533996
 20
192.5312435582756
 11
68.30794630992185
 21
192.9016586099612
 72
     1
 10
68.30794630992185
 20
192.9016586099612
 11
66.13825612533996
 21
193.2720736616467
 97
        0
 75
     0
 76
     1
 98
        0
  0
POLYLINE
  5
6AE
330
1F
100
AcDbEntity
  8
Capa 1
370
     0
100
AcDb2dPolyline
 66
     1
 10
0.0
 20
0.0
 30
0.0
  0
VERTEX
  5
6AF
330
6AE
100
AcDbEntity
  8
Capa 1
370
     0
100
AcDbVertex
100
AcDb2dVertex
 10
75.05481928962321
 20
193.2720736616467
 30
0.0
  0
VERTEX
  5
6B0
330
6AE
100
AcDbEntity
  8
Capa 1
370
     0
100
AcDbVertex
100
AcDb2dVertex
 10
75.05481928962321
 20
192.5312435582756
 30
0.0
  0
VERTEX
  5
6B1
330
6AE
100
AcDbEntity
  8
Capa 1
370
     0
100
AcDbVertex
100
AcDb2dVertex
 10
72.8852367642778
 20
192.9016586099612
 30
0.0
  0
SEQEND
  5
6B3
330
6AE
100
AcDbEntity
  8
Capa 1
370
     0
  0
HATCH
  5
6B2
330
1F
100
AcDbEntity
  8
Capa 1
 62
     7
420
 16777215
100
AcDbHatch
 10
0.0
 20
0.0
 30
0.0
210
0.0
220
0.0
230
1.0
  2
SOLID
 70
     1
 71
     0
 91
        1
 92
        1
 93
        3
 72
     1
 10
75.05481928962321
 20
193.2720736616467
 11
75.05481928962321
 21
192.5312435582756
 72
     1
 10
75.05481928962321
 20
192.5312435582756
 11
72.8852367642778
 21
192.9016586099612
 72
     1
 10
72.8852367642778
 20
192.9016586099612
 11
75.05481928962321
 21
193.2720736616467
 97
        0
 75
     0
 76
     1
 98
        0
  0
POLYLINE
  5
6B4
330
1F
100
AcDbEntity
  8
Capa 1
 62
     7
420
 16777215
370
     9
100
AcDb2dPolyline
 66
     1
 10
0.0
 20
0.0
 30
0.0
  0
VERTEX
  5
6B5
330
6B4
100
AcDbEntity
  8
Capa 1
 62
     7
420
 16777215
370
     9
100
AcDbVertex
100
AcDb2dVertex
 10
72.8852367642778
 20
183.3766559208616
 30
0.0
  0
VERTEX
  5
6B6
330
6B4
100
AcDbEntity
  8
Capa 1
 62
     7
420
 16777215
370
     9
100
AcDbVertex
100
AcDb2dVertex
 10
72.8852367642778
 20
183.1385406102522
 30
0.0
  0
SEQEND
  5
6B7
330
6B4
100
AcDbEntity
  8
Capa 1
 62
     7
420
 16777215
370
     9
  0
POLYLINE
  5
6B8
330
1F
100
AcDbEntity
  8
Capa 1
 62
     7
420
 16777215
370
     9
100
AcDb2dPolyline
 66
     1
 10
0.0
 20
0.0
 30
0.0
  0
VERTEX
  5
6B9
330
6B8
100
AcDbEntity
  8
Capa 1
 62
     7
420
 16777215
370
     9
100
AcDbVertex
100
AcDb2dVertex
 10
72.8852367642778
 20
184.7789578148049
 30
0.0
  0
VERTEX
  5
6BA
330
6B8
100
AcDbEntity
  8
Capa 1
 62
     7
420
 16777215
370
     9
100
AcDbVertex
100
AcDb2dVertex
 10
72.8852367642778
 20
183.6147846888752
 30
0.0
  0
SEQEND
  5
6BB
330
6B8
100
AcDbEntity
  8
Capa 1
 62
     7
420
 16777215
370
     9
  0
POLYLINE
  5
6BC
330
1F
100
AcDbEntity
  8
Capa 1
 62
     7
420
 16777215
370
     9
100
AcDb2dPolyline
 66
     1
 10
0.0
 20
0.0
 30
0.0
  0
VERTEX
  5
6BD
330
6BC
100
AcDbEntity
  8
Capa 1
 62
     7
420
 16777215
370
     9
100
AcDbVertex
100
AcDb2dVertex
 10
72.8852367642778
 20
185.255201893428
 30
0.0
  0
VERTEX
  5
6BE
330
6BC
100
AcDbEntity
  8
Capa 1
 62
     7
420
 16777215
370
     9
100
AcDbVertex
100
AcDb2dVertex
 10
72.8852367642778
 20
185.0170731254143
 30
0.0
  0
SEQEND
  5
6BF
330
6BC
100
AcDbEntity
  8
Capa 1
 62
     7
420
 16777215
370
     9
  0
POLYLINE
  5
6C0
330
1F
100
AcDbEntity
  8
Capa 1
 62
     7
420
 16777215
370
     9
100
AcDb2dPolyline
 66
     1
 10
0.0
 20
0.0
 30
0.0
  0
VERTEX
  5
6C1
330
6C0
100
AcDbEntity
  8
Capa 1
 62
     7
420
 16777215
370
     9
100
AcDbVertex
100
AcDb2dVertex
 10
72.8852367642778
 20
186.6574903299671
 30
0.0
  0
VERTEX
  5
6C2
330
6C0
100
AcDbEntity
  8
Capa 1
 62
     7
420
 16777215
370
     9
100
AcDbVertex
100
AcDb2dVertex
 10
72.8852367642778
 20
185.4933306614416
 30
0.0
  0
SEQEND
  5
6C3
330
6C0
100
AcDbEntity
  8
Capa 1
 62
     7
420
 16777215
370
     9
  0
POLYLINE
  5
6C4
330
1F
100
AcDbEntity
  8
Capa 1
 62
     7
420
 16777215
370
     9
100
AcDb2dPolyline
 66
     1
 10
0.0
 20
0.0
 30
0.0
  0
VERTEX
  5
6C5
330
6C4
100
AcDbEntity
  8
Capa 1
 62
     7
420
 16777215
370
     9
100
AcDbVertex
100
AcDb2dVertex
 10
72.8852367642778
 20
187.1337478659944
 30
0.0
  0
VERTEX
  5
6C6
330
6C4
100
AcDbEntity
  8
Capa 1
 62
     7
420
 16777215
370
     9
100
AcDbVertex
100
AcDb2dVertex
 10
72.8852367642778
 20
186.8956190979807
 30
0.0
  0
SEQEND
  5
6C7
330
6C4
100
AcDbEntity
  8
Capa 1
 62
     7
420
 16777215
370
     9
  0
POLYLINE
  5
6C8
330
1F
100
AcDbEntity
  8
Capa 1
 62
     7
420
 16777215
370
     9
100
AcDb2dPolyline
 66
     1
 10
0.0
 20
0.0
 30
0.0
  0
VERTEX
  5
6C9
330
6C8
100
AcDbEntity
  8
Capa 1
 62
     7
420
 16777215
370
     9
100
AcDbVertex
100
AcDb2dVertex
 10
72.8852367642778
 20
188.5360363025334
 30
0.0
  0
VERTEX
  5
6CA
330
6C8
100
AcDbEntity
  8
Capa 1
 62
     7
420
 16777215
370
     9
100
AcDbVertex
100
AcDb2dVertex
 10
72.8852367642778
 20
187.3718631766038
 30
0.0
  0
SEQEND
  5
6CB
330
6C8
100
AcDbEntity
  8
Capa 1
 62
     7
420
 16777215
370
     9
  0
POLYLINE
  5
6CC
330
1F
100
AcDbEntity
  8
Capa 1
 62
     7
420
 16777215
370
     9
100
AcDb2dPolyline
 66
     1
 10
0.0
 20
0.0
 30
0.0
  0
VERTEX
  5
6CD
330
6CC
100
AcDbEntity
  8
Capa 1
 62
     7
420
 16777215
370
     9
100
AcDbVertex
100
AcDb2dVertex
 10
72.8852367642778
 20
189.0122803811565
 30
0.0
  0
VERTEX
  5
6CE
330
6CC
100
AcDbEntity
  8
Capa 1
 62
     7
420
 16777215
370
     9
100
AcDbVertex
100
AcDb2dVertex
 10
72.8852367642778
 20
188.7741650705471
 30
0.0
  0
SEQEND
  5
6CF
330
6CC
100
AcDbEntity
  8
Capa 1
 62
     7
420
 16777215
370
     9
  0
POLYLINE
  5
6D0
330
1F
100
AcDbEntity
  8
Capa 1
 62
     7
420
 16777215
370
     9
100
AcDb2dPolyline
 66
     1
 10
0.0
 20
0.0
 30
0.0
  0
VERTEX
  5
6D1
330
6D0
100
AcDbEntity
  8
Capa 1
 62
     7
420
 16777215
370
     9
100
AcDbVertex
100
AcDb2dVertex
 10
72.8852367642778
 20
190.4145822750998
 30
0.0
  0
VERTEX
  5
6D2
330
6D0
100
AcDbEntity
  8
Capa 1
 62
     7
420
 16777215
370
     9
100
AcDbVertex
100
AcDb2dVertex
 10
72.8852367642778
 20
189.2504091491702
 30
0.0
  0
SEQEND
  5
6D3
330
6D0
100
AcDbEntity
  8
Capa 1
 62
     7
420
 16777215
370
     9
  0
POLYLINE
  5
6D4
330
1F
100
AcDbEntity
  8
Capa 1
 62
     7
420
 16777215
370
     9
100
AcDb2dPolyline
 66
     1
 10
0.0
 20
0.0
 30
0.0
  0
VERTEX
  5
6D5
330
6D4
100
AcDbEntity
  8
Capa 1
 62
     7
420
 16777215
370
     9
100
AcDbVertex
100
AcDb2dVertex
 10
72.8852367642778
 20
190.8908263537229
 30
0.0
  0
VERTEX
  5
6D6
330
6D4
100
AcDbEntity
  8
Capa 1
 62
     7
420
 16777215
370
     9
100
AcDbVertex
100
AcDb2dVertex
 10
72.8852367642778
 20
190.6526975857092
 30
0.0
  0
SEQEND
  5
6D7
330
6D4
100
AcDbEntity
  8
Capa 1
 62
     7
420
 16777215
370
     9
  0
POLYLINE
  5
6D8
330
1F
100
AcDbEntity
  8
Capa 1
 62
     7
420
 16777215
370
     9
100
AcDb2dPolyline
 66
     1
 10
0.0
 20
0.0
 30
0.0
  0
VERTEX
  5
6D9
330
6D8
100
AcDbEntity
  8
Capa 1
 62
     7
420
 16777215
370
     9
100
AcDbVertex
100
AcDb2dVertex
 10
72.8852367642778
 20
191.7374989414358
 30
0.0
  0
VERTEX
  5
6DA
330
6D8
100
AcDbEntity
  8
Capa 1
 62
     7
420
 16777215
370
     9
100
AcDbVertex
100
AcDb2dVertex
 10
72.8852367642778
 20
191.1024978650022
 30
0.0
  0
SEQEND
  5
6DB
330
6D8
100
AcDbEntity
  8
Capa 1
 62
     7
420
 16777215
370
     9
  0
POLYLINE
  5
6DC
330
1F
100
AcDbEntity
  8
Capa 1
 62
     7
420
 16777215
370
     9
100
AcDb2dPolyline
 66
     1
 10
0.0
 20
0.0
 30
0.0
  0
VERTEX
  5
6DD
330
6DC
100
AcDbEntity
  8
Capa 1
 62
     7
420
 16777215
370
     9
100
AcDbVertex
100
AcDb2dVertex
 10
72.8852367642778
 20
182.9004118422385
 30
0.0
  0
VERTEX
  5
6DE
330
6DC
100
AcDbEntity
  8
Capa 1
 62
     7
420
 16777215
370
     9
100
AcDbVertex
100
AcDb2dVertex
 10
72.8852367642778
 20
182.2918680225393
 30
0.0
  0
SEQEND
  5
6DF
330
6DC
100
AcDbEntity
  8
Capa 1
 62
     7
420
 16777215
370
     9
  0
POLYLINE
  5
6E0
330
1F
100
AcDbEntity
  8
Capa 1
 62
     7
420
 16777215
370
     9
100
AcDb2dPolyline
 66
     1
 10
0.0
 20
0.0
 30
0.0
  0
VERTEX
  5
6E1
330
6E0
100
AcDbEntity
  8
Capa 1
 62
     7
420
 16777215
370
     9
100
AcDbVertex
100
AcDb2dVertex
 10
73.12336216793912
 20
183.8529134568889
 30
0.0
  0
VERTEX
  5
6E2
330
6E0
100
AcDbEntity
  8
Capa 1
 62
     7
420
 16777215
370
     9
100
AcDbVertex
100
AcDb2dVertex
 10
73.36148757160171
 20
183.8529134568889
 30
0.0
  0
SEQEND
  5
6E3
330
6E0
100
AcDbEntity
  8
Capa 1
 62
     7
420
 16777215
370
     9
  0
POLYLINE
  5
6E4
330
1F
100
AcDbEntity
  8
Capa 1
 62
     7
420
 16777215
370
     9
100
AcDb2dPolyline
 66
     1
 10
0.0
 20
0.0
 30
0.0
  0
VERTEX
  5
6E5
330
6E4
100
AcDbEntity
  8
Capa 1
 62
     7
420
 16777215
370
     9
100
AcDbVertex
100
AcDb2dVertex
 10
71.72107036704898
 20
183.8529134568889
 30
0.0
  0
VERTEX
  5
6E6
330
6E4
100
AcDbEntity
  8
Capa 1
 62
     7
420
 16777215
370
     9
100
AcDbVertex
100
AcDb2dVertex
 10
72.8852367642778
 20
183.8529134568889
 30
0.0
  0
SEQEND
  5
6E7
330
6E4
100
AcDbEntity
  8
Capa 1
 62
     7
420
 16777215
370
     9
  0
POLYLINE
  5
6E8
330
1F
100
AcDbEntity
  8
Capa 1
 62
     7
420
 16777215
370
     9
100
AcDb2dPolyline
 66
     1
 10
0.0
 20
0.0
 30
0.0
  0
VERTEX
  5
6E9
330
6E8
100
AcDbEntity
  8
Capa 1
 62
     7
420
 16777215
370
     9
100
AcDbVertex
100
AcDb2dVertex
 10
71.2448195597238
 20
183.8529134568889
 30
0.0
  0
VERTEX
  5
6EA
330
6E8
100
AcDbEntity
  8
Capa 1
 62
     7
420
 16777215
370
     9
100
AcDbVertex
100
AcDb2dVertex
 10
71.48294496338639
 20
183.8529134568889
 30
0.0
  0
SEQEND
  5
6EB
330
6E8
100
AcDbEntity
  8
Capa 1
 62
     7
420
 16777215
370
     9
  0
POLYLINE
  5
6EC
330
1F
100
AcDbEntity
  8
Capa 1
 62
     7
420
 16777215
370
     9
100
AcDb2dPolyline
 66
     1
 10
0.0
 20
0.0
 30
0.0
  0
VERTEX
  5
6ED
330
6EC
100
AcDbEntity
  8
Capa 1
 62
     7
420
 16777215
370
     9
100
AcDbVertex
100
AcDb2dVertex
 10
69.84252775883365
 20
183.8529134568889
 30
0.0
  0
VERTEX
  5
6EE
330
6EC
100
AcDbEntity
  8
Capa 1
 62
     7
420
 16777215
370
     9
100
AcDbVertex
100
AcDb2dVertex
 10
71.0066941560612
 20
183.8529134568889
 30
0.0
  0
SEQEND
  5
6EF
330
6EC
100
AcDbEntity
  8
Capa 1
 62
     7
420
 16777215
370
     9
  0
POLYLINE
  5
6F0
330
1F
100
AcDbEntity
  8
Capa 1
 62
     7
420
 16777215
370
     9
100
AcDb2dPolyline
 66
     1
 10
0.0
 20
0.0
 30
0.0
  0
VERTEX
  5
6F1
330
6F0
100
AcDbEntity
  8
Capa 1
 62
     7
420
 16777215
370
     9
100
AcDbVertex
100
AcDb2dVertex
 10
69.36628031585953
 20
183.8529134568889
 30
0.0
  0
VERTEX
  5
6F2
330
6F0
100
AcDbEntity
  8
Capa 1
 62
     7
420
 16777215
370
     9
100
AcDbVertex
100
AcDb2dVertex
 10
69.60440403734658
 20
183.8529134568889
 30
0.0
  0
SEQEND
  5
6F3
330
6F0
100
AcDbEntity
  8
Capa 1
 62
     7
420
 16777215
370
     9
  0
POLYLINE
  5
6F4
330
1F
100
AcDbEntity
  8
Capa 1
 62
     7
420
 16777215
370
     9
100
AcDb2dPolyline
 66
     1
 10
0.0
 20
0.0
 30
0.0
  0
VERTEX
  5
6F5
330
6F4
100
AcDbEntity
  8
Capa 1
 62
     7
420
 16777215
370
     9
100
AcDbVertex
100
AcDb2dVertex
 10
68.28148737101066
 20
183.8529134568889
 30
0.0
  0
VERTEX
  5
6F6
330
6F4
100
AcDbEntity
  8
Capa 1
 62
     7
420
 16777215
370
     9
100
AcDbVertex
100
AcDb2dVertex
 10
69.12815491219693
 20
183.8529134568889
 30
0.0
  0
SEQEND
  5
6F7
330
6F4
100
AcDbEntity
  8
Capa 1
 62
     7
420
 16777215
370
     9
  0
POLYLINE
  5
6F8
330
1F
100
AcDbEntity
  8
Capa 1
 62
     7
420
 16777215
370
     9
100
AcDb2dPolyline
 66
     1
 10
0.0
 20
0.0
 30
0.0
  0
VERTEX
  5
6F9
330
6F8
100
AcDbEntity
  8
Capa 1
 62
     7
420
 16777215
370
     9
100
AcDbVertex
100
AcDb2dVertex
 10
73.5996129752656
 20
183.8529134568889
 30
0.0
  0
VERTEX
  5
6FA
330
6F8
100
AcDbEntity
  8
Capa 1
 62
     7
420
 16777215
370
     9
100
AcDbVertex
100
AcDb2dVertex
 10
74.44627883427506
 20
183.8529134568889
 30
0.0
  0
SEQEND
  5
6FB
330
6F8
100
AcDbEntity
  8
Capa 1
 62
     7
420
 16777215
370
     9
  0
POLYLINE
  5
6FC
330
1F
100
AcDbEntity
  8
Capa 1
 62
     7
420
 16777215
370
     9
100
AcDb2dPolyline
 66
     1
 10
0.0
 20
0.0
 30
0.0
  0
VERTEX
  5
6FD
330
6FC
100
AcDbEntity
  8
Capa 1
 62
     7
420
 16777215
370
     9
100
AcDbVertex
100
AcDb2dVertex
 10
72.17086055329003
 20
149.6158304012629
 30
0.0
  0
VERTEX
  5
6FE
330
6FC
100
AcDbEntity
  8
Capa 1
 62
     7
420
 16777215
370
     9
100
AcDbVertex
100
AcDb2dVertex
 10
72.17086055329003
 20
150.0391666951193
 30
0.0
  0
SEQEND
  5
6FF
330
6FC
100
AcDbEntity
  8
Capa 1
 62
     7
420
 16777215
370
     9
  0
POLYLINE
  5
700
330
1F
100
AcDbEntity
  8
Capa 1
 62
     7
420
 16777215
370
     9
100
AcDb2dPolyline
 66
     1
 10
0.0
 20
0.0
 30
0.0
  0
VERTEX
  5
701
330
700
100
AcDbEntity
  8
Capa 1
 62
     7
420
 16777215
370
     9
100
AcDbVertex
100
AcDb2dVertex
 10
72.17086055329003
 20
153.7433306693791
 30
0.0
  0
VERTEX
  5
702
330
700
100
AcDbEntity
  8
Capa 1
 62
     7
420
 16777215
370
     9
100
AcDbVertex
100
AcDb2dVertex
 10
72.17086055329003
 20
153.1612508351164
 30
0.0
  0
SEQEND
  5
703
330
700
100
AcDbEntity
  8
Capa 1
 62
     7
420
 16777215
370
     9
  0
POLYLINE
  5
704
330
1F
100
AcDbEntity
  8
Capa 1
 62
     7
420
 16777215
370
     9
100
AcDb2dPolyline
 66
     1
 10
0.0
 20
0.0
 30
0.0
  0
VERTEX
  5
705
330
704
100
AcDbEntity
  8
Capa 1
 62
     7
420
 16777215
370
     9
100
AcDbVertex
100
AcDb2dVertex
 10
74.26107130843356
 20
148.4781212607698
 30
0.0
  0
VERTEX
  5
706
330
704
100
AcDbEntity
  8
Capa 1
 62
     7
420
 16777215
370
     9
100
AcDbVertex
100
AcDb2dVertex
 10
71.56232009794186
 20
148.4781212607698
 30
0.0
  0
SEQEND
  5
707
330
704
100
AcDbEntity
  8
Capa 1
 62
     7
420
 16777215
370
     9
  0
POLYLINE
  5
708
330
1F
100
AcDbEntity
  8
Capa 1
 62
     7
420
 16777215
370
     9
100
AcDb2dPolyline
 66
     1
 10
0.0
 20
0.0
 30
0.0
  0
VERTEX
  5
709
330
708
100
AcDbEntity
  8
Capa 1
 62
     7
420
 16777215
370
     9
100
AcDbVertex
100
AcDb2dVertex
 10
74.26107130843356
 20
154.8545825531379
 30
0.0
  0
VERTEX
  5
70A
330
708
100
AcDbEntity
  8
Capa 1
 62
     7
420
 16777215
370
     9
100
AcDbVertex
100
AcDb2dVertex
 10
71.56232009794186
 20
154.8545825531379
 30
0.0
  0
SEQEND
  5
70B
330
708
100
AcDbEntity
  8
Capa 1
 62
     7
420
 16777215
370
     9
  0
POLYLINE
  5
70C
330
1F
100
AcDbEntity
  8
Capa 1
370
     0
100
AcDb2dPolyline
 66
     1
 10
0.0
 20
0.0
 30
0.0
  0
VERTEX
  5
70D
330
70C
100
AcDbEntity
  8
Capa 1
370
     0
100
AcDbVertex
100
AcDb2dVertex
 10
71.98565302744596
 20
153.7433306693791
 30
0.0
  0
VERTEX
  5
70E
330
70C
100
AcDbEntity
  8
Capa 1
370
     0
100
AcDbVertex
100
AcDb2dVertex
 10
72.38252870021695
 20
153.7433306693791
 30
0.0
  0
VERTEX
  5
70F
330
70C
100
AcDbEntity
  8
Capa 1
370
     0
100
AcDbVertex
100
AcDb2dVertex
 10
72.17086055329003
 20
154.8545825531379
 30
0.0
  0
SEQEND
  5
711
330
70C
100
AcDbEntity
  8
Capa 1
370
     0
  0
HATCH
  5
710
330
1F
100
AcDbEntity
  8
Capa 1
 62
     7
420
 16777215
100
AcDbHatch
 10
0.0
 20
0.0
 30
0.0
210
0.0
220
0.0
230
1.0
  2
SOLID
 70
     1
 71
     0
 91
        1
 92
        1
 93
        3
 72
     1
 10
71.98565302744596
 20
153.7433306693791
 11
72.38252870021695
 21
153.7433306693791
 72
     1
 10
72.38252870021695
 20
153.7433306693791
 11
72.17086055329001
 21
154.8545825531379
 72
     1
 10
72.17086055329003
 20
154.8545825531379
 11
71.98565302744596
 21
153.7433306693791
 97
        0
 75
     0
 76
     1
 98
        0
  0
POLYLINE
  5
712
330
1F
100
AcDbEntity
  8
Capa 1
370
     0
100
AcDb2dPolyline
 66
     1
 10
0.0
 20
0.0
 30
0.0
  0
VERTEX
  5
713
330
712
100
AcDbEntity
  8
Capa 1
370
     0
100
AcDbVertex
100
AcDb2dVertex
 10
71.98565302744596
 20
149.6158304012629
 30
0.0
  0
VERTEX
  5
714
330
712
100
AcDbEntity
  8
Capa 1
370
     0
100
AcDbVertex
100
AcDb2dVertex
 10
72.38252870021695
 20
149.6158304012629
 30
0.0
  0
VERTEX
  5
715
330
712
100
AcDbEntity
  8
Capa 1
370
     0
100
AcDbVertex
100
AcDb2dVertex
 10
72.17086055329003
 20
148.4781212607698
 30
0.0
  0
SEQEND
  5
717
330
712
100
AcDbEntity
  8
Capa 1
370
     0
  0
HATCH
  5
716
330
1F
100
AcDbEntity
  8
Capa 1
 62
     7
420
 16777215
100
AcDbHatch
 10
0.0
 20
0.0
 30
0.0
210
0.0
220
0.0
230
1.0
  2
SOLID
 70
     1
 71
     0
 91
        1
 92
        1
 93
        3
 72
     1
 10
71.98565302744596
 20
149.6158304012629
 11
72.38252870021695
 21
149.6158304012629
 72
     1
 10
72.38252870021695
 20
149.6158304012629
 11
72.17086055329001
 21
148.4781212607697
 72
     1
 10
72.17086055329003
 20
148.4781212607698
 11
71.98565302744596
 21
149.6158304012629
 97
        0
 75
     0
 76
     1
 98
        0
  0
POLYLINE
  5
718
330
1F
100
AcDbEntity
  8
Capa 1
 62
     7
420
 16777215
370
     9
100
AcDb2dPolyline
 66
     1
 10
0.0
 20
0.0
 30
0.0
  0
VERTEX
  5
719
330
718
100
AcDbEntity
  8
Capa 1
 62
     7
420
 16777215
370
     9
100
AcDbVertex
100
AcDb2dVertex
 10
66.69388206721935
 20
141.5460373908733
 30
0.0
  0
VERTEX
  5
71A
330
718
100
AcDbEntity
  8
Capa 1
 62
     7
420
 16777215
370
     9
100
AcDbVertex
100
AcDb2dVertex
 10
66.69388206721935
 20
144.4564567482932
 30
0.0
  0
SEQEND
  5
71B
330
718
100
AcDbEntity
  8
Capa 1
 62
     7
420
 16777215
370
     9
  0
POLYLINE
  5
71C
330
1F
100
AcDbEntity
  8
Capa 1
 62
     7
420
 16777215
370
     9
100
AcDb2dPolyline
 66
     1
 10
0.0
 20
0.0
 30
0.0
  0
VERTEX
  5
71D
330
71C
100
AcDbEntity
  8
Capa 1
 62
     7
420
 16777215
370
     9
100
AcDbVertex
100
AcDb2dVertex
 10
66.69388206721935
 20
150.4624962602737
 30
0.0
  0
VERTEX
  5
71E
330
71C
100
AcDbEntity
  8
Capa 1
 62
     7
420
 16777215
370
     9
100
AcDbVertex
100
AcDb2dVertex
 10
66.69388206721935
 20
147.5785408882903
 30
0.0
  0
SEQEND
  5
71F
330
71C
100
AcDbEntity
  8
Capa 1
 62
     7
420
 16777215
370
     9
  0
POLYLINE
  5
720
330
1F
100
AcDbEntity
  8
Capa 1
 62
     7
420
 16777215
370
     9
100
AcDb2dPolyline
 66
     1
 10
0.0
 20
0.0
 30
0.0
  0
VERTEX
  5
721
330
720
100
AcDbEntity
  8
Capa 1
 62
     7
420
 16777215
370
     9
100
AcDbVertex
100
AcDb2dVertex
 10
77.06565491021256
 20
140.4083282503801
 30
0.0
  0
VERTEX
  5
722
330
720
100
AcDbEntity
  8
Capa 1
 62
     7
420
 16777215
370
     9
100
AcDbVertex
100
AcDb2dVertex
 10
66.05888099078577
 20
140.4083282503801
 30
0.0
  0
SEQEND
  5
723
330
720
100
AcDbEntity
  8
Capa 1
 62
     7
420
 16777215
370
     9
  0
POLYLINE
  5
724
330
1F
100
AcDbEntity
  8
Capa 1
 62
     7
420
 16777215
370
     9
100
AcDb2dPolyline
 66
     1
 10
0.0
 20
0.0
 30
0.0
  0
VERTEX
  5
725
330
724
100
AcDbEntity
  8
Capa 1
 62
     7
420
 16777215
370
     9
100
AcDbVertex
100
AcDb2dVertex
 10
68.67836304378164
 20
151.6002054007668
 30
0.0
  0
VERTEX
  5
726
330
724
100
AcDbEntity
  8
Capa 1
 62
     7
420
 16777215
370
     9
100
AcDbVertex
100
AcDb2dVertex
 10
66.05888099078577
 20
151.6002054007668
 30
0.0
  0
SEQEND
  5
727
330
724
100
AcDbEntity
  8
Capa 1
 62
     7
420
 16777215
370
     9
  0
POLYLINE
  5
728
330
1F
100
AcDbEntity
  8
Capa 1
370
     0
100
AcDb2dPolyline
 66
     1
 10
0.0
 20
0.0
 30
0.0
  0
VERTEX
  5
729
330
728
100
AcDbEntity
  8
Capa 1
370
     0
100
AcDbVertex
100
AcDb2dVertex
 10
66.50867285920104
 20
150.4624962602737
 30
0.0
  0
VERTEX
  5
72A
330
728
100
AcDbEntity
  8
Capa 1
370
     0
100
AcDbVertex
100
AcDb2dVertex
 10
66.87908959306213
 20
150.4624962602737
 30
0.0
  0
VERTEX
  5
72B
330
728
100
AcDbEntity
  8
Capa 1
370
     0
100
AcDbVertex
100
AcDb2dVertex
 10
66.69388206721935
 20
151.6002054007668
 30
0.0
  0
SEQEND
  5
72D
330
728
100
AcDbEntity
  8
Capa 1
370
     0
  0
HATCH
  5
72C
330
1F
100
AcDbEntity
  8
Capa 1
 62
     7
420
 16777215
100
AcDbHatch
 10
0.0
 20
0.0
 30
0.0
210
0.0
220
0.0
230
1.0
  2
SOLID
 70
     1
 71
     0
 91
        1
 92
        1
 93
        3
 72
     1
 10
66.50867285920104
 20
150.4624962602737
 11
66.87908959306212
 21
150.4624962602737
 72
     1
 10
66.87908959306213
 20
150.4624962602737
 11
66.69388206721936
 21
151.6002054007668
 72
     1
 10
66.69388206721935
 20
151.6002054007668
 11
66.50867285920104
 21
150.4624962602737
 97
        0
 75
     0
 76
     1
 98
        0
  0
POLYLINE
  5
72E
330
1F
100
AcDbEntity
  8
Capa 1
370
     0
100
AcDb2dPolyline
 66
     1
 10
0.0
 20
0.0
 30
0.0
  0
VERTEX
  5
72F
330
72E
100
AcDbEntity
  8
Capa 1
370
     0
100
AcDbVertex
100
AcDb2dVertex
 10
66.50867285920104
 20
141.5460373908733
 30
0.0
  0
VERTEX
  5
730
330
72E
100
AcDbEntity
  8
Capa 1
370
     0
100
AcDbVertex
100
AcDb2dVertex
 10
66.87908959306213
 20
141.5460373908733
 30
0.0
  0
VERTEX
  5
731
330
72E
100
AcDbEntity
  8
Capa 1
370
     0
100
AcDbVertex
100
AcDb2dVertex
 10
66.69388206721935
 20
140.4083282503801
 30
0.0
  0
SEQEND
  5
733
330
72E
100
AcDbEntity
  8
Capa 1
370
     0
  0
HATCH
  5
732
330
1F
100
AcDbEntity
  8
Capa 1
 62
     7
420
 16777215
100
AcDbHatch
 10
0.0
 20
0.0
 30
0.0
210
0.0
220
0.0
230
1.0
  2
SOLID
 70
     1
 71
     0
 91
        1
 92
        1
 93
        3
 72
     1
 10
66.50867285920104
 20
141.5460373908733
 11
66.87908959306212
 21
141.5460373908733
 72
     1
 10
66.87908959306213
 20
141.5460373908733
 11
66.69388206721936
 21
140.4083282503801
 72
     1
 10
66.69388206721935
 20
140.4083282503801
 11
66.50867285920104
 21
141.5460373908733
 97
        0
 75
     0
 76
     1
 98
        0
  0
MTEXT
  5
734
330
1F
100
AcDbEntity
  8
Capa 1
 62
     7
420
 16777215
100
AcDbMText
 10
67.85804577296605
 20
193.8279621911263
 30
0.0
 40
2.49766666604225
 41
0.0
 46
0.0
 71
     7
 72
     1
  1
\fArial|b1|i0|c0|p34;\W1;73
 73
     1
 44
1.0
  0
MTEXT
  5
735
330
1F
100
AcDbEntity
  8
Capa 1
 62
     7
420
 16777215
100
AcDbMText
 10
55.38611109726459
 20
160.7984537358421
 30
0.0
 40
2.49766666604225
 41
0.0
 46
0.0
 71
     7
 72
     1
  1
\fArial|b1|i0|c0|p34;\W1;695
 73
     1
 44
1.0
  0
MTEXT
  5
736
330
1F
100
AcDbEntity
  8
Capa 1
 62
     7
420
 16777215
100
AcDbMText
 10
64.16283635548707
 20
145.4477972726658
 30
0.0
 40
2.49766666604225
 41
0.0
 46
0.0
 71
     7
 72
     1
  1
\fArial|b1|i0|c0|p34;\W1;180
 73
     1
 44
1.0
  0
MTEXT
  5
737
330
1F
100
AcDbEntity
  8
Capa 1
 62
     7
420
 16777215
100
AcDbMText
 10
69.12790796882913
 20
150.4631672800925
 30
0.0
 40
2.49766666604225
 41
0.0
 46
0.0
 71
     7
 72
     1
  1
\fArial|b1|i0|c0|p34;\W1;Ø102
 73
     1
 44
1.0
  0
MTEXT
  5
738
330
1F
100
AcDbEntity
  8
Capa 1
 62
     7
420
 16777215
100
AcDbMText
 10
69.9216579686307
 20
157.1039333374601
 30
0.0
 40
2.49766666604225
 41
0.0
 46
0.0
 71
     7
 72
     1
  1
\fArial|b1|i0|c0|p34;\W1;110
 73
     1
 44
1.0
  0
MTEXT
  5
739
330
1F
100
AcDbEntity
  8
Capa 1
 62
     7
420
 16777215
100
AcDbMText
 10
116.5489583041961
 20
151.3712944500044
 30
0.0
 40
2.49766666604225
 41
0.0
 46
0.0
 71
     7
 72
     1
  1
\fArial|b1|i0|c0|p34;\W1;400
 73
     1
 44
1.0
  0
MTEXT
  5
73A
330
1F
100
AcDbEntity
  8
Capa 1
 62
     7
420
 16777215
100
AcDbMText
 10
85.35155162796767
 20
129.6658148547363
 30
0.0
 40
2.49766666604225
 41
0.0
 46
0.0
 71
     7
 72
     1
  1
\fArial|b1|i0|c0|p34;\W1;390
 73
     1
 44
1.0
  0
MTEXT
  5
73B
330
1F
100
AcDbEntity
  8
Capa 1
 62
     7
420
 16777215
100
AcDbMText
 10
127.3052354282431
 20
145.0068250505539
 30
0.0
 40
2.49766666604225
 41
0.0
 46
0.0
 71
     7
 72
     1
  1
\fArial|b1|i0|c0|p34;\W1;200
 73
     1
 44
1.0
  0
MTEXT
  5
73C
330
1F
100
AcDbEntity
  8
Capa 1
 62
     7
420
 16777215
100
AcDbMText
 10
142.8501952767874
 20
147.5789333398414
 30
0.0
 40
2.49766666604225
 41
0.0
 46
0.0
 71
     7
 72
     1
  1
\fArial|b1|i0|c0|p34;\W1;120
 73
     1
 44
1.0
  0
MTEXT
  5
73D
330
1F
100
AcDbEntity
  8
Capa 1
 62
     7
420
 16777215
100
AcDbMText
 10
144.9661729238279
 20
130.9901095592664
 30
0.0
 40
2.49766666604225
 41
0.0
 46
0.0
 71
     7
 72
     1
  1
\fArial|b1|i0|c0|p34;\W1;220
 73
     1
 44
1.0
  0
MTEXT
  5
73E
330
1F
100
AcDbEntity
  8
Capa 1
 62
     7
420
 16777215
100
AcDbMText
 10
168.2818901489018
 20
163.4622015650372
 30
0.0
 40
2.49766666604225
 41
0.0
 46
0.0
 71
     7
 72
     1
  1
\fArial|b1|i0|c0|p34;\W1;795
 73
     1
 44
1.0
  0
MTEXT
  5
73F
330
1F
100
AcDbEntity
  8
Capa 1
 62
     7
420
 16777215
100
AcDbMText
 10
69.06589625009464
 20
116.6130370802217
 30
0.0
 40
2.49766666604225
 41
0.0
 46
0.0
 71
     7
 72
     1
  1
\fArial|b1|i0|c0|p34;\W1;157
 73
     1
 44
1.0
  0
MTEXT
  5
740
330
1F
100
AcDbEntity
  8
Capa 1
 62
     7
420
 16777215
100
AcDbMText
 10
92.52561846645193
 20
116.6130370802217
 30
0.0
 40
2.49766666604225
 41
0.0
 46
0.0
 71
     7
 72
     1
  1
\fArial|b1|i0|c0|p34;\W1;437
 73
     1
 44
1.0
  0
MTEXT
  5
741
330
1F
100
AcDbEntity
  8
Capa 1
 62
     7
420
 16777215
100
AcDbMText
 10
116.0122124275942
 20
97.46657441139725
 30
0.0
 40
2.49766666604225
 41
0.0
 46
0.0
 71
     7
 72
     1
  1
\fArial|b1|i0|c0|p34;\W1;360
 11
6.123233995736766E-17
 21
1.0
 31
0.0
 73
     1
 44
1.0
  0
MTEXT
  5
742
330
1F
100
AcDbEntity
  8
Capa 1
 62
     7
420
 16777215
100
AcDbMText
 10
86.99348413623774
 20
83.7537163419088
 30
0.0
 40
2.49766666604225
 41
0.0
 46
0.0
 71
     7
 72
     1
  1
\fArial|b1|i0|c0|p34;\W1;660
 73
     1
 44
1.0
  0
MTEXT
  5
743
330
1F
100
AcDbEntity
  8
Capa 1
 62
     7
420
 16777215
100
AcDbMText
 10
61.93110350014223
 20
95.82670896041833
 30
0.0
 40
2.49766666604225
 41
0.0
 46
0.0
 71
     7
 72
     1
  1
\fArial|b1|i0|c0|p34;\W1;355
 11
6.123233995736766E-17
 21
1.0
 31
0.0
 73
     1
 44
1.0
  0
MTEXT
  5
744
330
1F
100
AcDbEntity
  8
Capa 1
 62
     7
420
 16777215
100
AcDbMText
 10
66.62745766563481
 20
95.00539819673476
 30
0.0
 40
2.49766666604225
 41
0.0
 46
0.0
 71
     7
 72
     1
  1
\fArial|b1|i0|c0|p34;\W1;160
 11
6.123233995736766E-17
 21
1.0
 31
0.0
 73
     1
 44
1.0
  0
MTEXT
  5
745
330
1F
100
AcDbEntity
  8
Capa 1
 62
     7
420
 16777215
100
AcDbMText
 10
84.7204101350699
 20
95.39400496747095
 30
0.0
 40
2.49766666604225
 41
0.0
 46
0.0
 71
     7
 72
     1
  1
\fArial|b1|i0|c0|p34;\W1;160
 11
6.123233995736766E-17
 21
1.0
 31
0.0
 73
     1
 44
1.0
  0
ENDSEC
  0
SECTION
  2
OBJECTS
  0
DICTIONARY
  5
C
330
0
100
AcDbDictionary
281
     1
  3
ACAD_GROUP
350
D
  3
ACAD_LAYOUT
350
1A
  3
ACAD_MATERIAL
350
3B
  3
ACAD_MLEADERSTYLE
350
747
  3
ACAD_MLINESTYLE
350
17
  3
ACAD_PLOTSETTINGS
350
19
  3
ACAD_PLOTSTYLENAME
350
E
  3
ACAD_TABLESTYLE
350
746
  3
ACAD_VISUALSTYLE
350
2A
  0
SUN
  5
3F
330
29
100
AcDbSun
 90
        1
290
     0
 63
     7
421
 16777215
 40
1.0
291
     1
 91
  2455826
 92
 54000000
292
     0
 70
     2
 71
   256
280
     1
  0
DICTIONARY
  5
D
102
{ACAD_REACTORS
330
C
102
}
330
C
100
AcDbDictionary
281
     1
  0
DICTIONARY
  5
1A
102
{ACAD_REACTORS
330
C
102
}
330
C
100
AcDbDictionary
281
     1
  3
Layout1
350
1E
  3
Layout2
350
26
  3
Model
350
22
  0
DICTIONARY
  5
3B
102
{ACAD_REACTORS
330
C
102
}
330
C
100
AcDbDictionary
281
     1
  3
ByBlock
350
3D
  3
ByLayer
350
3C
  3
Global
350
3E
  0
DICTIONARY
  5
747
102
{ACAD_REACTORS
330
C
102
}
330
C
100
AcDbDictionary
281
     1
  0
DICTIONARY
  5
17
102
{ACAD_REACTORS
330
C
102
}
330
C
100
AcDbDictionary
281
     1
  3
Standard
350
18
  0
DICTIONARY
  5
19
102
{ACAD_REACTORS
330
C
102
}
330
C
100
AcDbDictionary
281
     1
  0
ACDBDICTIONARYWDFLT
  5
E
102
{ACAD_REACTORS
330
C
102
}
330
C
100
AcDbDictionary
281
     1
  3
Normal
350
F
100
AcDbDictionaryWithDefault
340
F
  0
DICTIONARY
  5
746
102
{ACAD_REACTORS
330
C
102
}
330
C
100
AcDbDictionary
281
     1
  0
DICTIONARY
  5
2A
102
{ACAD_REACTORS
330
C
102
}
330
C
100
AcDbDictionary
281
     1
  3
2dWireframe
350
2F
  3
3D Hidden
350
31
  3
3dWireframe
350
30
  3
Basic
350
32
  3
Brighten
350
36
  3
ColorChange
350
3A
  3
Conceptual
350
34
  3
Dim
350
35
  3
Facepattern
350
39
  3
Flat
350
2B
  3
FlatWithEdges
350
2C
  3
Gouraud
350
2D
  3
GouraudWithEdges
350
2E
  3
Linepattern
350
38
  3
Realistic
350
33
  3
Thicken
350
37
  0
LAYOUT
  5
1E
102
{ACAD_REACTORS
330
1A
102
}
330
1A
100
AcDbPlotSettings
  1

  2
none_device
  4

  6

 40
0.0
 41
0.0
 42
0.0
 43
0.0
 44
0.0
 45
0.0
 46
0.0
 47
0.0
 48
0.0
 49
0.0
140
0.0
141
0.0
142
1.0
143
1.0
 70
   688
 72
     0
 73
     0
 74
     5
  7

 75
    16
 76
     0
 77
     2
 78
   300
147
1.0
148
0.0
149
0.0
100
AcDbLayout
  1
Layout1
 70
     1
 71
     1
 10
0.0
 20
0.0
 11
12.0
 21
9.0
 12
0.0
 22
0.0
 32
0.0
 14
1.000000000000000E+20
 24
1.000000000000000E+20
 34
1.000000000000000E+20
 15
-1.000000000000000E+20
 25
-1.000000000000000E+20
 35
-1.000000000000000E+20
146
0.0
 13
0.0
 23
0.0
 33
0.0
 16
1.0
 26
0.0
 36
0.0
 17
0.0
 27
1.0
 37
0.0
 76
     0
330
1B
  0
LAYOUT
  5
26
102
{ACAD_REACTORS
330
1A
102
}
330
1A
100
AcDbPlotSettings
  1

  2
none_device
  4

  6

 40
0.0
 41
0.0
 42
0.0
 43
0.0
 44
0.0
 45
0.0
 46
0.0
 47
0.0
 48
0.0
 49
0.0
140
0.0
141
0.0
142
1.0
143
1.0
 70
   688
 72
     0
 73
     0
 74
     5
  7

 75
    16
 76
     0
 77
     2
 78
   300
147
1.0
148
0.0
149
0.0
100
AcDbLayout
  1
Layout2
 70
     1
 71
     2
 10
0.0
 20
0.0
 11
0.0
 21
0.0
 12
0.0
 22
0.0
 32
0.0
 14
0.0
 24
0.0
 34
0.0
 15
0.0
 25
0.0
 35
0.0
146
0.0
 13
0.0
 23
0.0
 33
0.0
 16
1.0
 26
0.0
 36
0.0
 17
0.0
 27
1.0
 37
0.0
 76
     0
330
23
  0
LAYOUT
  5
22
102
{ACAD_REACTORS
330
1A
102
}
330
1A
100
AcDbPlotSettings
  1

  2
none_device
  4

  6

 40
0.0
 41
0.0
 42
0.0
 43
0.0
 44
0.0
 45
0.0
 46
0.0
 47
0.0
 48
0.0
 49
0.0
140
0.0
141
0.0
142
1.0
143
1.0
 70
  1712
 72
     0
 73
     0
 74
     0
  7

 75
     0
 76
     0
 77
     2
 78
   300
147
1.0
148
0.0
149
0.0
100
AcDbLayout
  1
Model
 70
     1
 71
     0
 10
0.0
 20
0.0
 11
12.0
 21
9.0
 12
0.0
 22
0.0
 32
0.0
 14
1.000000000000000E+20
 24
1.000000000000000E+20
 34
1.000000000000000E+20
 15
-1.000000000000000E+20
 25
-1.000000000000000E+20
 35
-1.000000000000000E+20
146
0.0
 13
0.0
 23
0.0
 33
0.0
 16
1.0
 26
0.0
 36
0.0
 17
0.0
 27
1.0
 37
0.0
 76
     0
330
1F
331
29
  0
MATERIAL
  5
3D
102
{ACAD_REACTORS
330
3B
102
}
330
3B
100
AcDbMaterial
  1
ByBlock
 72
     1
 94
      127
  0
MATERIAL
  5
3C
102
{ACAD_REACTORS
330
3B
102
}
330
3B
100
AcDbMaterial
  1
ByLayer
 72
     1
 94
      127
  0
MATERIAL
  5
3E
102
{ACAD_REACTORS
330
3B
102
}
330
3B
100
AcDbMaterial
  1
Global
 72
     1
 94
      127
  0
MLINESTYLE
  5
18
102
{ACAD_REACTORS
330
17
102
}
330
17
100
AcDbMlineStyle
  2
Standard
 70
     0
  3

 62
   256
 51
90.0
 52
90.0
 71
     2
 49
0.5
 62
   256
  6
BYLAYER
 49
-0.5
 62
   256
  6
BYLAYER
  0
ACDBPLACEHOLDER
  5
F
102
{ACAD_REACTORS
330
E
102
}
330
E
  0
VISUALSTYLE
  5
2F
102
{ACAD_REACTORS
330
2A
102
}
330
2A
100
AcDbVisualStyle
  2
2dWireframe
 70
     4
177
     2
291
     0
 71
     0
176
     1
 72
     2
176
     1
 73
     0
176
     1
 90
        0
176
     1
 40
-0.6
176
     1
 41
-30.0
176
     1
 62
     5
 63
     7
421
 16777215
176
     1
 74
     1
176
     1
 91
        4
176
     1
 64
     7
176
     1
 65
   257
176
     1
 75
     1
176
     1
175
     1
176
     1
 42
1.0
176
     1
 92
        0
176
     1
 66
   257
176
     1
 43
1.0
176
     1
 76
     1
176
     1
 77
     6
176
     1
 78
     2
176
     1
 67
     7
176
     1
 79
     5
176
     1
170
     0
176
     1
171
     0
176
     1
290
     0
176
     1
 93
        1
176
     1
 44
0.0
176
     1
173
     0
176
     1
  0
VISUALSTYLE
  5
31
102
{ACAD_REACTORS
330
2A
102
}
330
2A
100
AcDbVisualStyle
  2
3D Hidden
 70
     6
177
     2
291
     0
 71
     1
176
     1
 72
     2
176
     1
 73
     2
176
     1
 90
        0
176
     1
 40
-0.6
176
     1
 41
-30.0
176
     1
 62
     5
 63
     7
421
 16777215
176
     1
 74
     2
176
     1
 91
        2
176
     1
 64
     7
176
     1
 65
   257
176
     1
 75
     2
176
     1
175
     1
176
     1
 42
40.0
176
     1
 92
        0
176
     1
 66
   257
176
     1
 43
1.0
176
     1
 76
     1
176
     1
 77
     6
176
     1
 78
     2
176
     1
 67
     7
176
     1
 79
     3
176
     1
170
     0
176
     1
171
     0
176
     1
290
     0
176
     1
 93
        1
176
     1
 44
0.0
176
     1
173
     0
176
     1
  0
VISUALSTYLE
  5
30
102
{ACAD_REACTORS
330
2A
102
}
330
2A
100
AcDbVisualStyle
  2
3dWireframe
 70
     5
177
     2
291
     0
 71
     0
176
     1
 72
     2
176
     1
 73
     0
176
     1
 90
        0
176
     1
 40
-0.6
176
     1
 41
-30.0
176
     1
 62
     5
 63
     7
421
 16777215
176
     1
 74
     1
176
     1
 91
        4
176
     1
 64
     7
176
     1
 65
   257
176
     1
 75
     1
176
     1
175
     1
176
     1
 42
1.0
176
     1
 92
        0
176
     1
 66
   257
176
     1
 43
1.0
176
     1
 76
     1
176
     1
 77
     6
176
     1
 78
     2
176
     1
 67
     7
176
     1
 79
     5
176
     1
170
     0
176
     1
171
     0
176
     1
290
     0
176
     1
 93
        1
176
     1
 44
0.0
176
     1
173
     0
176
     1
  0
VISUALSTYLE
  5
32
102
{ACAD_REACTORS
330
2A
102
}
330
2A
100
AcDbVisualStyle
  2
Basic
 70
     7
177
     2
291
     1
 71
     1
176
     1
 72
     0
176
     1
 73
     1
176
     1
 90
        0
176
     1
 40
-0.6
176
     1
 41
-30.0
176
     1
 62
     5
 63
     7
421
 16777215
176
     1
 74
     0
176
     1
 91
        4
176
     1
 64
     7
176
     1
 65
   257
176
     1
 75
     1
176
     1
175
     1
176
     1
 42
1.0
176
     1
 92
        8
176
     1
 66
     7
176
     1
 43
1.0
176
     1
 76
     1
176
     1
 77
     6
176
     1
 78
     2
176
     1
 67
     7
176
     1
 79
     5
176
     1
170
     0
176
     1
171
     0
176
     1
290
     0
176
     1
 93
        1
176
     1
 44
0.0
176
     1
173
     0
176
     1
  0
VISUALSTYLE
  5
36
102
{ACAD_REACTORS
330
2A
102
}
330
2A
100
AcDbVisualStyle
  2
Brighten
 70
    12
177
     2
291
     1
 71
     2
176
     1
 72
     2
176
     1
 73
     0
176
     1
 90
        0
176
     1
 40
-0.6
176
     1
 41
-30.0
176
     1
 62
     5
 63
     7
421
 16777215
176
     1
 74
     1
176
     1
 91
        4
176
     1
 64
     7
176
     1
 65
   257
176
     1
 75
     1
176
     1
175
     1
176
     1
 42
1.0
176
     1
 92
        8
176
     1
 66
     7
176
     1
 43
1.0
176
     1
 76
     1
176
     1
 77
     6
176
     1
 78
     2
176
     1
 67
     7
176
     1
 79
     5
176
     1
170
     0
176
     1
171
     0
176
     1
290
     0
176
     1
 93
        1
176
     1
 44
50.0
176
     1
173
     0
176
     1
  0
VISUALSTYLE
  5
3A
102
{ACAD_REACTORS
330
2A
102
}
330
2A
100
AcDbVisualStyle
  2
ColorChange
 70
    16
177
     2
291
     1
 71
     2
176
     1
 72
     2
176
     1
 73
     3
176
     1
 90
        0
176
     1
 40
-0.6
176
     1
 41
-30.0
176
     1
 62
     5
 63
     8
421
  8421504
176
     1
 74
     1
176
     1
 91
        4
176
     1
 64
     7
176
     1
 65
   257
176
     1
 75
     1
176
     1
175
     1
176
     1
 42
1.0
176
     1
 92
        8
176
     1
 66
     8
424
  8421504
176
     1
 43
1.0
176
     1
 76
     1
176
     1
 77
     6
176
     1
 78
     2
176
     1
 67
     7
176
     1
 79
     5
176
     1
170
     0
176
     1
171
     0
176
     1
290
     0
176
     1
 93
        1
176
     1
 44
0.0
176
     1
173
     0
176
     1
  0
VISUALSTYLE
  5
34
102
{ACAD_REACTORS
330
2A
102
}
330
2A
100
AcDbVisualStyle
  2
Conceptual
 70
     9
177
     2
291
     0
 71
     3
176
     1
 72
     2
176
     1
 73
     0
176
     1
 90
        0
176
     1
 40
-0.6
176
     1
 41
-30.0
176
     1
 62
     5
 63
     7
421
 16777215
176
     1
 74
     2
176
     1
 91
        2
176
     1
 64
     7
176
     1
 65
   257
176
     1
 75
     1
176
     1
175
     1
176
     1
 42
40.0
176
     1
 92
        8
176
     1
 66
     7
176
     1
 43
1.0
176
     1
 76
     1
176
     1
 77
     6
176
     1
 78
     2
176
     1
 67
     7
176
     1
 79
     3
176
     1
170
     0
176
     1
171
     0
176
     1
290
     0
176
     1
 93
        1
176
     1
 44
0.0
176
     1
173
     0
176
     1
  0
VISUALSTYLE
  5
35
102
{ACAD_REACTORS
330
2A
102
}
330
2A
100
AcDbVisualStyle
  2
Dim
 70
    11
177
     2
291
     1
 71
     2
176
     1
 72
     2
176
     1
 73
     0
176
     1
 90
        0
176
     1
 40
-0.6
176
     1
 41
-30.0
176
     1
 62
     5
 63
     7
421
 16777215
176
     1
 74
     1
176
     1
 91
        4
176
     1
 64
     7
176
     1
 65
   257
176
     1
 75
     1
176
     1
175
     1
176
     1
 42
1.0
176
     1
 92
        8
176
     1
 66
     7
176
     1
 43
1.0
176
     1
 76
     1
176
     1
 77
     6
176
     1
 78
     2
176
     1
 67
     7
176
     1
 79
     5
176
     1
170
     0
176
     1
171
     0
176
     1
290
     0
176
     1
 93
        1
176
     1
 44
-50.0
176
     1
173
     0
176
     1
  0
VISUALSTYLE
  5
39
102
{ACAD_REACTORS
330
2A
102
}
330
2A
100
AcDbVisualStyle
  2
Facepattern
 70
    15
177
     2
291
     1
 71
     2
176
     1
 72
     2
176
     1
 73
     0
176
     1
 90
        0
176
     1
 40
-0.6
176
     1
 41
-30.0
176
     1
 62
     5
 63
     7
421
 16777215
176
     1
 74
     1
176
     1
 91
        4
176
     1
 64
     7
176
     1
 65
   257
176
     1
 75
     1
176
     1
175
     1
176
     1
 42
1.0
176
     1
 92
        8
176
     1
 66
     7
176
     1
 43
1.0
176
     1
 76
     1
176
     1
 77
     6
176
     1
 78
     2
176
     1
 67
     7
176
     1
 79
     5
176
     1
170
     0
176
     1
171
     0
176
     1
290
     0
176
     1
 93
        1
176
     1
 44
0.0
176
     1
173
     0
176
     1
  0
VISUALSTYLE
  5
2B
102
{ACAD_REACTORS
330
2A
102
}
330
2A
100
AcDbVisualStyle
  2
Flat
 70
     0
177
     2
291
     1
 71
     2
176
     1
 72
     1
176
     1
 73
     1
176
     1
 90
        2
176
     1
 40
-0.6
176
     1
 41
30.0
176
     1
 62
     5
 63
     7
421
 16777215
176
     1
 74
     0
176
     1
 91
        4
176
     1
 64
     7
176
     1
 65
   257
176
     1
 75
     1
176
     1
175
     1
176
     1
 42
1.0
176
     1
 92
        8
176
     1
 66
     7
176
     1
 43
1.0
176
     1
 76
     1
176
     1
 77
     6
176
     1
 78
     2
176
     1
 67
     7
176
     1
 79
     5
176
     1
170
     0
176
     1
171
     0
176
     1
290
     0
176
     1
 93
       13
176
     1
 44
0.0
176
     1
173
     0
176
     1
  0
VISUALSTYLE
  5
2C
102
{ACAD_REACTORS
330
2A
102
}
330
2A
100
AcDbVisualStyle
  2
FlatWithEdges
 70
     1
177
     2
291
     1
 71
     2
176
     1
 72
     1
176
     1
 73
     1
176
     1
 90
        2
176
     1
 40
-0.6
176
     1
 41
30.0
176
     1
 62
     5
 63
     7
421
 16777215
176
     1
 74
     1
176
     1
 91
        4
176
     1
 64
     7
176
     1
 65
   257
176
     1
 75
     1
176
     1
175
     1
176
     1
 42
1.0
176
     1
 92
        0
176
     1
 66
   257
176
     1
 43
1.0
176
     1
 76
     1
176
     1
 77
     6
176
     1
 78
     2
176
     1
 67
     7
176
     1
 79
     5
176
     1
170
     0
176
     1
171
     0
176
     1
290
     0
176
     1
 93
       13
176
     1
 44
0.0
176
     1
173
     0
176
     1
  0
VISUALSTYLE
  5
2D
102
{ACAD_REACTORS
330
2A
102
}
330
2A
100
AcDbVisualStyle
  2
Gouraud
 70
     2
177
     2
291
     1
 71
     2
176
     1
 72
     2
176
     1
 73
     1
176
     1
 90
        2
176
     1
 40
-0.6
176
     1
 41
30.0
176
     1
 62
     5
 63
     7
421
 16777215
176
     1
 74
     0
176
     1
 91
        4
176
     1
 64
     7
176
     1
 65
   257
176
     1
 75
     1
176
     1
175
     1
176
     1
 42
1.0
176
     1
 92
        0
176
     1
 66
     7
176
     1
 43
1.0
176
     1
 76
     1
176
     1
 77
     6
176
     1
 78
     2
176
     1
 67
     7
176
     1
 79
     5
176
     1
170
     0
176
     1
171
     0
176
     1
290
     0
176
     1
 93
       13
176
     1
 44
0.0
176
     1
173
     0
176
     1
  0
VISUALSTYLE
  5
2E
102
{ACAD_REACTORS
330
2A
102
}
330
2A
100
AcDbVisualStyle
  2
GouraudWithEdges
 70
     3
177
     2
291
     1
 71
     2
176
     1
 72
     2
176
     1
 73
     1
176
     1
 90
        2
176
     1
 40
-0.6
176
     1
 41
30.0
176
     1
 62
     5
 63
     7
421
 16777215
176
     1
 74
     1
176
     1
 91
        4
176
     1
 64
     7
176
     1
 65
   257
176
     1
 75
     1
176
     1
175
     1
176
     1
 42
1.0
176
     1
 92
        0
176
     1
 66
   257
176
     1
 43
1.0
176
     1
 76
     1
176
     1
 77
     6
176
     1
 78
     2
176
     1
 67
     7
176
     1
 79
     5
176
     1
170
     0
176
     1
171
     0
176
     1
290
     0
176
     1
 93
       13
176
     1
 44
0.0
176
     1
173
     0
176
     1
  0
VISUALSTYLE
  5
38
102
{ACAD_REACTORS
330
2A
102
}
330
2A
100
AcDbVisualStyle
  2
Linepattern
 70
    14
177
     2
291
     1
 71
     2
176
     1
 72
     2
176
     1
 73
     0
176
     1
 90
        0
176
     1
 40
-0.6
176
     1
 41
-30.0
176
     1
 62
     5
 63
     7
421
 16777215
176
     1
 74
     1
176
     1
 91
        4
176
     1
 64
     7
176
     1
 65
   257
176
     1
 75
     7
176
     1
175
     7
176
     1
 42
1.0
176
     1
 92
        8
176
     1
 66
     7
176
     1
 43
1.0
176
     1
 76
     1
176
     1
 77
     6
176
     1
 78
     2
176
     1
 67
     7
176
     1
 79
     5
176
     1
170
     0
176
     1
171
     0
176
     1
290
     0
176
     1
 93
        1
176
     1
 44
0.0
176
     1
173
     0
176
     1
  0
VISUALSTYLE
  5
33
102
{ACAD_REACTORS
330
2A
102
}
330
2A
100
AcDbVisualStyle
  2
Realistic
 70
     8
177
     2
291
     0
 71
     2
176
     1
 72
     2
176
     1
 73
     0
176
     1
 90
        0
176
     1
 40
-0.6
176
     1
 41
-30.0
176
     1
 62
     5
 63
     7
421
 16777215
176
     1
 74
     1
176
     1
 91
        0
176
     1
 64
     7
176
     1
 65
   257
176
     1
 75
     1
176
     1
175
     1
176
     1
 42
1.0
176
     1
 92
        8
176
     1
 66
     8
424
  7895160
176
     1
 43
1.0
176
     1
 76
     1
176
     1
 77
     6
176
     1
 78
     2
176
     1
 67
     7
176
     1
 79
     5
176
     1
170
     0
176
     1
171
     0
176
     1
290
     0
176
     1
 93
       13
176
     1
 44
0.0
176
     1
173
     0
176
     1
  0
VISUALSTYLE
  5
37
102
{ACAD_REACTORS
330
2A
102
}
330
2A
100
AcDbVisualStyle
  2
Thicken
 70
    13
177
     2
291
     1
 71
     2
176
     1
 72
     2
176
     1
 73
     0
176
     1
 90
        0
176
     1
 40
-0.6
176
     1
 41
-30.0
176
     1
 62
     5
 63
     7
421
 16777215
176
     1
 74
     1
176
     1
 91
        4
176
     1
 64
     7
176
     1
 65
   257
176
     1
 75
     1
176
     1
175
     1
176
     1
 42
1.0
176
     1
 92
       12
176
     1
 66
     7
176
     1
 43
1.0
176
     1
 76
     1
176
     1
 77
     6
176
     1
 78
     2
176
     1
 67
     7
176
     1
 79
     5
176
     1
170
     0
176
     1
171
     0
176
     1
290
     0
176
     1
 93
        1
176
     1
 44
0.0
176
     1
173
     0
176
     1
  0
ENDSEC
  0
EOF
