  0
SECTION
  2
HEADER
  9
$ACADVER
  1
AC1015
  9
$ACADMAINTVER
 70
    20
  9
$DWGCODEPAGE
  3
ANSI_1252
  9
$INSBASE
 10
0.0
 20
0.0
 30
0.0
  9
$EXTMIN
 10
8303.073462318803
 20
-414.3807932804519
 30
0.0
  9
$EXTMAX
 10
10105.0852920314
 20
387.6192067196712
 30
0.0
  9
$LIMMIN
 10
0.0
 20
0.0
  9
$LIMMAX
 10
420.0
 20
297.0
  9
$ORTHOMODE
 70
     1
  9
$REGENMODE
 70
     1
  9
$FILLMODE
 70
     1
  9
$QTEXTMODE
 70
     0
  9
$MIRRTEXT
 70
     0
  9
$LTSCALE
 40
1.0
  9
$ATTMODE
 70
     1
  9
$TEXTSIZE
 40
2.5
  9
$TRACEWID
 40
1.0
  9
$TEXTSTYLE
  7
Standard
  9
$CLAYER
  8
CAJETIN
  9
$CELTYPE
  6
ByLayer
  9
$CECOLOR
 62
   256
  9
$CELTSCALE
 40
1.0
  9
$DISPSILH
 70
     0
  9
$DIMSCALE
 40
1.0
  9
$DIMASZ
 40
2.5
  9
$DIMEXO
 40
0.625
  9
$DIMDLI
 40
3.75
  9
$DIMRND
 40
0.0
  9
$DIMDLE
 40
0.0
  9
$DIMEXE
 40
1.25
  9
$DIMTP
 40
0.0
  9
$DIMTM
 40
0.0
  9
$DIMTXT
 40
2.5
  9
$DIMCEN
 40
2.5
  9
$DIMTSZ
 40
0.0
  9
$DIMTOL
 70
     0
  9
$DIMLIM
 70
     0
  9
$DIMTIH
 70
     0
  9
$DIMTOH
 70
     0
  9
$DIMSE1
 70
     0
  9
$DIMSE2
 70
     0
  9
$DIMTAD
 70
     1
  9
$DIMZIN
 70
     8
  9
$DIMBLK
  1

  9
$DIMASO
 70
     1
  9
$DIMSHO
 70
     1
  9
$DIMPOST
  1

  9
$DIMAPOST
  1

  9
$DIMALT
 70
     0
  9
$DIMALTD
 70
     3
  9
$DIMALTF
 40
0.03937007874016
  9
$DIMLFAC
 40
1.0
  9
$DIMTOFL
 70
     1
  9
$DIMTVP
 40
0.0
  9
$DIMTIX
 70
     0
  9
$DIMSOXD
 70
     0
  9
$DIMSAH
 70
     0
  9
$DIMBLK1
  1

  9
$DIMBLK2
  1

  9
$DIMSTYLE
  2
ISO-25
  9
$DIMCLRD
 70
     0
  9
$DIMCLRE
 70
     0
  9
$DIMCLRT
 70
     0
  9
$DIMTFAC
 40
1.0
  9
$DIMGAP
 40
0.625
  9
$DIMJUST
 70
     0
  9
$DIMSD1
 70
     0
  9
$DIMSD2
 70
     0
  9
$DIMTOLJ
 70
     0
  9
$DIMTZIN
 70
     8
  9
$DIMALTZ
 70
     0
  9
$DIMALTTZ
 70
     0
  9
$DIMUPT
 70
     0
  9
$DIMDEC
 70
     2
  9
$DIMTDEC
 70
     2
  9
$DIMALTU
 70
     2
  9
$DIMALTTD
 70
     3
  9
$DIMTXSTY
  7
Standard
  9
$DIMAUNIT
 70
     0
  9
$DIMADEC
 70
     0
  9
$DIMALTRND
 40
0.0
  9
$DIMAZIN
 70
     0
  9
$DIMDSEP
 70
    44
  9
$DIMATFIT
 70
     3
  9
$DIMFRAC
 70
     0
  9
$DIMLDRBLK
  1

  9
$DIMLUNIT
 70
     2
  9
$DIMLWD
 70
    -2
  9
$DIMLWE
 70
    -2
  9
$DIMTMOVE
 70
     0
  9
$LUNITS
 70
     2
  9
$LUPREC
 70
     4
  9
$SKETCHINC
 40
1.0
  9
$FILLETRAD
 40
5.0
  9
$AUNITS
 70
     0
  9
$AUPREC
 70
     0
  9
$MENU
  1
.
  9
$ELEVATION
 40
0.0
  9
$PELEVATION
 40
0.0
  9
$THICKNESS
 40
0.0
  9
$LIMCHECK
 70
     0
  9
$CHAMFERA
 40
0.0
  9
$CHAMFERB
 40
0.0
  9
$CHAMFERC
 40
0.0
  9
$CHAMFERD
 40
0.0
  9
$SKPOLY
 70
     0
  9
$TDCREATE
 40
2454650.422186227
  9
$TDUCREATE
 40
2454650.380519560
  9
$TDUPDATE
 40
2454785.453617801
  9
$TDUUPDATE
 40
2454785.411951135
  9
$TDINDWG
 40
0.2629653241
  9
$TDUSRTIMER
 40
0.2629651505
  9
$USRTIMER
 70
     1
  9
$ANGBASE
 50
0.0
  9
$ANGDIR
 70
     0
  9
$PDMODE
 70
     0
  9
$PDSIZE
 40
0.0
  9
$PLINEWID
 40
0.0
  9
$SPLFRAME
 70
     0
  9
$SPLINETYPE
 70
     6
  9
$SPLINESEGS
 70
     8
  9
$HANDSEED
  5
22CB
  9
$SURFTAB1
 70
     6
  9
$SURFTAB2
 70
     6
  9
$SURFTYPE
 70
     6
  9
$SURFU
 70
     6
  9
$SURFV
 70
     6
  9
$UCSBASE
  2

  9
$UCSNAME
  2

  9
$UCSORG
 10
0.0
 20
0.0
 30
0.0
  9
$UCSXDIR
 10
1.0
 20
0.0
 30
0.0
  9
$UCSYDIR
 10
0.0
 20
1.0
 30
0.0
  9
$UCSORTHOREF
  2

  9
$UCSORTHOVIEW
 70
     0
  9
$UCSORGTOP
 10
0.0
 20
0.0
 30
0.0
  9
$UCSORGBOTTOM
 10
0.0
 20
0.0
 30
0.0
  9
$UCSORGLEFT
 10
0.0
 20
0.0
 30
0.0
  9
$UCSORGRIGHT
 10
0.0
 20
0.0
 30
0.0
  9
$UCSORGFRONT
 10
0.0
 20
0.0
 30
0.0
  9
$UCSORGBACK
 10
0.0
 20
0.0
 30
0.0
  9
$PUCSBASE
  2

  9
$PUCSNAME
  2

  9
$PUCSORG
 10
0.0
 20
0.0
 30
0.0
  9
$PUCSXDIR
 10
1.0
 20
0.0
 30
0.0
  9
$PUCSYDIR
 10
0.0
 20
1.0
 30
0.0
  9
$PUCSORTHOREF
  2

  9
$PUCSORTHOVIEW
 70
     0
  9
$PUCSORGTOP
 10
0.0
 20
0.0
 30
0.0
  9
$PUCSORGBOTTOM
 10
0.0
 20
0.0
 30
0.0
  9
$PUCSORGLEFT
 10
0.0
 20
0.0
 30
0.0
  9
$PUCSORGRIGHT
 10
0.0
 20
0.0
 30
0.0
  9
$PUCSORGFRONT
 10
0.0
 20
0.0
 30
0.0
  9
$PUCSORGBACK
 10
0.0
 20
0.0
 30
0.0
  9
$USERI1
 70
     0
  9
$USERI2
 70
     0
  9
$USERI3
 70
     0
  9
$USERI4
 70
     0
  9
$USERI5
 70
     0
  9
$USERR1
 40
0.0
  9
$USERR2
 40
0.0
  9
$USERR3
 40
0.0
  9
$USERR4
 40
0.0
  9
$USERR5
 40
0.0
  9
$WORLDVIEW
 70
     1
  9
$SHADEDGE
 70
     3
  9
$SHADEDIF
 70
    70
  9
$TILEMODE
 70
     1
  9
$MAXACTVP
 70
    64
  9
$PINSBASE
 10
0.0
 20
0.0
 30
0.0
  9
$PLIMCHECK
 70
     0
  9
$PEXTMIN
 10
1.000000000000000E+20
 20
1.000000000000000E+20
 30
1.000000000000000E+20
  9
$PEXTMAX
 10
-1.000000000000000E+20
 20
-1.000000000000000E+20
 30
-1.000000000000000E+20
  9
$PLIMMIN
 10
0.0
 20
0.0
  9
$PLIMMAX
 10
420.0
 20
297.0
  9
$UNITMODE
 70
     0
  9
$VISRETAIN
 70
     1
  9
$PLINEGEN
 70
     0
  9
$PSLTSCALE
 70
     1
  9
$TREEDEPTH
 70
  3020
  9
$CMLSTYLE
  2
Standard
  9
$CMLJUST
 70
     0
  9
$CMLSCALE
 40
20.0
  9
$PROXYGRAPHICS
 70
     1
  9
$MEASUREMENT
 70
     1
  9
$CELWEIGHT
370
    -3
  9
$ENDCAPS
280
     0
  9
$JOINSTYLE
280
     0
  9
$LWDISPLAY
290
     0
  9
$INSUNITS
 70
     4
  9
$HYPERLINKBASE
  1

  9
$STYLESHEET
  1
gala_laser.ctb
  9
$XEDIT
290
     1
  9
$CEPSNTYPE
380
     0
  9
$PSTYLEMODE
290
     1
  9
$FINGERPRINTGUID
  2
{3F6C35F8-3C00-418F-80D7-16B824E586B7}
  9
$VERSIONGUID
  2
{04FC7041-7114-4FA7-B730-83DB42AB7DD0}
  9
$EXTNAMES
290
     1
  9
$PSVPSCALE
 40
0.0
  9
$OLESTARTUP
290
     0
  0
ENDSEC
  0
SECTION
  2
CLASSES
  0
CLASS
  1
ACDBDICTIONARYWDFLT
  2
AcDbDictionaryWithDefault
  3
ObjectDBX Classes
 90
        0
280
     0
281
     0
  0
CLASS
  1
MATERIAL
  2
AcDbMaterial
  3
ObjectDBX Classes
 90
     1024
280
     0
281
     0
  0
CLASS
  1
VISUALSTYLE
  2
AcDbVisualStyle
  3
ObjectDBX Classes
 90
     4095
280
     0
281
     0
  0
CLASS
  1
TABLESTYLE
  2
AcDbTableStyle
  3
ObjectDBX Classes
 90
     4095
280
     0
281
     0
  0
CLASS
  1
LARGE_RADIAL_DIMENSION
  2
AcDbRadialDimensionLarge
  3
ObjectDBX Classes
 90
    33793
280
     0
281
     1
  0
CLASS
  1
DICTIONARYVAR
  2
AcDbDictionaryVar
  3
ObjectDBX Classes
 90
        0
280
     0
281
     0
  0
CLASS
  1
DIMASSOC
  2
AcDbDimAssoc
  3
"AcDbDimAssoc|Product Desc:     AcDim ARX App For Dimension|Company:          Autodesk, Inc.|WEB Address:      www.autodesk.com"
 90
    32768
280
     0
281
     0
  0
CLASS
  1
SORTENTSTABLE
  2
AcDbSortentsTable
  3
ObjectDBX Classes
 90
        0
280
     0
281
     0
  0
CLASS
  1
ACDBPLACEHOLDER
  2
AcDbPlaceHolder
  3
ObjectDBX Classes
 90
        0
280
     0
281
     0
  0
CLASS
  1
LAYOUT
  2
AcDbLayout
  3
ObjectDBX Classes
 90
        0
280
     0
281
     0
  0
CLASS
  1
VBA_PROJECT
  2
AcDbVbaProject
  3
AcadVBA
 90
        0
280
     0
281
     0
  0
ENDSEC
  0
SECTION
  2
TABLES
  0
TABLE
  2
VPORT
  5
8
102
{ACAD_XDICTIONARY
360
219B
102
}
330
0
100
AcDbSymbolTable
 70
     1
  0
VPORT
  5
28
330
8
100
AcDbSymbolTableRecord
100
AcDbViewportTableRecord
  2
*Active
 70
     0
 10
0.0
 20
0.0
 11
1.0
 21
1.0
 12
9194.053139607143
 22
-37.47959323006217
 13
0.0
 23
0.0
 14
10.0
 24
10.0
 15
10.0
 25
10.0
 16
0.0
 26
0.0
 36
1.0
 17
0.0
 27
0.0
 37
0.0
 40
2619.363868322178
 41
1.562306900102986
 42
50.0
 43
0.0
 44
0.0
 50
0.0
 51
0.0
 71
     0
 72
  1000
 73
     1
 74
     3
 75
     0
 76
     0
 77
     0
 78
     2
281
     0
 65
     1
110
0.0
120
0.0
130
0.0
111
1.0
121
0.0
131
0.0
112
0.0
122
1.0
132
0.0
 79
     0
146
0.0
  0
ENDTAB
  0
TABLE
  2
LTYPE
  5
5
330
0
100
AcDbSymbolTable
 70
     3
  0
LTYPE
  5
29
330
5
100
AcDbSymbolTableRecord
100
AcDbLinetypeTableRecord
  2
ByBlock
 70
     0
  3

 72
    65
 73
     0
 40
0.0
  0
LTYPE
  5
2A
330
5
100
AcDbSymbolTableRecord
100
AcDbLinetypeTableRecord
  2
ByLayer
 70
     0
  3

 72
    65
 73
     0
 40
0.0
  0
LTYPE
  5
2B
330
5
100
AcDbSymbolTableRecord
100
AcDbLinetypeTableRecord
  2
Continuous
 70
     0
  3
Solid line
 72
    65
 73
     0
 40
0.0
  0
LTYPE
  5
427
330
5
100
AcDbSymbolTableRecord
100
AcDbLinetypeTableRecord
  2
CENTER
 70
     0
  3
Center ____ _ ____ _ ____ _ ____ _ ____ _ ____
 72
    65
 73
     4
 40
10.16
 49
6.349999999999999
 74
     0
 49
-1.27
 74
     0
 49
1.27
 74
     0
 49
-1.27
 74
     0
  0
LTYPE
  5
428
330
5
100
AcDbSymbolTableRecord
100
AcDbLinetypeTableRecord
  2
ACAD_ISO02W100
 70
     0
  3
 ISO trazo __ __ __ __ __ __ __ __ __ __ __ __ __
 72
    65
 73
     2
 40
15.0
 49
12.0
 74
     0
 49
-3.0
 74
     0
  0
ENDTAB
  0
TABLE
  2
LAYER
  5
2
102
{ACAD_XDICTIONARY
360
F45
102
}
330
0
100
AcDbSymbolTable
 70
    10
  0
LAYER
  5
25
330
2
100
AcDbSymbolTableRecord
100
AcDbLayerTableRecord
  2
0
 70
     0
 62
     7
  6
Continuous
370
    -3
390
F
  0
LAYER
  5
429
330
2
100
AcDbSymbolTableRecord
100
AcDbLayerTableRecord
  2
Defpoints
 70
     0
 62
     7
  6
Continuous
290
     0
370
    -3
390
F
  0
LAYER
  5
42A
330
2
100
AcDbSymbolTableRecord
100
AcDbLayerTableRecord
  2
CAJETIN
 70
     0
 62
     4
  6
Continuous
370
     0
390
F
  0
LAYER
  5
42C
330
2
100
AcDbSymbolTableRecord
100
AcDbLayerTableRecord
  2
EJES
 70
     0
 62
     2
  6
CENTER
370
     0
390
F
  0
LAYER
  5
42D
330
2
100
AcDbSymbolTableRecord
100
AcDbLayerTableRecord
  2
SOMBREA
 70
     0
 62
     8
  6
Continuous
370
     0
390
F
  0
LAYER
  5
42E
330
2
100
AcDbSymbolTableRecord
100
AcDbLayerTableRecord
  2
TEXTO-MODIF
 70
     0
 62
    11
  6
Continuous
370
     0
390
F
  0
LAYER
  5
42F
330
2
100
AcDbSymbolTableRecord
100
AcDbLayerTableRecord
  2
PC-SHOP
 70
     0
 62
     5
  6
Continuous
370
     0
390
F
  0
LAYER
  5
430
330
2
100
AcDbSymbolTableRecord
100
AcDbLayerTableRecord
  2
TERMOCONFORMADO
 70
     0
 62
     7
  6
Continuous
370
    -3
390
F
1001
AcAecLayerStandard
1000

1000

  0
LAYER
  5
432
330
2
100
AcDbSymbolTableRecord
100
AcDbLayerTableRecord
  2
Resina
 70
     0
 62
     1
  6
Continuous
370
    -3
390
F
1001
AcAecLayerStandard
1000

1000

  0
LAYER
  5
F3F
330
2
100
AcDbSymbolTableRecord
100
AcDbLayerTableRecord
  2
OCULTO
 70
     0
 62
     1
  6
Continuous
370
    -3
390
F
  0
ENDTAB
  0
TABLE
  2
STYLE
  5
3
330
0
100
AcDbSymbolTable
 70
     6
  0
STYLE
  5
26
330
3
100
AcDbSymbolTableRecord
100
AcDbTextStyleTableRecord
  2
Standard
 70
     0
 40
0.0
 41
1.0
 50
0.0
 71
     0
 42
2.5
  3
txt
  4

  0
STYLE
  5
433
330
3
100
AcDbSymbolTableRecord
100
AcDbTextStyleTableRecord
  2
ROMANS
 70
     0
 40
0.0
 41
1.0
 50
0.0
 71
     0
 42
2.0
  3
romans
  4

  0
STYLE
  5
434
330
3
100
AcDbSymbolTableRecord
100
AcDbTextStyleTableRecord
  2
ISO
 70
     0
 40
0.0
 41
1.0
 50
0.0
 71
     0
 42
12.5
  3
ISOCP.SHX
  4

  0
STYLE
  5
435
330
3
100
AcDbSymbolTableRecord
100
AcDbTextStyleTableRecord
  2
ROMAND
 70
     0
 40
0.0
 41
1.0
 50
0.0
 71
     0
 42
32.0
  3
ROMAND.SHX
  4

  0
STYLE
  5
436
330
3
100
AcDbSymbolTableRecord
100
AcDbTextStyleTableRecord
  2
caja_tdd
 70
     0
 40
0.0
 41
1.0
 50
0.0
 71
     0
 42
2.222036685865759
  3
ARIAL.TTF
  4

1001
ACAD
1000
Arial
1071
       34
  0
STYLE
  5
F40
330
3
100
AcDbSymbolTableRecord
100
AcDbTextStyleTableRecord
  2
arial
 70
     0
 40
0.0
 41
1.0
 50
0.0
 71
     0
 42
4.0
  3
ARIAL.TTF
  4

1001
ACAD
1000
Arial
1071
       34
  0
ENDTAB
  0
TABLE
  2
VIEW
  5
6
330
0
100
AcDbSymbolTable
 70
     0
  0
ENDTAB
  0
TABLE
  2
UCS
  5
7
330
0
100
AcDbSymbolTable
 70
     0
  0
ENDTAB
  0
TABLE
  2
APPID
  5
9
330
0
100
AcDbSymbolTable
 70
     8
  0
APPID
  5
27
330
9
100
AcDbSymbolTableRecord
100
AcDbRegAppTableRecord
  2
ACAD
 70
     0
  0
APPID
  5
438
330
9
100
AcDbSymbolTableRecord
100
AcDbRegAppTableRecord
  2
AcAecLayerStandard
 70
     0
  0
APPID
  5
439
330
9
100
AcDbSymbolTableRecord
100
AcDbRegAppTableRecord
  2
ACAD_PSEXT
 70
     0
  0
APPID
  5
EFF
330
9
100
AcDbSymbolTableRecord
100
AcDbRegAppTableRecord
  2
ACAD_EXEMPT_FROM_CAD_STANDARDS
 70
     0
  0
APPID
  5
F42
330
9
100
AcDbSymbolTableRecord
100
AcDbRegAppTableRecord
  2
AcDbDynamicBlockGUID
 70
     0
  0
APPID
  5
F43
330
9
100
AcDbSymbolTableRecord
100
AcDbRegAppTableRecord
  2
AcDbBlockRepETag
 70
     0
  0
APPID
  5
F44
330
9
100
AcDbSymbolTableRecord
100
AcDbRegAppTableRecord
  2
ACAD_DSTYLE_DIMJOGGED_JOGANGLE_SYMBOL
 70
     0
  0
APPID
  5
1F8B
330
9
100
AcDbSymbolTableRecord
100
AcDbRegAppTableRecord
  2
DCO15
 70
     0
  0
ENDTAB
  0
TABLE
  2
DIMSTYLE
  5
A
330
0
100
AcDbSymbolTable
 70
     2
100
AcDbDimStyleTable
 71
     2
340
3F
340
0
  0
DIMSTYLE
105
3F
330
A
100
AcDbSymbolTableRecord
100
AcDbDimStyleTableRecord
  2
ISO-25
 70
     0
 41
2.5
 42
0.625
 43
3.75
 44
1.25
 73
     0
 74
     0
 77
     1
 78
     8
140
2.5
141
2.5
143
0.03937007874016
147
0.625
171
     3
172
     1
271
     2
272
     2
274
     3
278
    44
283
     0
284
     8
340
26
1001
ACAD_DSTYLE_DIMJOGGED_JOGANGLE_SYMBOL
1070
   384
1040
1.570796326794896
  0
DIMSTYLE
105
437
330
A
100
AcDbSymbolTableRecord
100
AcDbDimStyleTableRecord
  2
Standard
 70
     0
340
26
  0
ENDTAB
  0
TABLE
  2
BLOCK_RECORD
  5
1
330
0
100
AcDbSymbolTable
 70
    11
  0
BLOCK_RECORD
  5
37
102
{ACAD_XDICTIONARY
360
160E
102
}
330
1
100
AcDbSymbolTableRecord
100
AcDbBlockTableRecord
  2
*Model_Space
340
3A
  0
BLOCK_RECORD
  5
33
330
1
100
AcDbSymbolTableRecord
100
AcDbBlockTableRecord
  2
*Paper_Space
340
36
  0
BLOCK_RECORD
  5
3B
330
1
100
AcDbSymbolTableRecord
100
AcDbBlockTableRecord
  2
*Paper_Space0
340
3E
  0
BLOCK_RECORD
  5
43
330
1
100
AcDbSymbolTableRecord
100
AcDbBlockTableRecord
  2
*X1
340
0
102
{BLKREFS
331
DD
102
}
  0
BLOCK_RECORD
  5
DB
330
1
100
AcDbSymbolTableRecord
100
AcDbBlockTableRecord
  2
GALA
340
0
  0
BLOCK_RECORD
  5
1E7
330
1
100
AcDbSymbolTableRecord
100
AcDbBlockTableRecord
  2
logo_cajetin
340
0
  0
BLOCK_RECORD
  5
F05
330
1
100
AcDbSymbolTableRecord
100
AcDbBlockTableRecord
  2
t1
340
0
310
2800000020000000200000000100080000000000000400000000000000000000000000000000000000000000000080000080000000808000800000008000800080800000C0C0C000C0DCC000F0CAA6000020400000206000002080000020A0000020C0000020E00000400000004020000040400000406000004080000040A0
310
000040C0000040E00000600000006020000060400000606000006080000060A0000060C0000060E00000800000008020000080400000806000008080000080A0000080C0000080E00000A0000000A0200000A0400000A0600000A0800000A0A00000A0C00000A0E00000C0000000C0200000C0400000C0600000C0800000C0
310
A00000C0C00000C0E00000E0000000E0200000E0400000E0600000E0800000E0A00000E0C00000E0E00040000000400020004000400040006000400080004000A0004000C0004000E00040200000402020004020400040206000402080004020A0004020C0004020E000404000004040200040404000404060004040800040
310
40A0004040C0004040E00040600000406020004060400040606000406080004060A0004060C0004060E00040800000408020004080400040806000408080004080A0004080C0004080E00040A0000040A0200040A0400040A0600040A0800040A0A00040A0C00040A0E00040C0000040C0200040C0400040C0600040C08000
310
40C0A00040C0C00040C0E00040E0000040E0200040E0400040E0600040E0800040E0A00040E0C00040E0E00080000000800020008000400080006000800080008000A0008000C0008000E00080200000802020008020400080206000802080008020A0008020C0008020E00080400000804020008040400080406000804080
310
008040A0008040C0008040E00080600000806020008060400080606000806080008060A0008060C0008060E00080800000808020008080400080806000808080008080A0008080C0008080E00080A0000080A0200080A0400080A0600080A0800080A0A00080A0C00080A0E00080C0000080C0200080C0400080C0600080C0
310
800080C0A00080C0C00080C0E00080E0000080E0200080E0400080E0600080E0800080E0A00080E0C00080E0E000C0000000C0002000C0004000C0006000C0008000C000A000C000C000C000E000C0200000C0202000C0204000C0206000C0208000C020A000C020C000C020E000C0400000C0402000C0404000C0406000C0
310
408000C040A000C040C000C040E000C0600000C0602000C0604000C0606000C0608000C060A000C060C000C060E000C0800000C0802000C0804000C0806000C0808000C080A000C080C000C080E000C0A00000C0A02000C0A04000C0A06000C0A08000C0A0A000C0A0C000C0A0E000C0C00000C0C02000C0C04000C0C06000
310
C0C08000C0C0A000F0FBFF00A4A0A000808080000000FF0000FF000000FFFF00FF000000FF00FF00FFFF0000FFFFFF0000000000000000000000000000000000000000000000000000000000000000000000000000000000000000000000000000000000000000000000000000000000000000000000000000000000000000
310
00000000000000000000000000000000000000000000000000000000000000000000000000000000000000000000000000000000000000000000000000000000000000000000000000000000000000000000000000000000000000000000000000000000000000000000000000000000000000000000000000000000000000
310
00000000000000000000000000000000000000000000000000000000000000000000000000000000000000000000000000000000000000000000000000000000000000000000000000000000000000000000000000000000000000000000000000000000000000000000000000000000000000000000000000000000000000
310
000000000000000000000000000000000000000000000000000000000000000000000000000000000000000000000000000000000000000000000000000000000000000000000000000000000000000000000000000000000000000000000000000000000000000000000000000000FFFF000000FFFFFFFFFFFFFFFFFFFFFF
310
FFFFFFFFFFFFFFFFFFFFFFFFFFFFFFFFFFFF000000FF000000000000000000000000FFFFFFFF000000000000000000000000FF000000FF0000000000000000000000FFFFFFFF000000000000000000000000FF000000FF0000A4A4A4A4A4A4A4A4A4A4A4A4F9F9F9F9F9F9F9F9F9F9F9F9F9FF000000FFF9F9F9F9F9F9F9F9
310
F9F9F9F9F9F9A4A4A4A4A4A4A4A4A4A4000000000000000000000000000000000000000000000000000000000000000000000000000000000000000000000000000000000000000000000000000000000000000000000000000000000000000000000000000000000000000000000000000000000000000000000000000000
310
00000000000000000000000000000000000000000000000000000000000000000000000000000000000000000000000000000000000000000000000000000000000000000000000000000000000000000000000000000000000000000000000000000000000000000000000000000000000000000000000000000000000000
310
00000000000000000000000000000000000000000000000000000000000000000000000000000000000000000000000000000000000000000000000000000000000000000000000000000000000000000000000000000000000000000000000000000000000000000000000000000000000000000000000000000000000000
310
0000000000000000000000000000000000000000000000000000000000000000000000000000000000000000000000000000000000000000
1001
AcDbDynamicBlockGUID
1000
{E16A36D0-AEAC-493B-BAF7-3FFD28C82168}
1001
AcDbBlockRepETag
1070
     1
1071
        5
1001
ACAD
1000
DesignCenter Data
1002
{
1070
     1
1070
     4
1002
}
  0
BLOCK_RECORD
  5
1475
330
1
100
AcDbSymbolTableRecord
100
AcDbBlockTableRecord
  2
A$C7D637789
340
0
1001
ACAD
1000
DesignCenter Data
1002
{
1070
     1
1070
     4
1002
}
  0
BLOCK_RECORD
  5
1F8C
102
{ACAD_XDICTIONARY
360
2078
102
}
330
1
100
AcDbSymbolTableRecord
100
AcDbBlockTableRecord
  2
A$C094D4792
340
0
1001
ACAD
1000
DesignCenter Data
1002
{
1070
     1
1070
     4
1002
}
  0
BLOCK_RECORD
  5
2168
102
{ACAD_XDICTIONARY
360
218F
102
}
330
1
100
AcDbSymbolTableRecord
100
AcDbBlockTableRecord
  2
A$C657D58BB
340
0
1001
ACAD
1000
DesignCenter Data
1002
{
1070
     1
1070
     4
1002
}
  0
BLOCK_RECORD
  5
2203
102
{ACAD_XDICTIONARY
360
2228
102
}
330
1
100
AcDbSymbolTableRecord
100
AcDbBlockTableRecord
  2
A$C0832362E
340
0
1001
ACAD
1000
DesignCenter Data
1002
{
1070
     1
1070
     4
1002
}
  0
BLOCK_RECORD
  5
222C
102
{ACAD_XDICTIONARY
360
2251
102
}
330
1
100
AcDbSymbolTableRecord
100
AcDbBlockTableRecord
  2
A$C345A067A
340
0
1001
ACAD
1000
DesignCenter Data
1002
{
1070
     1
1070
     4
1002
}
  0
BLOCK_RECORD
  5
2291
102
{ACAD_XDICTIONARY
360
22AD
102
}
330
1
100
AcDbSymbolTableRecord
100
AcDbBlockTableRecord
  2
A$C3BC61417
340
0
102
{BLKREFS
331
22B1
102
}
1001
ACAD
1000
DesignCenter Data
1002
{
1070
     1
1070
     4
1002
}
  0
ENDTAB
  0
ENDSEC
  0
SECTION
  2
BLOCKS
  0
BLOCK
  5
38
330
37
100
AcDbEntity
  8
0
100
AcDbBlockBegin
  2
*Model_Space
 70
     0
 10
0.0
 20
0.0
 30
0.0
  3
*Model_Space
  1

  0
ENDBLK
  5
39
330
37
100
AcDbEntity
  8
0
100
AcDbBlockEnd
  0
BLOCK
  5
34
330
33
100
AcDbEntity
 67
     1
  8
0
100
AcDbBlockBegin
  2
*Paper_Space
 70
     0
 10
0.0
 20
0.0
 30
0.0
  3
*Paper_Space
  1

  0
ENDBLK
  5
35
330
33
100
AcDbEntity
 67
     1
  8
0
100
AcDbBlockEnd
  0
BLOCK
  5
3C
330
3B
100
AcDbEntity
 67
     1
  8
0
100
AcDbBlockBegin
  2
*Paper_Space0
 70
     0
 10
0.0
 20
0.0
 30
0.0
  3
*Paper_Space0
  1

  0
ENDBLK
  5
3D
330
3B
100
AcDbEntity
 67
     1
  8
0
100
AcDbBlockEnd
  0
BLOCK
  5
44
330
43
100
AcDbEntity
  8
0
100
AcDbBlockBegin
  2
*X1
 70
     1
 10
0.0
 20
0.0
 30
0.0
  3
*X1
  1

  0
LINE
  5
45
330
43
100
AcDbEntity
  8
0
 62
     0
100
AcDbLine
 10
410.1211432029675
 20
239.04
 30
0.0
 11
411.4530732550745
 21
239.04
 31
0.0
  0
LINE
  5
46
330
43
100
AcDbEntity
  8
0
 62
     0
100
AcDbLine
 10
426.9637592912625
 20
239.04
 30
0.0
 11
428.2144079470441
 21
239.04
 31
0.0
  0
LINE
  5
47
330
43
100
AcDbEntity
  8
0
 62
     0
100
AcDbLine
 10
413.6368159113691
 20
239.04
 30
0.0
 11
414.928531647217
 21
239.04
 31
0.0
  0
LINE
  5
48
330
43
100
AcDbEntity
  8
0
 62
     0
100
AcDbLine
 10
423.9929714285875
 20
239.04
 30
0.0
 11
426.0017131151199
 21
239.04
 31
0.0
  0
LINE
  5
49
330
43
100
AcDbEntity
  8
0
 62
     0
100
AcDbLine
 10
416.0691757181634
 20
239.04
 30
0.0
 11
418.0779174046958
 21
239.04
 31
0.0
  0
LINE
  5
4A
330
43
100
AcDbEntity
  8
0
 62
     0
100
AcDbLine
 10
421.592616030441
 20
239.04
 30
0.0
 11
422.8432646862227
 21
239.04
 31
0.0
  0
LINE
  5
4B
330
43
100
AcDbEntity
  8
0
 62
     0
100
AcDbLine
 10
419.0399635808379
 20
239.04
 30
0.0
 11
420.2906122366196
 21
239.04
 31
0.0
  0
LINE
  5
4C
330
43
100
AcDbEntity
  8
0
 62
     0
100
AcDbLine
 10
410.0948109145662
 20
239.28
 30
0.0
 11
411.4341641641654
 21
239.28
 31
0.0
  0
LINE
  5
4D
330
43
100
AcDbEntity
  8
0
 62
     0
100
AcDbLine
 10
424.1801048725291
 20
239.28
 30
0.0
 11
428.2144079470441
 21
239.28
 31
0.0
  0
LINE
  5
4E
330
43
100
AcDbEntity
  8
0
 62
     0
100
AcDbLine
 10
413.6499068204599
 20
239.28
 30
0.0
 11
414.928531647217
 21
239.28
 31
0.0
  0
LINE
  5
4F
330
43
100
AcDbEntity
  8
0
 62
     0
100
AcDbLine
 10
421.592616030441
 20
239.28
 30
0.0
 11
422.8432646862227
 21
239.28
 31
0.0
  0
LINE
  5
50
330
43
100
AcDbEntity
  8
0
 62
     0
100
AcDbLine
 10
416.2563091621048
 20
239.28
 30
0.0
 11
420.2906122366197
 21
239.28
 31
0.0
  0
LINE
  5
51
330
43
100
AcDbEntity
  8
0
 62
     0
100
AcDbLine
 10
410.1036650498557
 20
239.52
 30
0.0
 11
411.4332878443717
 21
239.52
 31
0.0
  0
LINE
  5
52
330
43
100
AcDbEntity
  8
0
 62
     0
100
AcDbLine
 10
424.4735711575037
 20
239.52
 30
0.0
 11
428.2144079470441
 21
239.52
 31
0.0
  0
LINE
  5
53
330
43
100
AcDbEntity
  8
0
 62
     0
100
AcDbLine
 10
413.6505135033941
 20
239.52
 30
0.0
 11
414.928531647217
 21
239.52
 31
0.0
  0
LINE
  5
54
330
43
100
AcDbEntity
  8
0
 62
     0
100
AcDbLine
 10
421.592616030441
 20
239.52
 30
0.0
 11
422.8432646862227
 21
239.52
 31
0.0
  0
LINE
  5
55
330
43
100
AcDbEntity
  8
0
 62
     0
100
AcDbLine
 10
416.5497754470791
 20
239.52
 30
0.0
 11
420.2906122366197
 21
239.52
 31
0.0
  0
LINE
  5
56
330
43
100
AcDbEntity
  8
0
 62
     0
100
AcDbLine
 10
410.1300801441955
 20
239.76
 30
0.0
 11
411.4520830250945
 21
239.76
 31
0.0
  0
LINE
  5
57
330
43
100
AcDbEntity
  8
0
 62
     0
100
AcDbLine
 10
425.0160323046493
 20
239.76
 30
0.0
 11
428.2144079470441
 21
239.76
 31
0.0
  0
LINE
  5
58
330
43
100
AcDbEntity
  8
0
 62
     0
100
AcDbLine
 10
413.6375014552013
 20
239.76
 30
0.0
 11
414.928531647217
 21
239.76
 31
0.0
  0
LINE
  5
59
330
43
100
AcDbEntity
  8
0
 62
     0
100
AcDbLine
 10
421.592616030441
 20
239.76
 30
0.0
 11
422.8432646862227
 21
239.76
 31
0.0
  0
LINE
  5
5A
330
43
100
AcDbEntity
  8
0
 62
     0
100
AcDbLine
 10
417.0909568387308
 20
239.76
 30
0.0
 11
420.2906122366197
 21
239.76
 31
0.0
  0
LINE
  5
5B
330
43
100
AcDbEntity
  8
0
 62
     0
100
AcDbLine
 10
410.1564952385352
 20
240.0
 30
0.0
 11
411.4853441615805
 21
240.0
 31
0.0
  0
LINE
  5
5C
330
43
100
AcDbEntity
  8
0
 62
     0
100
AcDbLine
 10
426.3861817215199
 20
240.0
 30
0.0
 11
428.2144079470441
 21
240.0
 31
0.0
  0
LINE
  5
5D
330
43
100
AcDbEntity
  8
0
 62
     0
100
AcDbLine
 10
413.6059085239325
 20
240.0
 30
0.0
 11
414.928531647217
 21
240.0
 31
0.0
  0
LINE
  5
5E
330
43
100
AcDbEntity
  8
0
 62
     0
100
AcDbLine
 10
421.592616030441
 20
240.0
 30
0.0
 11
422.8432646862227
 21
240.0
 31
0.0
  0
LINE
  5
5F
330
43
100
AcDbEntity
  8
0
 62
     0
100
AcDbLine
 10
418.4623860110955
 20
240.0
 30
0.0
 11
420.2906122366196
 21
240.0
 31
0.0
  0
LINE
  5
60
330
43
100
AcDbEntity
  8
0
 62
     0
100
AcDbLine
 10
410.1829103328748
 20
240.24
 30
0.0
 11
411.5413441615807
 21
240.24
 31
0.0
  0
LINE
  5
61
330
43
100
AcDbEntity
  8
0
 62
     0
100
AcDbLine
 10
426.8415083519988
 20
240.24
 30
0.0
 11
428.2144079470441
 21
240.24
 31
0.0
  0
LINE
  5
62
330
43
100
AcDbEntity
  8
0
 62
     0
100
AcDbLine
 10
413.5451085239327
 20
240.24
 30
0.0
 11
414.928531647217
 21
240.24
 31
0.0
  0
LINE
  5
63
330
43
100
AcDbEntity
  8
0
 62
     0
100
AcDbLine
 10
421.592616030441
 20
240.24
 30
0.0
 11
422.8432646862227
 21
240.24
 31
0.0
  0
LINE
  5
64
330
43
100
AcDbEntity
  8
0
 62
     0
100
AcDbLine
 10
418.9177126415745
 20
240.24
 30
0.0
 11
420.2906122366196
 21
240.24
 31
0.0
  0
LINE
  5
65
330
43
100
AcDbEntity
  8
0
 62
     0
100
AcDbLine
 10
410.2518053764272
 20
240.48
 30
0.0
 11
411.6371467322322
 21
240.48
 31
0.0
  0
LINE
  5
66
330
43
100
AcDbEntity
  8
0
 62
     0
100
AcDbLine
 10
426.9493467786735
 20
240.48
 30
0.0
 11
428.2144079470441
 21
240.48
 31
0.0
  0
LINE
  5
67
330
43
100
AcDbEntity
  8
0
 62
     0
100
AcDbLine
 10
413.449817270339
 20
240.48
 30
0.0
 11
414.928531647217
 21
240.48
 31
0.0
  0
LINE
  5
68
330
43
100
AcDbEntity
  8
0
 62
     0
100
AcDbLine
 10
423.965119802895
 20
240.48
 30
0.0
 11
425.2240087844329
 21
240.48
 31
0.0
  0
LINE
  5
69
330
43
100
AcDbEntity
  8
0
 62
     0
100
AcDbLine
 10
416.0397685701219
 20
240.48
 30
0.0
 11
417.3002130740085
 21
240.48
 31
0.0
  0
LINE
  5
6A
330
43
100
AcDbEntity
  8
0
 62
     0
100
AcDbLine
 10
421.592616030441
 20
240.48
 30
0.0
 11
422.8432646862227
 21
240.48
 31
0.0
  0
LINE
  5
6B
330
43
100
AcDbEntity
  8
0
 62
     0
100
AcDbLine
 10
419.0255510682492
 20
240.48
 30
0.0
 11
420.2906122366196
 21
240.48
 31
0.0
  0
LINE
  5
6C
330
43
100
AcDbEntity
  8
0
 62
     0
100
AcDbLine
 10
410.3421583176038
 20
240.72
 30
0.0
 11
411.7726306031998
 21
240.72
 31
0.0
  0
LINE
  5
6D
330
43
100
AcDbEntity
  8
0
 62
     0
100
AcDbLine
 10
426.9585208687004
 20
240.72
 30
0.0
 11
428.1925762781731
 21
240.72
 31
0.0
  0
LINE
  5
6E
330
43
100
AcDbEntity
  8
0
 62
     0
100
AcDbLine
 10
413.3201398509842
 20
240.72
 30
0.0
 11
414.928531647217
 21
240.72
 31
0.0
  0
LINE
  5
6F
330
43
100
AcDbEntity
  8
0
 62
     0
100
AcDbLine
 10
423.9970944834135
 20
240.72
 30
0.0
 11
425.2955401663385
 21
240.72
 31
0.0
  0
LINE
  5
70
330
43
100
AcDbEntity
  8
0
 62
     0
100
AcDbLine
 10
416.0732987729893
 20
240.72
 30
0.0
 11
417.3717444559142
 21
240.72
 31
0.0
  0
LINE
  5
71
330
43
100
AcDbEntity
  8
0
 62
     0
100
AcDbLine
 10
421.592616030441
 20
240.72
 30
0.0
 11
422.8432646862227
 21
240.72
 31
0.0
  0
LINE
  5
72
330
43
100
AcDbEntity
  8
0
 62
     0
100
AcDbLine
 10
419.0347251582759
 20
240.72
 30
0.0
 11
420.2687805677487
 21
240.72
 31
0.0
  0
LINE
  5
73
330
43
100
AcDbEntity
  8
0
 62
     0
100
AcDbLine
 10
410.4325112587802
 20
240.96
 30
0.0
 11
412.0579981376191
 21
240.96
 31
0.0
  0
LINE
  5
74
330
43
100
AcDbEntity
  8
0
 62
     0
100
AcDbLine
 10
426.8453850417116
 20
240.96
 30
0.0
 11
428.1593687310032
 21
240.96
 31
0.0
  0
LINE
  5
75
330
43
100
AcDbEntity
  8
0
 62
     0
100
AcDbLine
 10
413.0160949933786
 20
240.96
 30
0.0
 11
414.928531647217
 21
240.96
 31
0.0
  0
LINE
  5
76
330
43
100
AcDbEntity
  8
0
 62
     0
100
AcDbLine
 10
424.0676827187076
 20
240.96
 30
0.0
 11
425.4961166571659
 21
240.96
 31
0.0
  0
LINE
  5
77
330
43
100
AcDbEntity
  8
0
 62
     0
100
AcDbLine
 10
416.1438870082834
 20
240.96
 30
0.0
 11
417.5723209467417
 21
240.96
 31
0.0
  0
LINE
  5
78
330
43
100
AcDbEntity
  8
0
 62
     0
100
AcDbLine
 10
421.592616030441
 20
240.96
 30
0.0
 11
422.8432646862227
 21
240.96
 31
0.0
  0
LINE
  5
79
330
43
100
AcDbEntity
  8
0
 62
     0
100
AcDbLine
 10
418.9201020793222
 20
240.96
 30
0.0
 11
420.235573020579
 21
240.96
 31
0.0
  0
LINE
  5
7A
330
43
100
AcDbEntity
  8
0
 62
     0
100
AcDbLine
 10
410.5738019759328
 20
241.2
 30
0.0
 11
414.928531647217
 21
241.2
 31
0.0
  0
LINE
  5
7B
330
43
100
AcDbEntity
  8
0
 62
     0
100
AcDbLine
 10
424.1712132568306
 20
241.2
 30
0.0
 11
428.0624690721603
 21
241.2
 31
0.0
  0
LINE
  5
7C
330
43
100
AcDbEntity
  8
0
 62
     0
100
AcDbLine
 10
416.2474175464063
 20
241.2
 30
0.0
 11
420.1386733617363
 21
241.2
 31
0.0
  0
LINE
  5
7D
330
43
100
AcDbEntity
  8
0
 62
     0
100
AcDbLine
 10
421.592616030441
 20
241.2
 30
0.0
 11
422.8432646862227
 21
241.2
 31
0.0
  0
LINE
  5
7E
330
43
100
AcDbEntity
  8
0
 62
     0
100
AcDbLine
 10
410.7761803543111
 20
241.44
 30
0.0
 11
413.661166755041
 21
241.44
 31
0.0
  0
LINE
  5
7F
330
43
100
AcDbEntity
  8
0
 62
     0
100
AcDbLine
 10
424.3419824875999
 20
241.44
 30
0.0
 11
427.9321833578746
 21
241.44
 31
0.0
  0
LINE
  5
80
330
43
100
AcDbEntity
  8
0
 62
     0
100
AcDbLine
 10
413.6778829914353
 20
241.44
 30
0.0
 11
414.928531647217
 21
241.44
 31
0.0
  0
LINE
  5
81
330
43
100
AcDbEntity
  8
0
 62
     0
100
AcDbLine
 10
421.592616030441
 20
241.44
 30
0.0
 11
422.8432646862227
 21
241.44
 31
0.0
  0
LINE
  5
82
330
43
100
AcDbEntity
  8
0
 62
     0
100
AcDbLine
 10
416.4181867771755
 20
241.44
 30
0.0
 11
420.0083876474504
 21
241.44
 31
0.0
  0
LINE
  5
83
330
43
100
AcDbEntity
  8
0
 62
     0
100
AcDbLine
 10
411.0075129234767
 20
241.68
 30
0.0
 11
413.4486088611208
 21
241.68
 31
0.0
  0
LINE
  5
84
330
43
100
AcDbEntity
  8
0
 62
     0
100
AcDbLine
 10
424.5945928843203
 20
241.68
 30
0.0
 11
427.6559357451049
 21
241.68
 31
0.0
  0
LINE
  5
85
330
43
100
AcDbEntity
  8
0
 62
     0
100
AcDbLine
 10
413.6778829914353
 20
241.68
 30
0.0
 11
414.928531647217
 21
241.68
 31
0.0
  0
LINE
  5
86
330
43
100
AcDbEntity
  8
0
 62
     0
100
AcDbLine
 10
421.592616030441
 20
241.68
 30
0.0
 11
422.8432646862227
 21
241.68
 31
0.0
  0
LINE
  5
87
330
43
100
AcDbEntity
  8
0
 62
     0
100
AcDbLine
 10
416.6707971738958
 20
241.68
 30
0.0
 11
419.7321400346806
 21
241.68
 31
0.0
  0
LINE
  5
88
330
43
100
AcDbEntity
  8
0
 62
     0
100
AcDbLine
 10
411.4395129234766
 20
241.92
 30
0.0
 11
413.1107223292691
 21
241.92
 31
0.0
  0
LINE
  5
89
330
43
100
AcDbEntity
  8
0
 62
     0
100
AcDbLine
 10
424.9894315939977
 20
241.92
 30
0.0
 11
427.1971870336411
 21
241.92
 31
0.0
  0
LINE
  5
8A
330
43
100
AcDbEntity
  8
0
 62
     0
100
AcDbLine
 10
413.6778829914353
 20
241.92
 30
0.0
 11
414.928531647217
 21
241.92
 31
0.0
  0
LINE
  5
8B
330
43
100
AcDbEntity
  8
0
 62
     0
100
AcDbLine
 10
421.592616030441
 20
241.92
 30
0.0
 11
422.8432646862227
 21
241.92
 31
0.0
  0
LINE
  5
8C
330
43
100
AcDbEntity
  8
0
 62
     0
100
AcDbLine
 10
417.0656358835731
 20
241.92
 30
0.0
 11
419.2733913232165
 21
241.92
 31
0.0
  0
LINE
  5
8D
330
43
100
AcDbEntity
  8
0
 62
     0
100
AcDbLine
 10
421.592616030441
 20
242.16
 30
0.0
 11
422.8432646862227
 21
242.16
 31
0.0
  0
LINE
  5
8E
330
43
100
AcDbEntity
  8
0
 62
     0
100
AcDbLine
 10
421.592616030441
 20
242.4
 30
0.0
 11
422.8432646862227
 21
242.4
 31
0.0
  0
LINE
  5
8F
330
43
100
AcDbEntity
  8
0
 62
     0
100
AcDbLine
 10
421.592616030441
 20
242.64
 30
0.0
 11
422.8432646862227
 21
242.64
 31
0.0
  0
LINE
  5
90
330
43
100
AcDbEntity
  8
0
 62
     0
100
AcDbLine
 10
421.592616030441
 20
242.88
 30
0.0
 11
422.8432646862227
 21
242.88
 31
0.0
  0
LINE
  5
91
330
43
100
AcDbEntity
  8
0
 62
     0
100
AcDbLine
 10
421.592616030441
 20
243.12
 30
0.0
 11
422.8432646862227
 21
243.12
 31
0.0
  0
LINE
  5
92
330
43
100
AcDbEntity
  8
0
 62
     0
100
AcDbLine
 10
421.592616030441
 20
243.36
 30
0.0
 11
422.8432646862227
 21
243.36
 31
0.0
  0
LINE
  5
93
330
43
100
AcDbEntity
  8
0
 62
     0
100
AcDbLine
 10
421.592616030441
 20
243.6
 30
0.0
 11
422.8432646862227
 21
243.6
 31
0.0
  0
LINE
  5
94
330
43
100
AcDbEntity
  8
0
 62
     0
100
AcDbLine
 10
410.1474754913688
 20
238.8
 30
0.0
 11
411.4884829471567
 21
238.8
 31
0.0
  0
LINE
  5
95
330
43
100
AcDbEntity
  8
0
 62
     0
100
AcDbLine
 10
426.9637592912625
 20
238.8
 30
0.0
 11
428.2144079470441
 21
238.8
 31
0.0
  0
LINE
  5
96
330
43
100
AcDbEntity
  8
0
 62
     0
100
AcDbLine
 10
413.6025006995926
 20
238.8
 30
0.0
 11
414.928531647217
 21
238.8
 31
0.0
  0
LINE
  5
97
330
43
100
AcDbEntity
  8
0
 62
     0
100
AcDbLine
 10
423.892208069809
 20
238.8
 30
0.0
 11
425.3231278454848
 21
238.8
 31
0.0
  0
LINE
  5
98
330
43
100
AcDbEntity
  8
0
 62
     0
100
AcDbLine
 10
415.9684123593846
 20
238.8
 30
0.0
 11
417.3993321350605
 21
238.8
 31
0.0
  0
LINE
  5
99
330
43
100
AcDbEntity
  8
0
 62
     0
100
AcDbLine
 10
421.592616030441
 20
238.8
 30
0.0
 11
422.8432646862227
 21
238.8
 31
0.0
  0
LINE
  5
9A
330
43
100
AcDbEntity
  8
0
 62
     0
100
AcDbLine
 10
419.0399635808379
 20
238.8
 30
0.0
 11
420.2906122366196
 21
238.8
 31
0.0
  0
LINE
  5
9B
330
43
100
AcDbEntity
  8
0
 62
     0
100
AcDbLine
 10
410.1738077797701
 20
238.56
 30
0.0
 11
411.5444829471569
 21
238.56
 31
0.0
  0
LINE
  5
9C
330
43
100
AcDbEntity
  8
0
 62
     0
100
AcDbLine
 10
426.9429055000887
 20
238.56
 30
0.0
 11
428.2144079470441
 21
238.56
 31
0.0
  0
LINE
  5
9D
330
43
100
AcDbEntity
  8
0
 62
     0
100
AcDbLine
 10
413.5417006995927
 20
238.56
 30
0.0
 11
414.928531647217
 21
238.56
 31
0.0
  0
LINE
  5
9E
330
43
100
AcDbEntity
  8
0
 62
     0
100
AcDbLine
 10
423.8298009680919
 20
238.56
 30
0.0
 11
425.1412034879201
 21
238.56
 31
0.0
  0
LINE
  5
9F
330
43
100
AcDbEntity
  8
0
 62
     0
100
AcDbLine
 10
415.9060052576673
 20
238.56
 30
0.0
 11
417.2174077774958
 21
238.56
 31
0.0
  0
LINE
  5
A0
330
43
100
AcDbEntity
  8
0
 62
     0
100
AcDbLine
 10
421.592616030441
 20
238.56
 30
0.0
 11
422.8432646862227
 21
238.56
 31
0.0
  0
LINE
  5
A1
330
43
100
AcDbEntity
  8
0
 62
     0
100
AcDbLine
 10
419.0191097896641
 20
238.56
 30
0.0
 11
420.2906122366196
 21
238.56
 31
0.0
  0
LINE
  5
A2
330
43
100
AcDbEntity
  8
0
 62
     0
100
AcDbLine
 10
410.2204767902817
 20
238.32
 30
0.0
 11
411.6447405683037
 21
238.32
 31
0.0
  0
LINE
  5
A3
330
43
100
AcDbEntity
  8
0
 62
     0
100
AcDbLine
 10
426.8780775659041
 20
238.32
 30
0.0
 11
428.2144079470441
 21
238.32
 31
0.0
  0
LINE
  5
A4
330
43
100
AcDbEntity
  8
0
 62
     0
100
AcDbLine
 10
413.442548884385
 20
238.32
 30
0.0
 11
414.928531647217
 21
238.32
 31
0.0
  0
LINE
  5
A5
330
43
100
AcDbEntity
  8
0
 62
     0
100
AcDbLine
 10
423.8037438252347
 20
238.32
 30
0.0
 11
425.0874489837275
 21
238.32
 31
0.0
  0
LINE
  5
A6
330
43
100
AcDbEntity
  8
0
 62
     0
100
AcDbLine
 10
415.8799481148102
 20
238.32
 30
0.0
 11
417.1636532733034
 21
238.32
 31
0.0
  0
LINE
  5
A7
330
43
100
AcDbEntity
  8
0
 62
     0
100
AcDbLine
 10
421.592616030441
 20
238.32
 30
0.0
 11
422.8432646862227
 21
238.32
 31
0.0
  0
LINE
  5
A8
330
43
100
AcDbEntity
  8
0
 62
     0
100
AcDbLine
 10
418.9542818554797
 20
238.32
 30
0.0
 11
420.2906122366196
 21
238.32
 31
0.0
  0
LINE
  5
A9
330
43
100
AcDbEntity
  8
0
 62
     0
100
AcDbLine
 10
410.3108297314581
 20
238.08
 30
0.0
 11
411.7795896761101
 21
238.08
 31
0.0
  0
LINE
  5
AA
330
43
100
AcDbEntity
  8
0
 62
     0
100
AcDbLine
 10
426.7486658011981
 20
238.08
 30
0.0
 11
428.2144079470441
 21
238.08
 31
0.0
  0
LINE
  5
AB
330
43
100
AcDbEntity
  8
0
 62
     0
100
AcDbLine
 10
413.3128714650301
 20
238.08
 30
0.0
 11
414.928531647217
 21
238.08
 31
0.0
  0
LINE
  5
AC
330
43
100
AcDbEntity
  8
0
 62
     0
100
AcDbLine
 10
423.79609495297
 20
238.08
 30
0.0
 11
425.1225709349472
 21
238.08
 31
0.0
  0
LINE
  5
AD
330
43
100
AcDbEntity
  8
0
 62
     0
100
AcDbLine
 10
415.8722992425457
 20
238.08
 30
0.0
 11
417.1987752245227
 21
238.08
 31
0.0
  0
LINE
  5
AE
330
43
100
AcDbEntity
  8
0
 62
     0
100
AcDbLine
 10
421.592616030441
 20
238.08
 30
0.0
 11
422.8432646862227
 21
238.08
 31
0.0
  0
LINE
  5
AF
330
43
100
AcDbEntity
  8
0
 62
     0
100
AcDbLine
 10
418.8248700907736
 20
238.08
 30
0.0
 11
420.2906122366195
 21
238.08
 31
0.0
  0
LINE
  5
B0
330
43
100
AcDbEntity
  8
0
 62
     0
100
AcDbLine
 10
410.4011826726346
 20
237.84
 30
0.0
 11
412.0745294351461
 21
237.84
 31
0.0
  0
LINE
  5
B1
330
43
100
AcDbEntity
  8
0
 62
     0
100
AcDbLine
 10
426.4789323461071
 20
237.84
 30
0.0
 11
428.2144079470441
 21
237.84
 31
0.0
  0
LINE
  5
B2
330
43
100
AcDbEntity
  8
0
 62
     0
100
AcDbLine
 10
412.9984291950409
 20
237.84
 30
0.0
 11
414.928531647217
 21
237.84
 31
0.0
  0
LINE
  5
B3
330
43
100
AcDbEntity
  8
0
 62
     0
100
AcDbLine
 10
423.8292864423318
 20
237.84
 30
0.0
 11
425.3043022428559
 21
237.84
 31
0.0
  0
LINE
  5
B4
330
43
100
AcDbEntity
  8
0
 62
     0
100
AcDbLine
 10
415.9054907319075
 20
237.84
 30
0.0
 11
417.3805065324314
 21
237.84
 31
0.0
  0
LINE
  5
B5
330
43
100
AcDbEntity
  8
0
 62
     0
100
AcDbLine
 10
421.592616030441
 20
237.84
 30
0.0
 11
422.8432646862227
 21
237.84
 31
0.0
  0
LINE
  5
B6
330
43
100
AcDbEntity
  8
0
 62
     0
100
AcDbLine
 10
418.5551366356827
 20
237.84
 30
0.0
 11
420.2906122366195
 21
237.84
 31
0.0
  0
LINE
  5
B7
330
43
100
AcDbEntity
  8
0
 62
     0
100
AcDbLine
 10
410.5036301765593
 20
237.6
 30
0.0
 11
414.928531647217
 21
237.6
 31
0.0
  0
LINE
  5
B8
330
43
100
AcDbEntity
  8
0
 62
     0
100
AcDbLine
 10
423.8624779316935
 20
237.6
 30
0.0
 11
428.2144079470441
 21
237.6
 31
0.0
  0
LINE
  5
B9
330
43
100
AcDbEntity
  8
0
 62
     0
100
AcDbLine
 10
415.9386822212693
 20
237.6
 30
0.0
 11
420.2906122366195
 21
237.6
 31
0.0
  0
LINE
  5
BA
330
43
100
AcDbEntity
  8
0
 62
     0
100
AcDbLine
 10
421.592616030441
 20
237.6
 30
0.0
 11
422.8432646862227
 21
237.6
 31
0.0
  0
LINE
  5
BB
330
43
100
AcDbEntity
  8
0
 62
     0
100
AcDbLine
 10
410.7060085549376
 20
237.36
 30
0.0
 11
414.928531647217
 21
237.36
 31
0.0
  0
LINE
  5
BC
330
43
100
AcDbEntity
  8
0
 62
     0
100
AcDbLine
 10
423.9800227326321
 20
237.36
 30
0.0
 11
428.2553285176619
 21
237.36
 31
0.0
  0
LINE
  5
BD
330
43
100
AcDbEntity
  8
0
 62
     0
100
AcDbLine
 10
416.0562270222079
 20
237.36
 30
0.0
 11
420.3315328072374
 21
237.36
 31
0.0
  0
LINE
  5
BE
330
43
100
AcDbEntity
  8
0
 62
     0
100
AcDbLine
 10
421.592616030441
 20
237.36
 30
0.0
 11
422.8432646862227
 21
237.36
 31
0.0
  0
LINE
  5
BF
330
43
100
AcDbEntity
  8
0
 62
     0
100
AcDbLine
 10
410.9083869333159
 20
237.12
 30
0.0
 11
413.5134942478885
 21
237.12
 31
0.0
  0
LINE
  5
C0
330
43
100
AcDbEntity
  8
0
 62
     0
100
AcDbLine
 10
427.0140700102774
 20
237.12
 30
0.0
 11
428.409639489514
 21
237.12
 31
0.0
  0
LINE
  5
C1
330
43
100
AcDbEntity
  8
0
 62
     0
100
AcDbLine
 10
413.6778829914353
 20
237.12
 30
0.0
 11
414.928531647217
 21
237.12
 31
0.0
  0
LINE
  5
C2
330
43
100
AcDbEntity
  8
0
 62
     0
100
AcDbLine
 10
424.1259575990825
 20
237.12
 30
0.0
 11
426.7757016776878
 21
237.12
 31
0.0
  0
LINE
  5
C3
330
43
100
AcDbEntity
  8
0
 62
     0
100
AcDbLine
 10
416.2021618886583
 20
237.12
 30
0.0
 11
418.8519059672636
 21
237.12
 31
0.0
  0
LINE
  5
C4
330
43
100
AcDbEntity
  8
0
 62
     0
100
AcDbLine
 10
421.592616030441
 20
237.12
 30
0.0
 11
422.8432646862227
 21
237.12
 31
0.0
  0
LINE
  5
C5
330
43
100
AcDbEntity
  8
0
 62
     0
100
AcDbLine
 10
419.090274299853
 20
237.12
 30
0.0
 11
420.4858437790896
 21
237.12
 31
0.0
  0
LINE
  5
C6
330
43
100
AcDbEntity
  8
0
 62
     0
100
AcDbLine
 10
411.3018558538001
 20
236.88
 30
0.0
 11
413.2433725863203
 21
236.88
 31
0.0
  0
LINE
  5
C7
330
43
100
AcDbEntity
  8
0
 62
     0
100
AcDbLine
 10
427.0639678732838
 20
236.88
 30
0.0
 11
428.5527476800091
 21
236.88
 31
0.0
  0
LINE
  5
C8
330
43
100
AcDbEntity
  8
0
 62
     0
100
AcDbLine
 10
413.6778829914353
 20
236.88
 30
0.0
 11
414.928531647217
 21
236.88
 31
0.0
  0
LINE
  5
C9
330
43
100
AcDbEntity
  8
0
 62
     0
100
AcDbLine
 10
424.4106634814357
 20
236.88
 30
0.0
 11
426.4148482164543
 21
236.88
 31
0.0
  0
LINE
  5
CA
330
43
100
AcDbEntity
  8
0
 62
     0
100
AcDbLine
 10
416.4868677710112
 20
236.88
 30
0.0
 11
418.4910525060298
 21
236.88
 31
0.0
  0
LINE
  5
CB
330
43
100
AcDbEntity
  8
0
 62
     0
100
AcDbLine
 10
421.592616030441
 20
236.88
 30
0.0
 11
422.8432646862227
 21
236.88
 31
0.0
  0
LINE
  5
CC
330
43
100
AcDbEntity
  8
0
 62
     0
100
AcDbLine
 10
419.1401721628596
 20
236.88
 30
0.0
 11
420.6289519695848
 21
236.88
 31
0.0
  0
LINE
  5
CD
330
43
100
AcDbEntity
  8
0
 62
     0
100
AcDbLine
 10
412.1640086352996
 20
236.64
 30
0.0
 11
412.5593311585353
 21
236.64
 31
0.0
  0
LINE
  5
CE
330
43
100
AcDbEntity
  8
0
 62
     0
100
AcDbLine
 10
425.2583524849468
 20
236.64
 30
0.0
 11
425.7163385920895
 21
236.64
 31
0.0
  0
LINE
  5
CF
330
43
100
AcDbEntity
  8
0
 62
     0
100
AcDbLine
 10
413.6778829914353
 20
236.64
 30
0.0
 11
414.928531647217
 21
236.64
 31
0.0
  0
LINE
  5
D0
330
43
100
AcDbEntity
  8
0
 62
     0
100
AcDbLine
 10
417.334556774522
 20
236.64
 30
0.0
 11
417.7925428816648
 21
236.64
 31
0.0
  0
LINE
  5
D1
330
43
100
AcDbEntity
  8
0
 62
     0
100
AcDbLine
 10
413.6778829914353
 20
236.4
 30
0.0
 11
414.928531647217
 21
236.4
 31
0.0
  0
LINE
  5
D2
330
43
100
AcDbEntity
  8
0
 62
     0
100
AcDbLine
 10
410.0916394170233
 20
236.16
 30
0.0
 11
411.4398712412303
 21
236.16
 31
0.0
  0
LINE
  5
D3
330
43
100
AcDbEntity
  8
0
 62
     0
100
AcDbLine
 10
413.6358081023468
 20
236.16
 30
0.0
 11
414.8926662043487
 21
236.16
 31
0.0
  0
LINE
  5
D4
330
43
100
AcDbEntity
  8
0
 62
     0
100
AcDbLine
 10
410.1321558794715
 20
235.92
 30
0.0
 11
411.6494027456349
 21
235.92
 31
0.0
  0
LINE
  5
D5
330
43
100
AcDbEntity
  8
0
 62
     0
100
AcDbLine
 10
413.4209693649708
 20
235.92
 30
0.0
 11
414.857163245769
 21
235.92
 31
0.0
  0
LINE
  5
D6
330
43
100
AcDbEntity
  8
0
 62
     0
100
AcDbLine
 10
410.2221558794715
 20
235.68
 30
0.0
 11
414.7380463002889
 21
235.68
 31
0.0
  0
LINE
  5
D7
330
43
100
AcDbEntity
  8
0
 62
     0
100
AcDbLine
 10
410.3957267199629
 20
235.44
 30
0.0
 11
414.6078502218574
 21
235.44
 31
0.0
  0
LINE
  5
D8
330
43
100
AcDbEntity
  8
0
 62
     0
100
AcDbLine
 10
410.625215771058
 20
235.2
 30
0.0
 11
414.3174940775709
 21
235.2
 31
0.0
  0
LINE
  5
D9
330
43
100
AcDbEntity
  8
0
 62
     0
100
AcDbLine
 10
411.1318056501745
 20
234.96
 30
0.0
 11
413.869193846322
 21
234.96
 31
0.0
  0
ENDBLK
  5
DA
330
43
100
AcDbEntity
  8
0
100
AcDbBlockEnd
  0
BLOCK
  5
DC
330
DB
100
AcDbEntity
  8
0
100
AcDbBlockBegin
  2
GALA
 70
     0
 10
0.0
 20
0.0
 30
0.0
  3
GALA
  1

  0
INSERT
  5
DD
330
DB
100
AcDbEntity
  8
CAJETIN
100
AcDbBlockReference
  2
*X1
 10
-419.6044140091202
 20
-233.9477738876334
 30
0.0
1001
ACAD
1000
HATCH
1002
{
1070
    16
1000
_U
1040
0.24
1040
0.0
1070
     0
1002
}
  0
LINE
  5
DE
330
DB
100
AcDbEntity
  8
SOMBREA
100
AcDbLine
 10
2.61352634921161
 20
2.820204253377738
 30
0.0
 11
3.238850677102561
 21
2.820204253377738
 31
0.0
  0
LINE
  5
DF
330
DB
100
AcDbEntity
  8
SOMBREA
100
AcDbLine
 10
3.238850677102561
 20
2.820204253377738
 30
0.0
 11
3.238850677102561
 21
3.6962624905197
 31
0.0
  0
LINE
  5
E0
330
DB
100
AcDbEntity
  8
SOMBREA
100
AcDbLine
 10
3.238850677102561
 20
3.6962624905197
 30
0.0
 11
3.238850677102561
 21
4.572320727661406
 31
0.0
  0
LINE
  5
E1
330
DB
100
AcDbEntity
  8
SOMBREA
100
AcDbLine
 10
3.238850677102561
 20
4.572320727661406
 30
0.0
 11
3.238850677102561
 21
5.448378964803339
 31
0.0
  0
LINE
  5
E2
330
DB
100
AcDbEntity
  8
SOMBREA
100
AcDbLine
 10
3.238850677102561
 20
5.448378964803339
 30
0.0
 11
3.238850677102561
 21
6.324437201945244
 31
0.0
  0
LINE
  5
E3
330
DB
100
AcDbEntity
  8
SOMBREA
100
AcDbLine
 10
3.238850677102561
 20
6.324437201945244
 30
0.0
 11
3.238850677102561
 21
7.200495439086978
 31
0.0
  0
LINE
  5
E4
330
DB
100
AcDbEntity
  8
SOMBREA
100
AcDbLine
 10
3.238850677102561
 20
7.200495439086978
 30
0.0
 11
3.238850677102561
 21
8.076553676228854
 31
0.0
  0
LINE
  5
E5
330
DB
100
AcDbEntity
  8
SOMBREA
100
AcDbLine
 10
3.238850677102561
 20
8.076553676228854
 30
0.0
 11
3.238850677102561
 21
8.952611913370759
 31
0.0
  0
LINE
  5
E6
330
DB
100
AcDbEntity
  8
SOMBREA
100
AcDbLine
 10
3.238850677102561
 20
8.952611913370759
 30
0.0
 11
3.238850677102561
 21
9.837732821931155
 31
0.0
  0
LINE
  5
E7
330
DB
100
AcDbEntity
  8
SOMBREA
100
AcDbLine
 10
3.238850677102561
 20
9.837732821931155
 30
0.0
 11
2.61352634921161
 21
9.837732821931155
 31
0.0
  0
LINE
  5
E8
330
DB
100
AcDbEntity
  8
SOMBREA
100
AcDbLine
 10
8.609993937923945
 20
4.360858394558221
 30
0.0
 11
8.609993937923945
 21
3.620740228696917
 31
0.0
  0
LINE
  5
E9
330
DB
100
AcDbEntity
  8
SOMBREA
100
AcDbLine
 10
8.609993937923945
 20
4.360858394558221
 30
0.0
 11
8.609993937923945
 21
5.113060122311111
 31
0.0
  0
LINE
  5
EA
330
DB
100
AcDbEntity
  8
SOMBREA
100
AcDbLine
 10
8.609993937923945
 20
5.113060122311111
 30
0.0
 11
8.609993937923945
 21
5.862240959590991
 31
0.0
  0
LINE
  5
EB
330
DB
100
AcDbEntity
  8
SOMBREA
100
AcDbLine
 10
8.609993937923945
 20
5.862240959590991
 30
0.0
 11
8.609993937923945
 21
6.61444268734391
 31
0.0
  0
LINE
  5
EC
330
DB
100
AcDbEntity
  8
SOMBREA
100
AcDbLine
 10
8.609993937923945
 20
6.61444268734391
 30
0.0
 11
8.543534347520051
 21
7.094764272535456
 31
0.0
  0
LINE
  5
ED
330
DB
100
AcDbEntity
  8
SOMBREA
100
AcDbLine
 10
8.543534347520051
 20
7.094764272535456
 30
0.0
 11
8.313946671579344
 21
7.51768893874177
 31
0.0
  0
LINE
  5
EE
330
DB
100
AcDbEntity
  8
SOMBREA
100
AcDbLine
 10
8.313946671579344
 20
7.51768893874177
 30
0.0
 11
7.900084676791777
 21
7.85602867170698
 31
0.0
  0
LINE
  5
EF
330
DB
100
AcDbEntity
  8
SOMBREA
100
AcDbLine
 10
7.900084676791777
 20
7.85602867170698
 30
0.0
 11
7.292885691738263
 21
8.085616347647572
 31
0.0
  0
LINE
  5
F0
330
DB
100
AcDbEntity
  8
SOMBREA
100
AcDbLine
 10
7.292885691738263
 20
8.085616347647572
 30
0.0
 11
6.456099030743985
 21
8.164159499943025
 31
0.0
  0
LINE
  5
F1
330
DB
100
AcDbEntity
  8
SOMBREA
100
AcDbLine
 10
6.456099030743985
 20
8.164159499943025
 30
0.0
 11
5.462226065159086
 21
8.019156757243649
 31
0.0
  0
LINE
  5
F2
330
DB
100
AcDbEntity
  8
SOMBREA
100
AcDbLine
 10
5.462226065159086
 20
8.019156757243649
 30
0.0
 11
4.845964408687052
 21
7.644566338603681
 31
0.0
  0
LINE
  5
F3
330
DB
100
AcDbEntity
  8
SOMBREA
100
AcDbLine
 10
4.845964408687052
 20
7.644566338603681
 30
0.0
 11
4.510645566194568
 21
7.173307424830937
 31
0.0
  0
LINE
  5
F4
330
DB
100
AcDbEntity
  8
SOMBREA
100
AcDbLine
 10
4.510645566194568
 20
7.173307424830937
 30
0.0
 11
4.374705494913996
 21
6.711111182476741
 31
0.0
  0
LINE
  5
F5
330
DB
100
AcDbEntity
  8
SOMBREA
100
AcDbLine
 10
4.374705494913996
 20
6.711111182476741
 30
0.0
 11
4.3475174806577
 21
6.363708778092899
 31
0.0
  0
LINE
  5
F6
330
DB
100
AcDbEntity
  8
SOMBREA
100
AcDbLine
 10
4.3475174806577
 20
6.363708778092899
 30
0.0
 11
4.972841808548707
 21
6.363708778092899
 31
0.0
  0
LINE
  5
F7
330
DB
100
AcDbEntity
  8
SOMBREA
100
AcDbLine
 10
4.972841808548707
 20
6.363708778092899
 30
0.0
 11
5.607228807858462
 21
6.363708778092899
 31
0.0
  0
LINE
  5
F8
330
DB
100
AcDbEntity
  8
SOMBREA
100
AcDbLine
 10
5.607228807858462
 20
6.363708778092899
 30
0.0
 11
5.616291479277151
 21
6.517774192210907
 31
0.0
  0
LINE
  5
F9
330
DB
100
AcDbEntity
  8
SOMBREA
100
AcDbLine
 10
5.616291479277151
 20
6.517774192210907
 30
0.0
 11
5.664625726843496
 21
6.729236525314121
 31
0.0
  0
LINE
  5
FA
330
DB
100
AcDbEntity
  8
SOMBREA
100
AcDbLine
 10
5.664625726843496
 20
6.729236525314121
 30
0.0
 11
5.800565798124182
 21
6.949761529836109
 31
0.0
  0
LINE
  5
FB
330
DB
100
AcDbEntity
  8
SOMBREA
100
AcDbLine
 10
5.800565798124182
 20
6.949761529836109
 30
0.0
 11
6.069425050212601
 21
7.13403584868314
 31
0.0
  0
LINE
  5
FC
330
DB
100
AcDbEntity
  8
SOMBREA
100
AcDbLine
 10
6.069425050212601
 20
7.13403584868314
 30
0.0
 11
6.501412387837831
 21
7.200495439086978
 31
0.0
  0
LINE
  5
FD
330
DB
100
AcDbEntity
  8
SOMBREA
100
AcDbLine
 10
6.501412387837831
 20
7.200495439086978
 30
0.0
 11
6.918295273098237
 21
7.164244753412106
 31
0.0
  0
LINE
  5
FE
330
DB
100
AcDbEntity
  8
SOMBREA
100
AcDbLine
 10
6.918295273098237
 20
7.164244753412106
 30
0.0
 11
7.178091853767853
 21
7.076638929697963
 31
0.0
  0
LINE
  5
FF
330
DB
100
AcDbEntity
  8
SOMBREA
100
AcDbLine
 10
7.178091853767853
 20
7.076638929697963
 30
0.0
 11
7.301948363157066
 21
6.949761529836109
 31
0.0
  0
LINE
  5
100
330
DB
100
AcDbEntity
  8
SOMBREA
100
AcDbLine
 10
7.301948363157066
 20
6.949761529836109
 30
0.0
 11
7.350282610723468
 21
6.816842349028235
 31
0.0
  0
LINE
  5
101
330
DB
100
AcDbEntity
  8
SOMBREA
100
AcDbLine
 10
7.350282610723468
 20
6.816842349028235
 30
0.0
 11
7.359345282142328
 21
6.711111182476741
 31
0.0
  0
LINE
  5
102
330
DB
100
AcDbEntity
  8
SOMBREA
100
AcDbLine
 10
7.359345282142328
 20
6.711111182476741
 30
0.0
 11
7.359345282142328
 21
6.623505358762571
 31
0.0
  0
LINE
  5
103
330
DB
100
AcDbEntity
  8
SOMBREA
100
AcDbLine
 10
7.359345282142328
 20
6.623505358762571
 30
0.0
 11
7.341219939304664
 21
6.508711520792246
 31
0.0
  0
LINE
  5
104
330
DB
100
AcDbEntity
  8
SOMBREA
100
AcDbLine
 10
7.341219939304664
 20
6.508711520792246
 30
0.0
 11
7.292885691738263
 21
6.363708778092899
 31
0.0
  0
LINE
  5
105
330
DB
100
AcDbEntity
  8
SOMBREA
100
AcDbLine
 10
7.292885691738263
 20
6.363708778092899
 30
0.0
 11
7.196217196605232
 21
6.239852268703884
 31
0.0
  0
LINE
  5
106
330
DB
100
AcDbEntity
  8
SOMBREA
100
AcDbLine
 10
7.196217196605232
 20
6.239852268703884
 30
0.0
 11
7.042151782487394
 21
6.134121102152192
 31
0.0
  0
LINE
  5
107
330
DB
100
AcDbEntity
  8
SOMBREA
100
AcDbLine
 10
7.042151782487394
 20
6.134121102152192
 30
0.0
 11
6.667561363847312
 21
6.016306373708999
 31
0.0
  0
LINE
  5
108
330
DB
100
AcDbEntity
  8
SOMBREA
100
AcDbLine
 10
6.667561363847312
 20
6.016306373708999
 30
0.0
 11
6.280887383315644
 21
5.958909454723851
 31
0.0
  0
LINE
  5
109
330
DB
100
AcDbEntity
  8
SOMBREA
100
AcDbLine
 10
6.280887383315644
 20
5.958909454723851
 30
0.0
 11
5.906296964675902
 21
5.910575207157506
 31
0.0
  0
LINE
  5
10A
330
DB
100
AcDbEntity
  8
SOMBREA
100
AcDbLine
 10
5.906296964675902
 20
5.910575207157506
 30
0.0
 11
5.549831888873313
 21
5.85317828817233
 31
0.0
  0
LINE
  5
10B
330
DB
100
AcDbEntity
  8
SOMBREA
100
AcDbLine
 10
5.549831888873313
 20
5.85317828817233
 30
0.0
 11
5.22357571779986
 21
5.756509793039327
 31
0.0
  0
LINE
  5
10C
330
DB
100
AcDbEntity
  8
SOMBREA
100
AcDbLine
 10
5.22357571779986
 20
5.756509793039327
 30
0.0
 11
4.924507560982419
 21
5.611507050340009
 31
0.0
  0
LINE
  5
10D
330
DB
100
AcDbEntity
  8
SOMBREA
100
AcDbLine
 10
4.924507560982419
 20
5.611507050340009
 30
0.0
 11
4.643564747002528
 21
5.412128279128495
 31
0.0
  0
LINE
  5
10E
330
DB
100
AcDbEntity
  8
SOMBREA
100
AcDbLine
 10
4.643564747002528
 20
5.412128279128495
 30
0.0
 11
4.404914399642905
 21
5.131185465148433
 31
0.0
  0
LINE
  5
10F
330
DB
100
AcDbEntity
  8
SOMBREA
100
AcDbLine
 10
4.404914399642905
 20
5.131185465148433
 30
0.0
 11
4.238765423633481
 21
4.735448813198274
 31
0.0
  0
LINE
  5
110
330
DB
100
AcDbEntity
  8
SOMBREA
100
AcDbLine
 10
4.238765423633481
 20
4.735448813198274
 30
0.0
 11
4.181368504648162
 21
4.206792980440212
 31
0.0
  0
LINE
  5
111
330
DB
100
AcDbEntity
  8
SOMBREA
100
AcDbLine
 10
4.181368504648162
 20
4.206792980440212
 30
0.0
 11
4.259911656943756
 21
3.638865571534523
 31
0.0
  0
LINE
  5
112
330
DB
100
AcDbEntity
  8
SOMBREA
100
AcDbLine
 10
4.259911656943756
 20
3.638865571534523
 30
0.0
 11
4.480436661465489
 21
3.206878233909293
 31
0.0
  0
LINE
  5
113
330
DB
100
AcDbEntity
  8
SOMBREA
100
AcDbLine
 10
4.480436661465489
 20
3.206878233909293
 30
0.0
 11
4.845964408687052
 21
2.898747405673248
 31
0.0
  0
LINE
  5
114
330
DB
100
AcDbEntity
  8
SOMBREA
100
AcDbLine
 10
4.845964408687052
 20
2.898747405673248
 30
0.0
 11
5.329306884351296
 21
2.723535758244906
 31
0.0
  0
LINE
  5
115
330
DB
100
AcDbEntity
  8
SOMBREA
100
AcDbLine
 10
5.329306884351296
 20
2.723535758244906
 30
0.0
 11
5.924422307513339
 21
2.66613883925973
 31
0.0
  0
LINE
  5
116
330
DB
100
AcDbEntity
  8
SOMBREA
100
AcDbLine
 10
5.924422307513339
 20
2.66613883925973
 30
0.0
 11
6.271824711897124
 21
2.714473086826075
 31
0.0
  0
LINE
  5
117
330
DB
100
AcDbEntity
  8
SOMBREA
100
AcDbLine
 10
6.271824711897124
 20
2.714473086826075
 30
0.0
 11
6.598080882970577
 21
2.829266924796456
 31
0.0
  0
LINE
  5
118
330
DB
100
AcDbEntity
  8
SOMBREA
100
AcDbLine
 10
6.598080882970577
 20
2.829266924796456
 30
0.0
 11
6.897149039788075
 21
2.974269667495775
 31
0.0
  0
LINE
  5
119
330
DB
100
AcDbEntity
  8
SOMBREA
100
AcDbLine
 10
6.897149039788075
 20
2.974269667495775
 30
0.0
 11
7.16600829187621
 21
3.167606657761609
 31
0.0
  0
LINE
  5
11A
330
DB
100
AcDbEntity
  8
SOMBREA
100
AcDbLine
 10
7.16600829187621
 20
3.167606657761609
 30
0.0
 11
7.407679529708616
 21
3.379068990864794
 31
0.0
  0
LINE
  5
11B
330
DB
100
AcDbEntity
  8
SOMBREA
100
AcDbLine
 10
7.407679529708616
 20
3.379068990864794
 30
0.0
 11
7.407679529708616
 21
3.291463167150624
 31
0.0
  0
LINE
  5
11C
330
DB
100
AcDbEntity
  8
SOMBREA
100
AcDbLine
 10
7.407679529708616
 20
3.291463167150624
 30
0.0
 11
7.407679529708616
 21
3.185732000598989
 31
0.0
  0
LINE
  5
11D
330
DB
100
AcDbEntity
  8
SOMBREA
100
AcDbLine
 10
7.407679529708616
 20
3.185732000598989
 30
0.0
 11
7.425804872545938
 21
3.061875491209946
 31
0.0
  0
LINE
  5
11E
330
DB
100
AcDbEntity
  8
SOMBREA
100
AcDbLine
 10
7.425804872545938
 20
3.061875491209946
 30
0.0
 11
7.456013777274847
 21
2.938018981820931
 31
0.0
  0
LINE
  5
11F
330
DB
100
AcDbEntity
  8
SOMBREA
100
AcDbLine
 10
7.456013777274847
 20
2.938018981820931
 30
0.0
 11
7.522473367678912
 21
2.829266924796456
 31
0.0
  0
LINE
  5
120
330
DB
100
AcDbEntity
  8
SOMBREA
100
AcDbLine
 10
7.522473367678912
 20
2.829266924796456
 30
0.0
 11
8.235403519284034
 21
2.829266924796456
 31
0.0
  0
LINE
  5
121
330
DB
100
AcDbEntity
  8
SOMBREA
100
AcDbLine
 10
8.235403519284034
 20
2.829266924796456
 30
0.0
 11
8.948333670888985
 21
2.829266924796456
 31
0.0
  0
LINE
  5
122
330
DB
100
AcDbEntity
  8
SOMBREA
100
AcDbLine
 10
8.948333670888985
 20
2.829266924796456
 30
0.0
 11
8.948333670888985
 21
3.080000834047467
 31
0.0
  0
LINE
  5
123
330
DB
100
AcDbEntity
  8
SOMBREA
100
AcDbLine
 10
8.948333670888985
 20
3.080000834047467
 30
0.0
 11
8.812393599608526
 21
3.167606657761609
 31
0.0
  0
LINE
  5
124
330
DB
100
AcDbEntity
  8
SOMBREA
100
AcDbLine
 10
8.812393599608526
 20
3.167606657761609
 30
0.0
 11
8.718745994948278
 21
3.273337824313131
 31
0.0
  0
LINE
  5
125
330
DB
100
AcDbEntity
  8
SOMBREA
100
AcDbLine
 10
8.718745994948278
 20
3.273337824313131
 30
0.0
 11
8.658328185490404
 21
3.388131662283456
 31
0.0
  0
LINE
  5
126
330
DB
100
AcDbEntity
  8
SOMBREA
100
AcDbLine
 10
8.658328185490404
 20
3.388131662283456
 30
0.0
 11
8.622077499815645
 21
3.505946390726649
 31
0.0
  0
LINE
  5
127
330
DB
100
AcDbEntity
  8
SOMBREA
100
AcDbLine
 10
8.622077499815645
 20
3.505946390726649
 30
0.0
 11
8.609993937923945
 21
3.629802900115834
 31
0.0
  0
LINE
  5
128
330
DB
100
AcDbEntity
  8
SOMBREA
100
AcDbLine
 10
7.359345282142328
 20
4.832117308331078
 30
0.0
 11
7.359345282142328
 21
5.303376222103992
 31
0.0
  0
LINE
  5
129
330
DB
100
AcDbEntity
  8
SOMBREA
100
AcDbLine
 10
7.359345282142328
 20
4.832117308331078
 30
0.0
 11
7.350282610723468
 21
4.659926551375605
 31
0.0
  0
LINE
  5
12A
330
DB
100
AcDbEntity
  8
SOMBREA
100
AcDbLine
 10
7.350282610723468
 20
4.659926551375605
 30
0.0
 11
7.283823020319516
 21
4.391067299287186
 31
0.0
  0
LINE
  5
12B
330
DB
100
AcDbEntity
  8
SOMBREA
100
AcDbLine
 10
7.283823020319516
 20
4.391067299287186
 30
0.0
 11
7.117674044309865
 21
4.082936471051198
 31
0.0
  0
LINE
  5
12C
330
DB
100
AcDbEntity
  8
SOMBREA
100
AcDbLine
 10
7.117674044309865
 20
4.082936471051198
 30
0.0
 11
6.809543216073791
 21
3.841265233219019
 31
0.0
  0
LINE
  5
12D
330
DB
100
AcDbEntity
  8
SOMBREA
100
AcDbLine
 10
6.809543216073791
 20
3.841265233219019
 30
0.0
 11
6.320158959463469
 21
3.744596738085988
 31
0.0
  0
LINE
  5
12E
330
DB
100
AcDbEntity
  8
SOMBREA
100
AcDbLine
 10
6.320158959463469
 20
3.744596738085988
 30
0.0
 11
6.021090802645971
 21
3.765742971396349
 31
0.0
  0
LINE
  5
12F
330
DB
100
AcDbEntity
  8
SOMBREA
100
AcDbLine
 10
6.021090802645971
 20
3.765742971396349
 30
0.0
 11
5.791503126705663
 21
3.832202561800158
 31
0.0
  0
LINE
  5
130
330
DB
100
AcDbEntity
  8
SOMBREA
100
AcDbLine
 10
5.791503126705663
 20
3.832202561800158
 30
0.0
 11
5.616291479277151
 21
3.946996399770512
 31
0.0
  0
LINE
  5
131
330
DB
100
AcDbEntity
  8
SOMBREA
100
AcDbLine
 10
5.616291479277151
 20
3.946996399770512
 30
0.0
 11
5.519622984144291
 21
4.122208047198853
 31
0.0
  0
LINE
  5
132
330
DB
100
AcDbEntity
  8
SOMBREA
100
AcDbLine
 10
5.519622984144291
 20
4.122208047198853
 30
0.0
 11
5.483372298469191
 21
4.369921065976853
 31
0.0
  0
LINE
  5
133
330
DB
100
AcDbEntity
  8
SOMBREA
100
AcDbLine
 10
5.483372298469191
 20
4.369921065976853
 30
0.0
 11
5.501497641306855
 21
4.536070041986562
 31
0.0
  0
LINE
  5
134
330
DB
100
AcDbEntity
  8
SOMBREA
100
AcDbLine
 10
5.501497641306855
 20
4.536070041986562
 30
0.0
 11
5.558894560292003
 21
4.659926551375605
 31
0.0
  0
LINE
  5
135
330
DB
100
AcDbEntity
  8
SOMBREA
100
AcDbLine
 10
5.558894560292003
 20
4.659926551375605
 30
0.0
 11
5.625354150695727
 21
4.765657717927268
 31
0.0
  0
LINE
  5
136
330
DB
100
AcDbEntity
  8
SOMBREA
100
AcDbLine
 10
5.625354150695727
 20
4.765657717927268
 30
0.0
 11
5.694834631572518
 21
4.832117308331078
 31
0.0
  0
LINE
  5
137
330
DB
100
AcDbEntity
  8
SOMBREA
100
AcDbLine
 10
5.694834631572518
 20
4.832117308331078
 30
0.0
 11
5.752231550557837
 21
4.880451555897565
 31
0.0
  0
LINE
  5
138
330
DB
100
AcDbEntity
  8
SOMBREA
100
AcDbLine
 10
5.752231550557837
 20
4.880451555897565
 30
0.0
 11
6.051299707375335
 21
5.02545429859694
 31
0.0
  0
LINE
  5
139
330
DB
100
AcDbEntity
  8
SOMBREA
100
AcDbLine
 10
6.051299707375335
 20
5.02545429859694
 30
0.0
 11
6.395681221285883
 21
5.091913889000778
 31
0.0
  0
LINE
  5
13A
330
DB
100
AcDbEntity
  8
SOMBREA
100
AcDbLine
 10
6.395681221285883
 20
5.091913889000778
 30
0.0
 11
6.752146297088643
 21
5.131185465148433
 31
0.0
  0
LINE
  5
13B
330
DB
100
AcDbEntity
  8
SOMBREA
100
AcDbLine
 10
6.752146297088643
 20
5.131185465148433
 30
0.0
 11
7.090486030053796
 21
5.179519712714977
 31
0.0
  0
LINE
  5
13C
330
DB
100
AcDbEntity
  8
SOMBREA
100
AcDbLine
 10
7.090486030053796
 20
5.179519712714977
 30
0.0
 11
7.359345282142328
 21
5.303376222103992
 31
0.0
  0
LINE
  5
13D
330
DB
100
AcDbEntity
  8
SOMBREA
100
AcDbLine
 10
-4.675882361903177
 20
3.1011470673578
 30
0.0
 11
-4.675882361903177
 21
2.406342258590058
 31
0.0
  0
LINE
  5
13E
330
DB
100
AcDbEntity
  8
SOMBREA
100
AcDbLine
 10
-4.675882361903177
 20
3.1011470673578
 30
0.0
 11
-4.675882361903177
 21
3.801993657071164
 31
0.0
  0
LINE
  5
13F
330
DB
100
AcDbEntity
  8
SOMBREA
100
AcDbLine
 10
-4.675882361903177
 20
3.801993657071164
 30
0.0
 11
-4.675882361903177
 21
4.496798465838907
 31
0.0
  0
LINE
  5
140
330
DB
100
AcDbEntity
  8
SOMBREA
100
AcDbLine
 10
-4.675882361903177
 20
4.496798465838907
 30
0.0
 11
-4.675882361903177
 21
5.197645055552271
 31
0.0
  0
LINE
  5
141
330
DB
100
AcDbEntity
  8
SOMBREA
100
AcDbLine
 10
-4.675882361903177
 20
5.197645055552271
 30
0.0
 11
-4.675882361903177
 21
5.892449864320042
 31
0.0
  0
LINE
  5
142
330
DB
100
AcDbEntity
  8
SOMBREA
100
AcDbLine
 10
-4.675882361903177
 20
5.892449864320042
 30
0.0
 11
-4.675882361903177
 21
6.596317344506388
 31
0.0
  0
LINE
  5
143
330
DB
100
AcDbEntity
  8
SOMBREA
100
AcDbLine
 10
-4.675882361903177
 20
6.596317344506388
 30
0.0
 11
-4.675882361903177
 21
7.297163934219952
 31
0.0
  0
LINE
  5
144
330
DB
100
AcDbEntity
  8
SOMBREA
100
AcDbLine
 10
-4.675882361903177
 20
7.297163934219952
 30
0.0
 11
-4.675882361903177
 21
8.001031414406185
 31
0.0
  0
LINE
  5
145
330
DB
100
AcDbEntity
  8
SOMBREA
100
AcDbLine
 10
-4.675882361903177
 20
8.001031414406185
 30
0.0
 11
-5.3012066897939
 21
8.001031414406185
 31
0.0
  0
LINE
  5
146
330
DB
100
AcDbEntity
  8
SOMBREA
100
AcDbLine
 10
-5.3012066897939
 20
8.001031414406185
 30
0.0
 11
-5.926531017684794
 21
8.001031414406185
 31
0.0
  0
LINE
  5
147
330
DB
100
AcDbEntity
  8
SOMBREA
100
AcDbLine
 10
-5.926531017684794
 20
8.001031414406185
 30
0.0
 11
-5.926531017684794
 21
7.472375581648321
 31
0.0
  0
LINE
  5
148
330
DB
100
AcDbEntity
  8
SOMBREA
100
AcDbLine
 10
-5.926531017684794
 20
7.472375581648321
 30
0.0
 11
-6.119868007950856
 21
7.701963257588801
 31
0.0
  0
LINE
  5
149
330
DB
100
AcDbEntity
  8
SOMBREA
100
AcDbLine
 10
-6.119868007950856
 20
7.701963257588801
 30
0.0
 11
-6.349455683891221
 21
7.895300247854692
 31
0.0
  0
LINE
  5
14A
330
DB
100
AcDbEntity
  8
SOMBREA
100
AcDbLine
 10
-6.349455683891221
 20
7.895300247854692
 30
0.0
 11
-6.621335826452707
 21
8.040302990554039
 31
0.0
  0
LINE
  5
14B
330
DB
100
AcDbEntity
  8
SOMBREA
100
AcDbLine
 10
-6.621335826452707
 20
8.040302990554039
 30
0.0
 11
-6.929466654688724
 21
8.133950595214031
 31
0.0
  0
LINE
  5
14C
330
DB
100
AcDbEntity
  8
SOMBREA
100
AcDbLine
 10
-6.929466654688724
 20
8.133950595214031
 30
0.0
 11
-7.273848168599556
 21
8.164159499943025
 31
0.0
  0
LINE
  5
14D
330
DB
100
AcDbEntity
  8
SOMBREA
100
AcDbLine
 10
-7.273848168599556
 20
8.164159499943025
 30
0.0
 11
-8.026049896352617
 21
8.0493656619727
 31
0.0
  0
LINE
  5
14E
330
DB
100
AcDbEntity
  8
SOMBREA
100
AcDbLine
 10
-8.026049896352617
 20
8.0493656619727
 30
0.0
 11
-8.651374224243511
 21
7.701963257588801
 31
0.0
  0
LINE
  5
14F
330
DB
100
AcDbEntity
  8
SOMBREA
100
AcDbLine
 10
-8.651374224243511
 20
7.701963257588801
 30
0.0
 11
-9.122633138016112
 21
7.143098520101801
 31
0.0
  0
LINE
  5
150
330
DB
100
AcDbEntity
  8
SOMBREA
100
AcDbLine
 10
-9.122633138016112
 20
7.143098520101801
 30
0.0
 11
-9.412638623414864
 21
6.372771449511532
 31
0.0
  0
LINE
  5
151
330
DB
100
AcDbEntity
  8
SOMBREA
100
AcDbLine
 10
-9.412638623414864
 20
6.372771449511532
 30
0.0
 11
-9.518369789966754
 21
5.412128279128495
 31
0.0
  0
LINE
  5
152
330
DB
100
AcDbEntity
  8
SOMBREA
100
AcDbLine
 10
-9.518369789966754
 20
5.412128279128495
 30
0.0
 11
-9.412638623414864
 21
4.448464218272391
 31
0.0
  0
LINE
  5
153
330
DB
100
AcDbEntity
  8
SOMBREA
100
AcDbLine
 10
-9.412638623414864
 20
4.448464218272391
 30
0.0
 11
-9.122633138016112
 21
3.67813714768215
 31
0.0
  0
LINE
  5
154
330
DB
100
AcDbEntity
  8
SOMBREA
100
AcDbLine
 10
-9.122633138016112
 20
3.67813714768215
 30
0.0
 11
-8.651374224243511
 21
3.119272410195122
 31
0.0
  0
LINE
  5
155
330
DB
100
AcDbEntity
  8
SOMBREA
100
AcDbLine
 10
-8.651374224243511
 20
3.119272410195122
 30
0.0
 11
-8.026049896352617
 21
2.783953567702923
 31
0.0
  0
LINE
  5
156
330
DB
100
AcDbEntity
  8
SOMBREA
100
AcDbLine
 10
-8.026049896352617
 20
2.783953567702923
 30
0.0
 11
-7.273848168599556
 21
2.66613883925973
 31
0.0
  0
LINE
  5
157
330
DB
100
AcDbEntity
  8
SOMBREA
100
AcDbLine
 10
-7.273848168599556
 20
2.66613883925973
 30
0.0
 11
-6.929466654688724
 21
2.705410415407385
 31
0.0
  0
LINE
  5
158
330
DB
100
AcDbEntity
  8
SOMBREA
100
AcDbLine
 10
-6.929466654688724
 20
2.705410415407385
 30
0.0
 11
-6.621335826452707
 21
2.802078910540416
 31
0.0
  0
LINE
  5
159
330
DB
100
AcDbEntity
  8
SOMBREA
100
AcDbLine
 10
-6.621335826452707
 20
2.802078910540416
 30
0.0
 11
-6.349455683891221
 21
2.938018981820931
 31
0.0
  0
LINE
  5
15A
330
DB
100
AcDbEntity
  8
SOMBREA
100
AcDbLine
 10
-6.349455683891221
 20
2.938018981820931
 30
0.0
 11
-6.119868007950856
 21
3.137397753032615
 31
0.0
  0
LINE
  5
15B
330
DB
100
AcDbEntity
  8
SOMBREA
100
AcDbLine
 10
-6.119868007950856
 20
3.137397753032615
 30
0.0
 11
-5.926531017684794
 21
3.370006319446133
 31
0.0
  0
LINE
  5
15C
330
DB
100
AcDbEntity
  8
SOMBREA
100
AcDbLine
 10
-5.926531017684794
 20
3.370006319446133
 30
0.0
 11
-5.926531017684794
 21
2.415404930008719
 31
0.0
  0
LINE
  5
15D
330
DB
100
AcDbEntity
  8
SOMBREA
100
AcDbLine
 10
-5.926531017684794
 20
2.415404930008719
 30
0.0
 11
-5.965802593832734
 21
2.216026158797205
 31
0.0
  0
LINE
  5
15E
330
DB
100
AcDbEntity
  8
SOMBREA
100
AcDbLine
 10
-5.965802593832734
 20
2.216026158797205
 30
0.0
 11
-6.101742665113192
 21
2.031751839950004
 31
0.0
  0
LINE
  5
15F
330
DB
100
AcDbEntity
  8
SOMBREA
100
AcDbLine
 10
-6.101742665113192
 20
2.031751839950004
 30
0.0
 11
-6.313204998216576
 21
1.877686425832024
 31
0.0
  0
LINE
  5
160
330
DB
100
AcDbEntity
  8
SOMBREA
100
AcDbLine
 10
-6.313204998216576
 20
1.877686425832024
 30
0.0
 11
-6.63039849787151
 21
1.790080602117853
 31
0.0
  0
LINE
  5
161
330
DB
100
AcDbEntity
  8
SOMBREA
100
AcDbLine
 10
-6.63039849787151
 20
1.790080602117853
 30
0.0
 11
-7.044260492659077
 21
1.753829916442981
 31
0.0
  0
LINE
  5
162
330
DB
100
AcDbEntity
  8
SOMBREA
100
AcDbLine
 10
-7.044260492659077
 20
1.753829916442981
 30
0.0
 11
-7.467185158865277
 21
1.790080602117853
 31
0.0
  0
LINE
  5
163
330
DB
100
AcDbEntity
  8
SOMBREA
100
AcDbLine
 10
-7.467185158865277
 20
1.790080602117853
 30
0.0
 11
-7.784378658520267
 21
1.877686425832024
 31
0.0
  0
LINE
  5
164
330
DB
100
AcDbEntity
  8
SOMBREA
100
AcDbLine
 10
-7.784378658520267
 20
1.877686425832024
 30
0.0
 11
-8.007924553515181
 21
2.001542935221038
 31
0.0
  0
LINE
  5
165
330
DB
100
AcDbEntity
  8
SOMBREA
100
AcDbLine
 10
-8.007924553515181
 20
2.001542935221038
 30
0.0
 11
-8.140843734323027
 21
2.137483006501696
 31
0.0
  0
LINE
  5
166
330
DB
100
AcDbEntity
  8
SOMBREA
100
AcDbLine
 10
-8.140843734323027
 20
2.137483006501696
 30
0.0
 11
-8.180115310470512
 21
2.261339515890739
 31
0.0
  0
LINE
  5
167
330
DB
100
AcDbEntity
  8
SOMBREA
100
AcDbLine
 10
-8.180115310470512
 20
2.261339515890739
 30
0.0
 11
-8.844711214509118
 21
2.261339515890739
 31
0.0
  0
LINE
  5
168
330
DB
100
AcDbEntity
  8
SOMBREA
100
AcDbLine
 10
-8.844711214509118
 20
2.261339515890739
 30
0.0
 11
-9.518369789966754
 21
2.261339515890739
 31
0.0
  0
LINE
  5
169
330
DB
100
AcDbEntity
  8
SOMBREA
100
AcDbLine
 10
-9.518369789966754
 20
2.261339515890739
 30
0.0
 11
-9.491181775710458
 21
2.022689168531343
 31
0.0
  0
LINE
  5
16A
330
DB
100
AcDbEntity
  8
SOMBREA
100
AcDbLine
 10
-9.491181775710458
 20
2.022689168531343
 30
0.0
 11
-9.346179033011082
 21
1.636015187999845
 31
0.0
  0
LINE
  5
16B
330
DB
100
AcDbEntity
  8
SOMBREA
100
AcDbLine
 10
-9.346179033011082
 20
1.636015187999845
 30
0.0
 11
-8.950442381060497
 21
1.222153193212136
 31
0.0
  0
LINE
  5
16C
330
DB
100
AcDbEntity
  8
SOMBREA
100
AcDbLine
 10
-8.950442381060497
 20
1.222153193212136
 30
0.0
 11
-8.22844955803697
 21
0.904959693557231
 31
0.0
  0
LINE
  5
16D
330
DB
100
AcDbEntity
  8
SOMBREA
100
AcDbLine
 10
-8.22844955803697
 20
0.904959693557231
 30
0.0
 11
-7.044260492659077
 21
0.7720405127495838
 31
0.0
  0
LINE
  5
16E
330
DB
100
AcDbEntity
  8
SOMBREA
100
AcDbLine
 10
-7.044260492659077
 20
0.7720405127495838
 30
0.0
 11
-6.128930679369375
 21
0.8656881174095758
 31
0.0
  0
LINE
  5
16F
330
DB
100
AcDbEntity
  8
SOMBREA
100
AcDbLine
 10
-6.128930679369375
 20
0.8656881174095758
 30
0.0
 11
-5.45527210391225
 21
1.116422026660444
 31
0.0
  0
LINE
  5
170
330
DB
100
AcDbEntity
  8
SOMBREA
100
AcDbLine
 10
-5.45527210391225
 20
1.116422026660444
 30
0.0
 11
-5.002138532976744
 21
1.481949773881808
 31
0.0
  0
LINE
  5
171
330
DB
100
AcDbEntity
  8
SOMBREA
100
AcDbLine
 10
-5.002138532976744
 20
1.481949773881808
 30
0.0
 11
-4.751404623725534
 21
1.944146016235862
 31
0.0
  0
LINE
  5
172
330
DB
100
AcDbEntity
  8
SOMBREA
100
AcDbLine
 10
-4.751404623725534
 20
1.944146016235862
 30
0.0
 11
-4.675882361903177
 21
2.454676506156545
 31
0.0
  0
LINE
  5
173
330
DB
100
AcDbEntity
  8
SOMBREA
100
AcDbLine
 10
-5.974865265251537
 20
4.958994708193131
 30
0.0
 11
-5.947677250995411
 21
5.457441636222
 31
0.0
  0
LINE
  5
174
330
DB
100
AcDbEntity
  8
SOMBREA
100
AcDbLine
 10
-5.974865265251537
 20
4.958994708193131
 30
0.0
 11
-6.089659103221606
 21
4.505861137257568
 31
0.0
  0
LINE
  5
175
330
DB
100
AcDbEntity
  8
SOMBREA
100
AcDbLine
 10
-6.089659103221606
 20
4.505861137257568
 30
0.0
 11
-6.292058764906016
 21
4.131270718617713
 31
0.0
  0
LINE
  5
176
330
DB
100
AcDbEntity
  8
SOMBREA
100
AcDbLine
 10
-6.292058764906016
 20
4.131270718617713
 30
0.0
 11
-6.621335826452707
 21
3.880536809366702
 31
0.0
  0
LINE
  5
177
330
DB
100
AcDbEntity
  8
SOMBREA
100
AcDbLine
 10
-6.621335826452707
 20
3.880536809366702
 30
0.0
 11
-7.092594740225251
 21
3.783868314233842
 31
0.0
  0
LINE
  5
178
330
DB
100
AcDbEntity
  8
SOMBREA
100
AcDbLine
 10
-7.092594740225251
 20
3.783868314233842
 30
0.0
 11
-7.515519406432019
 21
3.880536809366702
 31
0.0
  0
LINE
  5
179
330
DB
100
AcDbEntity
  8
SOMBREA
100
AcDbLine
 10
-7.515519406432019
 20
3.880536809366702
 30
0.0
 11
-7.823650234668093
 21
4.131270718617713
 31
0.0
  0
LINE
  5
17A
330
DB
100
AcDbEntity
  8
SOMBREA
100
AcDbLine
 10
-7.823650234668093
 20
4.131270718617713
 30
0.0
 11
-8.035112567771022
 21
4.505861137257568
 31
0.0
  0
LINE
  5
17B
330
DB
100
AcDbEntity
  8
SOMBREA
100
AcDbLine
 10
-8.035112567771022
 20
4.505861137257568
 30
0.0
 11
-8.140843734323027
 21
4.958994708193131
 31
0.0
  0
LINE
  5
17C
330
DB
100
AcDbEntity
  8
SOMBREA
100
AcDbLine
 10
-8.140843734323027
 20
4.958994708193131
 30
0.0
 11
-8.180115310470512
 21
5.457441636222
 31
0.0
  0
LINE
  5
17D
330
DB
100
AcDbEntity
  8
SOMBREA
100
AcDbLine
 10
-8.180115310470512
 20
5.457441636222
 30
0.0
 11
-8.140843734323027
 21
5.958909454723851
 31
0.0
  0
LINE
  5
17E
330
DB
100
AcDbEntity
  8
SOMBREA
100
AcDbLine
 10
-8.140843734323027
 20
5.958909454723851
 30
0.0
 11
-8.035112567771022
 21
6.412043025659386
 31
0.0
  0
LINE
  5
17F
330
DB
100
AcDbEntity
  8
SOMBREA
100
AcDbLine
 10
-8.035112567771022
 20
6.412043025659386
 30
0.0
 11
-7.823650234668093
 21
6.786633444299241
 31
0.0
  0
LINE
  5
180
330
DB
100
AcDbEntity
  8
SOMBREA
100
AcDbLine
 10
-7.823650234668093
 20
6.786633444299241
 30
0.0
 11
-7.515519406432019
 21
7.03736735355028
 31
0.0
  0
LINE
  5
181
330
DB
100
AcDbEntity
  8
SOMBREA
100
AcDbLine
 10
-7.515519406432019
 20
7.03736735355028
 30
0.0
 11
-7.092594740225251
 21
7.13403584868314
 31
0.0
  0
LINE
  5
182
330
DB
100
AcDbEntity
  8
SOMBREA
100
AcDbLine
 10
-7.092594740225251
 20
7.13403584868314
 30
0.0
 11
-6.621335826452707
 21
7.03736735355028
 31
0.0
  0
LINE
  5
183
330
DB
100
AcDbEntity
  8
SOMBREA
100
AcDbLine
 10
-6.621335826452707
 20
7.03736735355028
 30
0.0
 11
-6.292058764906016
 21
6.786633444299241
 31
0.0
  0
LINE
  5
184
330
DB
100
AcDbEntity
  8
SOMBREA
100
AcDbLine
 10
-6.292058764906016
 20
6.786633444299241
 30
0.0
 11
-6.089659103221606
 21
6.412043025659386
 31
0.0
  0
LINE
  5
185
330
DB
100
AcDbEntity
  8
SOMBREA
100
AcDbLine
 10
-6.089659103221606
 20
6.412043025659386
 30
0.0
 11
-5.974865265251537
 21
5.958909454723851
 31
0.0
  0
LINE
  5
186
330
DB
100
AcDbEntity
  8
SOMBREA
100
AcDbLine
 10
-5.974865265251537
 20
5.958909454723851
 30
0.0
 11
-5.947677250995411
 21
5.457441636222
 31
0.0
  0
LINE
  5
187
330
DB
100
AcDbEntity
  8
SOMBREA
100
AcDbLine
 10
-3.518881310781125
 20
5.131185465148433
 30
0.0
 11
-3.685030286791118
 21
4.735448813198274
 31
0.0
  0
LINE
  5
188
330
DB
100
AcDbEntity
  8
SOMBREA
100
AcDbLine
 10
-3.685030286791118
 20
4.735448813198274
 30
0.0
 11
-3.742427205776152
 21
4.206792980440212
 31
0.0
  0
LINE
  5
189
330
DB
100
AcDbEntity
  8
SOMBREA
100
AcDbLine
 10
-3.742427205776152
 20
4.206792980440212
 30
0.0
 11
-3.663884053480444
 21
3.638865571534523
 31
0.0
  0
LINE
  5
18A
330
DB
100
AcDbEntity
  8
SOMBREA
100
AcDbLine
 10
-3.663884053480444
 20
3.638865571534523
 30
0.0
 11
-3.443359048958541
 21
3.206878233909293
 31
0.0
  0
LINE
  5
18B
330
DB
100
AcDbEntity
  8
SOMBREA
100
AcDbLine
 10
-0.0237110336327646
 20
7.85602867170698
 30
0.0
 11
-0.6309100186862793
 21
8.085616347647572
 31
0.0
  0
LINE
  5
18C
330
DB
100
AcDbEntity
  8
SOMBREA
100
AcDbLine
 10
-0.6309100186862793
 20
8.085616347647572
 30
0.0
 11
-1.470717570153055
 21
8.164159499943025
 31
0.0
  0
LINE
  5
18D
330
DB
100
AcDbEntity
  8
SOMBREA
100
AcDbLine
 10
-1.470717570153055
 20
8.164159499943025
 30
0.0
 11
-2.461569645265456
 21
8.019156757243649
 31
0.0
  0
LINE
  5
18E
330
DB
100
AcDbEntity
  8
SOMBREA
100
AcDbLine
 10
-2.461569645265456
 20
8.019156757243649
 30
0.0
 11
-3.077831301737489
 21
7.644566338603681
 31
0.0
  0
LINE
  5
18F
330
DB
100
AcDbEntity
  8
SOMBREA
100
AcDbLine
 10
-3.077831301737489
 20
7.644566338603681
 30
0.0
 11
-3.413150144229632
 21
7.173307424830937
 31
0.0
  0
LINE
  5
190
330
DB
100
AcDbEntity
  8
SOMBREA
100
AcDbLine
 10
-3.413150144229632
 20
7.173307424830937
 30
0.0
 11
-3.549090215510204
 21
6.711111182476741
 31
0.0
  0
LINE
  5
191
330
DB
100
AcDbEntity
  8
SOMBREA
100
AcDbLine
 10
-3.549090215510204
 20
6.711111182476741
 30
0.0
 11
-3.579299120239625
 21
6.363708778092899
 31
0.0
  0
LINE
  5
192
330
DB
100
AcDbEntity
  8
SOMBREA
100
AcDbLine
 10
-3.579299120239625
 20
6.363708778092899
 30
0.0
 11
-2.950953901875493
 21
6.363708778092899
 31
0.0
  0
LINE
  5
193
330
DB
100
AcDbEntity
  8
SOMBREA
100
AcDbLine
 10
-2.950953901875493
 20
6.363708778092899
 30
0.0
 11
-2.31656690256608
 21
6.363708778092899
 31
0.0
  0
LINE
  5
194
330
DB
100
AcDbEntity
  8
SOMBREA
100
AcDbLine
 10
-2.31656690256608
 20
6.363708778092899
 30
0.0
 11
-2.30750423114722
 21
6.517774192210907
 31
0.0
  0
LINE
  5
195
330
DB
100
AcDbEntity
  8
SOMBREA
100
AcDbLine
 10
-2.30750423114722
 20
6.517774192210907
 30
0.0
 11
-2.259169983580875
 21
6.729236525314121
 31
0.0
  0
LINE
  5
196
330
DB
100
AcDbEntity
  8
SOMBREA
100
AcDbLine
 10
-2.259169983580875
 20
6.729236525314121
 30
0.0
 11
-2.123229912299962
 21
6.949761529836109
 31
0.0
  0
LINE
  5
197
330
DB
100
AcDbEntity
  8
SOMBREA
100
AcDbLine
 10
-2.123229912299962
 20
6.949761529836109
 30
0.0
 11
-1.854370660211998
 21
7.13403584868314
 31
0.0
  0
LINE
  5
198
330
DB
100
AcDbEntity
  8
SOMBREA
100
AcDbLine
 10
-1.854370660211998
 20
7.13403584868314
 30
0.0
 11
-1.422383322586654
 21
7.200495439086978
 31
0.0
  0
LINE
  5
199
330
DB
100
AcDbEntity
  8
SOMBREA
100
AcDbLine
 10
-1.422383322586654
 20
7.200495439086978
 30
0.0
 11
-1.008521327799087
 21
7.164244753412106
 31
0.0
  0
LINE
  5
19A
330
DB
100
AcDbEntity
  8
SOMBREA
100
AcDbLine
 10
-1.008521327799087
 20
7.164244753412106
 30
0.0
 11
-0.7487247471293017
 21
7.076638929697963
 31
0.0
  0
LINE
  5
19B
330
DB
100
AcDbEntity
  8
SOMBREA
100
AcDbLine
 10
-0.7487247471293017
 20
7.076638929697963
 30
0.0
 11
-0.6218473472674191
 21
6.949761529836109
 31
0.0
  0
LINE
  5
19C
330
DB
100
AcDbEntity
  8
SOMBREA
100
AcDbLine
 10
-0.6218473472674191
 20
6.949761529836109
 30
0.0
 11
-0.5735130997011311
 21
6.816842349028235
 31
0.0
  0
LINE
  5
19D
330
DB
100
AcDbEntity
  8
SOMBREA
100
AcDbLine
 10
-0.5735130997011311
 20
6.816842349028235
 30
0.0
 11
-0.5644504282822709
 21
6.711111182476741
 31
0.0
  0
LINE
  5
19E
330
DB
100
AcDbEntity
  8
SOMBREA
100
AcDbLine
 10
-0.5644504282822709
 20
6.711111182476741
 30
0.0
 11
-0.5644504282822709
 21
6.623505358762571
 31
0.0
  0
LINE
  5
19F
330
DB
100
AcDbEntity
  8
SOMBREA
100
AcDbLine
 10
-0.5644504282822709
 20
6.623505358762571
 30
0.0
 11
-0.5825757711195366
 21
6.508711520792246
 31
0.0
  0
LINE
  5
1A0
330
DB
100
AcDbEntity
  8
SOMBREA
100
AcDbLine
 10
-0.5825757711195366
 20
6.508711520792246
 30
0.0
 11
-0.6309100186862793
 21
6.363708778092899
 31
0.0
  0
LINE
  5
1A1
330
DB
100
AcDbEntity
  8
SOMBREA
100
AcDbLine
 10
-0.6309100186862793
 20
6.363708778092899
 30
0.0
 11
-0.727578513818969
 21
6.239852268703884
 31
0.0
  0
LINE
  5
1A2
330
DB
100
AcDbEntity
  8
SOMBREA
100
AcDbLine
 10
-0.727578513818969
 20
6.239852268703884
 30
0.0
 11
-0.8816439279372048
 21
6.134121102152192
 31
0.0
  0
LINE
  5
1A3
330
DB
100
AcDbEntity
  8
SOMBREA
100
AcDbLine
 10
-0.8816439279372048
 20
6.134121102152192
 30
0.0
 11
-1.256234346577116
 21
6.016306373708999
 31
0.0
  0
LINE
  5
1A4
330
DB
100
AcDbEntity
  8
SOMBREA
100
AcDbLine
 10
-1.256234346577116
 20
6.016306373708999
 30
0.0
 11
-1.6429083271085
 21
5.958909454723851
 31
0.0
  0
LINE
  5
1A5
330
DB
100
AcDbEntity
  8
SOMBREA
100
AcDbLine
 10
-1.6429083271085
 20
5.958909454723851
 30
0.0
 11
-2.017498745748582
 21
5.910575207157506
 31
0.0
  0
LINE
  5
1A6
330
DB
100
AcDbEntity
  8
SOMBREA
100
AcDbLine
 10
-2.017498745748582
 20
5.910575207157506
 30
0.0
 11
-2.373963821551228
 21
5.85317828817233
 31
0.0
  0
LINE
  5
1A7
330
DB
100
AcDbEntity
  8
SOMBREA
100
AcDbLine
 10
-2.373963821551228
 20
5.85317828817233
 30
0.0
 11
-2.703240883097578
 21
5.756509793039327
 31
0.0
  0
LINE
  5
1A8
330
DB
100
AcDbEntity
  8
SOMBREA
100
AcDbLine
 10
-2.703240883097578
 20
5.756509793039327
 30
0.0
 11
-2.999288149442065
 21
5.611507050340009
 31
0.0
  0
LINE
  5
1A9
330
DB
100
AcDbEntity
  8
SOMBREA
100
AcDbLine
 10
-2.999288149442065
 20
5.611507050340009
 30
0.0
 11
-3.28023096342207
 21
5.412128279128495
 31
0.0
  0
LINE
  5
1AA
330
DB
100
AcDbEntity
  8
SOMBREA
100
AcDbLine
 10
-3.28023096342207
 20
5.412128279128495
 30
0.0
 11
-3.518881310781125
 21
5.131185465148433
 31
0.0
  0
LINE
  5
1AB
330
DB
100
AcDbEntity
  8
SOMBREA
100
AcDbLine
 10
-3.443359048958541
 20
3.206878233909293
 30
0.0
 11
-3.077831301737489
 21
2.898747405673248
 31
0.0
  0
LINE
  5
1AC
330
DB
100
AcDbEntity
  8
SOMBREA
100
AcDbLine
 10
-3.077831301737489
 20
2.898747405673248
 30
0.0
 11
-2.594488826073074
 21
2.723535758244906
 31
0.0
  0
LINE
  5
1AD
330
DB
100
AcDbEntity
  8
SOMBREA
100
AcDbLine
 10
-2.594488826073074
 20
2.723535758244906
 30
0.0
 11
-1.999373402911203
 21
2.66613883925973
 31
0.0
  0
LINE
  5
1AE
330
DB
100
AcDbEntity
  8
SOMBREA
100
AcDbLine
 10
-1.999373402911203
 20
2.66613883925973
 30
0.0
 11
-1.65197099852736
 21
2.714473086826075
 31
0.0
  0
LINE
  5
1AF
330
DB
100
AcDbEntity
  8
SOMBREA
100
AcDbLine
 10
-1.65197099852736
 20
2.714473086826075
 30
0.0
 11
-1.325714827453623
 21
2.829266924796456
 31
0.0
  0
LINE
  5
1B0
330
DB
100
AcDbEntity
  8
SOMBREA
100
AcDbLine
 10
-1.325714827453623
 20
2.829266924796456
 30
0.0
 11
-1.026646670636523
 21
2.974269667495775
 31
0.0
  0
LINE
  5
1B1
330
DB
100
AcDbEntity
  8
SOMBREA
100
AcDbLine
 10
-1.026646670636523
 20
2.974269667495775
 30
0.0
 11
-0.7577874185479914
 21
3.167606657761609
 31
0.0
  0
LINE
  5
1B2
330
DB
100
AcDbEntity
  8
SOMBREA
100
AcDbLine
 10
-0.7577874185479914
 20
3.167606657761609
 30
0.0
 11
-0.5161161807158692
 21
3.379068990864794
 31
0.0
  0
LINE
  5
1B3
330
DB
100
AcDbEntity
  8
SOMBREA
100
AcDbLine
 10
-0.5161161807158692
 20
3.379068990864794
 30
0.0
 11
-0.5161161807158692
 21
3.291463167150624
 31
0.0
  0
LINE
  5
1B4
330
DB
100
AcDbEntity
  8
SOMBREA
100
AcDbLine
 10
-0.5161161807158692
 20
3.291463167150624
 30
0.0
 11
-0.5161161807158692
 21
3.185732000598989
 31
0.0
  0
LINE
  5
1B5
330
DB
100
AcDbEntity
  8
SOMBREA
100
AcDbLine
 10
-0.5161161807158692
 20
3.185732000598989
 30
0.0
 11
-0.4979908378782625
 21
3.061875491209946
 31
0.0
  0
LINE
  5
1B6
330
DB
100
AcDbEntity
  8
SOMBREA
100
AcDbLine
 10
-0.4979908378782625
 20
3.061875491209946
 30
0.0
 11
-0.4677819331492401
 21
2.938018981820931
 31
0.0
  0
LINE
  5
1B7
330
DB
100
AcDbEntity
  8
SOMBREA
100
AcDbLine
 10
-0.4677819331492401
 20
2.938018981820931
 30
0.0
 11
-0.4013223427455728
 21
2.829266924796456
 31
0.0
  0
LINE
  5
1B8
330
DB
100
AcDbEntity
  8
SOMBREA
100
AcDbLine
 10
-0.4013223427455728
 20
2.829266924796456
 30
0.0
 11
0.3116078088595486
 21
2.829266924796456
 31
0.0
  0
LINE
  5
1B9
330
DB
100
AcDbEntity
  8
SOMBREA
100
AcDbLine
 10
-0.5644504282822709
 20
4.832117308331078
 30
0.0
 11
-0.5644504282822709
 21
5.303376222103992
 31
0.0
  0
LINE
  5
1BA
330
DB
100
AcDbEntity
  8
SOMBREA
100
AcDbLine
 10
-0.5644504282822709
 20
4.832117308331078
 30
0.0
 11
-0.5735130997011311
 21
4.659926551375605
 31
0.0
  0
LINE
  5
1BB
330
DB
100
AcDbEntity
  8
SOMBREA
100
AcDbLine
 10
-0.5735130997011311
 20
4.659926551375605
 30
0.0
 11
-0.6399726901047984
 21
4.391067299287186
 31
0.0
  0
LINE
  5
1BC
330
DB
100
AcDbEntity
  8
SOMBREA
100
AcDbLine
 10
-0.6399726901047984
 20
4.391067299287186
 30
0.0
 11
-0.8061216661147341
 21
4.082936471051198
 31
0.0
  0
LINE
  5
1BD
330
DB
100
AcDbEntity
  8
SOMBREA
100
AcDbLine
 10
-0.8061216661147341
 20
4.082936471051198
 30
0.0
 11
-1.114252494350523
 21
3.841265233219019
 31
0.0
  0
LINE
  5
1BE
330
DB
100
AcDbEntity
  8
SOMBREA
100
AcDbLine
 10
-1.114252494350523
 20
3.841265233219019
 30
0.0
 11
-1.603636750961129
 21
3.744596738085988
 31
0.0
  0
LINE
  5
1BF
330
DB
100
AcDbEntity
  8
SOMBREA
100
AcDbLine
 10
-1.603636750961129
 20
3.744596738085988
 30
0.0
 11
-1.902704907778229
 21
3.765742971396349
 31
0.0
  0
LINE
  5
1C0
330
DB
100
AcDbEntity
  8
SOMBREA
100
AcDbLine
 10
-1.902704907778229
 20
3.765742971396349
 30
0.0
 11
-2.132292583718992
 21
3.832202561800158
 31
0.0
  0
LINE
  5
1C1
330
DB
100
AcDbEntity
  8
SOMBREA
100
AcDbLine
 10
-2.132292583718992
 20
3.832202561800158
 30
0.0
 11
-2.30750423114722
 21
3.946996399770512
 31
0.0
  0
LINE
  5
1C2
330
DB
100
AcDbEntity
  8
SOMBREA
100
AcDbLine
 10
-2.30750423114722
 20
3.946996399770512
 30
0.0
 11
-2.404172726280251
 21
4.122208047198853
 31
0.0
  0
LINE
  5
1C3
330
DB
100
AcDbEntity
  8
SOMBREA
100
AcDbLine
 10
-2.404172726280251
 20
4.122208047198853
 30
0.0
 11
-2.440423411954839
 21
4.369921065976853
 31
0.0
  0
LINE
  5
1C4
330
DB
100
AcDbEntity
  8
SOMBREA
100
AcDbLine
 10
-2.440423411954839
 20
4.369921065976853
 30
0.0
 11
-2.422298069117687
 21
4.536070041986562
 31
0.0
  0
LINE
  5
1C5
330
DB
100
AcDbEntity
  8
SOMBREA
100
AcDbLine
 10
-2.422298069117687
 20
4.536070041986562
 30
0.0
 11
-2.364901150132368
 21
4.659926551375605
 31
0.0
  0
LINE
  5
1C6
330
DB
100
AcDbEntity
  8
SOMBREA
100
AcDbLine
 10
-2.364901150132368
 20
4.659926551375605
 30
0.0
 11
-2.298441559728416
 21
4.765657717927268
 31
0.0
  0
LINE
  5
1C7
330
DB
100
AcDbEntity
  8
SOMBREA
100
AcDbLine
 10
-2.298441559728416
 20
4.765657717927268
 30
0.0
 11
-2.228961078851853
 21
4.832117308331078
 31
0.0
  0
LINE
  5
1C8
330
DB
100
AcDbEntity
  8
SOMBREA
100
AcDbLine
 10
-2.228961078851853
 20
4.832117308331078
 30
0.0
 11
-2.171564159866704
 21
4.880451555897565
 31
0.0
  0
LINE
  5
1C9
330
DB
100
AcDbEntity
  8
SOMBREA
100
AcDbLine
 10
-2.171564159866704
 20
4.880451555897565
 30
0.0
 11
-1.87249600304915
 21
5.02545429859694
 31
0.0
  0
LINE
  5
1CA
330
DB
100
AcDbEntity
  8
SOMBREA
100
AcDbLine
 10
-1.87249600304915
 20
5.02545429859694
 30
0.0
 11
-1.528114489138204
 21
5.091913889000778
 31
0.0
  0
LINE
  5
1CB
330
DB
100
AcDbEntity
  8
SOMBREA
100
AcDbLine
 10
-1.528114489138204
 20
5.091913889000778
 30
0.0
 11
-1.171649413335899
 21
5.131185465148433
 31
0.0
  0
LINE
  5
1CC
330
DB
100
AcDbEntity
  8
SOMBREA
100
AcDbLine
 10
-1.171649413335899
 20
5.131185465148433
 30
0.0
 11
-0.8333096803708599
 21
5.179519712714977
 31
0.0
  0
LINE
  5
1CD
330
DB
100
AcDbEntity
  8
SOMBREA
100
AcDbLine
 10
-0.8333096803708599
 20
5.179519712714977
 30
0.0
 11
-0.5644504282822709
 21
5.303376222103992
 31
0.0
  0
LINE
  5
1CE
330
DB
100
AcDbEntity
  8
SOMBREA
100
AcDbLine
 10
0.6861982274994603
 20
4.360858394558221
 30
0.0
 11
0.6861982274994603
 21
3.620740228696917
 31
0.0
  0
LINE
  5
1CF
330
DB
100
AcDbEntity
  8
SOMBREA
100
AcDbLine
 10
0.6861982274994603
 20
4.360858394558221
 30
0.0
 11
0.6861982274994603
 21
5.113060122311111
 31
0.0
  0
LINE
  5
1D0
330
DB
100
AcDbEntity
  8
SOMBREA
100
AcDbLine
 10
0.6861982274994603
 20
5.113060122311111
 30
0.0
 11
0.6861982274994603
 21
5.862240959590991
 31
0.0
  0
LINE
  5
1D1
330
DB
100
AcDbEntity
  8
SOMBREA
100
AcDbLine
 10
0.6861982274994603
 20
5.862240959590991
 30
0.0
 11
0.6861982274994603
 21
6.61444268734391
 31
0.0
  0
LINE
  5
1D2
330
DB
100
AcDbEntity
  8
SOMBREA
100
AcDbLine
 10
0.6861982274994603
 20
6.61444268734391
 30
0.0
 11
0.6197386370959635
 21
7.094764272535456
 31
0.0
  0
LINE
  5
1D3
330
DB
100
AcDbEntity
  8
SOMBREA
100
AcDbLine
 10
0.6197386370959635
 20
7.094764272535456
 30
0.0
 11
0.3901509611551432
 21
7.51768893874177
 31
0.0
  0
LINE
  5
1D4
330
DB
100
AcDbEntity
  8
SOMBREA
100
AcDbLine
 10
0.3901509611551432
 20
7.51768893874177
 30
0.0
 11
-0.0237110336327646
 21
7.85602867170698
 31
0.0
  0
LINE
  5
1D5
330
DB
100
AcDbEntity
  8
SOMBREA
100
AcDbLine
 10
0.3116078088595486
 20
2.829266924796456
 30
0.0
 11
1.024537960464556
 21
2.829266924796456
 31
0.0
  0
LINE
  5
1D6
330
DB
100
AcDbEntity
  8
SOMBREA
100
AcDbLine
 10
1.024537960464556
 20
2.829266924796456
 30
0.0
 11
1.024537960464556
 21
3.080000834047467
 31
0.0
  0
LINE
  5
1D7
330
DB
100
AcDbEntity
  8
SOMBREA
100
AcDbLine
 10
1.024537960464556
 20
3.080000834047467
 30
0.0
 11
0.8885978891841546
 21
3.167606657761609
 31
0.0
  0
LINE
  5
1D8
330
DB
100
AcDbEntity
  8
SOMBREA
100
AcDbLine
 10
0.8885978891841546
 20
3.167606657761609
 30
0.0
 11
0.7919293940509533
 21
3.273337824313131
 31
0.0
  0
LINE
  5
1D9
330
DB
100
AcDbEntity
  8
SOMBREA
100
AcDbLine
 10
0.7919293940509533
 20
3.273337824313131
 30
0.0
 11
0.7345324750658051
 21
3.388131662283456
 31
0.0
  0
LINE
  5
1DA
330
DB
100
AcDbEntity
  8
SOMBREA
100
AcDbLine
 10
0.7345324750658051
 20
3.388131662283456
 30
0.0
 11
0.698281789391217
 21
3.505946390726649
 31
0.0
  0
LINE
  5
1DB
330
DB
100
AcDbEntity
  8
SOMBREA
100
AcDbLine
 10
0.698281789391217
 20
3.505946390726649
 30
0.0
 11
0.6861982274994603
 21
3.629802900115834
 31
0.0
  0
LINE
  5
1DC
330
DB
100
AcDbEntity
  8
SOMBREA
100
AcDbLine
 10
1.988202021320773
 20
8.96167458478942
 30
0.0
 11
1.988202021320773
 21
9.837732821931155
 31
0.0
  0
LINE
  5
1DD
330
DB
100
AcDbEntity
  8
SOMBREA
100
AcDbLine
 10
1.988202021320773
 20
8.96167458478942
 30
0.0
 11
1.988202021320773
 21
8.085616347647572
 31
0.0
  0
LINE
  5
1DE
330
DB
100
AcDbEntity
  8
SOMBREA
100
AcDbLine
 10
1.988202021320773
 20
8.085616347647572
 30
0.0
 11
1.988202021320773
 21
7.20955811050581
 31
0.0
  0
LINE
  5
1DF
330
DB
100
AcDbEntity
  8
SOMBREA
100
AcDbLine
 10
1.988202021320773
 20
7.20955811050581
 30
0.0
 11
1.988202021320773
 21
6.333499873363905
 31
0.0
  0
LINE
  5
1E0
330
DB
100
AcDbEntity
  8
SOMBREA
100
AcDbLine
 10
1.988202021320773
 20
6.333499873363905
 30
0.0
 11
1.988202021320773
 21
5.457441636222
 31
0.0
  0
LINE
  5
1E1
330
DB
100
AcDbEntity
  8
SOMBREA
100
AcDbLine
 10
1.988202021320773
 20
5.457441636222
 30
0.0
 11
1.988202021320773
 21
4.581383399080266
 31
0.0
  0
LINE
  5
1E2
330
DB
100
AcDbEntity
  8
SOMBREA
100
AcDbLine
 10
1.988202021320773
 20
4.581383399080266
 30
0.0
 11
1.988202021320773
 21
3.705325161938304
 31
0.0
  0
LINE
  5
1E3
330
DB
100
AcDbEntity
  8
SOMBREA
100
AcDbLine
 10
1.988202021320773
 20
3.705325161938304
 30
0.0
 11
1.988202021320773
 21
2.820204253377738
 31
0.0
  0
LINE
  5
1E4
330
DB
100
AcDbEntity
  8
SOMBREA
100
AcDbLine
 10
1.988202021320773
 20
2.820204253377738
 30
0.0
 11
2.61352634921161
 21
2.820204253377738
 31
0.0
  0
LINE
  5
1E5
330
DB
100
AcDbEntity
  8
SOMBREA
100
AcDbLine
 10
2.61352634921161
 20
9.837732821931155
 30
0.0
 11
1.988202021320773
 21
9.837732821931155
 31
0.0
  0
ENDBLK
  5
1E6
330
DB
100
AcDbEntity
  8
0
100
AcDbBlockEnd
  0
BLOCK
  5
1E8
330
1E7
100
AcDbEntity
  8
0
100
AcDbBlockBegin
  2
logo_cajetin
 70
     0
 10
0.0
 20
0.0
 30
0.0
  3
logo_cajetin
  1

  0
HATCH
  5
1E9
330
1E7
100
AcDbEntity
  8
0
 62
   170
100
AcDbHatch
 10
0.0
 20
0.0
 30
0.0
210
0.0
220
0.0
230
1.0
  2
SOLID
 70
     1
 71
     0
 91
        2
 92
        1
 93
        7
 72
     4
 94
        3
 73
     0
 74
     0
 95
       11
 96
        7
 40
0.0
 40
0.0
 40
0.0
 40
0.0
 40
0.6059020639443041
 40
0.9148929524247012
 40
1.335348456806708
 40
1.741862884046666
 40
1.741862884046666
 40
1.741862884046666
 40
1.741862884046666
 10
11.62813747072187
 20
7.193928753911279
 10
11.64478490610815
 20
7.200320500360181
 10
11.66992200699803
 20
7.209971835332893
 10
11.69053948679425
 20
7.244139600441116
 10
11.68953000990632
 20
7.277770063897538
 10
11.68266604824009
 20
7.300203741842945
 10
11.67929192381473
 20
7.311231487099632
 72
     4
 94
        3
 73
     0
 74
     0
 95
        8
 96
        4
 40
0.0
 40
0.0
 40
0.0
 40
0.0
 40
0.3885927928501808
 40
0.3885927928501808
 40
0.3885927928501808
 40
0.3885927928501808
 10
11.67929192381473
 20
7.311231487099632
 10
11.67488990777212
 20
7.321364585937153
 10
11.67048789172986
 20
7.331497684774678
 10
11.66608587568748
 20
7.341630783612203
 72
     4
 94
        3
 73
     0
 74
     0
 95
        8
 96
        4
 40
0.0
 40
0.0
 40
0.0
 40
0.0
 40
0.0509203821309084
 40
0.0509203821309084
 40
0.0509203821309084
 40
0.0509203821309084
 10
11.66608587568748
 20
7.341630783612203
 10
11.66535039656457
 20
7.342877743999441
 10
11.66461491744189
 20
7.344124704386672
 10
11.6638794383191
 20
7.34537166477391
 72
     1
 10
11.66387943831887
 20
7.34537166477391
 11
10.54621065636649
 21
9.238710248280886
 72
     2
 10
9.484886030821371
 20
8.486266786771942
 40
1.300992361067536
 50
35.33535829109248
 51
268.5573751998061
 73
     1
 72
     1
 10
9.452132387184633
 20
7.185686792160087
 11
11.5571781611726
 21
7.185657385956876
 72
     4
 94
        3
 73
     0
 74
     0
 95
        9
 96
        5
 40
0.0
 40
0.0
 40
0.0
 40
0.0
 40
0.8024412561638129
 40
0.8378260339549468
 40
0.8378260339549468
 40
0.8378260339549468
 40
0.8378260339549468
 10
11.55717816117271
 20
7.185657385956915
 10
11.58006999331223
 20
7.186914488308886
 10
11.60397127304338
 20
7.188227024360269
 10
11.62715819341179
 20
7.193697704970436
 10
11.62813747072187
 20
7.193928753911279
 97
        0
 92
        1
 93
        4
 72
     1
 10
7.466621109461925
 20
6.883505575654204
 11
11.39781942035517
 21
6.883856917758027
 72
     2
 10
11.33894858511485
 20
5.906447141987676
 40
0.9791811094038447
 50
273.4468453075975
 51
447.1944437955949
 73
     0
 72
     1
 10
11.38687619847735
 20
4.928439683483034
 11
7.455677887584329
 21
4.928088341379208
 72
     2
 10
7.528185403180032
 20
5.905421801355604
 40
0.9800194037911914
 50
94.24295078329221
 51
266.398338319897
 73
     0
 97
        0
 75
     0
 76
     1
 98
        1
 10
-8.952555265829687
 20
-38.3876208799945
  0
HATCH
  5
1EA
330
1E7
100
AcDbEntity
  8
PC-SHOP
 62
   170
100
AcDbHatch
 10
0.0
 20
0.0
 30
0.0
210
0.0
220
0.0
230
1.0
  2
SOLID
 70
     1
 71
     0
 91
        5
 92
       16
 93
        1
 72
     4
 94
        3
 73
     0
 74
     0
 95
       45
 96
       41
 40
0.0
 40
0.0
 40
0.0
 40
0.0
 40
1.467434249449054
 40
2.91413940558335
 40
4.271713484767556
 40
5.322411783107159
 40
6.092092048076723
 40
6.366722458097023
 40
6.512254827490421
 40
6.632707186155077
 40
6.719565427305933
 40
6.925372254804855
 40
7.140712785164351
 40
7.515218166252877
 40
8.009178525483896
 40
11.24372335021136
 40
12.46372212402578
 40
13.66515268816422
 40
15.3311008350412
 40
17.00783684035715
 40
18.35806345662466
 40
21.01139971775895
 40
22.58999002145052
 40
24.70655521159932
 40
28.220694024179
 40
31.3030737660794
 40
35.1900146985466
 40
38.20197103669823
 40
40.2077936388867
 40
42.84139812638647
 40
44.86860009220726
 40
47.0160875449321
 40
49.13328670158855
 40
50.38903551769884
 40
52.50424193010076
 40
54.50172883955804
 40
56.82050932982182
 40
59.48732084175126
 40
61.92926384446891
 40
63.51664534796851
 40
63.51664534796851
 40
63.51664534796851
 40
63.51664534796851
 10
29.1859599293407
 20
6.930012757233235
 10
29.22716679799328
 20
6.936488085984894
 10
29.30899844378337
 20
6.949347272477506
 10
29.42823760455372
 20
6.973469275855112
 10
29.53234261898956
 20
7.008272763590127
 10
29.61748819205104
 20
7.038246943718725
 10
29.67264057371654
 20
7.061298016907059
 10
29.70108763889425
 20
7.080046860630389
 10
29.71542107127789
 20
7.085488168305431
 10
29.72556814767688
 20
7.087601662635393
 10
29.73686367275752
 20
7.084563374368098
 10
29.75249904723091
 20
7.080422828105909
 10
29.75702899070689
 20
7.055417553160392
 10
29.7545591732536
 20
7.025729683751134
 10
29.76216831330339
 20
6.908073776299957
 10
29.76149639048606
 20
6.768247991461073
 10
29.75750931989842
 20
6.607224814777428
 10
29.7415162426147
 20
6.491939286057483
 10
29.71582241274348
 20
6.365410857221476
 10
29.68352530130005
 20
6.235441707227323
 10
29.61888076292951
 20
6.087301794398566
 10
29.53522576703392
 20
5.949301775348036
 10
29.39940345211642
 20
5.829007940750905
 10
29.23185186443004
 20
5.710093080541916
 10
28.9980879458044
 20
5.61687078948751
 10
28.70268627181997
 20
5.573195562887008
 10
28.41578232900986
 20
5.569152490029619
 10
28.17073954793443
 20
5.670917586226291
 10
28.03272481110605
 20
5.843959713252068
 10
27.95636622094332
 20
6.021974397772101
 10
27.94516473718443
 20
6.216383625349152
 10
27.9611290231237
 20
6.397750685787269
 10
28.04128513448757
 20
6.536891403429194
 10
28.14007528091736
 20
6.657971248741208
 10
28.26516445220432
 20
6.749060596625049
 10
28.43279827301342
 20
6.825528734673547
 10
28.62951917060707
 20
6.859691398785724
 10
28.838017410161
 20
6.891720594183702
 10
29.0282842629116
 20
6.904412042236614
 10
29.14139796793336
 20
6.922777537623787
 10
29.1859599293407
 20
6.930012757233235
 97
        0
 92
       16
 93
        1
 72
     4
 94
        3
 73
     0
 74
     0
 95
       45
 96
       41
 40
0.0
 40
0.0
 40
0.0
 40
0.0
 40
1.467434249449353
 40
2.914139405583301
 40
4.271713484767451
 40
5.322411783106839
 40
6.092092048076992
 40
6.366722458097067
 40
6.512254827490251
 40
6.632707186155069
 40
6.719565427305835
 40
6.925372254804758
 40
7.14071278516375
 40
7.515218166252276
 40
8.009178525484196
 40
11.24372335021121
 40
12.46372212402562
 40
13.66515268816403
 40
15.33110083504057
 40
17.00783684035658
 40
18.35806345662451
 40
21.0113997177588
 40
22.58999002145037
 40
24.70655521159898
 40
28.22069402417849
 40
31.30307376607918
 40
35.19001469854616
 40
38.20197103669799
 40
40.20779363888681
 40
42.84139812638607
 40
44.86860009220686
 40
47.01608754493171
 40
49.13328670158775
 40
50.38903551769873
 40
52.50424193010019
 40
54.50172883955747
 40
56.82050932982125
 40
59.48732084175091
 40
61.92926384446852
 40
63.51664534796812
 40
63.51664534796812
 40
63.51664534796812
 40
63.51664534796812
 10
22.25169892006499
 20
6.929393023081196
 10
22.29290578871758
 20
6.935868351832862
 10
22.37473743450767
 20
6.948727538325488
 10
22.49397659527801
 20
6.972849541703194
 10
22.59808160971374
 20
7.007653029438085
 10
22.68322718277545
 20
7.037627209566643
 10
22.73837956444083
 20
7.060678282755144
 10
22.76682662961855
 20
7.079427126478368
 10
22.78116006200207
 20
7.084868434153463
 10
22.79130713840118
 20
7.086981928483325
 10
22.80260266348171
 20
7.083943640216133
 10
22.81823803795521
 20
7.079803093953906
 10
22.82276798143119
 20
7.05479781900842
 10
22.82029816397789
 20
7.025109949599144
 10
22.82790730402746
 20
6.907454042147961
 10
22.82723538121047
 20
6.767628257309063
 10
22.82324831062272
 20
6.606605080625428
 10
22.80725523333899
 20
6.491319551905498
 10
22.78156140346778
 20
6.364791123069498
 10
22.74926429202435
 20
6.234821973075355
 10
22.68461975365369
 20
6.08668206024657
 10
22.60096475775833
 20
5.948682041196036
 10
22.46514244284071
 20
5.828388206598916
 10
22.29759085515434
 20
5.709473346389906
 10
22.0638269365287
 20
5.616251055335574
 10
21.76842526254438
 20
5.57257582873499
 10
21.48152131973416
 20
5.56853275587764
 10
21.23647853865862
 20
5.670297852074281
 10
21.09846380183035
 20
5.843339979100097
 10
21.02210521166762
 20
6.021354663620112
 10
21.01090372790872
 20
6.215763891197148
 10
21.026868013848
 20
6.397130951635269
 10
21.10702412521198
 20
6.536271669277155
 10
21.20581427164166
 20
6.657351514589247
 10
21.33090344292861
 20
6.748440862473049
 10
21.49853726373772
 20
6.82490900052155
 10
21.69525816133125
 20
6.85907166463372
 10
21.90375640088519
 20
6.891100860031716
 10
22.09402325363601
 20
6.903792308084568
 10
22.20713695865777
 20
6.922157803471744
 10
22.25169892006499
 20
6.929393023081196
 97
        0
 92
        1
 93
       13
 72
     2
 10
27.97803084558882
 20
8.159835316963306
 40
0.0583967350490957
 50
277.0290619478991
 51
354.1875572402769
 73
     1
 72
     4
 94
        3
 73
     0
 74
     0
 95
       16
 96
       12
 40
0.0
 40
0.0
 40
0.0
 40
0.0
 40
0.3372248024306428
 40
1.204135408377434
 40
1.860624254510495
 40
2.713627135997586
 40
3.574604384885036
 40
5.070932663359227
 40
5.743513355316486
 40
6.61840080037861
 40
7.54089436820754
 40
7.54089436820754
 40
7.54089436820754
 40
7.54089436820754
 10
28.03612734779688
 20
8.153921342361982
 10
28.03682904796256
 20
8.163483184462172
 10
28.03933462290672
 20
8.197625847039667
 10
28.04386985348504
 20
8.250332564721599
 10
28.0521469137916
 20
8.317426313197714
 10
28.06699568346551
 20
8.383327367622698
 10
28.09646681469371
 20
8.469843090191325
 10
28.13179476378036
 20
8.548478452009085
 10
28.17316582120066
 20
8.624850673153844
 10
28.2195904941558
 20
8.67798183346894
 10
28.25214672462448
 20
8.717308466469013
 10
28.26885598826107
 20
8.737492593110346
 72
     4
 94
        3
 73
     0
 74
     0
 95
      121
 96
      117
 40
0.0
 40
0.0
 40
0.0
 40
0.0
 40
1.639512135770928
 40
2.778067283034076
 40
4.204302485830808
 40
5.114225336004565
 40
6.625764126810139
 40
8.674389639904475
 40
9.658878174835848
 40
11.18736204211137
 40
12.45821485133571
 40
13.67815354085991
 40
14.82784694429641
 40
15.42911560511164
 40
16.16022983639219
 40
17.10203197146295
 40
17.65396979044162
 40
18.20212848095099
 40
18.95266582229634
 40
19.63162359785471
 40
20.16745471720925
 40
20.59101042059594
 40
21.19773056355392
 40
21.64948471992457
 40
22.21864473722235
 40
22.83583261022881
 40
23.47807842459514
 40
24.13099059997772
 40
24.7030691839265
 40
25.27737682814839
 40
25.99981678826063
 40
26.67150062537763
 40
27.66435983999388
 40
28.52157071479047
 40
29.37825543700944
 40
30.24399652498079
 40
31.89315892323425
 40
33.69648022096621
 40
37.1300902033159
 40
39.67659712016878
 40
41.71030990572961
 40
42.7357905164334
 40
43.94589019792829
 40
45.08418116652456
 40
46.87120165741847
 40
48.18889146561452
 40
49.57258162736602
 40
51.14055908669455
 40
52.75027526578459
 40
54.06968381940119
 40
55.46175526638065
 40
56.69931305408598
 40
58.03639580143602
 40
59.69770257809374
 40
60.94697215561372
 40
61.91835048612161
 40
63.49981633426131
 40
64.39088928697064
 40
65.59625680534401
 40
66.60983100548069
 40
67.36849703628088
 40
68.16672820104016
 40
68.93144819623874
 40
69.6808230369125
 40
70.37167098287972
 40
70.78220637576443
 40
71.71824672900072
 40
73.77695013117485
 40
74.91284479696414
 40
76.4173089699732
 40
77.5847374221863
 40
79.51092269632642
 40
80.4053523998747
 40
81.38096771110236
 40
82.85533400118644
 40
84.0354694837724
 40
85.58332095406084
 40
87.4721993389326
 40
88.42594371259329
 40
90.80453305506523
 40
91.90994752612359
 40
93.3685508498967
 40
95.79022232326167
 40
97.11545380934623
 40
99.06795665456689
 40
100.5443565398908
 40
103.2431218783047
 40
104.2652042910369
 40
105.4824927771925
 40
106.9781518197328
 40
109.0367927045295
 40
110.1358852503232
 40
111.3913763019983
 40
113.7929800330221
 40
115.5335864653521
 40
117.1446817056088
 40
118.6483810212133
 40
119.7774014607186
 40
121.2869054292591
 40
122.8865281997802
 40
123.1150138242789
 40
123.2972762253547
 40
123.4070444571608
 40
123.5216647711332
 40
123.6706073546569
 40
123.8256686914111
 40
124.0056699108684
 40
124.2129092406391
 40
124.4198148798577
 40
124.7860781326393
 40
125.3015764346241
 40
126.0243257420593
 40
126.7544544992665
 40
127.4310540762557
 40
128.110289278802
 40
128.8237296391081
 40
128.8237296391081
 40
128.8237296391081
 40
128.8237296391081
 10
28.26885598826107
 20
8.737492593110346
 10
28.30607587635075
 20
8.765560139594253
 10
28.36914302365869
 20
8.813119124307299
 10
28.47408151316529
 20
8.872060752919203
 10
28.5706975260033
 20
8.896389256249257
 10
28.67825342483298
 20
8.915915780185738
 10
28.80442926950218
 20
8.930796433448499
 10
28.93406656405887
 20
8.940361530415056
 10
29.0630144253239
 20
8.924484040747007
 10
29.17076943621362
 20
8.923135081272643
 10
29.28395957303405
 20
8.905277827146065
 10
29.38456798417985
 20
8.881275961199428
 10
29.46724795835974
 20
8.863092035532069
 10
29.5332341444348
 20
8.837494915484658
 10
29.59026597754633
 20
8.807040115852824
 10
29.64255925174462
 20
8.76993875321196
 10
29.67915130000631
 20
8.7246588168131
 10
29.71051592864467
 20
8.682107681032487
 10
29.73055475220929
 20
8.629033405032771
 10
29.74831682991203
 20
8.576154593168872
 10
29.75953354015167
 20
8.530854513889043
 10
29.76556124687113
 20
8.48661819249861
 10
29.76445116980972
 20
8.444369301324083
 10
29.76194586391523
 20
8.398186357357214
 10
29.75897744777592
 20
8.351710935366213
 10
29.75360359019055
 20
8.299919090802102
 10
29.74233805063182
 20
8.246745112535869
 10
29.72996557469048
 20
8.194849245260321
 10
29.70840473960925
 20
8.148476814139876
 10
29.68960571542846
 20
8.098059353985561
 10
29.64897023161234
 20
8.057972098216843
 10
29.59961506751824
 20
8.01162327143918
 10
29.53836286423064
 20
7.973498838754622
 10
29.47180253939666
 20
7.934945807678115
 10
29.40467946280433
 20
7.905089566013671
 10
29.31595413622779
 20
7.868949225595002
 10
29.19999777802684
 20
7.827605335128403
 10
29.00764259338621
 20
7.789506525515008
 10
28.79103205728416
 20
7.745060646035746
 10
28.5662156870228
 20
7.706835176754342
 10
28.40751670948248
 20
7.691743544971245
 10
28.28699876069754
 20
7.677118351049571
 10
28.19106127212354
 20
7.672666910614836
 10
28.07473070315336
 20
7.655266029877243
 10
27.95504431345103
 20
7.638958742759754
 10
27.83160257525435
 20
7.605842134266282
 10
27.71575569911181
 20
7.569795799500163
 10
27.59225337807652
 20
7.52976477703747
 10
27.47567934523488
 20
7.476719539320427
 10
27.36684029332059
 20
7.419690059365613
 10
27.27077841900268
 20
7.361329393305197
 10
27.17933462113422
 20
7.295168715449069
 10
27.08660599299264
 20
7.218172845576425
 10
27.00066222374517
 20
7.133022227428092
 10
26.93020210707061
 20
7.047802786947521
 10
26.86893586676195
 20
6.958816377301101
 10
26.81370628064156
 20
6.877390479149369
 10
26.7723500810115
 20
6.781145125137111
 10
26.73521995867247
 20
6.700931239729666
 10
26.70666327001868
 20
6.621019968386626
 10
26.68888073919436
 20
6.550147800514256
 10
26.66878502931479
 20
6.48707660393503
 10
26.66066721188656
 20
6.421647745132403
 10
26.64928739595394
 20
6.360043960331349
 10
26.64150993265707
 20
6.307931011906006
 10
26.63795835560961
 20
6.250100932596179
 10
26.62865533630281
 20
6.153662461992748
 10
26.63234048622098
 20
6.036042721778422
 10
26.63291420988753
 20
5.902434287948548
 10
26.64330073553504
 20
5.794521797519497
 10
26.65891511104383
 20
5.664822606536866
 10
26.67613891037991
 20
5.552384702482797
 10
26.70641191354014
 20
5.448719633344918
 10
26.7296619737507
 20
5.356492043999068
 10
26.76469242070778
 20
5.25919939951715
 10
26.81379758678224
 20
5.150096039642292
 10
26.88159557749055
 20
5.037526714787652
 10
26.95138896272374
 20
4.933638957197658
 10
27.04988613828561
 20
4.822407769422547
 10
27.14587034426791
 20
4.738886486307507
 10
27.2652266801631
 20
4.664556664071131
 10
27.39058067100553
 20
4.597777610922513
 10
27.5311222533785
 20
4.549560569563503
 10
27.68784710663624
 20
4.507606006975521
 10
27.82261232606641
 20
4.493039111649522
 10
27.99599738939548
 20
4.476410653096195
 10
28.14424087025952
 20
4.478616151751719
 10
28.28419153750554
 20
4.489378587182763
 10
28.39019826144716
 20
4.495827552984611
 10
28.52517302219246
 20
4.510199971370646
 10
28.65533759826803
 20
4.535220947149156
 10
28.77636158257701
 20
4.56865081146838
 10
28.90360772081249
 20
4.614719085228845
 10
29.04418452481514
 20
4.676594834455201
 10
29.18960429242486
 20
4.751849626457705
 10
29.30641051532484
 20
4.825508473979184
 10
29.40657698342989
 20
4.893051035701954
 10
29.49688764546318
 20
4.968730286714404
 10
29.59189732032428
 20
5.042983094566281
 10
29.6602973728526
 20
5.108855815312011
 10
29.70128610163079
 20
5.148761981145167
 10
29.71295723900983
 20
5.157883525060832
 10
29.72215564918395
 20
5.164892215998172
 10
29.73173366893139
 20
5.169761244946705
 10
29.74371393863419
 20
5.171399550654125
 10
29.75793809113884
 20
5.167631913151325
 10
29.76620177047414
 20
5.153284827874699
 10
29.76954959441412
 20
5.136826555076613
 10
29.7716450165176
 20
5.114679801641507
 10
29.77726626637377
 20
5.084219198106314
 10
29.77915152454273
 20
5.038499291257263
 10
29.79034518614503
 20
4.983556326467745
 10
29.80393757644049
 20
4.92443827495882
 10
29.82578070960517
 20
4.869240185875931
 10
29.84336439832987
 20
4.812856578714111
 10
29.86333190849212
 20
4.778505361105477
 10
29.87356087209616
 20
4.760907906449588
 72
     2
 10
29.962026383492
 20
4.800709612948644
 40
0.0970068170120013
 50
204.2235583305836
 51
270.1018566556075
 73
     1
 72
     1
 10
29.9621988357186
 20
4.70370294922381
 11
31.25034128783284
 21
4.704062652744859
 72
     2
 10
31.25329490946354
 20
4.752675513992532
 40
0.0487025067056932
 50
266.5230955415098
 51
352.7599626924719
 73
     1
 72
     1
 10
31.30160910516031
 20
4.746537708717731
 11
31.30159225266425
 21
4.854429274330925
 72
     4
 94
        3
 73
     0
 74
     0
 95
       10
 96
        6
 40
0.0
 40
0.0
 40
0.0
 40
0.0
 40
0.0105487795177265
 40
0.0248904612248161
 40
0.0599852366571473
 40
0.0599852366571473
 40
0.0599852366571473
 40
0.0599852366571473
 10
31.30159225266436
 20
4.854429274330925
 10
31.30157600525161
 20
4.854728738278438
 10
31.30153766853255
 20
4.855435340948563
 10
31.30144272398855
 20
4.857138281710209
 10
31.3013034716829
 20
4.858537153480813
 10
31.3012046169373
 20
4.859530207867972
 72
     4
 94
        3
 73
     0
 74
     0
 95
       24
 96
       20
 40
0.0
 40
0.0
 40
0.0
 40
0.0
 40
0.0824152478229898
 40
0.1682057481721957
 40
0.3017501342071629
 40
0.6922122989090065
 40
1.176151969532537
 40
1.88699571325147
 40
2.586009237131292
 40
3.227800555913769
 40
3.630351210524461
 40
4.31655848764222
 40
4.886388829800896
 40
5.267090490182379
 40
6.067639813726171
 40
6.409046851817542
 40
6.937923079523971
 40
7.201780300070762
 40
7.697551586867686
 40
7.697551586867686
 40
7.697551586867686
 40
7.697551586867686
 10
31.3012046169373
 20
4.859530207867972
 10
31.30082816002039
 20
4.861844821557724
 10
31.30005982868568
 20
4.866568842144911
 10
31.2977879482869
 20
4.874846764919279
 10
31.29245743668332
 20
4.891408500559936
 10
31.27494445084654
 20
4.914941638954775
 10
31.2415470590687
 20
4.9450831733899
 10
31.20715680126534
 20
4.986693808564186
 10
31.16760277940853
 20
5.029720491345809
 10
31.14097068953515
 20
5.071676823964661
 10
31.11380869948425
 20
5.112715771143829
 10
31.09228966073681
 20
5.154727374265682
 10
31.07006099631178
 20
5.195696775130663
 10
31.05235603268614
 20
5.242263288347302
 10
31.03771371049061
 20
5.283150244340376
 10
31.02781389343716
 20
5.329584299180726
 10
31.01826593454905
 20
5.360687144144336
 10
31.01725931694193
 20
5.397440439516216
 10
31.01712157464567
 20
5.419015835394148
 10
31.0170316771829
 20
5.433097010171216
 72
     1
 10
31.0170316771829
 20
5.433097010171216
 11
31.01676363283377
 21
8.432269273045966
 72
     4
 94
        3
 73
     0
 74
     0
 95
       35
 96
       31
 40
0.0
 40
0.0
 40
0.0
 40
0.0
 40
0.3422184761490641
 40
2.363709448026909
 40
4.828101352196895
 40
6.56187602185534
 40
8.597398410707803
 40
11.28982974138307
 40
13.88662148788188
 40
15.94953939372276
 40
18.10552084778252
 40
21.74227409407529
 40
23.94947939115379
 40
27.25477903947812
 40
29.81654192454857
 40
33.23909908949692
 40
35.97710974862945
 40
38.12835465483058
 40
41.49845514349316
 40
42.7000681960436
 40
44.49598265459672
 40
45.9223589097384
 40
47.05264860491495
 40
48.8447632402137
 40
50.1913276945254
 40
51.37526353072002
 40
52.74593510000613
 40
54.04070068787277
 40
55.74973897148065
 40
57.20361772653254
 40
57.20361772653254
 40
57.20361772653254
 40
57.20361772653254
 10
31.01676363283377
 20
8.432269273045964
 10
31.0153864862184
 20
8.485807018615574
 10
31.00679351149449
 20
8.567050606528056
 10
30.98591143922079
 20
8.732840674030576
 10
30.91556331300694
 20
8.937362610282356
 10
30.81936956637071
 20
9.130389850476102
 10
30.68485520665797
 20
9.31020292146869
 10
30.49607647840685
 20
9.480231042521225
 10
30.28324268578547
 20
9.62139512703062
 10
30.06477790724466
 20
9.710398668610796
 10
29.80821569908676
 20
9.799196758516146
 10
29.53434750589463
 20
9.844729299768431
 10
29.22007795425463
 20
9.874613126653542
 10
28.94116895995149
 20
9.885291299319156
 10
28.62064962433226
 20
9.875364637601951
 10
28.31995770129879
 20
9.847543723499306
 10
28.04055190287215
 20
9.779766359094267
 10
27.76833232631998
 20
9.694236853655681
 10
27.55883599306355
 20
9.590417407736865
 10
27.3754766748416
 20
9.469053581468621
 10
27.25723309393811
 20
9.371528700551529
 10
27.15590628213033
 20
9.25982582077534
 10
27.07079223186895
 20
9.135994455584789
 10
26.99461951919705
 20
9.009501809093581
 10
26.93311842312653
 20
8.873343644973306
 10
26.88412482146157
 20
8.747852603645842
 10
26.84704817057229
 20
8.619910415157047
 10
26.8206986335872
 20
8.471186924680797
 10
26.79842122699472
 20
8.318546913963078
 10
26.79860541449944
 20
8.209232494754406
 10
26.79869007884463
 20
8.158984603404224
 72
     2
 10
26.85263784682206
 20
8.155806064497109
 40
0.0540413247371078
 50
176.6280983645254
 51
271.1882822441518
 73
     1
 72
     1
 10
26.85375855315988
 20
8.101776361586182
 11
27.98517701602543
 21
8.101877479594383
 97
        0
 92
        1
 93
        8
 72
     2
 10
26.11437843538295
 20
11.5190792213186
 40
0.0517796769914151
 50
0.0051206828271153
 51
90.00512068282061
 73
     1
 72
     1
 10
26.11437380768951
 20
11.57085889810323
 11
24.8978668133442
 21
11.57075017549684
 72
     2
 10
24.89787144103764
 20
11.51897049871221
 40
0.0517796769914151
 50
90.00512068282061
 51
180.0051206828271
 73
     1
 72
     1
 10
24.84609176425306
 20
11.5189658710188
 11
24.84669466367689
 21
4.773070144012024
 72
     2
 10
24.89847434046169
 20
4.773074771705431
 40
0.0517796769914151
 50
180.0051206828271
 51
270.0051206828206
 73
     1
 72
     1
 10
24.89847896815502
 20
4.721295094920801
 11
26.11498596250021
 21
4.721403817527196
 72
     2
 10
26.11498133480689
 20
4.773183494311826
 40
0.0517796769914151
 50
270.0051206828206
 51
360.0051206828271
 73
     1
 72
     1
 10
26.16676101159157
 20
4.773188122005308
 11
26.16615811216752
 21
11.51908384901205
 97
        0
 92
        1
 93
       13
 72
     2
 10
21.04376983631301
 20
8.159215582811299
 40
0.0583967350490957
 50
277.0290619478991
 51
354.1875572402769
 73
     1
 72
     4
 94
        3
 73
     0
 74
     0
 95
       16
 96
       12
 40
0.0
 40
0.0
 40
0.0
 40
0.0
 40
0.3372248024306765
 40
1.20413540837792
 40
1.860624254510502
 40
2.713627135998479
 40
3.574604384885425
 40
5.07093266335971
 40
5.743513355317194
 40
6.618400800379533
 40
7.540894368208114
 40
7.540894368208114
 40
7.540894368208114
 40
7.540894368208114
 10
21.10186633852118
 20
8.153301608209943
 10
21.10256803868685
 20
8.162863450310133
 10
21.10507361363113
 20
8.197006112887635
 10
21.10960884420933
 20
8.249712830569571
 10
21.1178859045159
 20
8.316806579045714
 10
21.13273467418981
 20
8.382707633470701
 10
21.16220580541801
 20
8.469223356039339
 10
21.19753375450455
 20
8.547858717857103
 10
21.23890481192507
 20
8.624230939001826
 10
21.28532948488009
 20
8.677362099316983
 10
21.31788571534878
 20
8.716688732317024
 10
21.33459497898536
 20
8.736872858958349
 72
     4
 94
        3
 73
     0
 74
     0
 95
      121
 96
      117
 40
0.0
 40
0.0
 40
0.0
 40
0.0
 40
1.639512135770743
 40
2.778067283033891
 40
4.204302485830751
 40
5.114225336004878
 40
6.625764126809997
 40
8.674389639904561
 40
9.658878174835933
 40
11.18736204211146
 40
12.45821485133557
 40
13.67815354085976
 40
14.82784694429627
 40
15.42911560511166
 40
16.1602298363924
 40
17.10203197146289
 40
17.65396979044156
 40
18.20212848095117
 40
18.95266582229619
 40
19.63162359785457
 40
20.16745471720906
 40
20.59101042059618
 40
21.19773056355416
 40
21.6494847199239
 40
22.21864473722259
 40
22.83583261022862
 40
23.47807842459541
 40
24.13099059997794
 40
24.70306918392629
 40
25.27737682814828
 40
25.99981678826066
 40
26.67150062537702
 40
27.66435983999372
 40
28.52157071479032
 40
29.37825543700907
 40
30.24399652498042
 40
31.89315892323389
 40
33.69648022096584
 40
37.13009020331583
 40
39.67659712016834
 40
41.71030990572944
 40
42.73579051643304
 40
43.94589019792789
 40
45.08418116652444
 40
46.87120165741807
 40
48.1888914656141
 40
49.57258162736561
 40
51.14055908669413
 40
52.75027526578418
 40
54.06968381940119
 40
55.46175526638021
 40
56.69931305408599
 40
58.03639580143556
 40
59.69770257809345
 40
60.94697215561358
 40
61.91835048612171
 40
63.49981633426103
 40
64.39088928697024
 40
65.59625680534363
 40
66.6098310054803
 40
67.3684970362805
 40
68.1667282010402
 40
68.93144819623836
 40
69.68082303691213
 40
70.37167098287932
 40
70.78220637576404
 40
71.71824672899989
 40
73.77695013117447
 40
74.9128447969633
 40
76.41730896997284
 40
77.58473742218637
 40
79.51092269632607
 40
80.40535239987429
 40
81.38096771110239
 40
82.85533400118604
 40
84.0354694837721
 40
85.58332095406042
 40
87.47219933893244
 40
88.42594371259298
 40
90.80453305506445
 40
91.90994752612326
 40
93.36855084989634
 40
95.79022232326124
 40
97.11545380934614
 40
99.06795665456636
 40
100.5443565398903
 40
103.2431218783044
 40
104.2652042910364
 40
105.4824927771917
 40
106.9781518197321
 40
109.0367927045292
 40
110.1358852503227
 40
111.3913763019979
 40
113.792980033022
 40
115.5335864653519
 40
117.1446817056083
 40
118.6483810212129
 40
119.7774014607181
 40
121.2869054292589
 40
122.8865281997799
 40
123.1150138242781
 40
123.2972762253541
 40
123.4070444571607
 40
123.5216647711329
 40
123.6706073546566
 40
123.8256686914106
 40
124.0056699108688
 40
124.2129092406391
 40
124.4198148798573
 40
124.7860781326398
 40
125.3015764346241
 40
126.0243257420588
 40
126.7544544992668
 40
127.4310540762556
 40
128.110289278802
 40
128.8237296391081
 40
128.8237296391081
 40
128.8237296391081
 40
128.8237296391081
 10
21.33459497898536
 20
8.736872858958349
 10
21.37181486707504
 20
8.76494040544226
 10
21.43488201438299
 20
8.812499390155309
 10
21.53982050388959
 20
8.871441018767185
 10
21.63643651672737
 20
8.895769522097324
 10
21.74399241555727
 20
8.915296046033702
 10
21.87016826022648
 20
8.93017669929652
 10
21.99980555478317
 20
8.939741796263056
 10
22.1287534160482
 20
8.923864306595007
 10
22.23650842693792
 20
8.922515347120651
 10
22.34969856375847
 20
8.904658092994068
 10
22.45030697490415
 20
8.880656227047424
 10
22.53298694908403
 20
8.862472301380091
 10
22.59897313515921
 20
8.836875181332608
 10
22.65600496827062
 20
8.806420381700796
 10
22.7082982424688
 20
8.769319019059956
 10
22.74489029073061
 20
8.7240390826611
 10
22.77625491936874
 20
8.681487946880448
 10
22.79629374293358
 20
8.628413670880767
 10
22.81405582063633
 20
8.575534859016865
 10
22.82527253087597
 20
8.530234779737028
 10
22.83130023759554
 20
8.485998458346585
 10
22.8301901605339
 20
8.443749567172069
 10
22.82768485463953
 20
8.3975666232052
 10
22.82471643850022
 20
8.351091201214217
 10
22.81934258091474
 20
8.299299356650085
 10
22.80807704135611
 20
8.246125378383847
 10
22.7957045654149
 20
8.194229511108293
 10
22.77414373033344
 20
8.147857079987858
 10
22.75534470615276
 20
8.097439619833558
 10
22.71470922233652
 20
8.057352364064854
 10
22.66535405824243
 20
8.011003537287209
 10
22.60410185495482
 20
7.972879104602622
 10
22.53754153012096
 20
7.934326073526122
 10
22.47041845352862
 20
7.904469831861668
 10
22.38169312695197
 20
7.868329491443006
 10
22.26573676875114
 20
7.826985600976399
 10
22.07338158411051
 20
7.788886791363019
 10
21.85677104800845
 20
7.744440911883661
 10
21.63195467774722
 20
7.706215442602402
 10
21.47325570020689
 20
7.691123810819284
 10
21.35273775142184
 20
7.676498616897497
 10
21.25680026284783
 20
7.672047176462864
 10
21.14046969387766
 20
7.654646295725168
 10
21.02078330417533
 20
7.638339008607768
 10
20.89734156597865
 20
7.605222400114271
 10
20.78149468983611
 20
7.569176065348163
 10
20.65799236880093
 20
7.529145042885467
 10
20.54141833595929
 20
7.476099805168434
 10
20.432579284045
 20
7.419070325213567
 10
20.33651740972687
 20
7.360709659153204
 10
20.24507361185852
 20
7.294548981297037
 10
20.15234498371694
 20
7.217553111424422
 10
20.06640121446935
 20
7.132402493276089
 10
19.99594109779491
 20
7.047183052795531
 10
19.93467485748636
 20
6.958196643149058
 10
19.87944527136585
 20
6.876770744997372
 10
19.83808907173579
 20
6.780525390985108
 10
19.80095894939688
 20
6.700311505577666
 10
19.77240226074309
 20
6.620400234234633
 10
19.75461972991854
 20
6.549528066362242
 10
19.73452402003909
 20
6.486456869783012
 10
19.72640620261086
 20
6.421028010980396
 10
19.715026386678
 20
6.359424226179349
 10
19.70724892338137
 20
6.307311277754006
 10
19.70369734633402
 20
6.249481198444186
 10
19.69439432702722
 20
6.153042727840759
 10
19.69807947694528
 20
6.035422987626443
 10
19.69865320061194
 20
5.901814553796555
 10
19.70903972625945
 20
5.7939020633675
 10
19.72465410176812
 20
5.664202872384844
 10
19.74187790110432
 20
5.551764968330793
 10
19.77215090426443
 20
5.448099899192904
 10
19.79540096447499
 20
5.355872309847054
 10
19.83043141143207
 20
5.258579665365136
 10
19.87953657750665
 20
5.149476305490303
 10
19.94733456821484
 20
5.036906980635627
 10
20.01712795344804
 20
4.933019223045679
 10
20.11562512900991
 20
4.82178803527054
 10
20.21160933499221
 20
4.738266752155549
 10
20.33096567088717
 20
4.663936929919131
 10
20.45631966172982
 20
4.597157876770531
 10
20.5968612441028
 20
4.548940835411425
 10
20.75358609736043
 20
4.506986272823546
 10
20.88835131679059
 20
4.49241937749754
 10
21.06173638011978
 20
4.47579091894411
 10
21.20997986098382
 20
4.477996417599815
 10
21.34993052822995
 20
4.488758853030731
 10
21.45593725217145
 20
4.495207818832675
 10
21.59091201291687
 20
4.509580237218671
 10
21.72107658899233
 20
4.534601212997245
 10
21.84210057330131
 20
4.568031077316309
 10
21.96934671153667
 20
4.614099351076887
 10
22.10992351553955
 20
4.675975100303197
 10
22.25534328314905
 20
4.751229892305691
 10
22.37214950604903
 20
4.824888739827219
 10
22.47231597415441
 20
4.892431301549876
 10
22.56262663618747
 20
4.968110552562443
 10
22.65763631104858
 20
5.042363360414253
 10
22.72603636357678
 20
5.108236081159994
 10
22.7670250923552
 20
5.148142246993153
 10
22.77869622973412
 20
5.157263790908764
 10
22.78789463990825
 20
5.164272481846232
 10
22.79747265965557
 20
5.169141510794688
 10
22.80945292935837
 20
5.170779816502118
 10
22.82367708186325
 20
5.167012178999367
 10
22.83194076119844
 20
5.152665093722681
 10
22.83528858513853
 20
5.136206820924613
 10
22.83738400724178
 20
5.114060067489507
 10
22.84300525709818
 20
5.08359946395431
 10
22.84489051526703
 20
5.037879557105263
 10
22.85608417686922
 20
4.982936592315756
 10
22.86967656716479
 20
4.923818540806813
 10
22.89151970032958
 20
4.868620451723913
 10
22.90910338905417
 20
4.812236844562114
 10
22.92907089921641
 20
4.777885626953477
 10
22.93929986282035
 20
4.760288172297592
 72
     2
 10
23.02776537421642
 20
4.800089878796644
 40
0.0970068170120013
 50
204.2235583305836
 51
270.1018566556075
 73
     1
 72
     1
 10
23.0279378264429
 20
4.703083215071814
 11
24.31608027855702
 21
4.703442918592898
 72
     2
 10
24.31903390018784
 20
4.752055779840496
 40
0.0487025067056932
 50
266.5230955415098
 51
352.7599626924719
 73
     1
 72
     1
 10
24.36734809588461
 20
4.745917974565735
 11
24.36733124338855
 21
4.853809540178971
 72
     4
 94
        3
 73
     0
 74
     0
 95
       10
 96
        6
 40
0.0
 40
0.0
 40
0.0
 40
0.0
 40
0.0105487795177265
 40
0.0248904612248161
 40
0.0599852366571675
 40
0.0599852366571675
 40
0.0599852366571675
 40
0.0599852366571675
 10
24.36733124338867
 20
4.853809540178929
 10
24.3673149959759
 20
4.854109004126442
 10
24.36727665925696
 20
4.854815606796563
 10
24.36718171471284
 20
4.856518547558209
 10
24.36704246240732
 20
4.857917419328813
 10
24.36694360766149
 20
4.858910473715972
 72
     4
 94
        3
 73
     0
 74
     0
 95
       24
 96
       20
 40
0.0
 40
0.0
 40
0.0
 40
0.0
 40
0.0824152478225022
 40
0.1682057481722623
 40
0.3017501342076594
 40
0.6922122989086202
 40
1.176151969532797
 40
1.886995713251391
 40
2.586009237130866
 40
3.227800555913471
 40
3.630351210524548
 40
4.316558487642198
 40
4.886388829800467
 40
5.267090490182457
 40
6.067639813726179
 40
6.409046851817549
 40
6.937923079524472
 40
7.20178030007082
 40
7.697551586868198
 40
7.697551586868198
 40
7.697551586868198
 40
7.697551586868198
 10
24.36694360766149
 20
4.858910473715972
 10
24.36656715074469
 20
4.861225087405713
 10
24.36579881940998
 20
4.865949107992907
 10
24.36352693901119
 20
4.874227030767272
 10
24.35819642740773
 20
4.890788766407947
 10
24.34068344157083
 20
4.914321904802747
 10
24.30728604979299
 20
4.944463439237949
 10
24.27289579198964
 20
4.986074074412176
 10
24.23334177013283
 20
5.029100757193784
 10
24.20670968025945
 20
5.071057089812619
 10
24.17954769020866
 20
5.112096036991822
 10
24.158028651461
 20
5.154107640113682
 10
24.13579998703608
 20
5.195077040978656
 10
24.11809502341021
 20
5.241643554195285
 10
24.10345270121479
 20
5.282530510188379
 10
24.09355288416146
 20
5.328964565028741
 10
24.08400492527324
 20
5.36006740999235
 10
24.08299830766612
 20
5.396820705364241
 10
24.08286056536997
 20
5.418396101242173
 10
24.0827706679072
 20
5.432477276019259
 72
     1
 10
24.0827706679072
 20
5.432477276019259
 11
24.08250262355796
 21
8.431649538893964
 72
     4
 94
        3
 73
     0
 74
     0
 95
       35
 96
       31
 40
0.0
 40
0.0
 40
0.0
 40
0.0
 40
0.3422184761490641
 40
2.363709448026909
 40
4.828101352196895
 40
6.56187602185534
 40
8.597398410707803
 40
11.28982974138307
 40
13.88662148788188
 40
15.94953939372276
 40
18.10552084778252
 40
21.74227409407529
 40
23.94947939115379
 40
27.25477903947812
 40
29.81654192454857
 40
33.23909908949692
 40
35.97710974862945
 40
38.12835465483058
 40
41.49845514349316
 40
42.7000681960436
 40
44.49598265459672
 40
45.9223589097384
 40
47.05264860491495
 40
48.8447632402137
 40
50.1913276945254
 40
51.37526353072002
 40
52.74593510000613
 40
54.04070068787277
 40
55.74973897148065
 40
57.20361772653254
 40
57.20361772653254
 40
57.20361772653254
 40
57.20361772653254
 10
24.08250262355807
 20
8.431649538894006
 10
24.0811254769427
 20
8.485187284463574
 10
24.07253250221868
 20
8.566430872376017
 10
24.0516504299452
 20
8.732220939878533
 10
23.98130230373124
 20
8.936742876130352
 10
23.88510855709501
 20
9.129770116324102
 10
23.75059419738227
 20
9.309583187316686
 10
23.56181546913126
 20
9.479611308369182
 10
23.34898167650977
 20
9.62077539287862
 10
23.13051689796907
 20
9.709778934458835
 10
22.87395468981106
 20
9.798577024364142
 10
22.60008649661893
 20
9.844109565616427
 10
22.28581694497882
 20
9.873993392501581
 10
22.00690795067578
 20
9.884671565167117
 10
21.68638861505645
 20
9.874744903449911
 10
21.38569669202297
 20
9.846923989347299
 10
21.10629089359656
 20
9.779146624942228
 10
20.83407131704428
 20
9.693617119503674
 10
20.62457498378797
 20
9.589797673584826
 10
20.44121566556589
 20
9.468433847316628
 10
20.32297208466252
 20
9.370908966399532
 10
20.22164527285463
 20
9.259206086623301
 10
20.13653122259325
 20
9.135374721432786
 10
20.06035850992134
 20
9.008882074941581
 10
19.99885741385083
 20
8.872723910821271
 10
19.94986381218598
 20
8.747232869493842
 10
19.91278716129648
 20
8.61929068100504
 10
19.88643762431161
 20
8.470567190528839
 10
19.8641602177189
 20
8.317927179811075
 10
19.86434440522362
 20
8.20861276060237
 10
19.86442906956893
 20
8.158364869252228
 72
     2
 10
19.91837683754636
 20
8.155186330345152
 40
0.0540413247371078
 50
176.6280983645254
 51
271.1882822441518
 73
     1
 72
     1
 10
19.9194975438844
 20
8.101156627434178
 11
21.05091600674985
 21
8.101257745442381
 97
        0
 75
     0
 76
     1
 98
        1
 10
-12.15523150819763
 20
-61.48762771696545
  0
HATCH
  5
1EB
330
1E7
100
AcDbEntity
  8
TEXTO-MODIF
 62
   170
100
AcDbHatch
 10
0.0
 20
0.0
 30
0.0
210
0.0
220
0.0
230
1.0
  2
SOLID
 70
     1
 71
     0
 91
        2
 92
       16
 93
        1
 72
     3
 10
16.82533629697741
 20
7.155392953778228
 11
-0.0001415556325222
 21
1.583878668093347
 40
0.7518237409998623
 50
0.0
 51
360.0
 73
     1
 97
        0
 92
        1
 93
       21
 72
     2
 10
19.17190291712995
 20
9.766633021831918
 40
0.0517796769914151
 50
0.0051206828271153
 51
90.00512068282061
 73
     1
 72
     1
 10
19.17189828943651
 20
9.818412698616505
 11
18.03874822245268
 21
9.818311425850032
 72
     2
 10
18.03875285014612
 20
9.7665317490654
 40
0.0517796769914151
 50
90.00512068282061
 51
180.0051206828271
 73
     1
 72
     1
 10
17.98697317336143
 20
9.766527121371993
 11
17.98793932169826
 21
9.137378224855769
 72
     2
 10
17.95812939255904
 20
9.134452528022826
 40
0.0299531563818805
 50
354.3946548857875
 51
506.7355810933905
 73
     0
 72
     4
 94
        3
 73
     0
 74
     0
 95
       14
 96
       10
 40
0.0
 40
0.0
 40
0.0
 40
0.0
 40
0.6646202001073372
 40
1.641080833585699
 40
3.142844754022234
 40
4.464650364059495
 40
5.342817016342028
 40
6.194051739685733
 40
7.704320925611234
 40
7.704320925611234
 40
7.704320925611234
 40
7.704320925611234
 10
17.93308411634405
 20
9.118023111826801
 10
17.92214088256151
 20
9.133442547752437
 10
17.8951198392424
 20
9.171516233683412
 10
17.83541057160755
 20
9.238153176091643
 10
17.7704688718868
 20
9.324653951914488
 10
17.69810304289285
 20
9.40121554277897
 10
17.64054333835361
 20
9.46610264676168
 10
17.57677935189656
 20
9.532629424876141
 10
17.5273520871774
 20
9.57809644289524
 10
17.49574152131868
 20
9.60717428435916
 72
     2
 10
16.54343118422184
 20
8.263704336761804
 40
1.646756350598997
 50
54.66931556342835
 51
123.501143288214
 73
     1
 72
     2
 10
17.17421591052687
 20
7.429665127020573
 40
2.691205280651867
 50
124.8988543780203
 51
175.9002934665379
 73
     1
 72
     2
 10
18.00275530223757
 20
7.073669759898312
 40
3.555405936562041
 50
171.1271137480231
 51
204.8934103724103
 73
     1
 72
     4
 94
        3
 73
     0
 74
     0
 95
       11
 96
        7
 40
0.0
 40
0.0
 40
0.0
 40
0.0
 40
1.679405244505086
 40
3.875644465195803
 40
6.192846794705882
 40
7.261137892431925
 40
7.261137892431925
 40
7.261137892431925
 40
7.261137892431925
 10
14.77767348479574
 20
5.577087438558802
 10
14.79754190140579
 20
5.53357625872087
 10
14.84339320448998
 20
5.433163410860139
 10
14.94469052351871
 20
5.288395193064477
 10
15.04014072729194
 20
5.161399270154589
 10
15.1064342128567
 20
5.091542007738716
 10
15.12735309572804
 20
5.0694985765065
 72
     4
 94
        3
 73
     0
 74
     0
 95
       14
 96
       10
 40
0.0
 40
0.0
 40
0.0
 40
0.0
 40
5.431397209163272
 40
11.04631902513874
 40
16.9050480879262
 40
23.49198342340805
 40
29.55238186057927
 40
34.2345349875404
 40
36.66290122637323
 40
36.66290122637323
 40
36.66290122637323
 40
36.66290122637323
 10
15.12735309572804
 20
5.0694985765065
 10
15.24303511247251
 20
4.966459272622465
 10
15.47830799221594
 20
4.756899010502252
 10
15.924517207044
 20
4.552496666648355
 10
16.43883312732657
 20
4.496620947124867
 10
16.96918336311864
 20
4.515882642340635
 10
17.43940207231787
 20
4.700470731828989
 10
17.72526553713078
 20
4.948895727208444
 10
17.85647801252003
 20
5.102632656915044
 10
17.90128935877453
 20
5.155136496726989
 72
     4
 94
        3
 73
     0
 74
     0
 95
        9
 96
        5
 40
0.0
 40
0.0
 40
0.0
 40
0.0
 40
0.6109094512759929
 40
0.6264851482712056
 40
0.6264851482712056
 40
0.6264851482712056
 40
0.6264851482712056
 10
17.90128935877453
 20
5.155136496726989
 10
17.91256656061785
 20
5.16865515112244
 10
17.92413128506928
 20
5.182518476015637
 10
17.93898092223969
 20
5.192361502253476
 10
17.9393501144699
 20
5.192606219936919
 72
     2
 10
17.95622265339716
 20
5.168565313461446
 40
0.0293708657348832
 50
234.937814749373
 51
366.2995735883153
 73
     0
 72
     1
 10
17.9854161711512
 20
5.165342539010385
 11
17.9855681285311
 21
4.509296916093166
 72
     4
 94
        3
 73
     0
 74
     0
 95
       23
 96
       19
 40
0.0
 40
0.0
 40
0.0
 40
0.0
 40
0.9636118040877827
 40
3.739368148338263
 40
5.861402637260823
 40
7.979650156204677
 40
10.59911611962006
 40
12.43152952231745
 40
14.68256772929549
 40
16.72532371386806
 40
19.58168560176202
 40
22.30795892655425
 40
24.78024295092717
 40
26.59220022789228
 40
28.41570077719548
 40
30.18914574021422
 40
31.43481992668692
 40
32.24935925035822
 40
32.24935925035822
 40
32.24935925035822
 40
32.24935925035822
 10
17.98556812853133
 20
4.509296916093209
 10
17.98575454861156
 20
4.481783961574272
 10
17.98647796576745
 20
4.37501787033468
 10
17.92317176696428
 20
4.216611957460578
 10
17.84244800864565
 20
4.033856050755233
 10
17.71310354570141
 20
3.884697860456274
 10
17.56597781403434
 20
3.767615034032367
 10
17.39621165297103
 20
3.67991610235661
 10
17.23331473881706
 20
3.616408450729977
 10
17.03348177219538
 20
3.575693736421399
 10
16.81794794109805
 20
3.552724663783006
 10
16.5870405151162
 20
3.553706387802677
 10
16.39348433704629
 20
3.606165072702843
 10
16.23134720082316
 20
3.671450666343591
 10
16.10866853798961
 20
3.766470902714594
 10
16.01487647049464
 20
3.869043214624319
 10
15.96531329532331
 20
3.96728221602175
 10
15.9474919846632
 20
4.023091541322909
 10
15.94044603614361
 20
4.045156676738017
 72
     4
 94
        3
 73
     0
 74
     0
 95
        8
 96
        4
 40
0.0
 40
0.0
 40
0.0
 40
0.0
 40
0.5084102661394742
 40
0.5084102661394742
 40
0.5084102661394742
 40
0.5084102661394742
 10
15.94044603614361
 20
4.045156676738017
 10
15.93675503376494
 20
4.05913193144179
 10
15.93306403138626
 20
4.07310718614557
 10
15.92937302900736
 20
4.087082440849343
 72
     2
 10
15.86208249558217
 20
4.07410214460874
 40
0.0685310439080172
 50
10.91821076773703
 51
92.48892210203939
 73
     1
 72
     1
 10
15.85910645106526
 20
4.142568538833661
 11
14.60268187966358
 21
4.141512877372463
 72
     2
 10
14.60337881686564
 20
4.075091338007595
 40
0.0664251956193031
 50
90.60116184189954
 51
194.4019865332688
 73
     1
 72
     4
 94
        3
 73
     0
 74
     0
 95
       43
 96
       39
 40
0.0
 40
0.0
 40
0.0
 40
0.0
 40
0.7882183978944378
 40
2.048959353881432
 40
3.348418905635888
 40
4.464031033264793
 40
5.433449846645125
 40
7.066003829609291
 40
8.353268163850069
 40
9.916337001770383
 40
11.28723874704413
 40
13.00846743059703
 40
15.18368683737492
 40
17.51191991012893
 40
20.32682169404136
 40
24.05508713365951
 40
26.67521284522311
 40
28.71957412855505
 40
31.28327818953462
 40
33.20504608896368
 40
36.55509424761003
 40
38.268267559963
 40
42.22043180166895
 40
45.35328134486322
 40
47.65838599183363
 40
48.87368338248535
 40
51.50856218061704
 40
53.48924112240101
 40
55.60607389324921
 40
57.43730793236024
 40
59.58106367700283
 40
61.71379135550431
 40
64.50040536008987
 40
66.70688286589015
 40
68.98742112580858
 40
71.66544425238787
 40
73.33710800755506
 40
73.96253356636663
 40
73.96253356636663
 40
73.96253356636663
 40
73.96253356636663
 10
14.53904106370191
 20
4.058569832904801
 10
14.54191525363342
 20
4.036350410360491
 10
14.54938665795691
 20
3.978591426579303
 10
14.55742505287207
 20
3.88350542362275
 10
14.58694238806095
 20
3.782487840313031
 10
14.62616557072385
 20
3.694627874751859
 10
14.65452750646284
 20
3.592038581776968
 10
14.71756013033746
 20
3.499692365490311
 10
14.77587176445865
 20
3.386082190030627
 10
14.85685060720232
 20
3.295881169534045
 10
14.9537671369311
 20
3.206234950737389
 10
15.06021852677702
 20
3.099816927148552
 10
15.21321599500743
 20
3.008956639391939
 10
15.3915818178699
 20
2.901482269490205
 10
15.62826216512678
 20
2.81178416962631
 10
15.87868192019675
 20
2.736557519581175
 10
16.11603416087519
 20
2.708581371627523
 10
16.31924359474601
 20
2.676823973732872
 10
16.50523325658344
 20
2.673147860965208
 10
16.72785432201533
 20
2.667629476936944
 10
16.92654010188187
 20
2.672219434342764
 10
17.18243355592449
 20
2.687618534551859
 10
17.43089249565366
 20
2.717224810943747
 10
17.69498862710679
 20
2.759073690756068
 10
17.87702325342809
 20
2.811677367221562
 10
18.04334245613245
 20
2.865641396412158
 10
18.20000204952839
 20
2.922530653715625
 10
18.36445448720144
 20
3.020966392317248
 10
18.51000230429918
 20
3.107062482141955
 10
18.63851033204412
 20
3.224218543513668
 10
18.75906149097977
 20
3.349246050399429
 10
18.88386006609073
 20
3.507050417441313
 10
18.99051019701028
 20
3.680036175010897
 10
19.07876775693444
 20
3.867241516019802
 10
19.1531169664139
 20
4.057233876580077
 10
19.19736370439034
 20
4.241221459082069
 10
19.21613027491321
 20
4.381492267891403
 10
19.22243885820092
 20
4.446495141701745
 10
19.22415648807475
 20
4.46419339071182
 72
     1
 10
19.22415648807464
 20
4.46419339071182
 11
19.22368259391464
 21
9.766637649525321
 97
        0
 75
     0
 76
     1
 98
        1
 10
-12.15523150819763
 20
-61.48762771696545
  0
ENDBLK
  5
1EC
330
1E7
100
AcDbEntity
  8
0
100
AcDbBlockEnd
  0
BLOCK
  5
F06
330
F05
100
AcDbEntity
  8
0
100
AcDbBlockBegin
  2
t1
 70
     0
 10
0.0
 20
0.0
 30
0.0
  3
t1
  1

  0
HATCH
  5
F07
330
F05
100
AcDbEntity
  8
SOMBREA
 62
     7
100
AcDbHatch
 10
0.0
 20
0.0
 30
0.0
210
0.0
220
0.0
230
1.0
  2
ANSI38
 70
     0
 71
     1
 91
        1
 92
        7
 72
     0
 73
     1
 93
        4
 10
0.000000000000004
 20
0.0000000000002273
 10
-0.2794385803345034
 20
-16.00902554551999
 10
789.4498481503551
 20
-36.68881470877761
 10
789.7292867306896
 20
-20.67978916325808
 97
        4
330
F09
330
F0B
330
F08
330
F0A
 75
     0
 76
     1
 52
0.0
 41
2.0
 77
     0
 78
     2
 53
45.0
 43
-1091.130326682063
 44
-1390.631862058545
 45
-4.490128060534575
 46
4.490128060534576
 79
     0
 53
135.0
 43
-1091.130326682063
 44
-1390.631862058545
 45
-13.47038418160373
 46
4.490128060534577
 79
     2
 49
15.875
 49
-9.525
 47
0.8002327185141492
 98
        1
 10
390.7896480112567
 20
-17.0607660065159
1001
ACAD
1010
0.0
1020
0.0
1030
0.0
1001
AcDbBlockRepETag
1070
     1
1071
        0
1005
F07
  0
LINE
  5
F08
102
{ACAD_REACTORS
330
F07
102
}
330
F05
100
AcDbEntity
  8
OCULTO
 62
     7
100
AcDbLine
 10
789.4498481503551
 20
-36.68881470877761
 30
0.0
 11
789.7292867306896
 21
-20.67978916325808
 31
0.0
1001
AcDbBlockRepETag
1070
     1
1071
        1
1005
F08
  0
LINE
  5
F09
102
{ACAD_REACTORS
330
F07
102
}
330
F05
100
AcDbEntity
  8
OCULTO
 62
     7
100
AcDbLine
 10
-0.2794385803344994
 20
-16.00902554551976
 30
0.0
 11
0.0
 21
0.0
 31
0.0
1001
AcDbBlockRepETag
1070
     1
1071
        2
1005
F09
  0
LINE
  5
F0A
102
{ACAD_REACTORS
330
F07
102
}
330
F05
100
AcDbEntity
  8
OCULTO
 62
     7
100
AcDbLine
 10
789.7292867306896
 20
-20.67978916325808
 30
0.0
 11
0.0
 21
0.0000000000002274
 31
0.0
1001
AcDbBlockRepETag
1070
     1
1071
        3
1005
F0A
  0
LINE
  5
F0B
102
{ACAD_REACTORS
330
F07
102
}
330
F05
100
AcDbEntity
  8
OCULTO
 62
     7
100
AcDbLine
 10
789.4498481503551
 20
-36.68881470877761
 30
0.0
 11
-0.2794385803344994
 21
-16.00902554551999
 31
0.0
1001
AcDbBlockRepETag
1070
     1
1071
        4
1005
F0B
  0
ENDBLK
  5
F0C
330
F05
100
AcDbEntity
  8
0
100
AcDbBlockEnd
  0
BLOCK
  5
1492
330
1475
100
AcDbEntity
  8
0
100
AcDbBlockBegin
  2
A$C7D637789
 70
     0
 10
0.0
 20
0.0
 30
0.0
  3
A$C7D637789
  1

  0
LINE
  5
1476
330
1475
100
AcDbEntity
  8
EJES
370
     0
100
AcDbLine
 10
899.9999969964051
 20
564.982703941655
 30
0.0
 11
899.9999969964051
 21
0.00000394165545
 31
0.0
  0
LINE
  5
1477
330
1475
100
AcDbEntity
  8
TERMOCONFORMADO
370
     0
100
AcDbLine
 10
-0.0000030035948839
 20
424.419666376717
 30
0.0
 11
0.6065975377082396
 21
459.5069284089031
 31
0.0
  0
ARC
  5
1478
330
1475
100
AcDbEntity
  8
TERMOCONFORMADO
370
     0
100
AcDbCircle
 10
5.605836013490716
 20
459.419666376717
 30
0.0
 40
5.0
100
AcDbArc
 50
90.0
 51
178.9999999999982
  0
LINE
  5
1479
330
1475
100
AcDbEntity
  8
TERMOCONFORMADO
370
     0
100
AcDbLine
 10
5.605836013490716
 20
464.419666376717
 30
0.0
 11
899.9999969964051
 21
464.419666376717
 31
0.0
  0
LINE
  5
147A
330
1475
100
AcDbEntity
  8
TERMOCONFORMADO
370
     0
100
AcDbLine
 10
5.614082140106347
 20
464.4159447817164
 30
0.0
 11
6.114082140106347
 21
464.4159447817164
 31
0.0
  0
ARC
  5
147B
330
1475
100
AcDbEntity
  8
Resina
370
     0
100
AcDbCircle
 10
-1523.481176574726
 20
-696.3640675013502
 30
0.0
 40
1977.590931734646
100
AcDbArc
 50
24.42019602651131
 51
34.52334282227697
  0
ARC
  5
147C
330
1475
100
AcDbEntity
  8
Resina
370
     0
100
AcDbCircle
 10
391.9216360235227
 20
173.3064865213837
 30
0.0
 40
126.0
100
AcDbArc
 50
204.4165073946017
 51
269.0000000000243
  0
LINE
  5
147D
330
1475
100
AcDbEntity
  8
Resina
370
     0
100
AcDbLine
 10
419.8189249562569
 20
27.79744996537647
 30
0.0
 11
899.9999969964051
 21
19.41585817561918
 31
0.0
  0
LINE
  5
147E
330
1475
100
AcDbEntity
  8
TERMOCONFORMADO
370
     0
100
AcDbLine
 10
-0.0000030035948839
 20
424.419666376717
 30
0.0
 11
1694.15066502349
 21
424.419666376717
 31
0.0
  0
LINE
  5
147F
330
1475
100
AcDbEntity
  8
TERMOCONFORMADO
370
     0
100
AcDbLine
 10
1694.15066502349
 20
424.419666376717
 30
0.0
 11
1799.999996996405
 21
424.419666376717
 31
0.0
  0
LINE
  5
1480
330
1475
100
AcDbEntity
  8
TERMOCONFORMADO
370
     0
100
AcDbLine
 10
1799.999996996405
 20
424.419666376717
 30
0.0
 11
1799.393396455102
 21
459.5069284089031
 31
0.0
  0
ARC
  5
1481
330
1475
100
AcDbEntity
  8
TERMOCONFORMADO
 62
     0
370
     0
100
AcDbCircle
 10
1794.394157979319
 20
459.419666376717
 30
0.0
 40
5.0
100
AcDbArc
 50
1.000000000001761
 51
90.0
  0
LINE
  5
1482
330
1475
100
AcDbEntity
  8
TERMOCONFORMADO
 62
     0
370
     0
100
AcDbLine
 10
1794.394157979319
 20
464.419666376717
 30
0.0
 11
899.9999969964051
 21
464.419666376717
 31
0.0
  0
ARC
  5
1483
330
1475
100
AcDbEntity
  8
Resina
370
     0
100
AcDbCircle
 10
3322.134419941517
 20
-695.5871039751773
 30
0.0
 40
1976.04345340718
100
AcDbArc
 50
145.4731358027314
 51
155.5841709874789
  0
ARC
  5
1484
330
1475
100
AcDbEntity
  8
Resina
370
     0
100
AcDbCircle
 10
1408.078357969287
 20
173.3064865213837
 30
0.0
 40
126.0
100
AcDbArc
 50
271.0000000000799
 51
335.5834926053983
  0
LINE
  5
1485
330
1475
100
AcDbEntity
  8
Resina
370
     0
100
AcDbLine
 10
1386.079641766192
 20
46.90330416818961
 30
0.0
 11
1410.277361180554
 21
47.32567693168221
 31
0.0
  0
LINE
  5
1486
330
1475
100
AcDbEntity
  8
Resina
370
     0
100
AcDbLine
 10
899.9999969964051
 20
19.41585817562099
 30
0.0
 11
1380.184356204816
 21
27.79750734311256
 31
0.0
  0
ARC
  5
1487
330
1475
100
AcDbEntity
  8
Resina
370
     0
100
AcDbCircle
 10
1380.131998985504
 20
30.79705042858132
 30
0.0
 40
3.0
100
AcDbArc
 50
270.9999999999757
 51
0.0
  0
LINE
  5
1488
330
1475
100
AcDbEntity
  8
Resina
370
     0
100
AcDbLine
 10
1383.131998985504
 20
30.79705042858132
 30
0.0
 11
1383.131998985504
 21
43.90376108272085
 31
0.0
  0
ARC
  5
1489
330
1475
100
AcDbEntity
  8
Resina
370
     0
100
AcDbCircle
 10
1386.131998985504
 20
43.90376108272085
 30
0.0
 40
3.0
100
AcDbArc
 50
90.99999999997569
 51
180.0
  0
LINE
  5
148A
330
1475
100
AcDbEntity
  8
Resina
370
     0
100
AcDbLine
 10
416.8712821755693
 20
30.79699305084523
 30
0.0
 11
416.8712821755693
 21
43.90370370498476
 31
0.0
  0
ARC
  5
148B
330
1475
100
AcDbEntity
  8
Resina
370
     0
100
AcDbCircle
 10
413.8712821755693
 20
43.90370370498476
 30
0.0
 40
3.0
100
AcDbArc
 50
0.0
 51
89.0000000000243
  0
ARC
  5
148C
330
1475
100
AcDbEntity
  8
Resina
370
     0
100
AcDbCircle
 10
419.8712821755694
 20
30.79699305084523
 30
0.0
 40
3.0
100
AcDbArc
 50
180.0
 51
269.0000000000243
  0
LINE
  5
148D
330
1475
100
AcDbEntity
  8
TERMOCONFORMADO
370
     0
100
AcDbLine
 10
1659.921733219408
 20
384.0156373851005
 30
0.0
 11
140.0782607734004
 21
384.0156373851005
 31
0.0
  0
LINE
  5
148E
330
1475
100
AcDbEntity
  8
EJES
370
     0
100
AcDbLine
 10
955.9999969964051
 20
422.1264767819011
 30
0.0
 11
843.999996996405
 21
422.1264767819011
 31
0.0
  0
ELLIPSE
  5
148F
330
1475
100
AcDbEntity
  8
TERMOCONFORMADO
370
     0
100
AcDbEllipse
 10
899.9999969964051
 20
422.1264767819011
 30
0.0
 11
-26.0
 21
0.0
 31
0.0
210
0.0
220
0.0
230
1.0
 40
0.7660527072426144
 41
0.0
 42
6.283185307179586
  0
LINE
  5
1490
330
1475
100
AcDbEntity
  8
Resina
370
     0
100
AcDbLine
 10
389.7226328124275
 20
47.32567693167857
 30
0.0
 11
413.9236393948817
 21
46.90324679045352
 31
0.0
  0
LINE
  5
1491
330
1475
100
AcDbEntity
  8
TERMOCONFORMADO
 62
     0
370
     0
100
AcDbLine
 10
1794.394157979319
 20
464.419666376717
 30
0.0
 11
1793.894157979319
 21
464.419666376717
 31
0.0
  0
ENDBLK
  5
1493
330
1475
100
AcDbEntity
  8
0
100
AcDbBlockEnd
  0
BLOCK
  5
207A
330
1F8C
100
AcDbEntity
  8
0
100
AcDbBlockBegin
  2
A$C094D4792
 70
     0
 10
0.0
 20
0.0
 30
0.0
  3
A$C094D4792
  1

  0
LINE
  5
1F8D
330
1F8C
100
AcDbEntity
  8
0
  6
Continuous
 62
     7
370
    -3
100
AcDbLine
 10
1800.01182612716
 20
5.00000321950938
 30
0.0
 11
1800.011826127158
 21
795.0000032195125
 31
0.0
  0
ARC
  5
1F8E
330
1F8C
100
AcDbEntity
  8
0
  6
Continuous
 62
     7
370
    -3
100
AcDbCircle
 10
1795.011826127159
 20
795.0000032195125
 30
0.0
 40
5.0
100
AcDbArc
 50
0.0
 51
90.0
  0
ARC
  5
1F8F
330
1F8C
100
AcDbEntity
  8
0
  6
Continuous
 62
     7
370
    -3
100
AcDbCircle
 10
1795.01182612716
 20
5.00000321950938
 30
0.0
 40
5.0
100
AcDbArc
 50
270.0
 51
0.0
  0
LINE
  5
1F90
330
1F8C
100
AcDbEntity
  8
0
  6
Continuous
 62
     7
370
    -3
100
AcDbLine
 10
1795.01182612716
 20
0.0000032195102904
 30
0.0
 11
900.0059112708591
 21
0.0000032195102904
 31
0.0
  0
LINE
  5
1F91
330
1F8C
100
AcDbEntity
  8
0
  6
Continuous
 62
     7
370
    -3
100
AcDbLine
 10
1795.011826127139
 20
800.0000032196336
 30
0.0
 11
900.0059112708591
 21
800.0000032196336
 31
0.0
  0
LINE
  5
1F92
330
1F8C
100
AcDbEntity
  8
0
  6
Continuous
 62
     7
370
    -3
100
AcDbLine
 10
1712.126400546478
 20
148.3541134024899
 30
0.0
 11
1712.126400546478
 21
640.0000032195116
 31
0.0
  0
ARC
  5
1F93
330
1F8C
100
AcDbEntity
  8
0
  6
Continuous
 62
     7
370
    -3
100
AcDbCircle
 10
1622.126400546479
 20
148.3541134024899
 30
0.0
 40
90.0
100
AcDbArc
 50
270.0
 51
0.0
  0
ARC
  5
1F94
330
1F8C
100
AcDbEntity
  8
0
  6
Continuous
 62
     7
370
    -3
100
AcDbCircle
 10
1622.126400546479
 20
640.0000032195116
 30
0.0
 40
90.0
100
AcDbArc
 50
0.0
 51
90.0
  0
LINE
  5
1F95
330
1F8C
100
AcDbEntity
  8
0
  6
Continuous
 62
     7
370
    -3
100
AcDbLine
 10
900.0059112708591
 20
122.5198065740414
 30
0.0
 11
1559.04182612713
 21
122.5198065740414
 31
0.0
  0
LINE
  5
1F96
330
1F8C
100
AcDbEntity
  8
0
  6
Continuous
 62
     7
370
    -3
100
AcDbLine
 10
900.0059112708591
 20
157.9906410327594
 30
0.0
 11
1233.306758662781
 21
157.9906410327594
 31
0.0
  0
LINE
  5
1F97
330
1F8C
100
AcDbEntity
  8
0
  6
Continuous
 62
     7
370
    -3
100
AcDbLine
 10
900.0059112708591
 20
666.5401951688941
 30
0.0
 11
1233.306758662781
 21
666.5401951688941
 31
0.0
  0
LINE
  5
1F98
330
1F8C
100
AcDbEntity
  8
0
  6
Continuous
 62
     7
370
    -3
100
AcDbLine
 10
900.0059112708591
 20
730.0000032195116
 30
0.0
 11
1622.126400546479
 21
730.0000032195116
 31
0.0
  0
LINE
  5
1F99
330
1F8C
100
AcDbEntity
  8
0
  6
Continuous
 62
     7
370
    -3
100
AcDbLine
 10
900.0059112708573
 20
58.35411340248993
 30
0.0
 11
1622.126400546479
 21
58.35411340248993
 31
0.0
  0
LINE
  5
1F9A
330
1F8C
100
AcDbEntity
  8
0
  6
Continuous
 62
     7
370
    -3
100
AcDbLine
 10
1659.041826127128
 20
409.5900006568667
 30
0.0
 11
1659.04182612713
 21
222.5198065740415
 31
0.0
  0
ARC
  5
1F9B
330
1F8C
100
AcDbEntity
  8
0
  6
Continuous
 62
     7
370
    -3
100
AcDbCircle
 10
1559.04182612713
 20
222.5198065740415
 30
0.0
 40
100.0
100
AcDbArc
 50
270.0
 51
0.0
  0
ARC
  5
1F9C
330
1F8C
100
AcDbEntity
  8
0
  6
Continuous
 62
     7
370
    -3
100
AcDbCircle
 10
1233.306758662781
 20
412.265418100827
 30
0.0
 40
254.274777068068
100
AcDbArc
 50
270.0
 51
90.0
  0
LINE
  5
1F9D
330
1F8C
100
AcDbEntity
  8
0
  6
Continuous
 62
     7
370
    -3
100
AcDbLine
 10
900.0059112708591
 20
90.80107951825267
 30
0.0
 11
956.0059112708591
 21
90.80107951825267
 31
0.0
  0
ELLIPSE
  5
1F9E
330
1F8C
100
AcDbEntity
  8
0
  6
Continuous
 62
     7
370
    -3
100
AcDbEllipse
 10
900.0059112708591
 20
90.80107951825358
 30
0.0
 11
26.0
 21
-0.0000000000000032
 31
0.0
210
0.0
220
0.0
230
1.0
 40
0.6527970143372911
 41
4.712388980384689
 42
7.853981633974482
  0
LINE
  5
1F9F
330
1F8C
100
AcDbEntity
  8
0
  6
Continuous
 62
     7
370
    -3
100
AcDbLine
 10
-0.0000035854423004
 20
5.00000321950938
 30
0.0
 11
-0.0000035854404814
 21
795.000003219513
 31
0.0
  0
ARC
  5
1FA0
330
1F8C
100
AcDbEntity
  8
0
  6
Continuous
 62
     7
370
    -3
100
AcDbCircle
 10
4.999996414559518
 20
795.000003219513
 30
0.0
 40
5.0
100
AcDbArc
 50
90.0
 51
180.0
  0
ARC
  5
1FA1
330
1F8C
100
AcDbEntity
  8
0
  6
Continuous
 62
     7
370
    -3
100
AcDbCircle
 10
4.999996414557699
 20
5.00000321950938
 30
0.0
 40
5.0
100
AcDbArc
 50
180.0
 51
270.0
  0
LINE
  5
1FA2
330
1F8C
100
AcDbEntity
  8
0
  6
Continuous
 62
     7
370
    -3
100
AcDbLine
 10
4.999996414557699
 20
0.0000032195102904
 30
0.0
 11
900.0059112708591
 21
0.0000032195102904
 31
0.0
  0
LINE
  5
1FA3
330
1F8C
100
AcDbEntity
  8
0
  6
Continuous
 62
     7
370
    -3
100
AcDbLine
 10
4.999996414579527
 20
800.0000032196336
 30
0.0
 11
900.0059112708591
 21
800.0000032196336
 31
0.0
  0
LINE
  5
1FA4
330
1F8C
100
AcDbEntity
  8
0
  6
Continuous
 62
     7
370
    -3
100
AcDbLine
 10
87.88542199523954
 20
148.3541134024899
 30
0.0
 11
87.88542199523954
 21
640.0000032195116
 31
0.0
  0
ARC
  5
1FA5
330
1F8C
100
AcDbEntity
  8
0
  6
Continuous
 62
     7
370
    -3
100
AcDbCircle
 10
177.8854219952395
 20
148.3541134024899
 30
0.0
 40
90.0
100
AcDbArc
 50
180.0
 51
270.0
  0
ARC
  5
1FA6
330
1F8C
100
AcDbEntity
  8
0
  6
Continuous
 62
     7
370
    -3
100
AcDbCircle
 10
177.8854219952395
 20
640.0000032195116
 30
0.0
 40
90.0
100
AcDbArc
 50
90.0
 51
180.0
  0
LINE
  5
1FA7
330
1F8C
100
AcDbEntity
  8
0
  6
Continuous
 62
     7
370
    -3
100
AcDbLine
 10
900.0059112708591
 20
122.5198065740414
 30
0.0
 11
240.969996414588
 21
122.5198065740414
 31
0.0
  0
LINE
  5
1FA8
330
1F8C
100
AcDbEntity
  8
0
  6
Continuous
 62
     7
370
    -3
100
AcDbLine
 10
900.0059112708591
 20
157.9906410327594
 30
0.0
 11
566.7050638789373
 21
157.9906410327594
 31
0.0
  0
LINE
  5
1FA9
330
1F8C
100
AcDbEntity
  8
0
  6
Continuous
 62
     7
370
    -3
100
AcDbLine
 10
900.0059112708591
 20
666.5401951688941
 30
0.0
 11
566.7050638789373
 21
666.5401951688941
 31
0.0
  0
LINE
  5
1FAA
330
1F8C
100
AcDbEntity
  8
0
  6
Continuous
 62
     7
370
    -3
100
AcDbLine
 10
900.0059112708591
 20
730.0000032195116
 30
0.0
 11
177.8854219952395
 21
730.0000032195116
 31
0.0
  0
LINE
  5
1FAB
330
1F8C
100
AcDbEntity
  8
0
  6
Continuous
 62
     7
370
    -3
100
AcDbLine
 10
900.0059112708608
 20
58.35411340248993
 30
0.0
 11
177.8854219952395
 21
58.35411340248993
 31
0.0
  0
LINE
  5
1FAC
330
1F8C
100
AcDbEntity
  8
0
  6
Continuous
 62
     7
370
    -3
100
AcDbLine
 10
140.9699964145898
 20
409.5900006568667
 30
0.0
 11
140.9699964145879
 21
222.5198065740415
 31
0.0
  0
ARC
  5
1FAD
330
1F8C
100
AcDbEntity
  8
0
  6
Continuous
 62
     7
370
    -3
100
AcDbCircle
 10
240.969996414588
 20
222.5198065740415
 30
0.0
 40
100.0
100
AcDbArc
 50
180.0
 51
270.0
  0
ARC
  5
1FAE
330
1F8C
100
AcDbEntity
  8
0
  6
Continuous
 62
     7
370
    -3
100
AcDbCircle
 10
566.7050638789373
 20
412.265418100827
 30
0.0
 40
254.274777068068
100
AcDbArc
 50
90.0
 51
270.0
  0
LINE
  5
1FAF
330
1F8C
100
AcDbEntity
  8
0
  6
Continuous
 62
     7
370
    -3
100
AcDbLine
 10
900.0059112708591
 20
90.80107951825267
 30
0.0
 11
844.005911270859
 21
90.80107951825267
 31
0.0
  0
ELLIPSE
  5
1FB0
330
1F8C
100
AcDbEntity
  8
0
  6
Continuous
 62
     7
370
    -3
100
AcDbEllipse
 10
900.0059112708591
 20
90.80107951825358
 30
0.0
 11
-26.0
 21
0.0000000000000032
 31
0.0
210
0.0
220
0.0
230
-1.0
 40
0.6527970143372911
 41
4.712388980384689
 42
7.853981633974482
  0
LINE
  5
1FB1
330
1F8C
100
AcDbEntity
  8
0
  6
Continuous
 62
     7
370
    -3
100
AcDbLine
 10
853.7478452279669
 20
28.60654138798646
 30
0.0
 11
945.7474042596444
 21
28.60654138798646
 31
0.0
  0
ELLIPSE
  5
1FB2
330
1F8C
100
AcDbEntity
  8
0
  6
Continuous
 62
     7
370
    -3
100
AcDbEllipse
 10
899.7477690557103
 20
28.53573227959032
 30
0.0
 11
-16.0
 21
-0.0000000000019239
 31
0.0
210
0.0
220
0.0
230
1.0
 40
0.4687499999998864
 41
-0.0000000000000152
 42
6.283185307179571
  0
LINE
  5
1FB3
330
1F8C
100
AcDbEntity
  8
0
  6
Continuous
 62
     7
370
    -3
100
AcDbLine
 10
891.1377751177864
 20
29.33790910579273
 30
0.0
 11
891.1377751177864
 21
30.07802727165336
 31
0.0
  0
LINE
  5
1FB4
330
1F8C
100
AcDbEntity
  8
0
  6
Continuous
 62
     7
370
    -3
100
AcDbLine
 10
891.1377751177864
 20
29.33790910579273
 30
0.0
 11
891.1377751177864
 21
28.58570737803939
 31
0.0
  0
LINE
  5
1FB5
330
1F8C
100
AcDbEntity
  8
0
  6
Continuous
 62
     7
370
    -3
100
AcDbLine
 10
891.1377751177864
 20
28.58570737803939
 30
0.0
 11
891.1377751177864
 21
27.83652654075968
 31
0.0
  0
LINE
  5
1FB6
330
1F8C
100
AcDbEntity
  8
0
  6
Continuous
 62
     7
370
    -3
100
AcDbLine
 10
891.1377751177864
 20
27.83652654075968
 30
0.0
 11
891.1377751177864
 21
27.08432481300633
 31
0.0
  0
LINE
  5
1FB7
330
1F8C
100
AcDbEntity
  8
0
  6
Continuous
 62
     7
370
    -3
100
AcDbLine
 10
891.1377751177864
 20
27.08432481300633
 30
0.0
 11
891.204234708192
 21
26.60400322781652
 31
0.0
  0
LINE
  5
1FB8
330
1F8C
100
AcDbEntity
  8
0
  6
Continuous
 62
     7
370
    -3
100
AcDbLine
 10
891.204234708192
 20
26.60400322781652
 30
0.0
 11
891.4338223841319
 21
26.18107856160941
 31
0.0
  0
LINE
  5
1FB9
330
1F8C
100
AcDbEntity
  8
0
  6
Continuous
 62
     7
370
    -3
100
AcDbLine
 10
891.4338223841319
 20
26.18107856160941
 30
0.0
 11
891.847684378918
 21
25.84273882864409
 31
0.0
  0
LINE
  5
1FBA
330
1F8C
100
AcDbEntity
  8
0
  6
Continuous
 62
     7
370
    -3
100
AcDbLine
 10
891.847684378918
 20
25.84273882864409
 30
0.0
 11
892.4548833639732
 21
25.61315115270418
 31
0.0
  0
LINE
  5
1FBB
330
1F8C
100
AcDbEntity
  8
0
  6
Continuous
 62
     7
370
    -3
100
AcDbLine
 10
892.4548833639732
 20
25.61315115270418
 30
0.0
 11
893.2916700249666
 21
25.53460800040785
 31
0.0
  0
LINE
  5
1FBC
330
1F8C
100
AcDbEntity
  8
0
  6
Continuous
 62
     7
370
    -3
100
AcDbLine
 10
893.2916700249666
 20
25.53460800040785
 30
0.0
 11
894.2855429905508
 21
25.67961074310779
 31
0.0
  0
LINE
  5
1FBD
330
1F8C
100
AcDbEntity
  8
0
  6
Continuous
 62
     7
370
    -3
100
AcDbLine
 10
894.2855429905508
 20
25.67961074310779
 30
0.0
 11
894.9018046470232
 21
26.05420116174764
 31
0.0
  0
LINE
  5
1FBE
330
1F8C
100
AcDbEntity
  8
0
  6
Continuous
 62
     7
370
    -3
100
AcDbLine
 10
894.9018046470232
 20
26.05420116174764
 30
0.0
 11
895.2371234895167
 21
26.52546007552019
 31
0.0
  0
LINE
  5
1FBF
330
1F8C
100
AcDbEntity
  8
0
  6
Continuous
 62
     7
370
    -3
100
AcDbLine
 10
895.2371234895167
 20
26.52546007552019
 30
0.0
 11
895.3730635607977
 21
26.98765631787364
 31
0.0
  0
LINE
  5
1FC0
330
1F8C
100
AcDbEntity
  8
0
  6
Continuous
 62
     7
370
    -3
100
AcDbLine
 10
895.4002515750531
 20
27.33505872225805
 30
0.0
 11
894.7749272471632
 21
27.33505872225805
 31
0.0
  0
LINE
  5
1FC1
330
1F8C
100
AcDbEntity
  8
0
  6
Continuous
 62
     7
370
    -3
100
AcDbLine
 10
894.7749272471632
 20
27.33505872225805
 30
0.0
 11
894.1405402478526
 21
27.33505872225805
 31
0.0
  0
LINE
  5
1FC2
330
1F8C
100
AcDbEntity
  8
0
  6
Continuous
 62
     7
370
    -3
100
AcDbLine
 10
894.1405402478526
 20
27.33505872225805
 30
0.0
 11
894.1314775764336
 21
27.18099330814084
 31
0.0
  0
LINE
  5
1FC3
330
1F8C
100
AcDbEntity
  8
0
  6
Continuous
 62
     7
370
    -3
100
AcDbLine
 10
894.1314775764336
 20
27.18099330814084
 30
0.0
 11
894.083143328868
 21
26.96953097503729
 31
0.0
  0
LINE
  5
1FC4
330
1F8C
100
AcDbEntity
  8
0
  6
Continuous
 62
     7
370
    -3
100
AcDbLine
 10
894.083143328868
 20
26.96953097503729
 30
0.0
 11
893.9472032575872
 21
26.74900597051465
 31
0.0
  0
LINE
  5
1FC5
330
1F8C
100
AcDbEntity
  8
0
  6
Continuous
 62
     7
370
    -3
100
AcDbLine
 10
893.9472032575872
 20
26.74900597051465
 30
0.0
 11
893.6783440054973
 21
26.56473165166835
 31
0.0
  0
LINE
  5
1FC6
330
1F8C
100
AcDbEntity
  8
0
  6
Continuous
 62
     7
370
    -3
100
AcDbLine
 10
893.6783440054973
 20
26.56473165166835
 30
0.0
 11
893.246356667873
 21
26.49827206126474
 31
0.0
  0
LINE
  5
1FC7
330
1F8C
100
AcDbEntity
  8
0
  6
Continuous
 62
     7
370
    -3
100
AcDbLine
 10
893.246356667873
 20
26.49827206126474
 30
0.0
 11
892.8294737826131
 21
26.53452274693928
 31
0.0
  0
LINE
  5
1FC8
330
1F8C
100
AcDbEntity
  8
0
  6
Continuous
 62
     7
370
    -3
100
AcDbLine
 10
892.8294737826131
 20
26.53452274693928
 30
0.0
 11
892.5696772019442
 21
26.62212857065288
 31
0.0
  0
LINE
  5
1FC9
330
1F8C
100
AcDbEntity
  8
0
  6
Continuous
 62
     7
370
    -3
100
AcDbLine
 10
892.5696772019442
 20
26.62212857065288
 30
0.0
 11
892.4458206925542
 21
26.74900597051465
 31
0.0
  0
LINE
  5
1FCA
330
1F8C
100
AcDbEntity
  8
0
  6
Continuous
 62
     7
370
    -3
100
AcDbLine
 10
892.4458206925542
 20
26.74900597051465
 30
0.0
 11
892.3974864449887
 21
26.88192515132369
 31
0.0
  0
LINE
  5
1FCB
330
1F8C
100
AcDbEntity
  8
0
  6
Continuous
 62
     7
370
    -3
100
AcDbLine
 10
892.3974864449887
 20
26.88192515132369
 30
0.0
 11
892.3884237735697
 21
26.98765631787364
 31
0.0
  0
LINE
  5
1FCC
330
1F8C
100
AcDbEntity
  8
0
  6
Continuous
 62
     7
370
    -3
100
AcDbLine
 10
892.3884237735697
 20
26.98765631787364
 30
0.0
 11
892.3884237735697
 21
27.07526214158907
 31
0.0
  0
LINE
  5
1FCD
330
1F8C
100
AcDbEntity
  8
0
  6
Continuous
 62
     7
370
    -3
100
AcDbLine
 10
892.3884237735697
 20
27.07526214158907
 30
0.0
 11
892.4065491164061
 21
27.19005597955811
 31
0.0
  0
LINE
  5
1FCE
330
1F8C
100
AcDbEntity
  8
0
  6
Continuous
 62
     7
370
    -3
100
AcDbLine
 10
892.4065491164061
 20
27.19005597955811
 30
0.0
 11
892.4548833639732
 21
27.33505872225805
 31
0.0
  0
LINE
  5
1FCF
330
1F8C
100
AcDbEntity
  8
0
  6
Continuous
 62
     7
370
    -3
100
AcDbLine
 10
892.4548833639732
 20
27.33505872225805
 30
0.0
 11
892.551551859106
 21
27.45891523164801
 31
0.0
  0
LINE
  5
1FD0
330
1F8C
100
AcDbEntity
  8
0
  6
Continuous
 62
     7
370
    -3
100
AcDbLine
 10
892.551551859106
 20
27.45891523164801
 30
0.0
 11
892.7056172732232
 21
27.56464639819979
 31
0.0
  0
LINE
  5
1FD1
330
1F8C
100
AcDbEntity
  8
0
  6
Continuous
 62
     7
370
    -3
100
AcDbLine
 10
892.7056172732232
 20
27.56464639819979
 30
0.0
 11
893.0802076918631
 21
27.68246112664247
 31
0.0
  0
LINE
  5
1FD2
330
1F8C
100
AcDbEntity
  8
0
  6
Continuous
 62
     7
370
    -3
100
AcDbLine
 10
893.0802076918631
 20
27.68246112664247
 30
0.0
 11
893.4668816723956
 21
27.73985804562699
 31
0.0
  0
LINE
  5
1FD3
330
1F8C
100
AcDbEntity
  8
0
  6
Continuous
 62
     7
370
    -3
100
AcDbLine
 10
893.4668816723956
 20
27.73985804562699
 30
0.0
 11
893.8414720910355
 21
27.78819229319424
 31
0.0
  0
LINE
  5
1FD4
330
1F8C
100
AcDbEntity
  8
0
  6
Continuous
 62
     7
370
    -3
100
AcDbLine
 10
893.8414720910355
 20
27.78819229319424
 30
0.0
 11
894.197937166839
 21
27.84558921217877
 31
0.0
  0
LINE
  5
1FD5
330
1F8C
100
AcDbEntity
  8
0
  6
Continuous
 62
     7
370
    -3
100
AcDbLine
 10
894.197937166839
 20
27.84558921217877
 30
0.0
 11
894.5241933379115
 21
27.94225770731145
 31
0.0
  0
LINE
  5
1FD6
330
1F8C
100
AcDbEntity
  8
0
  6
Continuous
 62
     7
370
    -3
100
AcDbLine
 10
894.5241933379115
 20
27.94225770731145
 30
0.0
 11
894.8232614947286
 21
28.0872604500114
 31
0.0
  0
LINE
  5
1FD7
330
1F8C
100
AcDbEntity
  8
0
  6
Continuous
 62
     7
370
    -3
100
AcDbLine
 10
894.8232614947286
 20
28.0872604500114
 30
0.0
 11
895.1042043087078
 21
28.28663922122223
 31
0.0
  0
LINE
  5
1FD8
330
1F8C
100
AcDbEntity
  8
0
  6
Continuous
 62
     7
370
    -3
100
AcDbLine
 10
895.1042043087078
 20
28.28663922122223
 30
0.0
 11
895.3428546560685
 21
28.56758203520303
 31
0.0
  0
LINE
  5
1FD9
330
1F8C
100
AcDbEntity
  8
0
  6
Continuous
 62
     7
370
    -3
100
AcDbLine
 10
895.4878573987667
 20
30.059901928817
 30
0.0
 11
895.2673323942459
 21
30.49188926644138
 31
0.0
  0
LINE
  5
1FDA
330
1F8C
100
AcDbEntity
  8
0
  6
Continuous
 62
     7
370
    -3
100
AcDbLine
 10
895.2673323942459
 20
30.49188926644138
 30
0.0
 11
894.9018046470232
 21
30.80002009467762
 31
0.0
  0
LINE
  5
1FDB
330
1F8C
100
AcDbEntity
  8
0
  6
Continuous
 62
     7
370
    -3
100
AcDbLine
 10
894.9018046470232
 20
30.80002009467762
 30
0.0
 11
894.4184621713597
 21
30.97523174210664
 31
0.0
  0
LINE
  5
1FDC
330
1F8C
100
AcDbEntity
  8
0
  6
Continuous
 62
     7
370
    -3
100
AcDbLine
 10
894.4184621713597
 20
30.97523174210664
 30
0.0
 11
893.8233467481991
 21
31.03262866109117
 31
0.0
  0
LINE
  5
1FDD
330
1F8C
100
AcDbEntity
  8
0
  6
Continuous
 62
     7
370
    -3
100
AcDbLine
 10
893.8233467481991
 20
31.03262866109117
 30
0.0
 11
893.4759443438128
 21
30.98429441352573
 31
0.0
  0
LINE
  5
1FDE
330
1F8C
100
AcDbEntity
  8
0
  6
Continuous
 62
     7
370
    -3
100
AcDbLine
 10
893.4759443438128
 20
30.98429441352573
 30
0.0
 11
893.1496881727403
 21
30.86950057555487
 31
0.0
  0
LINE
  5
1FDF
330
1F8C
100
AcDbEntity
  8
0
  6
Continuous
 62
     7
370
    -3
100
AcDbLine
 10
893.1496881727403
 20
30.86950057555487
 30
0.0
 11
892.8506200159231
 21
30.72449783285492
 31
0.0
  0
LINE
  5
1FE0
330
1F8C
100
AcDbEntity
  8
0
  6
Continuous
 62
     7
370
    -3
100
AcDbLine
 10
892.8506200159231
 20
30.72449783285492
 30
0.0
 11
892.581760763835
 21
30.53116084258955
 31
0.0
  0
LINE
  5
1FE1
330
1F8C
100
AcDbEntity
  8
0
  6
Continuous
 62
     7
370
    -3
100
AcDbLine
 10
892.581760763835
 20
30.53116084258955
 30
0.0
 11
892.3400895260025
 21
30.31969850948599
 31
0.0
  0
LINE
  5
1FE2
330
1F8C
100
AcDbEntity
  8
0
  6
Continuous
 62
     7
370
    -3
100
AcDbLine
 10
892.3400895260025
 20
30.31969850948599
 30
0.0
 11
892.3400895260025
 21
30.40730433319959
 31
0.0
  0
LINE
  5
1FE3
330
1F8C
100
AcDbEntity
  8
0
  6
Continuous
 62
     7
370
    -3
100
AcDbLine
 10
892.3400895260025
 20
30.40730433319959
 30
0.0
 11
892.3400895260025
 21
30.51303549975137
 31
0.0
  0
LINE
  5
1FE4
330
1F8C
100
AcDbEntity
  8
0
  6
Continuous
 62
     7
370
    -3
100
AcDbLine
 10
892.3400895260025
 20
30.51303549975137
 30
0.0
 11
892.3219641831643
 21
30.63689200914132
 31
0.0
  0
LINE
  5
1FE5
330
1F8C
100
AcDbEntity
  8
0
  6
Continuous
 62
     7
370
    -3
100
AcDbLine
 10
892.3219641831643
 20
30.63689200914132
 30
0.0
 11
892.2917552784351
 21
30.76074851852946
 31
0.0
  0
LINE
  5
1FE6
330
1F8C
100
AcDbEntity
  8
0
  6
Continuous
 62
     7
370
    -3
100
AcDbLine
 10
892.2917552784351
 20
30.76074851852946
 30
0.0
 11
892.2252956880333
 21
30.86950057555487
 31
0.0
  0
LINE
  5
1FE7
330
1F8C
100
AcDbEntity
  8
0
  6
Continuous
 62
     7
370
    -3
100
AcDbLine
 10
892.2252956880333
 20
30.86950057555487
 30
0.0
 11
891.5123655364263
 21
30.86950057555487
 31
0.0
  0
LINE
  5
1FE8
330
1F8C
100
AcDbEntity
  8
0
  6
Continuous
 62
     7
370
    -3
100
AcDbLine
 10
891.5123655364263
 20
30.86950057555487
 30
0.0
 11
890.7994353848231
 21
30.86950057555487
 31
0.0
  0
LINE
  5
1FE9
330
1F8C
100
AcDbEntity
  8
0
  6
Continuous
 62
     7
370
    -3
100
AcDbLine
 10
890.7994353848231
 20
30.86950057555487
 30
0.0
 11
890.7994353848231
 21
30.61876666630315
 31
0.0
  0
LINE
  5
1FEA
330
1F8C
100
AcDbEntity
  8
0
  6
Continuous
 62
     7
370
    -3
100
AcDbLine
 10
890.7994353848231
 20
30.61876666630315
 30
0.0
 11
890.9353754561021
 21
30.53116084258955
 31
0.0
  0
LINE
  5
1FEB
330
1F8C
100
AcDbEntity
  8
0
  6
Continuous
 62
     7
370
    -3
100
AcDbLine
 10
890.9353754561021
 20
30.53116084258955
 30
0.0
 11
891.0290230607628
 21
30.42542967603777
 31
0.0
  0
LINE
  5
1FEC
330
1F8C
100
AcDbEntity
  8
0
  6
Continuous
 62
     7
370
    -3
100
AcDbLine
 10
891.0290230607628
 20
30.42542967603777
 30
0.0
 11
891.089440870221
 21
30.3106358380669
 31
0.0
  0
LINE
  5
1FED
330
1F8C
100
AcDbEntity
  8
0
  6
Continuous
 62
     7
370
    -3
100
AcDbLine
 10
891.089440870221
 20
30.3106358380669
 30
0.0
 11
891.1256915558956
 21
30.19282110962422
 31
0.0
  0
LINE
  5
1FEE
330
1F8C
100
AcDbEntity
  8
0
  6
Continuous
 62
     7
370
    -3
100
AcDbLine
 10
891.1256915558956
 20
30.19282110962422
 30
0.0
 11
891.1377751177864
 21
30.06896460023609
 31
0.0
  0
LINE
  5
1FEF
330
1F8C
100
AcDbEntity
  8
0
  6
Continuous
 62
     7
370
    -3
100
AcDbLine
 10
892.3884237735697
 20
28.86665019202019
 30
0.0
 11
892.3884237735697
 21
28.39539127824764
 31
0.0
  0
LINE
  5
1FF0
330
1F8C
100
AcDbEntity
  8
0
  6
Continuous
 62
     7
370
    -3
100
AcDbLine
 10
892.3884237735697
 20
28.86665019202019
 30
0.0
 11
892.3974864449887
 21
29.03884094897558
 31
0.0
  0
LINE
  5
1FF1
330
1F8C
100
AcDbEntity
  8
0
  6
Continuous
 62
     7
370
    -3
100
AcDbLine
 10
892.3974864449887
 20
29.03884094897558
 30
0.0
 11
892.4639460353905
 21
29.30770020106365
 31
0.0
  0
LINE
  5
1FF2
330
1F8C
100
AcDbEntity
  8
0
  6
Continuous
 62
     7
370
    -3
100
AcDbLine
 10
892.4639460353905
 20
29.30770020106365
 30
0.0
 11
892.6300950114024
 21
29.6158310292999
 31
0.0
  0
LINE
  5
1FF3
330
1F8C
100
AcDbEntity
  8
0
  6
Continuous
 62
     7
370
    -3
100
AcDbLine
 10
892.6300950114024
 20
29.6158310292999
 30
0.0
 11
892.9382258396367
 21
29.85750226713253
 31
0.0
  0
LINE
  5
1FF4
330
1F8C
100
AcDbEntity
  8
0
  6
Continuous
 62
     7
370
    -3
100
AcDbLine
 10
892.9382258396367
 20
29.85750226713253
 30
0.0
 11
893.4276100962474
 21
29.95417076226522
 31
0.0
  0
LINE
  5
1FF5
330
1F8C
100
AcDbEntity
  8
0
  6
Continuous
 62
     7
370
    -3
100
AcDbLine
 10
893.4276100962474
 20
29.95417076226522
 30
0.0
 11
893.7266782530645
 21
29.93302452895523
 31
0.0
  0
LINE
  5
1FF6
330
1F8C
100
AcDbEntity
  8
0
  6
Continuous
 62
     7
370
    -3
100
AcDbLine
 10
893.7266782530645
 20
29.93302452895523
 30
0.0
 11
893.9562659290062
 21
29.86656493855162
 31
0.0
  0
LINE
  5
1FF7
330
1F8C
100
AcDbEntity
  8
0
  6
Continuous
 62
     7
370
    -3
100
AcDbLine
 10
893.9562659290062
 20
29.86656493855162
 30
0.0
 11
894.1314775764336
 21
29.75177110058075
 31
0.0
  0
LINE
  5
1FF8
330
1F8C
100
AcDbEntity
  8
0
  6
Continuous
 62
     7
370
    -3
100
AcDbLine
 10
894.1314775764336
 20
29.75177110058075
 30
0.0
 11
894.228146071568
 21
29.57655945315173
 31
0.0
  0
LINE
  5
1FF9
330
1F8C
100
AcDbEntity
  8
0
  6
Continuous
 62
     7
370
    -3
100
AcDbLine
 10
894.228146071568
 20
29.57655945315173
 30
0.0
 11
894.2643967572408
 21
29.32884643437365
 31
0.0
  0
LINE
  5
1FFA
330
1F8C
100
AcDbEntity
  8
0
  6
Continuous
 62
     7
370
    -3
100
AcDbLine
 10
894.2643967572408
 20
29.32884643437365
 30
0.0
 11
894.2462714144044
 21
29.16269745836371
 31
0.0
  0
LINE
  5
1FFB
330
1F8C
100
AcDbEntity
  8
0
  6
Continuous
 62
     7
370
    -3
100
AcDbLine
 10
894.2462714144044
 20
29.16269745836371
 30
0.0
 11
894.1888744954198
 21
29.03884094897558
 31
0.0
  0
LINE
  5
1FFC
330
1F8C
100
AcDbEntity
  8
0
  6
Continuous
 62
     7
370
    -3
100
AcDbLine
 10
894.1888744954198
 20
29.03884094897558
 30
0.0
 11
894.1224149050144
 21
28.9331097824238
 31
0.0
  0
LINE
  5
1FFD
330
1F8C
100
AcDbEntity
  8
0
  6
Continuous
 62
     7
370
    -3
100
AcDbLine
 10
894.1224149050144
 20
28.9331097824238
 30
0.0
 11
894.052934424139
 21
28.86665019202019
 31
0.0
  0
LINE
  5
1FFE
330
1F8C
100
AcDbEntity
  8
0
  6
Continuous
 62
     7
370
    -3
100
AcDbLine
 10
894.052934424139
 20
28.86665019202019
 30
0.0
 11
893.9955375051544
 21
28.81831594445293
 31
0.0
  0
LINE
  5
1FFF
330
1F8C
100
AcDbEntity
  8
0
  6
Continuous
 62
     7
370
    -3
100
AcDbLine
 10
893.9955375051544
 20
28.81831594445293
 30
0.0
 11
893.6964693483355
 21
28.67331320175481
 31
0.0
  0
LINE
  5
2000
330
1F8C
100
AcDbEntity
  8
0
  6
Continuous
 62
     7
370
    -3
100
AcDbLine
 10
893.6964693483355
 20
28.67331320175481
 30
0.0
 11
893.3520878344248
 21
28.6068536113512
 31
0.0
  0
LINE
  5
2001
330
1F8C
100
AcDbEntity
  8
0
  6
Continuous
 62
     7
370
    -3
100
AcDbLine
 10
893.3520878344248
 20
28.6068536113512
 30
0.0
 11
892.9956227586231
 21
28.56758203520303
 31
0.0
  0
LINE
  5
2002
330
1F8C
100
AcDbEntity
  8
0
  6
Continuous
 62
     7
370
    -3
100
AcDbLine
 10
892.9956227586231
 20
28.56758203520303
 30
0.0
 11
892.6572830256578
 21
28.51924778763578
 31
0.0
  0
LINE
  5
2003
330
1F8C
100
AcDbEntity
  8
0
  6
Continuous
 62
     7
370
    -3
100
AcDbLine
 10
892.6572830256578
 20
28.51924778763578
 30
0.0
 11
892.3884237735697
 21
28.39539127824764
 31
0.0
  0
LINE
  5
2004
330
1F8C
100
AcDbEntity
  8
0
  6
Continuous
 62
     7
370
    -3
100
AcDbLine
 10
904.4236514176141
 20
30.59762043299315
 30
0.0
 11
904.4236514176141
 21
31.29242524176016
 31
0.0
  0
LINE
  5
2005
330
1F8C
100
AcDbEntity
  8
0
  6
Continuous
 62
     7
370
    -3
100
AcDbLine
 10
904.4236514176141
 20
30.59762043299315
 30
0.0
 11
904.4236514176141
 21
29.8967738432807
 31
0.0
  0
LINE
  5
2006
330
1F8C
100
AcDbEntity
  8
0
  6
Continuous
 62
     7
370
    -3
100
AcDbLine
 10
904.4236514176141
 20
29.8967738432807
 30
0.0
 11
904.4236514176141
 21
29.20196903451188
 31
0.0
  0
LINE
  5
2007
330
1F8C
100
AcDbEntity
  8
0
  6
Continuous
 62
     7
370
    -3
100
AcDbLine
 10
904.4236514176141
 20
29.20196903451188
 30
0.0
 11
904.4236514176141
 21
28.50112244479942
 31
0.0
  0
LINE
  5
2008
330
1F8C
100
AcDbEntity
  8
0
  6
Continuous
 62
     7
370
    -3
100
AcDbLine
 10
904.4236514176141
 20
28.50112244479942
 30
0.0
 11
904.4236514176141
 21
27.8063176360306
 31
0.0
  0
LINE
  5
2009
330
1F8C
100
AcDbEntity
  8
0
  6
Continuous
 62
     7
370
    -3
100
AcDbLine
 10
904.4236514176141
 20
27.8063176360306
 30
0.0
 11
904.4236514176141
 21
27.10245015584451
 31
0.0
  0
LINE
  5
200A
330
1F8C
100
AcDbEntity
  8
0
  6
Continuous
 62
     7
370
    -3
100
AcDbLine
 10
904.4236514176141
 20
27.10245015584451
 30
0.0
 11
904.4236514176141
 21
26.40160356613205
 31
0.0
  0
LINE
  5
200B
330
1F8C
100
AcDbEntity
  8
0
  6
Continuous
 62
     7
370
    -3
100
AcDbLine
 10
904.4236514176141
 20
26.40160356613205
 30
0.0
 11
904.4236514176141
 21
25.69773608594414
 31
0.0
  0
LINE
  5
200C
330
1F8C
100
AcDbEntity
  8
0
  6
Continuous
 62
     7
370
    -3
100
AcDbLine
 10
904.4236514176141
 20
25.69773608594414
 30
0.0
 11
905.0489757455038
 21
25.69773608594414
 31
0.0
  0
LINE
  5
200D
330
1F8C
100
AcDbEntity
  8
0
  6
Continuous
 62
     7
370
    -3
100
AcDbLine
 10
905.0489757455038
 20
25.69773608594414
 30
0.0
 11
905.6743000733954
 21
25.69773608594414
 31
0.0
  0
LINE
  5
200E
330
1F8C
100
AcDbEntity
  8
0
  6
Continuous
 62
     7
370
    -3
100
AcDbLine
 10
905.6743000733954
 20
25.69773608594414
 30
0.0
 11
905.6743000733954
 21
26.22639191870303
 31
0.0
  0
LINE
  5
200F
330
1F8C
100
AcDbEntity
  8
0
  6
Continuous
 62
     7
370
    -3
100
AcDbLine
 10
905.6743000733954
 20
26.22639191870303
 30
0.0
 11
905.8676370636607
 21
25.99680424276312
 31
0.0
  0
LINE
  5
2010
330
1F8C
100
AcDbEntity
  8
0
  6
Continuous
 62
     7
370
    -3
100
AcDbLine
 10
905.8676370636607
 20
25.99680424276312
 30
0.0
 11
906.0972247396025
 21
25.80346725249592
 31
0.0
  0
LINE
  5
2011
330
1F8C
100
AcDbEntity
  8
0
  6
Continuous
 62
     7
370
    -3
100
AcDbLine
 10
906.0972247396025
 20
25.80346725249592
 30
0.0
 11
906.3691048821642
 21
25.6584645097978
 31
0.0
  0
LINE
  5
2012
330
1F8C
100
AcDbEntity
  8
0
  6
Continuous
 62
     7
370
    -3
100
AcDbLine
 10
906.3691048821642
 20
25.6584645097978
 30
0.0
 11
906.6772357103987
 21
25.56481690513692
 31
0.0
  0
LINE
  5
2013
330
1F8C
100
AcDbEntity
  8
0
  6
Continuous
 62
     7
370
    -3
100
AcDbLine
 10
906.6772357103987
 20
25.56481690513692
 30
0.0
 11
907.0216172243094
 21
25.53460800040785
 31
0.0
  0
LINE
  5
2014
330
1F8C
100
AcDbEntity
  8
0
  6
Continuous
 62
     7
370
    -3
100
AcDbLine
 10
907.0216172243094
 20
25.53460800040785
 30
0.0
 11
907.7738189520646
 21
25.64940183837871
 31
0.0
  0
LINE
  5
2015
330
1F8C
100
AcDbEntity
  8
0
  6
Continuous
 62
     7
370
    -3
100
AcDbLine
 10
907.7738189520646
 20
25.64940183837871
 30
0.0
 11
908.3991432799544
 21
25.99680424276312
 31
0.0
  0
LINE
  5
2016
330
1F8C
100
AcDbEntity
  8
0
  6
Continuous
 62
     7
370
    -3
100
AcDbLine
 10
908.3991432799544
 20
25.99680424276312
 30
0.0
 11
908.8704021937269
 21
26.55566898024927
 31
0.0
  0
LINE
  5
2017
330
1F8C
100
AcDbEntity
  8
0
  6
Continuous
 62
     7
370
    -3
100
AcDbLine
 10
908.8704021937269
 20
26.55566898024927
 30
0.0
 11
909.1604076791268
 21
27.32599605083897
 31
0.0
  0
LINE
  5
2018
330
1F8C
100
AcDbEntity
  8
0
  6
Continuous
 62
     7
370
    -3
100
AcDbLine
 10
909.1604076791268
 20
27.32599605083897
 30
0.0
 11
909.2661388456768
 21
28.28663922122223
 31
0.0
  0
LINE
  5
2019
330
1F8C
100
AcDbEntity
  8
0
  6
Continuous
 62
     7
370
    -3
100
AcDbLine
 10
909.2661388456768
 20
28.28663922122223
 30
0.0
 11
909.1604076791268
 21
29.25030328207913
 31
0.0
  0
LINE
  5
201A
330
1F8C
100
AcDbEntity
  8
0
  6
Continuous
 62
     7
370
    -3
100
AcDbLine
 10
909.1604076791268
 20
29.25030328207913
 30
0.0
 11
908.8704021937269
 21
30.02063035266883
 31
0.0
  0
LINE
  5
201B
330
1F8C
100
AcDbEntity
  8
0
  6
Continuous
 62
     7
370
    -3
100
AcDbLine
 10
908.8704021937269
 20
30.02063035266883
 30
0.0
 11
908.3991432799544
 21
30.5794950901568
 31
0.0
  0
LINE
  5
201C
330
1F8C
100
AcDbEntity
  8
0
  6
Continuous
 62
     7
370
    -3
100
AcDbLine
 10
908.3991432799544
 20
30.5794950901568
 30
0.0
 11
907.7738189520646
 21
30.91481393264849
 31
0.0
  0
LINE
  5
201D
330
1F8C
100
AcDbEntity
  8
0
  6
Continuous
 62
     7
370
    -3
100
AcDbLine
 10
907.7738189520646
 20
30.91481393264849
 30
0.0
 11
907.0216172243094
 21
31.03262866109117
 31
0.0
  0
LINE
  5
201E
330
1F8C
100
AcDbEntity
  8
0
  6
Continuous
 62
     7
370
    -3
100
AcDbLine
 10
907.0216172243094
 20
31.03262866109117
 30
0.0
 11
906.6772357103987
 21
30.993357084943
 31
0.0
  0
LINE
  5
201F
330
1F8C
100
AcDbEntity
  8
0
  6
Continuous
 62
     7
370
    -3
100
AcDbLine
 10
906.6772357103987
 20
30.993357084943
 30
0.0
 11
906.3691048821642
 21
30.89668858981031
 31
0.0
  0
LINE
  5
2020
330
1F8C
100
AcDbEntity
  8
0
  6
Continuous
 62
     7
370
    -3
100
AcDbLine
 10
906.3691048821642
 20
30.89668858981031
 30
0.0
 11
906.0972247396025
 21
30.76074851852946
 31
0.0
  0
LINE
  5
2021
330
1F8C
100
AcDbEntity
  8
0
  6
Continuous
 62
     7
370
    -3
100
AcDbLine
 10
906.0972247396025
 20
30.76074851852946
 30
0.0
 11
905.8676370636607
 21
30.56136974731862
 31
0.0
  0
LINE
  5
2022
330
1F8C
100
AcDbEntity
  8
0
  6
Continuous
 62
     7
370
    -3
100
AcDbLine
 10
905.8676370636607
 20
30.56136974731862
 30
0.0
 11
905.6743000733954
 21
30.32876118090508
 31
0.0
  0
LINE
  5
2023
330
1F8C
100
AcDbEntity
  8
0
  6
Continuous
 62
     7
370
    -3
100
AcDbLine
 10
905.6743000733954
 20
30.32876118090508
 30
0.0
 11
905.6743000733954
 21
31.28336257034289
 31
0.0
  0
LINE
  5
2024
330
1F8C
100
AcDbEntity
  8
0
  6
Continuous
 62
     7
370
    -3
100
AcDbLine
 10
905.6743000733954
 20
31.28336257034289
 30
0.0
 11
905.7135716495436
 21
31.48274134155372
 31
0.0
  0
LINE
  5
2025
330
1F8C
100
AcDbEntity
  8
0
  6
Continuous
 62
     7
370
    -3
100
AcDbLine
 10
905.7135716495436
 20
31.48274134155372
 30
0.0
 11
905.8495117208245
 21
31.66701566040183
 31
0.0
  0
LINE
  5
2026
330
1F8C
100
AcDbEntity
  8
0
  6
Continuous
 62
     7
370
    -3
100
AcDbLine
 10
905.8495117208245
 20
31.66701566040183
 30
0.0
 11
906.060974053928
 21
31.82108107451905
 31
0.0
  0
LINE
  5
2027
330
1F8C
100
AcDbEntity
  8
0
  6
Continuous
 62
     7
370
    -3
100
AcDbLine
 10
906.060974053928
 20
31.82108107451905
 30
0.0
 11
906.3781675535834
 21
31.90868689823265
 31
0.0
  0
LINE
  5
2028
330
1F8C
100
AcDbEntity
  8
0
  6
Continuous
 62
     7
370
    -3
100
AcDbLine
 10
906.3781675535834
 20
31.90868689823265
 30
0.0
 11
906.7920295483714
 21
31.944937583909
 31
0.0
  0
LINE
  5
2029
330
1F8C
100
AcDbEntity
  8
0
  6
Continuous
 62
     7
370
    -3
100
AcDbLine
 10
906.7920295483714
 20
31.944937583909
 30
0.0
 11
907.2149542145766
 21
31.90868689823265
 31
0.0
  0
LINE
  5
202A
330
1F8C
100
AcDbEntity
  8
0
  6
Continuous
 62
     7
370
    -3
100
AcDbLine
 10
907.2149542145766
 20
31.90868689823265
 30
0.0
 11
907.532147714232
 21
31.82108107451905
 31
0.0
  0
LINE
  5
202B
330
1F8C
100
AcDbEntity
  8
0
  6
Continuous
 62
     7
370
    -3
100
AcDbLine
 10
907.532147714232
 20
31.82108107451905
 30
0.0
 11
907.7556936092264
 21
31.69722456513091
 31
0.0
  0
LINE
  5
202C
330
1F8C
100
AcDbEntity
  8
0
  6
Continuous
 62
     7
370
    -3
100
AcDbLine
 10
907.7556936092264
 20
31.69722456513091
 30
0.0
 11
907.8886127900336
 21
31.56128449385005
 31
0.0
  0
LINE
  5
202D
330
1F8C
100
AcDbEntity
  8
0
  6
Continuous
 62
     7
370
    -3
100
AcDbLine
 10
907.8886127900336
 20
31.56128449385005
 30
0.0
 11
907.9278843661818
 21
31.4374279844601
 31
0.0
  0
LINE
  5
202E
330
1F8C
100
AcDbEntity
  8
0
  6
Continuous
 62
     7
370
    -3
100
AcDbLine
 10
907.9278843661818
 20
31.4374279844601
 30
0.0
 11
908.5924802702216
 21
31.4374279844601
 31
0.0
  0
LINE
  5
202F
330
1F8C
100
AcDbEntity
  8
0
  6
Continuous
 62
     7
370
    -3
100
AcDbLine
 10
908.5924802702216
 20
31.4374279844601
 30
0.0
 11
909.2661388456768
 21
31.4374279844601
 31
0.0
  0
LINE
  5
2030
330
1F8C
100
AcDbEntity
  8
0
  6
Continuous
 62
     7
370
    -3
100
AcDbLine
 10
909.2661388456768
 20
31.4374279844601
 30
0.0
 11
909.2389508314212
 21
31.6760783318191
 31
0.0
  0
LINE
  5
2031
330
1F8C
100
AcDbEntity
  8
0
  6
Continuous
 62
     7
370
    -3
100
AcDbLine
 10
909.2389508314212
 20
31.6760783318191
 30
0.0
 11
909.0939480887213
 21
32.06275231235168
 31
0.0
  0
LINE
  5
2032
330
1F8C
100
AcDbEntity
  8
0
  6
Continuous
 62
     7
370
    -3
100
AcDbLine
 10
909.0939480887213
 20
32.06275231235168
 30
0.0
 11
908.6982114367716
 21
32.4766143071397
 31
0.0
  0
LINE
  5
2033
330
1F8C
100
AcDbEntity
  8
0
  6
Continuous
 62
     7
370
    -3
100
AcDbLine
 10
908.6982114367716
 20
32.4766143071397
 30
0.0
 11
907.9762186137491
 21
32.79380780679321
 31
0.0
  0
LINE
  5
2034
330
1F8C
100
AcDbEntity
  8
0
  6
Continuous
 62
     7
370
    -3
100
AcDbLine
 10
907.9762186137491
 20
32.79380780679321
 30
0.0
 11
906.7920295483714
 21
32.92672698760225
 31
0.0
  0
LINE
  5
2035
330
1F8C
100
AcDbEntity
  8
0
  6
Continuous
 62
     7
370
    -3
100
AcDbLine
 10
906.7920295483714
 20
32.92672698760225
 30
0.0
 11
905.8766997350799
 21
32.83307938294138
 31
0.0
  0
LINE
  5
2036
330
1F8C
100
AcDbEntity
  8
0
  6
Continuous
 62
     7
370
    -3
100
AcDbLine
 10
905.8766997350799
 20
32.83307938294138
 30
0.0
 11
905.2030411596247
 21
32.58234547369148
 31
0.0
  0
LINE
  5
2037
330
1F8C
100
AcDbEntity
  8
0
  6
Continuous
 62
     7
370
    -3
100
AcDbLine
 10
905.2030411596247
 20
32.58234547369148
 30
0.0
 11
904.7499075886886
 21
32.21681772646889
 31
0.0
  0
LINE
  5
2038
330
1F8C
100
AcDbEntity
  8
0
  6
Continuous
 62
     7
370
    -3
100
AcDbLine
 10
904.7499075886886
 20
32.21681772646889
 30
0.0
 11
904.4991736794369
 21
31.75462148411543
 31
0.0
  0
LINE
  5
2039
330
1F8C
100
AcDbEntity
  8
0
  6
Continuous
 62
     7
370
    -3
100
AcDbLine
 10
904.4991736794369
 20
31.75462148411543
 30
0.0
 11
904.4236514176141
 21
31.24409099419472
 31
0.0
  0
LINE
  5
203A
330
1F8C
100
AcDbEntity
  8
0
  6
Continuous
 62
     7
370
    -3
100
AcDbLine
 10
905.7226343209627
 20
28.73977279215842
 30
0.0
 11
905.6954463067054
 21
28.24132586412861
 31
0.0
  0
LINE
  5
203B
330
1F8C
100
AcDbEntity
  8
0
  6
Continuous
 62
     7
370
    -3
100
AcDbLine
 10
905.7226343209627
 20
28.73977279215842
 30
0.0
 11
905.8374281589317
 21
29.19290636309279
 31
0.0
  0
LINE
  5
203C
330
1F8C
100
AcDbEntity
  8
0
  6
Continuous
 62
     7
370
    -3
100
AcDbLine
 10
905.8374281589317
 20
29.19290636309279
 30
0.0
 11
906.0398278206163
 21
29.56749678173264
 31
0.0
  0
LINE
  5
203D
330
1F8C
100
AcDbEntity
  8
0
  6
Continuous
 62
     7
370
    -3
100
AcDbLine
 10
906.0398278206163
 20
29.56749678173264
 30
0.0
 11
906.3691048821642
 21
29.81823069098437
 31
0.0
  0
LINE
  5
203E
330
1F8C
100
AcDbEntity
  8
0
  6
Continuous
 62
     7
370
    -3
100
AcDbLine
 10
906.3691048821642
 20
29.81823069098437
 30
0.0
 11
906.8403637959368
 21
29.91489918611705
 31
0.0
  0
LINE
  5
203F
330
1F8C
100
AcDbEntity
  8
0
  6
Continuous
 62
     7
370
    -3
100
AcDbLine
 10
906.8403637959368
 20
29.91489918611705
 30
0.0
 11
907.2632884621421
 21
29.81823069098437
 31
0.0
  0
LINE
  5
2040
330
1F8C
100
AcDbEntity
  8
0
  6
Continuous
 62
     7
370
    -3
100
AcDbLine
 10
907.2632884621421
 20
29.81823069098437
 30
0.0
 11
907.57141929038
 21
29.56749678173264
 31
0.0
  0
LINE
  5
2041
330
1F8C
100
AcDbEntity
  8
0
  6
Continuous
 62
     7
370
    -3
100
AcDbLine
 10
907.57141929038
 20
29.56749678173264
 30
0.0
 11
907.7828816234818
 21
29.19290636309279
 31
0.0
  0
LINE
  5
2042
330
1F8C
100
AcDbEntity
  8
0
  6
Continuous
 62
     7
370
    -3
100
AcDbLine
 10
907.7828816234818
 20
29.19290636309279
 30
0.0
 11
907.8886127900336
 21
28.73977279215842
 31
0.0
  0
LINE
  5
2043
330
1F8C
100
AcDbEntity
  8
0
  6
Continuous
 62
     7
370
    -3
100
AcDbLine
 10
907.8886127900336
 20
28.73977279215842
 30
0.0
 11
907.9278843661818
 21
28.24132586412861
 31
0.0
  0
LINE
  5
2044
330
1F8C
100
AcDbEntity
  8
0
  6
Continuous
 62
     7
370
    -3
100
AcDbLine
 10
907.9278843661818
 20
28.24132586412861
 30
0.0
 11
907.8886127900336
 21
27.73985804562699
 31
0.0
  0
LINE
  5
2045
330
1F8C
100
AcDbEntity
  8
0
  6
Continuous
 62
     7
370
    -3
100
AcDbLine
 10
907.8886127900336
 20
27.73985804562699
 30
0.0
 11
907.7828816234818
 21
27.28672447469262
 31
0.0
  0
LINE
  5
2046
330
1F8C
100
AcDbEntity
  8
0
  6
Continuous
 62
     7
370
    -3
100
AcDbLine
 10
907.7828816234818
 20
27.28672447469262
 30
0.0
 11
907.57141929038
 21
26.91213405605277
 31
0.0
  0
LINE
  5
2047
330
1F8C
100
AcDbEntity
  8
0
  6
Continuous
 62
     7
370
    -3
100
AcDbLine
 10
907.57141929038
 20
26.91213405605277
 30
0.0
 11
907.2632884621421
 21
26.66140014680105
 31
0.0
  0
LINE
  5
2048
330
1F8C
100
AcDbEntity
  8
0
  6
Continuous
 62
     7
370
    -3
100
AcDbLine
 10
907.2632884621421
 20
26.66140014680105
 30
0.0
 11
906.8403637959368
 21
26.56473165166835
 31
0.0
  0
LINE
  5
2049
330
1F8C
100
AcDbEntity
  8
0
  6
Continuous
 62
     7
370
    -3
100
AcDbLine
 10
906.8403637959368
 20
26.56473165166835
 30
0.0
 11
906.3691048821642
 21
26.66140014680105
 31
0.0
  0
LINE
  5
204A
330
1F8C
100
AcDbEntity
  8
0
  6
Continuous
 62
     7
370
    -3
100
AcDbLine
 10
906.3691048821642
 20
26.66140014680105
 30
0.0
 11
906.0398278206163
 21
26.91213405605277
 31
0.0
  0
LINE
  5
204B
330
1F8C
100
AcDbEntity
  8
0
  6
Continuous
 62
     7
370
    -3
100
AcDbLine
 10
906.0398278206163
 20
26.91213405605277
 30
0.0
 11
905.8374281589317
 21
27.28672447469262
 31
0.0
  0
LINE
  5
204C
330
1F8C
100
AcDbEntity
  8
0
  6
Continuous
 62
     7
370
    -3
100
AcDbLine
 10
905.8374281589317
 20
27.28672447469262
 30
0.0
 11
905.7226343209627
 21
27.73985804562699
 31
0.0
  0
LINE
  5
204D
330
1F8C
100
AcDbEntity
  8
0
  6
Continuous
 62
     7
370
    -3
100
AcDbLine
 10
905.7226343209627
 20
27.73985804562699
 30
0.0
 11
905.6954463067054
 21
28.24132586412861
 31
0.0
  0
LINE
  5
204E
330
1F8C
100
AcDbEntity
  8
0
  6
Continuous
 62
     7
370
    -3
100
AcDbLine
 10
903.2666503664918
 20
28.56758203520303
 30
0.0
 11
903.4327993425035
 21
28.96331868715288
 31
0.0
  0
LINE
  5
204F
330
1F8C
100
AcDbEntity
  8
0
  6
Continuous
 62
     7
370
    -3
100
AcDbLine
 10
903.4327993425035
 20
28.96331868715288
 30
0.0
 11
903.4901962614863
 21
29.49197451991177
 31
0.0
  0
LINE
  5
2050
330
1F8C
100
AcDbEntity
  8
0
  6
Continuous
 62
     7
370
    -3
100
AcDbLine
 10
903.4901962614863
 20
29.49197451991177
 30
0.0
 11
903.4116531091918
 21
30.059901928817
 31
0.0
  0
LINE
  5
2051
330
1F8C
100
AcDbEntity
  8
0
  6
Continuous
 62
     7
370
    -3
100
AcDbLine
 10
903.4116531091918
 20
30.059901928817
 30
0.0
 11
903.191128104671
 21
30.49188926644138
 31
0.0
  0
LINE
  5
2052
330
1F8C
100
AcDbEntity
  8
0
  6
Continuous
 62
     7
370
    -3
100
AcDbLine
 10
901.2184866258653
 20
25.53460800040785
 30
0.0
 11
902.2093387009777
 21
25.67961074310779
 31
0.0
  0
LINE
  5
2053
330
1F8C
100
AcDbEntity
  8
0
  6
Continuous
 62
     7
370
    -3
100
AcDbLine
 10
902.2093387009777
 20
25.67961074310779
 30
0.0
 11
902.8256003574483
 21
26.05420116174764
 31
0.0
  0
LINE
  5
2054
330
1F8C
100
AcDbEntity
  8
0
  6
Continuous
 62
     7
370
    -3
100
AcDbLine
 10
902.8256003574483
 20
26.05420116174764
 30
0.0
 11
903.1609191999418
 21
26.52546007552019
 31
0.0
  0
LINE
  5
2055
330
1F8C
100
AcDbEntity
  8
0
  6
Continuous
 62
     7
370
    -3
100
AcDbLine
 10
903.1609191999418
 20
26.52546007552019
 30
0.0
 11
903.2968592712208
 21
26.98765631787364
 31
0.0
  0
LINE
  5
2056
330
1F8C
100
AcDbEntity
  8
0
  6
Continuous
 62
     7
370
    -3
100
AcDbLine
 10
903.2968592712208
 20
26.98765631787364
 30
0.0
 11
903.32706817595
 21
27.33505872225805
 31
0.0
  0
LINE
  5
2057
330
1F8C
100
AcDbEntity
  8
0
  6
Continuous
 62
     7
370
    -3
100
AcDbLine
 10
903.32706817595
 20
27.33505872225805
 30
0.0
 11
902.6987229575865
 21
27.33505872225805
 31
0.0
  0
LINE
  5
2058
330
1F8C
100
AcDbEntity
  8
0
  6
Continuous
 62
     7
370
    -3
100
AcDbLine
 10
902.6987229575865
 20
27.33505872225805
 30
0.0
 11
902.0643359582759
 21
27.33505872225805
 31
0.0
  0
LINE
  5
2059
330
1F8C
100
AcDbEntity
  8
0
  6
Continuous
 62
     7
370
    -3
100
AcDbLine
 10
902.0643359582759
 20
27.33505872225805
 30
0.0
 11
902.0552732868587
 21
27.18099330814084
 31
0.0
  0
LINE
  5
205A
330
1F8C
100
AcDbEntity
  8
0
  6
Continuous
 62
     7
370
    -3
100
AcDbLine
 10
902.0552732868587
 20
27.18099330814084
 30
0.0
 11
902.0069390392931
 21
26.96953097503729
 31
0.0
  0
LINE
  5
205B
330
1F8C
100
AcDbEntity
  8
0
  6
Continuous
 62
     7
370
    -3
100
AcDbLine
 10
902.0069390392931
 20
26.96953097503729
 30
0.0
 11
901.8709989680106
 21
26.74900597051465
 31
0.0
  0
LINE
  5
205C
330
1F8C
100
AcDbEntity
  8
0
  6
Continuous
 62
     7
370
    -3
100
AcDbLine
 10
901.8709989680106
 20
26.74900597051465
 30
0.0
 11
901.6021397159242
 21
26.56473165166835
 31
0.0
  0
LINE
  5
205D
330
1F8C
100
AcDbEntity
  8
0
  6
Continuous
 62
     7
370
    -3
100
AcDbLine
 10
901.6021397159242
 20
26.56473165166835
 30
0.0
 11
901.1701523782981
 21
26.49827206126474
 31
0.0
  0
LINE
  5
205E
330
1F8C
100
AcDbEntity
  8
0
  6
Continuous
 62
     7
370
    -3
100
AcDbLine
 10
901.0040034022882
 20
27.68246112664247
 30
0.0
 11
901.3906773828207
 21
27.73985804562699
 31
0.0
  0
LINE
  5
205F
330
1F8C
100
AcDbEntity
  8
0
  6
Continuous
 62
     7
370
    -3
100
AcDbLine
 10
901.3906773828207
 20
27.73985804562699
 30
0.0
 11
901.7652678014606
 21
27.78819229319424
 31
0.0
  0
LINE
  5
2060
330
1F8C
100
AcDbEntity
  8
0
  6
Continuous
 62
     7
370
    -3
100
AcDbLine
 10
901.7652678014606
 20
27.78819229319424
 30
0.0
 11
902.1217328772623
 21
27.84558921217877
 31
0.0
  0
LINE
  5
2061
330
1F8C
100
AcDbEntity
  8
0
  6
Continuous
 62
     7
370
    -3
100
AcDbLine
 10
902.1217328772623
 20
27.84558921217877
 30
0.0
 11
902.4510099388084
 21
27.94225770731145
 31
0.0
  0
LINE
  5
2062
330
1F8C
100
AcDbEntity
  8
0
  6
Continuous
 62
     7
370
    -3
100
AcDbLine
 10
902.4510099388084
 20
27.94225770731145
 30
0.0
 11
902.7470572051539
 21
28.0872604500114
 31
0.0
  0
LINE
  5
2063
330
1F8C
100
AcDbEntity
  8
0
  6
Continuous
 62
     7
370
    -3
100
AcDbLine
 10
902.7470572051539
 20
28.0872604500114
 30
0.0
 11
903.0280000191329
 21
28.28663922122223
 31
0.0
  0
LINE
  5
2064
330
1F8C
100
AcDbEntity
  8
0
  6
Continuous
 62
     7
370
    -3
100
AcDbLine
 10
903.0280000191329
 20
28.28663922122223
 30
0.0
 11
903.2666503664918
 21
28.56758203520303
 31
0.0
  0
LINE
  5
2065
330
1F8C
100
AcDbEntity
  8
0
  6
Continuous
 62
     7
370
    -3
100
AcDbLine
 10
903.191128104671
 20
30.49188926644138
 30
0.0
 11
902.8256003574483
 21
30.80002009467762
 31
0.0
  0
LINE
  5
2066
330
1F8C
100
AcDbEntity
  8
0
  6
Continuous
 62
     7
370
    -3
100
AcDbLine
 10
902.8256003574483
 20
30.80002009467762
 30
0.0
 11
902.3422578817848
 21
30.97523174210664
 31
0.0
  0
LINE
  5
2067
330
1F8C
100
AcDbEntity
  8
0
  6
Continuous
 62
     7
370
    -3
100
AcDbLine
 10
902.3422578817848
 20
30.97523174210664
 30
0.0
 11
901.7471424586224
 21
31.03262866109117
 31
0.0
  0
LINE
  5
2068
330
1F8C
100
AcDbEntity
  8
0
  6
Continuous
 62
     7
370
    -3
100
AcDbLine
 10
901.7471424586224
 20
31.03262866109117
 30
0.0
 11
901.3997400542399
 21
30.98429441352573
 31
0.0
  0
LINE
  5
2069
330
1F8C
100
AcDbEntity
  8
0
  6
Continuous
 62
     7
370
    -3
100
AcDbLine
 10
901.3997400542399
 20
30.98429441352573
 30
0.0
 11
901.0734838831636
 21
30.86950057555487
 31
0.0
  0
LINE
  5
206A
330
1F8C
100
AcDbEntity
  8
0
  6
Continuous
 62
     7
370
    -3
100
AcDbLine
 10
901.3514058066725
 20
29.95417076226522
 30
0.0
 11
901.6504739634896
 21
29.93302452895523
 31
0.0
  0
LINE
  5
206B
330
1F8C
100
AcDbEntity
  8
0
  6
Continuous
 62
     7
370
    -3
100
AcDbLine
 10
901.6504739634896
 20
29.93302452895523
 30
0.0
 11
901.8800616394296
 21
29.86656493855162
 31
0.0
  0
LINE
  5
206C
330
1F8C
100
AcDbEntity
  8
0
  6
Continuous
 62
     7
370
    -3
100
AcDbLine
 10
901.8800616394296
 20
29.86656493855162
 30
0.0
 11
902.0552732868587
 21
29.75177110058075
 31
0.0
  0
LINE
  5
206D
330
1F8C
100
AcDbEntity
  8
0
  6
Continuous
 62
     7
370
    -3
100
AcDbLine
 10
902.0552732868587
 20
29.75177110058075
 30
0.0
 11
902.1519417819913
 21
29.57655945315173
 31
0.0
  0
LINE
  5
206E
330
1F8C
100
AcDbEntity
  8
0
  6
Continuous
 62
     7
370
    -3
100
AcDbLine
 10
902.1519417819913
 20
29.57655945315173
 30
0.0
 11
902.1881924676659
 21
29.32884643437365
 31
0.0
  0
LINE
  5
206F
330
1F8C
100
AcDbEntity
  8
0
  6
Continuous
 62
     7
370
    -3
100
AcDbLine
 10
902.1881924676659
 20
29.32884643437365
 30
0.0
 11
902.1700671248295
 21
29.16269745836371
 31
0.0
  0
LINE
  5
2070
330
1F8C
100
AcDbEntity
  8
0
  6
Continuous
 62
     7
370
    -3
100
AcDbLine
 10
902.1700671248295
 20
29.16269745836371
 30
0.0
 11
902.1126702058431
 21
29.03884094897558
 31
0.0
  0
LINE
  5
2071
330
1F8C
100
AcDbEntity
  8
0
  6
Continuous
 62
     7
370
    -3
100
AcDbLine
 10
902.1126702058431
 20
29.03884094897558
 30
0.0
 11
902.0462106154395
 21
28.9331097824238
 31
0.0
  0
LINE
  5
2072
330
1F8C
100
AcDbEntity
  8
0
  6
Continuous
 62
     7
370
    -3
100
AcDbLine
 10
902.0462106154395
 20
28.9331097824238
 30
0.0
 11
901.9767301345641
 21
28.86665019202019
 31
0.0
  0
LINE
  5
2073
330
1F8C
100
AcDbEntity
  8
0
  6
Continuous
 62
     7
370
    -3
100
AcDbLine
 10
901.9767301345641
 20
28.86665019202019
 30
0.0
 11
901.9193332155778
 21
28.81831594445293
 31
0.0
  0
LINE
  5
2074
330
1F8C
100
AcDbEntity
  8
0
  6
Continuous
 62
     7
370
    -3
100
AcDbLine
 10
901.9193332155778
 20
28.81831594445293
 30
0.0
 11
901.6202650587606
 21
28.67331320175481
 31
0.0
  0
LINE
  5
2075
330
1F8C
100
AcDbEntity
  8
0
  6
Continuous
 62
     7
370
    -3
100
AcDbLine
 10
901.6202650587606
 20
28.67331320175481
 30
0.0
 11
901.2758835448479
 21
28.6068536113512
 31
0.0
  0
CIRCLE
  5
2076
330
1F8C
100
AcDbEntity
  8
0
  6
Continuous
 62
     7
370
    -3
100
AcDbCircle
 10
900.0059112708591
 20
287.0000032197399
 30
0.0
 40
40.00000068123703
  0
CIRCLE
  5
2077
330
1F8C
100
AcDbEntity
  8
0
  6
Continuous
 62
     7
370
    -3
100
AcDbCircle
 10
900.0059112708591
 20
287.0000032197399
 30
0.0
 40
26.00000044280346
  0
ENDBLK
  5
207B
330
1F8C
100
AcDbEntity
  8
0
100
AcDbBlockEnd
  0
BLOCK
  5
2191
330
2168
100
AcDbEntity
  8
0
100
AcDbBlockBegin
  2
A$C657D58BB
 70
     0
 10
0.0
 20
0.0
 30
0.0
  3
A$C657D58BB
  1

  0
LINE
  5
2169
330
2168
100
AcDbEntity
  8
0
  6
Continuous
 62
     7
370
    -3
100
AcDbLine
 10
1800.01182612716
 20
5.00000321950938
 30
0.0
 11
1800.011826127158
 21
795.0000032195125
 31
0.0
  0
ARC
  5
216A
330
2168
100
AcDbEntity
  8
0
  6
Continuous
 62
     7
370
    -3
100
AcDbCircle
 10
1795.011826127159
 20
795.0000032195125
 30
0.0
 40
5.0
100
AcDbArc
 50
0.0
 51
90.0
  0
ARC
  5
216B
330
2168
100
AcDbEntity
  8
0
  6
Continuous
 62
     7
370
    -3
100
AcDbCircle
 10
1795.01182612716
 20
5.00000321950938
 30
0.0
 40
5.0
100
AcDbArc
 50
270.0
 51
0.0
  0
LINE
  5
216C
330
2168
100
AcDbEntity
  8
0
  6
Continuous
 62
     7
370
    -3
100
AcDbLine
 10
1795.01182612716
 20
0.0000032195102904
 30
0.0
 11
900.0059112708591
 21
0.0000032195102904
 31
0.0
  0
LINE
  5
216D
330
2168
100
AcDbEntity
  8
0
  6
Continuous
 62
     7
370
    -3
100
AcDbLine
 10
1795.011826127139
 20
800.0000032196336
 30
0.0
 11
900.0059112708591
 21
800.0000032196336
 31
0.0
  0
LINE
  5
216E
330
2168
100
AcDbEntity
  8
0
  6
Continuous
 62
     7
370
    -3
100
AcDbLine
 10
1712.126400546478
 20
148.3541134024899
 30
0.0
 11
1712.126400546478
 21
640.0000032195116
 31
0.0
  0
ARC
  5
216F
330
2168
100
AcDbEntity
  8
0
  6
Continuous
 62
     7
370
    -3
100
AcDbCircle
 10
1622.126400546479
 20
148.3541134024899
 30
0.0
 40
90.0
100
AcDbArc
 50
270.0
 51
0.0
  0
ARC
  5
2170
330
2168
100
AcDbEntity
  8
0
  6
Continuous
 62
     7
370
    -3
100
AcDbCircle
 10
1622.126400546479
 20
640.0000032195116
 30
0.0
 40
90.0
100
AcDbArc
 50
0.0
 51
90.0
  0
LINE
  5
2171
330
2168
100
AcDbEntity
  8
0
  6
Continuous
 62
     7
370
    -3
100
AcDbLine
 10
900.0059112708591
 20
122.5198065740414
 30
0.0
 11
1559.04182612713
 21
122.5198065740414
 31
0.0
  0
LINE
  5
2172
330
2168
100
AcDbEntity
  8
0
  6
Continuous
 62
     7
370
    -3
100
AcDbLine
 10
900.0059112708591
 20
157.9906410327594
 30
0.0
 11
1233.306758662781
 21
157.9906410327594
 31
0.0
  0
LINE
  5
2173
330
2168
100
AcDbEntity
  8
0
  6
Continuous
 62
     7
370
    -3
100
AcDbLine
 10
900.0059112708591
 20
666.5401951688941
 30
0.0
 11
1233.306758662781
 21
666.5401951688941
 31
0.0
  0
LINE
  5
2174
330
2168
100
AcDbEntity
  8
0
  6
Continuous
 62
     7
370
    -3
100
AcDbLine
 10
900.0059112708591
 20
730.0000032195116
 30
0.0
 11
1622.126400546479
 21
730.0000032195116
 31
0.0
  0
LINE
  5
2175
330
2168
100
AcDbEntity
  8
0
  6
Continuous
 62
     7
370
    -3
100
AcDbLine
 10
900.0059112708573
 20
58.35411340248993
 30
0.0
 11
1622.126400546479
 21
58.35411340248993
 31
0.0
  0
LINE
  5
2176
330
2168
100
AcDbEntity
  8
0
  6
Continuous
 62
     7
370
    -3
100
AcDbLine
 10
1659.041826127128
 20
409.5900006568667
 30
0.0
 11
1659.04182612713
 21
222.5198065740415
 31
0.0
  0
ARC
  5
2177
330
2168
100
AcDbEntity
  8
0
  6
Continuous
 62
     7
370
    -3
100
AcDbCircle
 10
1559.04182612713
 20
222.5198065740415
 30
0.0
 40
100.0
100
AcDbArc
 50
270.0
 51
0.0
  0
ARC
  5
2178
330
2168
100
AcDbEntity
  8
0
  6
Continuous
 62
     7
370
    -3
100
AcDbCircle
 10
1233.306758662781
 20
412.265418100827
 30
0.0
 40
254.274777068068
100
AcDbArc
 50
270.0
 51
90.0
  0
LINE
  5
2179
330
2168
100
AcDbEntity
  8
0
  6
Continuous
 62
     7
370
    -3
100
AcDbLine
 10
900.0059112708591
 20
90.80107951825267
 30
0.0
 11
956.0059112708591
 21
90.80107951825267
 31
0.0
  0
ELLIPSE
  5
217A
330
2168
100
AcDbEntity
  8
0
  6
Continuous
 62
     7
370
    -3
100
AcDbEllipse
 10
900.0059112708591
 20
90.80107951825358
 30
0.0
 11
26.0
 21
-0.0000000000000032
 31
0.0
210
0.0
220
0.0
230
1.0
 40
0.6527970143372911
 41
4.712388980384689
 42
7.853981633974482
  0
LINE
  5
217B
330
2168
100
AcDbEntity
  8
0
  6
Continuous
 62
     7
370
    -3
100
AcDbLine
 10
-0.0000035854427551
 20
5.00000321950938
 30
0.0
 11
-0.0000035854409361
 21
795.000003219513
 31
0.0
  0
ARC
  5
217C
330
2168
100
AcDbEntity
  8
0
  6
Continuous
 62
     7
370
    -3
100
AcDbCircle
 10
4.999996414559063
 20
795.000003219513
 30
0.0
 40
5.0
100
AcDbArc
 50
90.0
 51
180.0
  0
ARC
  5
217D
330
2168
100
AcDbEntity
  8
0
  6
Continuous
 62
     7
370
    -3
100
AcDbCircle
 10
4.999996414557244
 20
5.00000321950938
 30
0.0
 40
5.0
100
AcDbArc
 50
180.0
 51
270.0
  0
LINE
  5
217E
330
2168
100
AcDbEntity
  8
0
  6
Continuous
 62
     7
370
    -3
100
AcDbLine
 10
4.999996414557244
 20
0.0000032195102904
 30
0.0
 11
900.0059112708591
 21
0.0000032195102904
 31
0.0
  0
LINE
  5
217F
330
2168
100
AcDbEntity
  8
0
  6
Continuous
 62
     7
370
    -3
100
AcDbLine
 10
4.999996414579072
 20
800.0000032196336
 30
0.0
 11
900.0059112708591
 21
800.0000032196336
 31
0.0
  0
LINE
  5
2180
330
2168
100
AcDbEntity
  8
0
  6
Continuous
 62
     7
370
    -3
100
AcDbLine
 10
87.88542199523908
 20
148.3541134024899
 30
0.0
 11
87.88542199523908
 21
640.0000032195116
 31
0.0
  0
ARC
  5
2181
330
2168
100
AcDbEntity
  8
0
  6
Continuous
 62
     7
370
    -3
100
AcDbCircle
 10
177.8854219952391
 20
148.3541134024899
 30
0.0
 40
90.0
100
AcDbArc
 50
180.0
 51
270.0
  0
ARC
  5
2182
330
2168
100
AcDbEntity
  8
0
  6
Continuous
 62
     7
370
    -3
100
AcDbCircle
 10
177.8854219952391
 20
640.0000032195116
 30
0.0
 40
90.0
100
AcDbArc
 50
90.0
 51
180.0
  0
LINE
  5
2183
330
2168
100
AcDbEntity
  8
0
  6
Continuous
 62
     7
370
    -3
100
AcDbLine
 10
900.0059112708591
 20
122.5198065740414
 30
0.0
 11
240.9699964145875
 21
122.5198065740414
 31
0.0
  0
LINE
  5
2184
330
2168
100
AcDbEntity
  8
0
  6
Continuous
 62
     7
370
    -3
100
AcDbLine
 10
900.0059112708591
 20
157.9906410327594
 30
0.0
 11
566.7050638789369
 21
157.9906410327594
 31
0.0
  0
LINE
  5
2185
330
2168
100
AcDbEntity
  8
0
  6
Continuous
 62
     7
370
    -3
100
AcDbLine
 10
900.0059112708591
 20
666.5401951688941
 30
0.0
 11
566.7050638789369
 21
666.5401951688941
 31
0.0
  0
LINE
  5
2186
330
2168
100
AcDbEntity
  8
0
  6
Continuous
 62
     7
370
    -3
100
AcDbLine
 10
900.0059112708591
 20
730.0000032195116
 30
0.0
 11
177.8854219952391
 21
730.0000032195116
 31
0.0
  0
LINE
  5
2187
330
2168
100
AcDbEntity
  8
0
  6
Continuous
 62
     7
370
    -3
100
AcDbLine
 10
900.0059112708608
 20
58.35411340248993
 30
0.0
 11
177.8854219952391
 21
58.35411340248993
 31
0.0
  0
LINE
  5
2188
330
2168
100
AcDbEntity
  8
0
  6
Continuous
 62
     7
370
    -3
100
AcDbLine
 10
140.9699964145893
 20
409.5900006568667
 30
0.0
 11
140.9699964145875
 21
222.5198065740415
 31
0.0
  0
ARC
  5
2189
330
2168
100
AcDbEntity
  8
0
  6
Continuous
 62
     7
370
    -3
100
AcDbCircle
 10
240.9699964145875
 20
222.5198065740415
 30
0.0
 40
100.0
100
AcDbArc
 50
180.0
 51
270.0
  0
ARC
  5
218A
330
2168
100
AcDbEntity
  8
0
  6
Continuous
 62
     7
370
    -3
100
AcDbCircle
 10
566.7050638789369
 20
412.265418100827
 30
0.0
 40
254.274777068068
100
AcDbArc
 50
90.0
 51
270.0
  0
LINE
  5
218B
330
2168
100
AcDbEntity
  8
0
  6
Continuous
 62
     7
370
    -3
100
AcDbLine
 10
900.0059112708591
 20
90.80107951825267
 30
0.0
 11
844.005911270859
 21
90.80107951825267
 31
0.0
  0
ELLIPSE
  5
218C
330
2168
100
AcDbEntity
  8
0
  6
Continuous
 62
     7
370
    -3
100
AcDbEllipse
 10
900.0059112708591
 20
90.80107951825358
 30
0.0
 11
-26.0
 21
0.0000000000000032
 31
0.0
210
0.0
220
0.0
230
-1.0
 40
0.6527970143372911
 41
4.712388980384689
 42
7.853981633974482
  0
CIRCLE
  5
218D
330
2168
100
AcDbEntity
  8
0
  6
Continuous
 62
     7
370
    -3
100
AcDbCircle
 10
900.0059112708591
 20
287.0000032197399
 30
0.0
 40
40.00000068123703
  0
CIRCLE
  5
218E
330
2168
100
AcDbEntity
  8
0
  6
Continuous
 62
     7
370
    -3
100
AcDbCircle
 10
900.0059112708591
 20
287.0000032197399
 30
0.0
 40
26.00000044280346
  0
ENDBLK
  5
2192
330
2168
100
AcDbEntity
  8
0
100
AcDbBlockEnd
  0
BLOCK
  5
222A
330
2203
100
AcDbEntity
  8
0
100
AcDbBlockBegin
  2
A$C0832362E
 70
     0
 10
0.0
 20
0.0
 30
0.0
  3
A$C0832362E
  1

  0
LINE
  5
2204
330
2203
100
AcDbEntity
  8
0
  6
Continuous
 62
     7
370
    -3
100
AcDbLine
 10
1800.011834649248
 20
4.999999013095475
 30
0.0
 11
1800.011834649246
 21
794.9999990130987
 31
0.0
  0
ARC
  5
2205
330
2203
100
AcDbEntity
  8
0
  6
Continuous
 62
     7
370
    -3
100
AcDbCircle
 10
1795.011834649246
 20
794.9999990130987
 30
0.0
 40
5.0
100
AcDbArc
 50
0.0
 51
90.0
  0
ARC
  5
2206
330
2203
100
AcDbEntity
  8
0
  6
Continuous
 62
     7
370
    -3
100
AcDbCircle
 10
1795.011834649248
 20
4.999999013095475
 30
0.0
 40
5.0
100
AcDbArc
 50
270.0
 51
0.0
  0
LINE
  5
2207
330
2203
100
AcDbEntity
  8
0
  6
Continuous
 62
     7
370
    -3
100
AcDbLine
 10
1795.011834649248
 20
-0.0000009869036148
 30
0.0
 11
900.0059197929468
 21
-0.0000009869036148
 31
0.0
  0
LINE
  5
2208
330
2203
100
AcDbEntity
  8
0
  6
Continuous
 62
     7
370
    -3
100
AcDbLine
 10
1795.011834649226
 20
799.9999990132196
 30
0.0
 11
900.0059197929468
 21
799.9999990132196
 31
0.0
  0
LINE
  5
2209
330
2203
100
AcDbEntity
  8
0
  6
Continuous
 62
     7
370
    -3
100
AcDbLine
 10
1712.126409068566
 20
148.354109196076
 30
0.0
 11
1712.126409068566
 21
639.9999990130977
 31
0.0
  0
ARC
  5
220A
330
2203
100
AcDbEntity
  8
0
  6
Continuous
 62
     7
370
    -3
100
AcDbCircle
 10
1622.126409068566
 20
148.354109196076
 30
0.0
 40
90.0
100
AcDbArc
 50
270.0
 51
0.0
  0
ARC
  5
220B
330
2203
100
AcDbEntity
  8
0
  6
Continuous
 62
     7
370
    -3
100
AcDbCircle
 10
1622.126409068566
 20
639.9999990130977
 30
0.0
 40
90.0
100
AcDbArc
 50
0.0
 51
90.0
  0
LINE
  5
220C
330
2203
100
AcDbEntity
  8
0
  6
Continuous
 62
     7
370
    -3
100
AcDbLine
 10
900.0059197929468
 20
122.5198023676275
 30
0.0
 11
1559.041834649218
 21
122.5198023676275
 31
0.0
  0
LINE
  5
220D
330
2203
100
AcDbEntity
  8
0
  6
Continuous
 62
     7
370
    -3
100
AcDbLine
 10
900.0059197929468
 20
157.9906368263455
 30
0.0
 11
1233.306767184868
 21
157.9906368263455
 31
0.0
  0
LINE
  5
220E
330
2203
100
AcDbEntity
  8
0
  6
Continuous
 62
     7
370
    -3
100
AcDbLine
 10
900.0059197929468
 20
666.5401909624802
 30
0.0
 11
1233.306767184868
 21
666.5401909624802
 31
0.0
  0
LINE
  5
220F
330
2203
100
AcDbEntity
  8
0
  6
Continuous
 62
     7
370
    -3
100
AcDbLine
 10
900.0059197929468
 20
729.9999990130977
 30
0.0
 11
1622.126409068566
 21
729.9999990130977
 31
0.0
  0
LINE
  5
2210
330
2203
100
AcDbEntity
  8
0
  6
Continuous
 62
     7
370
    -3
100
AcDbLine
 10
900.0059197929449
 20
58.35410919607602
 30
0.0
 11
1622.126409068566
 21
58.35410919607602
 31
0.0
  0
LINE
  5
2211
330
2203
100
AcDbEntity
  8
0
  6
Continuous
 62
     7
370
    -3
100
AcDbLine
 10
1659.041834649216
 20
409.5899964504528
 30
0.0
 11
1659.041834649218
 21
222.5198023676276
 31
0.0
  0
ARC
  5
2212
330
2203
100
AcDbEntity
  8
0
  6
Continuous
 62
     7
370
    -3
100
AcDbCircle
 10
1559.041834649218
 20
222.5198023676276
 30
0.0
 40
100.0
100
AcDbArc
 50
270.0
 51
0.0
  0
ARC
  5
2213
330
2203
100
AcDbEntity
  8
0
  6
Continuous
 62
     7
370
    -3
100
AcDbCircle
 10
1233.306767184868
 20
412.265413894413
 30
0.0
 40
254.274777068068
100
AcDbArc
 50
270.0
 51
90.0
  0
ELLIPSE
  5
2214
330
2203
100
AcDbEntity
  8
0
  6
Continuous
 62
     7
370
    -3
100
AcDbEllipse
 10
900.0059197929468
 20
90.80107531183967
 30
0.0
 11
26.0
 21
-0.0000000000000032
 31
0.0
210
0.0
220
0.0
230
1.0
 40
0.6527970143372911
 41
4.712388980384689
 42
7.853981633974482
  0
LINE
  5
2215
330
2203
100
AcDbEntity
  8
0
  6
Continuous
 62
     7
370
    -3
100
AcDbLine
 10
0.0000049366453823
 20
4.999999013095475
 30
0.0
 11
0.0000049366472012
 21
794.9999990130991
 31
0.0
  0
ARC
  5
2216
330
2203
100
AcDbEntity
  8
0
  6
Continuous
 62
     7
370
    -3
100
AcDbCircle
 10
5.000004936647201
 20
794.9999990130991
 30
0.0
 40
5.0
100
AcDbArc
 50
90.0
 51
180.0
  0
ARC
  5
2217
330
2203
100
AcDbEntity
  8
0
  6
Continuous
 62
     7
370
    -3
100
AcDbCircle
 10
5.000004936645382
 20
4.999999013095475
 30
0.0
 40
5.0
100
AcDbArc
 50
180.0
 51
270.0
  0
LINE
  5
2218
330
2203
100
AcDbEntity
  8
0
  6
Continuous
 62
     7
370
    -3
100
AcDbLine
 10
5.000004936645382
 20
-0.0000009869036148
 30
0.0
 11
900.0059197929468
 21
-0.0000009869036148
 31
0.0
  0
LINE
  5
2219
330
2203
100
AcDbEntity
  8
0
  6
Continuous
 62
     7
370
    -3
100
AcDbLine
 10
5.00000493666721
 20
799.9999990132196
 30
0.0
 11
900.0059197929468
 21
799.9999990132196
 31
0.0
  0
LINE
  5
221A
330
2203
100
AcDbEntity
  8
0
  6
Continuous
 62
     7
370
    -3
100
AcDbLine
 10
87.88543051732721
 20
148.354109196076
 30
0.0
 11
87.88543051732721
 21
639.9999990130977
 31
0.0
  0
ARC
  5
221B
330
2203
100
AcDbEntity
  8
0
  6
Continuous
 62
     7
370
    -3
100
AcDbCircle
 10
177.8854305173272
 20
148.354109196076
 30
0.0
 40
90.0
100
AcDbArc
 50
180.0
 51
270.0
  0
ARC
  5
221C
330
2203
100
AcDbEntity
  8
0
  6
Continuous
 62
     7
370
    -3
100
AcDbCircle
 10
177.8854305173272
 20
639.9999990130977
 30
0.0
 40
90.0
100
AcDbArc
 50
90.0
 51
180.0
  0
LINE
  5
221D
330
2203
100
AcDbEntity
  8
0
  6
Continuous
 62
     7
370
    -3
100
AcDbLine
 10
900.0059197929468
 20
122.5198023676275
 30
0.0
 11
240.9700049366756
 21
122.5198023676275
 31
0.0
  0
LINE
  5
221E
330
2203
100
AcDbEntity
  8
0
  6
Continuous
 62
     7
370
    -3
100
AcDbLine
 10
900.0059197929468
 20
157.9906368263455
 30
0.0
 11
566.705072401025
 21
157.9906368263455
 31
0.0
  0
LINE
  5
221F
330
2203
100
AcDbEntity
  8
0
  6
Continuous
 62
     7
370
    -3
100
AcDbLine
 10
900.0059197929468
 20
666.5401909624802
 30
0.0
 11
566.705072401025
 21
666.5401909624802
 31
0.0
  0
LINE
  5
2220
330
2203
100
AcDbEntity
  8
0
  6
Continuous
 62
     7
370
    -3
100
AcDbLine
 10
900.0059197929468
 20
729.9999990130977
 30
0.0
 11
177.8854305173272
 21
729.9999990130977
 31
0.0
  0
LINE
  5
2221
330
2203
100
AcDbEntity
  8
0
  6
Continuous
 62
     7
370
    -3
100
AcDbLine
 10
900.0059197929486
 20
58.35410919607602
 30
0.0
 11
177.8854305173272
 21
58.35410919607602
 31
0.0
  0
LINE
  5
2222
330
2203
100
AcDbEntity
  8
0
  6
Continuous
 62
     7
370
    -3
100
AcDbLine
 10
140.9700049366774
 20
409.5899964504528
 30
0.0
 11
140.9700049366756
 21
222.5198023676276
 31
0.0
  0
ARC
  5
2223
330
2203
100
AcDbEntity
  8
0
  6
Continuous
 62
     7
370
    -3
100
AcDbCircle
 10
240.9700049366756
 20
222.5198023676276
 30
0.0
 40
100.0
100
AcDbArc
 50
180.0
 51
270.0
  0
ARC
  5
2224
330
2203
100
AcDbEntity
  8
0
  6
Continuous
 62
     7
370
    -3
100
AcDbCircle
 10
566.705072401025
 20
412.265413894413
 30
0.0
 40
254.274777068068
100
AcDbArc
 50
90.0
 51
270.0
  0
ELLIPSE
  5
2225
330
2203
100
AcDbEntity
  8
0
  6
Continuous
 62
     7
370
    -3
100
AcDbEllipse
 10
900.0059197929468
 20
90.80107531183967
 30
0.0
 11
-26.0
 21
0.0000000000000032
 31
0.0
210
0.0
220
0.0
230
-1.0
 40
0.6527970143372911
 41
4.712388980384689
 42
7.853981633974482
  0
CIRCLE
  5
2226
330
2203
100
AcDbEntity
  8
0
  6
Continuous
 62
     7
370
    -3
100
AcDbCircle
 10
900.0059197929468
 20
286.999999013326
 30
0.0
 40
40.00000068123703
  0
CIRCLE
  5
2227
330
2203
100
AcDbEntity
  8
0
  6
Continuous
 62
     7
370
    -3
100
AcDbCircle
 10
900.0059197929468
 20
286.999999013326
 30
0.0
 40
26.00000044280346
  0
ENDBLK
  5
222B
330
2203
100
AcDbEntity
  8
0
100
AcDbBlockEnd
  0
BLOCK
  5
2253
330
222C
100
AcDbEntity
  8
0
100
AcDbBlockBegin
  2
A$C345A067A
 70
     0
 10
0.0
 20
0.0
 30
0.0
  3
A$C345A067A
  1

  0
LINE
  5
222D
330
222C
100
AcDbEntity
  8
0
  6
Continuous
 62
     7
370
    -3
100
AcDbLine
 10
1800.011834649248
 20
4.999999013095475
 30
0.0
 11
1800.011834649246
 21
794.9999990130987
 31
0.0
  0
ARC
  5
222E
330
222C
100
AcDbEntity
  8
0
  6
Continuous
 62
     7
370
    -3
100
AcDbCircle
 10
1795.011834649246
 20
794.9999990130987
 30
0.0
 40
5.0
100
AcDbArc
 50
0.0
 51
90.0
  0
ARC
  5
222F
330
222C
100
AcDbEntity
  8
0
  6
Continuous
 62
     7
370
    -3
100
AcDbCircle
 10
1795.011834649248
 20
4.999999013095475
 30
0.0
 40
5.0
100
AcDbArc
 50
270.0
 51
0.0
  0
LINE
  5
2230
330
222C
100
AcDbEntity
  8
0
  6
Continuous
 62
     7
370
    -3
100
AcDbLine
 10
1795.011834649248
 20
-0.0000009869036148
 30
0.0
 11
900.0059197929468
 21
-0.0000009869036148
 31
0.0
  0
LINE
  5
2231
330
222C
100
AcDbEntity
  8
0
  6
Continuous
 62
     7
370
    -3
100
AcDbLine
 10
1795.011834649226
 20
799.9999990132196
 30
0.0
 11
900.0059197929468
 21
799.9999990132196
 31
0.0
  0
LINE
  5
2232
330
222C
100
AcDbEntity
  8
0
  6
Continuous
 62
     7
370
    -3
100
AcDbLine
 10
1712.126409068566
 20
148.354109196076
 30
0.0
 11
1712.126409068566
 21
639.9999990130977
 31
0.0
  0
ARC
  5
2233
330
222C
100
AcDbEntity
  8
0
  6
Continuous
 62
     7
370
    -3
100
AcDbCircle
 10
1622.126409068566
 20
148.354109196076
 30
0.0
 40
90.0
100
AcDbArc
 50
270.0
 51
0.0
  0
ARC
  5
2234
330
222C
100
AcDbEntity
  8
0
  6
Continuous
 62
     7
370
    -3
100
AcDbCircle
 10
1622.126409068566
 20
639.9999990130977
 30
0.0
 40
90.0
100
AcDbArc
 50
0.0
 51
90.0
  0
LINE
  5
2235
330
222C
100
AcDbEntity
  8
0
  6
Continuous
 62
     7
370
    -3
100
AcDbLine
 10
900.0059197929468
 20
122.5198023676275
 30
0.0
 11
1559.041834649218
 21
122.5198023676275
 31
0.0
  0
LINE
  5
2236
330
222C
100
AcDbEntity
  8
0
  6
Continuous
 62
     7
370
    -3
100
AcDbLine
 10
900.0059197929468
 20
157.9906368263455
 30
0.0
 11
1233.306767184868
 21
157.9906368263455
 31
0.0
  0
LINE
  5
2237
330
222C
100
AcDbEntity
  8
0
  6
Continuous
 62
     7
370
    -3
100
AcDbLine
 10
900.0059197929468
 20
666.5401909624802
 30
0.0
 11
1233.306767184868
 21
666.5401909624802
 31
0.0
  0
LINE
  5
2238
330
222C
100
AcDbEntity
  8
0
  6
Continuous
 62
     7
370
    -3
100
AcDbLine
 10
900.0059197929468
 20
729.9999990130977
 30
0.0
 11
1622.126409068566
 21
729.9999990130977
 31
0.0
  0
LINE
  5
2239
330
222C
100
AcDbEntity
  8
0
  6
Continuous
 62
     7
370
    -3
100
AcDbLine
 10
900.0059197929449
 20
58.35410919607602
 30
0.0
 11
1622.126409068566
 21
58.35410919607602
 31
0.0
  0
LINE
  5
223A
330
222C
100
AcDbEntity
  8
0
  6
Continuous
 62
     7
370
    -3
100
AcDbLine
 10
1659.041834649216
 20
409.5899964504528
 30
0.0
 11
1659.041834649218
 21
222.5198023676276
 31
0.0
  0
ARC
  5
223B
330
222C
100
AcDbEntity
  8
0
  6
Continuous
 62
     7
370
    -3
100
AcDbCircle
 10
1559.041834649218
 20
222.5198023676276
 30
0.0
 40
100.0
100
AcDbArc
 50
270.0
 51
0.0
  0
ARC
  5
223C
330
222C
100
AcDbEntity
  8
0
  6
Continuous
 62
     7
370
    -3
100
AcDbCircle
 10
1233.306767184868
 20
412.265413894413
 30
0.0
 40
254.274777068068
100
AcDbArc
 50
270.0
 51
90.0
  0
ELLIPSE
  5
223D
330
222C
100
AcDbEntity
  8
0
  6
Continuous
 62
     7
370
    -3
100
AcDbEllipse
 10
900.0059197929468
 20
90.80107531183967
 30
0.0
 11
26.0
 21
-0.0000000000000032
 31
0.0
210
0.0
220
0.0
230
1.0
 40
0.6527970143372911
 41
4.712388980384689
 42
7.853981633974482
  0
LINE
  5
223E
330
222C
100
AcDbEntity
  8
0
  6
Continuous
 62
     7
370
    -3
100
AcDbLine
 10
0.0000049366453823
 20
4.999999013095475
 30
0.0
 11
0.0000049366472012
 21
794.9999990130991
 31
0.0
  0
ARC
  5
223F
330
222C
100
AcDbEntity
  8
0
  6
Continuous
 62
     7
370
    -3
100
AcDbCircle
 10
5.000004936647201
 20
794.9999990130991
 30
0.0
 40
5.0
100
AcDbArc
 50
90.0
 51
180.0
  0
ARC
  5
2240
330
222C
100
AcDbEntity
  8
0
  6
Continuous
 62
     7
370
    -3
100
AcDbCircle
 10
5.000004936645382
 20
4.999999013095475
 30
0.0
 40
5.0
100
AcDbArc
 50
180.0
 51
270.0
  0
LINE
  5
2241
330
222C
100
AcDbEntity
  8
0
  6
Continuous
 62
     7
370
    -3
100
AcDbLine
 10
5.000004936645382
 20
-0.0000009869036148
 30
0.0
 11
900.0059197929468
 21
-0.0000009869036148
 31
0.0
  0
LINE
  5
2242
330
222C
100
AcDbEntity
  8
0
  6
Continuous
 62
     7
370
    -3
100
AcDbLine
 10
5.00000493666721
 20
799.9999990132196
 30
0.0
 11
900.0059197929468
 21
799.9999990132196
 31
0.0
  0
LINE
  5
2243
330
222C
100
AcDbEntity
  8
0
  6
Continuous
 62
     7
370
    -3
100
AcDbLine
 10
87.88543051732721
 20
148.354109196076
 30
0.0
 11
87.88543051732721
 21
639.9999990130977
 31
0.0
  0
ARC
  5
2244
330
222C
100
AcDbEntity
  8
0
  6
Continuous
 62
     7
370
    -3
100
AcDbCircle
 10
177.8854305173272
 20
148.354109196076
 30
0.0
 40
90.0
100
AcDbArc
 50
180.0
 51
270.0
  0
ARC
  5
2245
330
222C
100
AcDbEntity
  8
0
  6
Continuous
 62
     7
370
    -3
100
AcDbCircle
 10
177.8854305173272
 20
639.9999990130977
 30
0.0
 40
90.0
100
AcDbArc
 50
90.0
 51
180.0
  0
LINE
  5
2246
330
222C
100
AcDbEntity
  8
0
  6
Continuous
 62
     7
370
    -3
100
AcDbLine
 10
900.0059197929468
 20
122.5198023676275
 30
0.0
 11
240.9700049366756
 21
122.5198023676275
 31
0.0
  0
LINE
  5
2247
330
222C
100
AcDbEntity
  8
0
  6
Continuous
 62
     7
370
    -3
100
AcDbLine
 10
900.0059197929468
 20
157.9906368263455
 30
0.0
 11
566.705072401025
 21
157.9906368263455
 31
0.0
  0
LINE
  5
2248
330
222C
100
AcDbEntity
  8
0
  6
Continuous
 62
     7
370
    -3
100
AcDbLine
 10
900.0059197929468
 20
666.5401909624802
 30
0.0
 11
566.705072401025
 21
666.5401909624802
 31
0.0
  0
LINE
  5
2249
330
222C
100
AcDbEntity
  8
0
  6
Continuous
 62
     7
370
    -3
100
AcDbLine
 10
900.0059197929468
 20
729.9999990130977
 30
0.0
 11
177.8854305173272
 21
729.9999990130977
 31
0.0
  0
LINE
  5
224A
330
222C
100
AcDbEntity
  8
0
  6
Continuous
 62
     7
370
    -3
100
AcDbLine
 10
900.0059197929486
 20
58.35410919607602
 30
0.0
 11
177.8854305173272
 21
58.35410919607602
 31
0.0
  0
LINE
  5
224B
330
222C
100
AcDbEntity
  8
0
  6
Continuous
 62
     7
370
    -3
100
AcDbLine
 10
140.9700049366774
 20
409.5899964504528
 30
0.0
 11
140.9700049366756
 21
222.5198023676276
 31
0.0
  0
ARC
  5
224C
330
222C
100
AcDbEntity
  8
0
  6
Continuous
 62
     7
370
    -3
100
AcDbCircle
 10
240.9700049366756
 20
222.5198023676276
 30
0.0
 40
100.0
100
AcDbArc
 50
180.0
 51
270.0
  0
ARC
  5
224D
330
222C
100
AcDbEntity
  8
0
  6
Continuous
 62
     7
370
    -3
100
AcDbCircle
 10
566.705072401025
 20
412.265413894413
 30
0.0
 40
254.274777068068
100
AcDbArc
 50
90.0
 51
270.0
  0
ELLIPSE
  5
224E
330
222C
100
AcDbEntity
  8
0
  6
Continuous
 62
     7
370
    -3
100
AcDbEllipse
 10
900.0059197929468
 20
90.80107531183967
 30
0.0
 11
-26.0
 21
0.0000000000000032
 31
0.0
210
0.0
220
0.0
230
-1.0
 40
0.6527970143372911
 41
4.712388980384689
 42
7.853981633974482
  0
CIRCLE
  5
224F
330
222C
100
AcDbEntity
  8
0
  6
Continuous
 62
     7
370
    -3
100
AcDbCircle
 10
900.0059197929468
 20
286.999999013326
 30
0.0
 40
40.00000068123703
  0
CIRCLE
  5
2250
330
222C
100
AcDbEntity
  8
0
  6
Continuous
 62
     7
370
    -3
100
AcDbCircle
 10
900.0059197929468
 20
286.999999013326
 30
0.0
 40
26.00000044280346
  0
ENDBLK
  5
2254
330
222C
100
AcDbEntity
  8
0
100
AcDbBlockEnd
  0
BLOCK
  5
22AF
330
2291
100
AcDbEntity
  8
0
370
    -3
100
AcDbBlockBegin
  2
A$C3BC61417
 70
     0
 10
0.0
 20
0.0
 30
0.0
  3
A$C3BC61417
  1

  0
LINE
  5
2292
330
2291
100
AcDbEntity
  8
0
  6
Continuous
 62
     7
370
    -3
100
AcDbLine
 10
1713.126399561301
 20
149.354109807603
 30
0.0
 11
1713.126399561301
 21
640.9999996246247
 31
0.0
  0
ARC
  5
2293
330
2291
100
AcDbEntity
  8
0
  6
Continuous
 62
     7
370
    -3
100
AcDbCircle
 10
1623.126399561302
 20
149.354109807603
 30
0.0
 40
90.0
100
AcDbArc
 50
270.0
 51
0.0
  0
ARC
  5
2294
330
2291
100
AcDbEntity
  8
0
  6
Continuous
 62
     7
370
    -3
100
AcDbCircle
 10
1623.126399561302
 20
640.9999996246247
 30
0.0
 40
90.0
100
AcDbArc
 50
0.0
 51
90.0
  0
LINE
  5
2295
330
2291
100
AcDbEntity
  8
0
  6
Continuous
 62
     7
370
    -3
100
AcDbLine
 10
901.0059102856839
 20
123.5198029791545
 30
0.0
 11
1560.041825141955
 21
123.5198029791545
 31
0.0
  0
LINE
  5
2296
330
2291
100
AcDbEntity
  8
0
  6
Continuous
 62
     7
370
    -3
100
AcDbLine
 10
901.0059102856839
 20
158.9906374378725
 30
0.0
 11
1234.306757677605
 21
158.9906374378725
 31
0.0
  0
LINE
  5
2297
330
2291
100
AcDbEntity
  8
0
  6
Continuous
 62
     7
370
    -3
100
AcDbLine
 10
901.0059102856839
 20
667.5401915740072
 30
0.0
 11
1234.306757677605
 21
667.5401915740072
 31
0.0
  0
LINE
  5
2298
330
2291
100
AcDbEntity
  8
0
  6
Continuous
 62
     7
370
    -3
100
AcDbLine
 10
901.0059102856839
 20
730.9999996246247
 30
0.0
 11
1623.126399561302
 21
730.9999996246247
 31
0.0
  0
LINE
  5
2299
330
2291
100
AcDbEntity
  8
0
  6
Continuous
 62
     7
370
    -3
100
AcDbLine
 10
901.0059102856804
 20
59.35410980760304
 30
0.0
 11
1623.126399561302
 21
59.35410980760304
 31
0.0
  0
LINE
  5
229A
330
2291
100
AcDbEntity
  8
0
  6
Continuous
 62
     7
370
    -3
100
AcDbLine
 10
1660.041825141951
 20
410.5899970619798
 30
0.0
 11
1660.041825141955
 21
223.5198029791546
 31
0.0
  0
ARC
  5
229B
330
2291
100
AcDbEntity
  8
0
  6
Continuous
 62
     7
370
    -3
100
AcDbCircle
 10
1560.041825141955
 20
223.5198029791546
 30
0.0
 40
100.0
100
AcDbArc
 50
270.0
 51
0.0
  0
ARC
  5
229C
330
2291
100
AcDbEntity
  8
0
  6
Continuous
 62
     7
370
    -3
100
AcDbCircle
 10
1234.306757677605
 20
413.2654145059401
 30
0.0
 40
254.274777068068
100
AcDbArc
 50
270.0
 51
90.0
  0
ELLIPSE
  5
229D
330
2291
100
AcDbEntity
  8
0
  6
Continuous
 62
     7
370
    -3
100
AcDbEllipse
 10
901.0059102856839
 20
91.80107592336668
 30
0.0
 11
26.0
 21
-0.0000000000000032
 31
0.0
210
0.0
220
0.0
230
1.0
 40
0.6527970143372911
 41
4.712388980384689
 42
7.853981633974482
  0
LWPOLYLINE
  5
229E
330
2291
100
AcDbEntity
  8
0
  6
Continuous
 62
     7
370
    -3
100
AcDbPolyline
 90
        9
 70
     1
 43
2.0
 10
1801.011825141981
 20
795.9999996247465
 10
1801.011825141985
 20
5.999999624623399
 42
-0.4142135623730964
 10
1796.011825141985
 20
0.999999624623399
 10
5.999995429381669
 20
0.999999624623399
 42
-0.4142135623730958
 10
0.9999954293816699
 20
5.999999624622489
 10
0.9999954293834889
 20
795.9999996247465
 42
-0.4142135623730944
 10
5.999995429403497
 20
800.9999996247465
 10
901.0059102856839
 20
800.9999996247465
 10
1796.011825141982
 20
800.9999996247465
 42
-0.4142135623730938
  0
LINE
  5
229F
330
2291
100
AcDbEntity
  8
0
  6
Continuous
 62
     7
370
    -3
100
AcDbLine
 10
88.88542101006351
 20
149.354109807603
 30
0.0
 11
88.88542101006351
 21
640.9999996246247
 31
0.0
  0
ARC
  5
22A0
330
2291
100
AcDbEntity
  8
0
  6
Continuous
 62
     7
370
    -3
100
AcDbCircle
 10
178.8854210100635
 20
149.354109807603
 30
0.0
 40
90.0
100
AcDbArc
 50
180.0
 51
270.0
  0
ARC
  5
22A1
330
2291
100
AcDbEntity
  8
0
  6
Continuous
 62
     7
370
    -3
100
AcDbCircle
 10
178.8854210100635
 20
640.9999996246247
 30
0.0
 40
90.0
100
AcDbArc
 50
90.0
 51
180.0
  0
LINE
  5
22A2
330
2291
100
AcDbEntity
  8
0
  6
Continuous
 62
     7
370
    -3
100
AcDbLine
 10
901.0059102856839
 20
123.5198029791545
 30
0.0
 11
241.9699954294119
 21
123.5198029791545
 31
0.0
  0
LINE
  5
22A3
330
2291
100
AcDbEntity
  8
0
  6
Continuous
 62
     7
370
    -3
100
AcDbLine
 10
901.0059102856839
 20
158.9906374378725
 30
0.0
 11
567.7050628937613
 21
158.9906374378725
 31
0.0
  0
LINE
  5
22A4
330
2291
100
AcDbEntity
  8
0
  6
Continuous
 62
     7
370
    -3
100
AcDbLine
 10
901.0059102856839
 20
667.5401915740072
 30
0.0
 11
567.7050628937613
 21
667.5401915740072
 31
0.0
  0
LINE
  5
22A5
330
2291
100
AcDbEntity
  8
0
  6
Continuous
 62
     7
370
    -3
100
AcDbLine
 10
901.0059102856839
 20
730.9999996246247
 30
0.0
 11
178.8854210100635
 21
730.9999996246247
 31
0.0
  0
LINE
  5
22A6
330
2291
100
AcDbEntity
  8
0
  6
Continuous
 62
     7
370
    -3
100
AcDbLine
 10
901.0059102856839
 20
59.35410980760304
 30
0.0
 11
178.8854210100635
 21
59.35410980760304
 31
0.0
  0
LINE
  5
22A7
330
2291
100
AcDbEntity
  8
0
  6
Continuous
 62
     7
370
    -3
100
AcDbLine
 10
141.9699954294137
 20
410.5899970619798
 30
0.0
 11
141.9699954294119
 21
223.5198029791546
 31
0.0
  0
ARC
  5
22A8
330
2291
100
AcDbEntity
  8
0
  6
Continuous
 62
     7
370
    -3
100
AcDbCircle
 10
241.9699954294119
 20
223.5198029791546
 30
0.0
 40
100.0
100
AcDbArc
 50
180.0
 51
270.0
  0
ARC
  5
22A9
330
2291
100
AcDbEntity
  8
0
  6
Continuous
 62
     7
370
    -3
100
AcDbCircle
 10
567.7050628937613
 20
413.2654145059401
 30
0.0
 40
254.274777068068
100
AcDbArc
 50
90.0
 51
270.0
  0
ELLIPSE
  5
22AA
330
2291
100
AcDbEntity
  8
0
  6
Continuous
 62
     7
370
    -3
100
AcDbEllipse
 10
901.0059102856839
 20
91.80107592336668
 30
0.0
 11
-26.0
 21
0.0000000000000032
 31
0.0
210
0.0
220
0.0
230
-1.0
 40
0.6527970143372911
 41
4.712388980384689
 42
7.853981633974482
  0
CIRCLE
  5
22AB
330
2291
100
AcDbEntity
  8
0
  6
Continuous
 62
     7
370
    -3
100
AcDbCircle
 10
901.0059102856839
 20
287.999999624853
 30
0.0
 40
40.00000068123703
  0
CIRCLE
  5
22AC
330
2291
100
AcDbEntity
  8
0
  6
Continuous
 62
     7
370
    -3
100
AcDbCircle
 10
901.0059102856839
 20
287.999999624853
 30
0.0
 40
26.00000044280346
  0
ENDBLK
  5
22B0
330
2291
100
AcDbEntity
  8
0
370
    -3
100
AcDbBlockEnd
  0
ENDSEC
  0
SECTION
  2
ENTITIES
  0
INSERT
  5
22B1
330
37
100
AcDbEntity
  8
0
  6
Continuous
 62
     7
370
    -3
100
AcDbBlockReference
  2
A$C3BC61417
 10
8303.07346688942
 20
-414.3807929050754
 30
0.0
  0
ENDSEC
  0
SECTION
  2
OBJECTS
  0
DICTIONARY
  5
C
330
0
100
AcDbDictionary
281
     1
  3
ACAD_2007HEADERVARS_RT
350
22BB
  3
ACAD_COLOR
350
30
  3
ACAD_GROUP
350
D
  3
ACAD_LAYOUT
350
2F
  3
ACAD_MATERIAL
350
10
  3
ACAD_MLINESTYLE
350
2C
  3
ACAD_PLOTSETTINGS
350
2E
  3
ACAD_PLOTSTYLENAME
350
E
  3
ACAD_TABLESTYLE
350
31
  3
ACAD_VBA
350
21DB
  3
ACAD_VISUALSTYLE
350
14
  3
AcDbVariableDictionary
350
EFC
  3
ASE_INDEX_DICTIONARY
350
2196
  3
DWGPROPS
350
22BA
  0
DICTIONARY
  5
219B
330
8
100
AcDbDictionary
280
     1
281
     1
  0
DICTIONARY
  5
F45
330
2
100
AcDbDictionary
280
     1
281
     1
  3
ACAD_LAYERFILTERS
360
1F79
  3
ACAD_LAYERSTATES
360
F46
  3
ACLYDICTIONARY
360
1F78
  0
DICTIONARY
  5
160E
330
37
100
AcDbDictionary
280
     1
281
     1
  3
ACAD_SORTENTS
360
160F
  0
DICTIONARY
  5
2078
330
1F8C
100
AcDbDictionary
280
     1
281
     1
  3
ACAD_SORTENTS
360
2079
  0
DICTIONARY
  5
218F
330
2168
100
AcDbDictionary
280
     1
281
     1
  3
ACAD_SORTENTS
360
2190
  0
DICTIONARY
  5
2228
330
2203
100
AcDbDictionary
280
     1
281
     1
  3
ACAD_SORTENTS
360
2229
  0
DICTIONARY
  5
2251
330
222C
100
AcDbDictionary
280
     1
281
     1
  3
ACAD_SORTENTS
360
2252
  0
DICTIONARY
  5
22AD
330
2291
100
AcDbDictionary
280
     1
281
     1
  3
ACAD_SORTENTS
360
22AE
  0
DICTIONARY
  5
22BB
102
{ACAD_REACTORS
330
C
102
}
330
C
100
AcDbDictionary
281
     1
  3
DIMJOGANG
350
22BC
  0
DICTIONARY
  5
30
102
{ACAD_REACTORS
330
C
102
}
330
C
100
AcDbDictionary
281
     1
  0
DICTIONARY
  5
D
102
{ACAD_REACTORS
330
C
102
}
330
C
100
AcDbDictionary
281
     1
  0
DICTIONARY
  5
2F
102
{ACAD_REACTORS
330
C
102
}
330
C
100
AcDbDictionary
281
     1
  3
Model
350
3A
  3
Presentación1
350
36
  3
Presentación2
350
3E
  0
DICTIONARY
  5
10
102
{ACAD_REACTORS
330
C
102
}
330
C
100
AcDbDictionary
281
     1
  3
ByBlock
350
12
  3
ByLayer
350
11
  3
Global
350
13
  0
DICTIONARY
  5
2C
102
{ACAD_REACTORS
330
C
102
}
330
C
100
AcDbDictionary
281
     1
  3
Standard
350
2D
  0
DICTIONARY
  5
2E
102
{ACAD_REACTORS
330
C
102
}
330
C
100
AcDbDictionary
281
     1
  0
ACDBDICTIONARYWDFLT
  5
E
102
{ACAD_REACTORS
330
C
102
}
330
C
100
AcDbDictionary
281
     1
  3
Normal
350
F
100
AcDbDictionaryWithDefault
340
F
  0
DICTIONARY
  5
31
102
{ACAD_REACTORS
330
C
102
}
330
C
100
AcDbDictionary
281
     1
  3
Standard
350
32
  0
DICTIONARY
  5
21DB
102
{ACAD_REACTORS
330
C
102
}
330
C
100
AcDbDictionary
281
     1
  3
VBAProject
350
21DC
  0
DICTIONARY
  5
14
102
{ACAD_REACTORS
330
C
102
}
330
C
100
AcDbDictionary
281
     1
  3
2dWireframe
350
1A
  3
3D Hidden
350
1C
  3
3dWireframe
350
1B
  3
Basic
350
19
  3
Brighten
350
20
  3
ColorChange
350
24
  3
Conceptual
350
1D
  3
Dim
350
1F
  3
Facepattern
350
23
  3
Flat
350
15
  3
FlatWithEdges
350
16
  3
Gouraud
350
17
  3
GouraudWithEdges
350
18
  3
Linepattern
350
22
  3
Realistic
350
1E
  3
Thicken
350
21
  0
DICTIONARY
  5
EFC
102
{ACAD_REACTORS
330
C
102
}
330
C
100
AcDbDictionary
281
     1
  3
CTABLESTYLE
350
EFD
  3
DIMASSOC
350
21C3
  3
HIDETEXT
350
21C2
  3
INDEXCTL
350
21C1
  3
SORTENTS
350
21C0
  0
DICTIONARY
  5
2196
102
{ACAD_REACTORS
330
C
102
}
330
C
100
AcDbDictionary
281
     1
  3
ASEBlockHierarchyIndexRecord
350
2197
1001
DCO15
1040
1636787056.25
  0
XRECORD
  5
22BA
102
{ACAD_REACTORS
330
C
102
}
330
C
100
AcDbXrecord
280
     1
  1
DWGPROPS COOKIE
  2

  3

  4

  6

  7

  8
G0864
  9

300
=
301
=
302
=
303
=
304
=
305
=
306
=
307
=
308
=
309
=
 40
0.2629647800925926
 41
2454650.422186227
 42
2454785.453617801
  1

 90
        0
  0
DICTIONARY
  5
1F79
102
{ACAD_REACTORS
330
F45
102
}
330
F45
100
AcDbDictionary
281
     1
  0
DICTIONARY
  5
F46
102
{ACAD_REACTORS
330
F45
102
}
330
F45
100
AcDbDictionary
281
     1
  0
DICTIONARY
  5
1F78
102
{ACAD_REACTORS
330
F45
102
}
330
F45
100
AcDbDictionary
281
     1
1001
ACAD
1000
<All
  0
SORTENTSTABLE
  5
160F
102
{ACAD_REACTORS
330
160E
102
}
330
160E
100
AcDbSortentsTable
330
37
  0
SORTENTSTABLE
  5
2079
102
{ACAD_REACTORS
330
2078
102
}
330
2078
100
AcDbSortentsTable
330
1F8C
  0
SORTENTSTABLE
  5
2190
102
{ACAD_REACTORS
330
218F
102
}
330
218F
100
AcDbSortentsTable
330
2168
  0
SORTENTSTABLE
  5
2229
102
{ACAD_REACTORS
330
2228
102
}
330
2228
100
AcDbSortentsTable
330
2203
  0
SORTENTSTABLE
  5
2252
102
{ACAD_REACTORS
330
2251
102
}
330
2251
100
AcDbSortentsTable
330
222C
  0
SORTENTSTABLE
  5
22AE
102
{ACAD_REACTORS
330
22AD
102
}
330
22AD
100
AcDbSortentsTable
330
2291
  0
XRECORD
  5
22BC
102
{ACAD_REACTORS
330
22BB
102
}
330
22BB
100
AcDbXrecord
280
     1
 40
1.570796326794896
  0
LAYOUT
  5
3A
102
{ACAD_XDICTIONARY
360
22C7
102
}
102
{ACAD_REACTORS
330
2F
102
}
330
2F
100
AcDbPlotSettings
  1

  2
\\CERAMICAS_GALA\PRT_BANYERAS_SAT.ZPRINTERS.BURGOS
  4
A4
  6

 40
4.222749710083007
 41
12.43539142608642
 42
4.180404663085937
 43
3.17498779296875
 44
209.9733276367187
 45
296.9683227539062
 46
0.0
 47
0.0
 48
0.0
 49
0.0
140
0.0
141
0.0
142
1.0
143
16.44209000899279
 70
 11952
 72
     1
 73
     1
 74
     0
  7
gala_laser.ctb
 75
     0
147
0.0608195186532286
148
-4233.520575633993
149
-67.83625037073012
100
AcDbLayout
  1
Model
 70
     1
 71
     0
 10
0.0
 20
0.0
 11
12.0
 21
9.0
 12
0.0
 22
0.0
 32
0.0
 14
0.0
 24
0.0
 34
0.0
 15
0.0
 25
0.0
 35
0.0
146
0.0
 13
0.0
 23
0.0
 33
0.0
 16
1.0
 26
0.0
 36
0.0
 17
0.0
 27
1.0
 37
0.0
 76
     0
330
37
331
28
1001
ACAD_PSEXT
1000
\\CERAMICAS_GALA\PRT_BANYERAS_SAT.ZPRINTERS.BURGOS
1000

1000
\\NDPS03
1000

1070
     0
  0
LAYOUT
  5
36
102
{ACAD_XDICTIONARY
360
22C5
102
}
102
{ACAD_REACTORS
330
2F
102
}
330
2F
100
AcDbPlotSettings
  1

  2
\\CERAMICAS_GALA\PRT_BANYERAS_SAT.ZPRINTERS.BURGOS
  4

  6

 40
0.0
 41
0.0
 42
0.0
 43
0.0
 44
0.0
 45
0.0
 46
0.0
 47
0.0
 48
0.0
 49
0.0
140
0.0
141
0.0
142
1.0
143
1.0
 70
   688
 72
     0
 73
     0
 74
     5
  7
gala_laser.ctb
 75
    16
147
1.0
148
0.0
149
0.0
100
AcDbLayout
  1
Presentación1
 70
     1
 71
     1
 10
0.0
 20
0.0
 11
420.0
 21
297.0
 12
0.0
 22
0.0
 32
0.0
 14
1.000000000000000E+20
 24
1.000000000000000E+20
 34
1.000000000000000E+20
 15
-1.000000000000000E+20
 25
-1.000000000000000E+20
 35
-1.000000000000000E+20
146
0.0
 13
0.0
 23
0.0
 33
0.0
 16
1.0
 26
0.0
 36
0.0
 17
0.0
 27
1.0
 37
0.0
 76
     0
330
33
  0
LAYOUT
  5
3E
102
{ACAD_XDICTIONARY
360
22C9
102
}
102
{ACAD_REACTORS
330
2F
102
}
330
2F
100
AcDbPlotSettings
  1

  2
\\CERAMICAS_GALA\PRT_BANYERAS_SAT.ZPRINTERS.BURGOS
  4

  6

 40
0.0
 41
0.0
 42
0.0
 43
0.0
 44
0.0
 45
0.0
 46
0.0
 47
0.0
 48
0.0
 49
0.0
140
0.0
141
0.0
142
1.0
143
1.0
 70
   688
 72
     0
 73
     0
 74
     5
  7
gala_laser.ctb
 75
    16
147
1.0
148
0.0
149
0.0
100
AcDbLayout
  1
Presentación2
 70
     1
 71
     2
 10
0.0
 20
0.0
 11
12.0
 21
9.0
 12
0.0
 22
0.0
 32
0.0
 14
0.0
 24
0.0
 34
0.0
 15
0.0
 25
0.0
 35
0.0
146
0.0
 13
0.0
 23
0.0
 33
0.0
 16
1.0
 26
0.0
 36
0.0
 17
0.0
 27
1.0
 37
0.0
 76
     0
330
3B
  0
MATERIAL
  5
12
102
{ACAD_XDICTIONARY
360
22BF
102
}
102
{ACAD_REACTORS
330
10
102
}
330
10
100
AcDbMaterial
  1
ByBlock
  0
MATERIAL
  5
11
102
{ACAD_XDICTIONARY
360
22BD
102
}
102
{ACAD_REACTORS
330
10
102
}
330
10
100
AcDbMaterial
  1
ByLayer
  0
MATERIAL
  5
13
102
{ACAD_XDICTIONARY
360
22C1
102
}
102
{ACAD_REACTORS
330
10
102
}
330
10
100
AcDbMaterial
  1
Global
  0
MLINESTYLE
  5
2D
102
{ACAD_REACTORS
330
2C
102
}
330
2C
100
AcDbMlineStyle
  2
STANDARD
 70
     0
  3

 62
   256
 51
90.0
 52
90.0
 71
     2
 49
0.5
 62
   256
  6
BYLAYER
 49
-0.5
 62
   256
  6
BYLAYER
  0
ACDBPLACEHOLDER
  5
F
102
{ACAD_REACTORS
330
E
102
}
330
E
  0
TABLESTYLE
  5
32
102
{ACAD_XDICTIONARY
360
22C3
102
}
102
{ACAD_REACTORS
330
31
102
}
330
31
100
AcDbTableStyle
  3
Standard
 70
     0
 71
     0
 40
1.5
 41
1.5
280
     0
281
     0
  7
Standard
140
4.5
170
     2
 62
     0
 63
     7
283
     0
274
    -2
284
     1
 64
     0
275
    -2
285
     1
 65
     0
276
    -2
286
     1
 66
     0
277
    -2
287
     1
 67
     0
278
    -2
288
     1
 68
     0
279
    -2
289
     1
 69
     0
  7
Standard
140
6.0
170
     5
 62
     0
 63
     7
283
     0
274
    -2
284
     1
 64
     0
275
    -2
285
     1
 65
     0
276
    -2
286
     1
 66
     0
277
    -2
287
     1
 67
     0
278
    -2
288
     1
 68
     0
279
    -2
289
     1
 69
     0
  7
Standard
140
4.5
170
     5
 62
     0
 63
     7
283
     0
274
    -2
284
     1
 64
     0
275
    -2
285
     1
 65
     0
276
    -2
286
     1
 66
     0
277
    -2
287
     1
 67
     0
278
    -2
288
     1
 68
     0
279
    -2
289
     1
 69
     0
  0
VBA_PROJECT
  5
21DC
102
{ACAD_REACTORS
330
21DB
102
}
330
21DB
100
AcDbVbaProject
 90
     7168
310
D0CF11E0A1B11AE1000000000000000000000000000000003E000300FEFF0900060000000000000000000000010000000100000000000000001000000200000001000000FEFFFFFF0000000000000000FFFFFFFFFFFFFFFFFFFFFFFFFFFFFFFFFFFFFFFFFFFFFFFFFFFFFFFFFFFFFFFFFFFFFFFFFFFFFFFFFFFFFFFFFFFFFF
310
FFFFFFFFFFFFFFFFFFFFFFFFFFFFFFFFFFFFFFFFFFFFFFFFFFFFFFFFFFFFFFFFFFFFFFFFFFFFFFFFFFFFFFFFFFFFFFFFFFFFFFFFFFFFFFFFFFFFFFFFFFFFFFFFFFFFFFFFFFFFFFFFFFFFFFFFFFFFFFFFFFFFFFFFFFFFFFFFFFFFFFFFFFFFFFFFFFFFFFFFFFFFFFFFFFFFFFFFFFFFFFFFFFFFFFFFFFFFFFFFFFFFFFFFFFFFFF
310
FFFFFFFFFFFFFFFFFFFFFFFFFFFFFFFFFFFFFFFFFFFFFFFFFFFFFFFFFFFFFFFFFFFFFFFFFFFFFFFFFFFFFFFFFFFFFFFFFFFFFFFFFFFFFFFFFFFFFFFFFFFFFFFFFFFFFFFFFFFFFFFFFFFFFFFFFFFFFFFFFFFFFFFFFFFFFFFFFFFFFFFFFFFFFFFFFFFFFFFFFFFFFFFFFFFFFFFFFFFFFFFFFFFFFFFFFFFFFFFFFFFFFFFFFFFFFF
310
FFFFFFFFFFFFFFFFFFFFFFFFFFFFFFFFFFFFFFFFFFFFFFFFFFFFFFFFFFFFFFFFFFFFFFFFFFFFFFFFFFFFFFFFFFFFFFFFFFFFFFFFFFFFFFFFFFFFFFFFFFFFFFFFFFFFFFFFFFFFFFFFFFFFFFFFFFFFFFFFFFFFFFFFFFFFFFFFFFFFFFFFFFFFFFFFFFFFFFFFFFFFFFFFFFFFFFFFFFFFFFFFFFFFFFFFFFFFFFFFFFFFFFFFFFFFFF
310
FFFFFFFFFDFFFFFF04000000FEFFFFFF050000000B000000060000000700000008000000090000000A0000000C000000FEFFFFFFFEFFFFFFFFFFFFFFFFFFFFFFFFFFFFFFFFFFFFFFFFFFFFFFFFFFFFFFFFFFFFFFFFFFFFFFFFFFFFFFFFFFFFFFFFFFFFFFFFFFFFFFFFFFFFFFFFFFFFFFFFFFFFFFFFFFFFFFFFFFFFFFFFFFFF
310
FFFFFFFFFFFFFFFFFFFFFFFFFFFFFFFFFFFFFFFFFFFFFFFFFFFFFFFFFFFFFFFFFFFFFFFFFFFFFFFFFFFFFFFFFFFFFFFFFFFFFFFFFFFFFFFFFFFFFFFFFFFFFFFFFFFFFFFFFFFFFFFFFFFFFFFFFFFFFFFFFFFFFFFFFFFFFFFFFFFFFFFFFFFFFFFFFFFFFFFFFFFFFFFFFFFFFFFFFFFFFFFFFFFFFFFFFFFFFFFFFFFFFFFFFFFFFF
310
FFFFFFFFFFFFFFFFFFFFFFFFFFFFFFFFFFFFFFFFFFFFFFFFFFFFFFFFFFFFFFFFFFFFFFFFFFFFFFFFFFFFFFFFFFFFFFFFFFFFFFFFFFFFFFFFFFFFFFFFFFFFFFFFFFFFFFFFFFFFFFFFFFFFFFFFFFFFFFFFFFFFFFFFFFFFFFFFFFFFFFFFFFFFFFFFFFFFFFFFFFFFFFFFFFFFFFFFFFFFFFFFFFFFFFFFFFFFFFFFFFFFFFFFFFFFFF
310
FFFFFFFFFFFFFFFFFFFFFFFFFFFFFFFFFFFFFFFFFFFFFFFFFFFFFFFFFFFFFFFFFFFFFFFFFFFFFFFFFFFFFFFFFFFFFFFFFFFFFFFFFFFFFFFFFFFFFFFFFFFFFFFFFFFFFFFFFFFFFFFFFFFFFFFFFFFFFFFFFFFFFFFFFFFFFFFFFFFFFFFFFFFFFFFFFFFFFFFFFFFFFFFFFFFFFFFFFFFFFFFFFFFFFFFFFFFFFFFFFFFFFFFFFFFFFF
310
FFFFFFFFFFFFFFFF52006F006F007400200045006E00740072007900000000000000000000000000000000000000000000000000000000000000000000000000000000000000000016000500FFFFFFFFFFFFFFFF01000000000000000000000000000000000000000000000000000000000000001061ACCE3E46C901030000
310
00400E0000000000005600420041005F00500072006F006A0065006300740000000000000000000000000000000000000000000000000000000000000000000000000000000000000018000101FFFFFFFF080000000600000000000000000000000000000000000000000000001061ACCE3E46C9011061ACCE3E46C9010000
310
000000000000000000005600420041000000000000000000000000000000000000000000000000000000000000000000000000000000000000000000000000000000000000000000000008000100FFFFFFFFFFFFFFFF0400000000000000000000000000000000000000000000001061ACCE3E46C9011061ACCE3E46C90100
310
00000000000000000000006400690072000000000000000000000000000000000000000000000000000000000000000000000000000000000000000000000000000000000000000000000008000200FFFFFFFFFFFFFFFFFFFFFFFF000000000000000000000000000000000000000000000000000000000000000000000000
310
000000003C0100000000000001000000020000000300000004000000FEFFFFFF060000000700000008000000090000000A0000000B0000000C0000000D0000000E0000000F0000001000000011000000120000001300000014000000FEFFFFFF160000001700000018000000190000001A0000001B0000001C0000001D0000
310
001E0000001F000000200000002100000022000000230000002400000025000000260000002700000028000000290000002A0000002B0000002C0000002D0000002E0000002F0000003000000031000000FEFFFFFF33000000340000003500000036000000FEFFFFFFFEFFFFFFFEFFFFFFFFFFFFFFFFFFFFFFFFFFFFFFFFFF
310
FFFFFFFFFFFFFFFFFFFFFFFFFFFFFFFFFFFFFFFFFFFFFFFFFFFFFFFFFFFFFFFFFFFFFFFFFFFFFFFFFFFFFFFFFFFFFFFFFFFFFFFFFFFFFFFFFFFFFFFFFFFFFFFFFFFFFFFFFFFFFFFFFFFFFFFFFFFFFFFFFFFFFFFFFFFFFFFFFFFFFFFFFFFFFFFFFFFFFFFFFFFFFFFFFFFFFFFFFFFFFFFFFFFFFFFFFFFFFFFFFFFFFFFFFFFFFF
310
FFFFFFFFFFFFFFFFFFFFFFFFFFFFFFFFFFFFFFFFFFFFFFFFFFFFFFFFFFFFFFFFFFFFFFFFFFFFFFFFFFFFFFFFFFFFFFFFFFFFFFFFFFFFFFFFFFFFFFFFFFFFFFFFFFFFFFFFFFFFFFFFFFFFFFFFFFFFFFFFFFFFFFFFFFFFFFFFFFFFFFFFFFFFFFFFFFFFFFFFFFFFFFFFFFFFFFFFFFFFFFFFFFFFFFFFFFFFFFFFFFFFFFFFFFFFFF
310
FFFFFFFFFFFFFFFFFFFFFFFFFFFFFFFF0138B1800100040000000100302A020290090070140648030082020064E40404000B001C004143414450726F6A10656374050038000040D5021406020A3D020A07027401140A0806120902123AFB9F4A2811000C024A3C020A16000101727374646F6C653E0102197300740064006F
310
00006C0065000D00680500255E00032A5C477B3000303032303433302D3B0008040443000A020E011230300034367D23322E3023003023433A5C57494E00444F57535C7379734074656D33325C036532002E746C62234F4C4500204175746F6D617458696F6E003000010F0274014400138203A92619027854006869734472
310
617769A06E67470016001354004A006900730044007200006100770069006E00A867001A0D163218161C002328000048820231828C25035800001E8204010A2C82403E542B2282102B82021082025C0052000116010000F0000000C4020000D400000000020000FFFFFFFFCB0200001F0300000000000001000000A9263E2B
310
0000FFFF2300000088000000B600FFFF010100000000FFFFFFFF00000000FFFFFFFFFFFF00000000000000000000000000000000000000000000000000000000000000000000000000000000000000000000000000000000000010000000030000000500000007000000FFFFFFFFFFFFFFFF010108000000FFFFFFFF780000
310
00080000000000000000000000000000000000005400680069007300440072006100770069006E006700000000000000000000000000000000000000000000000000000000000000000000000000000000000000180002010300000005000000FFFFFFFF000000000000000000000000000000000000000000000000000000
310
00000000000000000005000000E5030000000000005F005600420041005F00500052004F004A00450043005400000000000000000000000000000000000000000000000000000000000000000000000000000000001A000200FFFFFFFFFFFFFFFFFFFFFFFF0000000000000000000000000000000000000000000000000000
310
00000000000000000000150000002007000000000000500052004F004A004500430054000000000000000000000000000000000000000000000000000000000000000000000000000000000000000000000000000000100002010200000007000000FFFFFFFF00000000000000000000000000000000000000000000000000
310
0000000000000000000000320000003D01000000000000500052004F004A0045004300540077006D000000000000000000000000000000000000000000000000000000000000000000000000000000000000000000000014000200FFFFFFFFFFFFFFFFFFFFFFFF000000000000000000000000000000000000000000000000
310
0000000000000000000000003700000026000000000000000000000000000000000000000000FFFF000000004D450000FFFFFFFFFFFF00000000FFFF00000000FFFF010100000000DF00FFFF000000000C00FFFFFFFFFFFFFFFFFFFFFFFFFFFFFFFFFFFFFFFFFFFFFFFFFFFFFFFFFFFFFFFFFFFFFFFFFFFFFFFFFFFFFFFFFF
310
FFFFFFFFFFFFFFFFFFFFFFFFFFFFFFFFFFFFFFFFFFFFFFFFFFFFFFFFFFFFFFFFFFFFFFFFFFFFFFFFFFFFFFFFFFFFFFFFFFFFFFFFFFFFFFFFFFFFFFFFFFFFFFFFFFFFFFFFFFFFFFFFFFFFFFFFFFFFFFFFFFFFFF280000000200534CFFFFFFFF000001005310FFFFFFFF000001005394FFFFFFFF00000000023CFFFFFFFF0000
310
FFFF01010000000001004E0030007B00370041004100420042004200390035002D0037003900420045002D0034004300300046002D0038003000320034002D004500420036004100460032003700310032003300310043007D0000000000FFFFFFFF0101380000000280FEFFFFFFFFFF1000FFFF280000000201FFFF000000
310
0000000000FFFFFFFFFFFFFFFF000000001D00000025000000FFFFFFFF480000000000FFFF000001000000000000000000FFFFFFFFFFFFFFFFFFFFFFFF00000000FFFFFFFFFFFFFFFFFFFFFFFFFFFFFFFFFFFFFFFF00000000FFFFFFFFFFFFFFFFFFFFFFFFFFFFFFFFFFFFFFFF0000000001000000FFFFFFFFFFFFFFFF0000
310
0000FFFFFFFFFFFFFFFFFFFFFFFFFFFFFFFFFFFFFFFFFFFFFFFFFFFFFFFFFFFF000000000000DF000000000000000000000000000000000000000000000000000000000000000000000000000000000000000000000000000000000000000000000000FECA01000000FFFFFFFF010108000000FFFFFFFF78000000FFFFFFFF
310
000001BCB000417474726962757400652056425F4E616D0065203D2022546869007344726177696E6788220D0A0A88426173028800307B3741414242420039352D373942452D00344330462D38303200342D454236414632803731323331437D0D7C40476C6F62616C01CE5308706163019246616C7302650C644372656174
310
6104626C151F507265646548636C610006496400B0540472750D424578706F730265141C54656D706C61807465446572697602120192427573746F6D697A0304440332002000520061007400650000000000000000000000000000000000CC616D00000100FF0A0C000009040000E404010000000000000000000100030002
310
00FA002A005C0047007B00300030003000320030003400450046002D0030003000300030002D0030003000300030002D0043003000300030002D003000300030003000300030003000300030003000340036007D00230034002E00300023003900230043003A005C00500052004F004700520041007E0031005C0043004F00
310
4D004D004F004E007E0031005C004D004900430052004F0053007E0031005C005600420041005C0056004200410036005C0056004200450036002E0044004C004C002300560069007300750061006C00200042006100730069006300200046006F00720020004100700070006C00690063006100740069006F006E00730000
310
00000000000000000000000A012A005C0047007B00380035003100410034003500360031002D0046003400450043002D0034003600330031002D0039004200300043002D004500370044004300340030003700350031003200430039007D00230031002E00300023003000230043003A005C00500072006F00670072006100
310
6D002000460069006C00650073005C0043006F006D006D006F006E002000460069006C00650073005C004100750074006F006400650073006B0020005300680061007200650064005C0061006300610078003100370065006E0075002E0074006C00620023004100750074006F004300410044002000320030003000370020
310
00540079007000650020004C00690062007200610072007900000000000000000000000000BC002A005C0047007B00300030003000320030003400330030002D0030003000300030002D0030003000300030002D0043003000300030002D003000300030003000300030003000300030003000340036007D00230032002E00
310
300023003000230043003A005C00570049004E0044004F00570053005C00730079007300740065006D00330032005C007300740064006F006C00650032002E0074006C00620023004F004C00450020004100750074006F006D006100740069006F006E00000000000000000000000000010002000400040200000602010008
310
0200000A0201000C02FFFFFFFFFFFF00000000FFFF00003AFB9F4A11000000FFFFFFFFFFFFFFFFFFFFFFFFFFFFFFFFFFFFFFFFFFFFFFFFFFFFFFFFFFFFFFFFFFFFFFFFFFFFFFFFFFFFFFFFFFFFFFFFFFFFFFFFFFFFFFFFFFFFFFFFFFFF0100000000000000000000000000000000000000A926010016005400680069007300
310
440072006100770069006E00670014003000410034006100610030006600310031003800FFFF110216005400680069007300440072006100770069006E006700FFFF3E2B000000000000000200000025030000FFFFFFFFFFFF010120020000FFFFFFFFFFFFFFFFFFFFFFFFFFFFFFFFFFFFFFFFFFFFFFFFFFFFFFFFFFFFFFFF
310
FFFFFFFFFFFFFFFFFFFFFFFFFFFFFFFFFFFFFFFFFFFFFFFFFFFFFFFFFFFFFFFFFFFFFFFFFFFFFFFFFFFFFFFFFFFFFFFFFFFFFFFFFFFFFFFFFFFFFFFFFFFFFFFFFFFFFFFFFFFFFFFFFFFFFFFFFFFFFFFFFFFFFFFFFFFFFFFFFFFFFFFFFFFFFFFFFFFFFFFFFFFFFFFFFFFFFFFFFFFFFFFFFFFFFFFFFFFFFFFFFFFFFFFFFFFFFF
310
FFFFFFFFFFFFFFFFFFFFFFFFFFFFFFFFFFFFFFFFFFFFFFFFFFFFFFFFFFFFFFFFFFFFFFFFFFFFFFFFFFFFFFFFFFFFFFFFFFFFFFFFFFFFFFFFFFFFFFFFFFFFFFFFFFFFFFFFFFFFFFFFFFFFFFFFFF00020000FFFFFFFFFFFFFFFFFFFFFFFFFFFFFFFFFFFFFFFFFFFFFFFFFFFFFFFFFFFFFFFFFFFFFFFFFFFFFFFFFFFFFFFFFFFF
310
FFFFFFFFFFFFFFFFFFFFFFFFFFFFFFFFFFFFFFFFFFFFFFFFFFFFFFFFFFFFFFFFFFFFFFFFFFFFFFFFFFFFFFFFFFFFFFFFFFFFFFFFFFFFFFFFFFFFFFFFFFFFFFFFFFFFFFFFFFFFFFFFFFFFFFFFFFFFFFFFFFFFFFFFFFFFFFFFFFFFFFFFFFFFFFFFFFFFFFFFFFFFFFFFFFFFFFFFFFFFFFFFFFFFFFFFFFFFFFFFFFFFFFFFFFFFFF
310
FFFFFFFFFFFFFFFFFFFFFFFFFFFFFFFFFFFFFFFFFFFFFFFFFFFFFFFFFFFFFFFFFFFFFFFFFFFFFFFFFFFFFFFFFFFFFFFFFFFFFFFFFFFFFFFFFFFFFFFFFFFFFFFFFFFFFFFFFFFFFFFFFFFFFFFFFFFFFFFFFFFFFFFFFFFFFFFFFFFFFFFFFFFFFFFFFFFFFF0F31F7C45531184081F4B08E985EA7C3FFFFFFFF01000000FFFFFFFF
310
600000008000000000000A010B00FF006025000007044175746F43414422F810000304564241F7E21000050457696E3136C17E1000050457696E3332077F100003044D6163B3B21000040456424136AD2310000B044143414450726F6A656374A6D4100006007374646F6C65936010000B045468697344726177696E67B935
310
100009800000FF03FFFF5F4576616C7561746518D910000C0441636164446F63756D656E741B5A100002FFFF01013C000000FFFFFFFFFFFFFFFFFFFFFFFF0C02FFFFFFFF0E020200FFFF110200000400FFFFFFFFFFFF00020100FFFF02020000FFFFFFFFFFFFFFFFFFFFFFFFFFFF04000A0000000100120000000000000000
310
00000000000000000000000000000000000000000000000000000000000000000000000000000000000000000049443D227B35354541303845322D354532412D343230452D383146342D4137423741463635393538317D220D0A446F63756D656E743D5468697344726177696E672F264830303030303030300D0A4E616D65
310
3D224143414450726F6A656374220D0A48656C70436F6E7465787449443D2230220D0A56657273696F6E436F6D70617469626C6533323D22333933323232303030220D0A434D473D2239383941373837453743374537433745374337453743220D0A4450423D2238383841363836423639364236393642220D0A47433D2237
310
383741393835423939354239394134220D0A0D0A5B486F737420457874656E64657220496E666F5D0D0A264830303030303030313D7B33383332443634302D434639302D313143462D384534332D3030413043393131303035417D3B5642453B264830303030303030300D0A0000005468697344726177696E670054006800
310
69007300440072006100770069006E0067000000000000000000000000000000000000000000000000000000000000005600420041005F00500072006F006A006500630074005F00560065007200730069006F006E00000000000000000000000000000000000000000000000000000028000200FFFFFFFFFFFFFFFFFFFFFF
310
FF0000000000000000000000000000000000000000000000000000000000000000000000003800000010000000000000000000000000000000000000000000000000000000000000000000000000000000000000000000000000000000000000000000000000000000000000000000000000000000FFFFFFFFFFFFFFFFFFFF
310
FFFF0000000000000000000000000000000000000000000000000000000000000000000000000000000000000000000000000000000000000000000000000000000000000000000000000000000000000000000000000000000000000000000000000000000000000000000000000000000000000000FFFFFFFFFFFFFFFFFF
310
FFFFFF0000000000000000000000000000000000000000000000000000000000000000000000000000000000000000000000000000000000000000000000000000000000000000000000000000000000000000000000000000000000000000000000000000000000000000000000000000000000000000FFFFFFFFFFFFFFFF
310
FFFFFFFF0000000000000000000000000000000000000000000000000000000000000000000000000000000000000000000000001000000002000000040000006100630014000000000000006100000000000000500072006F00640075006300740020004E0061006D00650000000000000000000000000000000000000000
310
0000000000000000000000000000000000000000000000000000000000000000000000000000000000000000000000000000000000000000000000000000000000000000000000000000000000000000000000000000000000000000000000000000000000000000000000000000000000000000001E000000000000006100
310
000000000000500072006F0064007500630074002000560065007200730069006F006E0000000000000000000000000000000000000000000000000000000000000000000000000000000000000000000000000000000000000000000000000000000000000000000000000000000000000000000000000000000000000000
310
00000000000000000000000000000000000000000000000000000000000000000000000000000014000000000000006100000000000000000000000000000000000000000000000000000000000000000000000000000000000000000000000000000000000000000000000000000000000000000000000000000000000000
310
0000000000000000000000000000000000000000000000000000000000000000000000000000000000000000000000000000000000000000
  0
VISUALSTYLE
  5
1A
102
{ACAD_REACTORS
330
14
102
}
330
14
100
AcDbVisualStyle
  2
2dWireframe
 70
     4
 71
     0
 72
     2
 73
     0
 90
        0
 40
-0.6
 41
-30.0
 62
     5
 63
     7
 74
     1
 91
        4
 64
     7
 65
   257
 75
     1
175
     1
 42
1.0
 92
        0
 66
   257
 43
1.0
 76
     1
 77
     6
 78
     2
 67
     7
 79
     5
170
     0
171
     0
290
     0
174
     0
 93
        1
 44
0.0
173
     0
291
     0
 45
0.0
1001
ACAD
1000
AcDbSavedByObjectVersion
1070
     0
  0
VISUALSTYLE
  5
1C
102
{ACAD_REACTORS
330
14
102
}
330
14
100
AcDbVisualStyle
  2
3D Hidden
 70
     6
 71
     1
 72
     2
 73
     2
 90
        0
 40
-0.6
 41
-30.0
 62
     5
 63
     7
 74
     2
 91
        2
 64
     7
 65
   257
 75
     2
175
     1
 42
40.0
 92
        0
 66
   257
 43
1.0
 76
     1
 77
     6
 78
     2
 67
     7
 79
     3
170
     0
171
     0
290
     0
174
     0
 93
        1
 44
0.0
173
     0
291
     0
 45
0.0
1001
ACAD
1000
AcDbSavedByObjectVersion
1070
     0
  0
VISUALSTYLE
  5
1B
102
{ACAD_REACTORS
330
14
102
}
330
14
100
AcDbVisualStyle
  2
3dWireframe
 70
     5
 71
     0
 72
     2
 73
     0
 90
        0
 40
-0.6
 41
-30.0
 62
     5
 63
     7
 74
     1
 91
        4
 64
     7
 65
   257
 75
     1
175
     1
 42
1.0
 92
        0
 66
   257
 43
1.0
 76
     1
 77
     6
 78
     2
 67
     7
 79
     5
170
     0
171
     0
290
     0
174
     0
 93
        1
 44
0.0
173
     0
291
     0
 45
0.0
1001
ACAD
1000
AcDbSavedByObjectVersion
1070
     0
  0
VISUALSTYLE
  5
19
102
{ACAD_REACTORS
330
14
102
}
330
14
100
AcDbVisualStyle
  2
Basic
 70
     7
 71
     1
 72
     0
 73
     1
 90
        0
 40
-0.6
 41
-30.0
 62
     5
 63
     7
 74
     0
 91
        4
 64
     7
 65
   257
 75
     1
175
     1
 42
1.0
 92
        8
 66
     7
 43
1.0
 76
     1
 77
     6
 78
     2
 67
     7
 79
     5
170
     0
171
     0
290
     0
174
     0
 93
        1
 44
0.0
173
     0
291
     1
 45
0.0
1001
ACAD
1000
AcDbSavedByObjectVersion
1070
     0
  0
VISUALSTYLE
  5
20
102
{ACAD_REACTORS
330
14
102
}
330
14
100
AcDbVisualStyle
  2
Brighten
 70
    12
 71
     2
 72
     2
 73
     0
 90
        0
 40
-0.6
 41
-30.0
 62
     5
 63
     7
 74
     1
 91
        4
 64
     7
 65
   257
 75
     1
175
     1
 42
1.0
 92
        8
 66
     7
 43
1.0
 76
     1
 77
     6
 78
     2
 67
     7
 79
     5
170
     0
171
     0
290
     0
174
     0
 93
        1
 44
50.0
173
     0
291
     1
 45
0.0
1001
ACAD
1000
AcDbSavedByObjectVersion
1070
     0
  0
VISUALSTYLE
  5
24
102
{ACAD_REACTORS
330
14
102
}
330
14
100
AcDbVisualStyle
  2
ColorChange
 70
    16
 71
     2
 72
     2
 73
     3
 90
        0
 40
-0.6
 41
-30.0
 62
     5
 63
     8
 74
     1
 91
        4
 64
     7
 65
   257
 75
     1
175
     1
 42
1.0
 92
        8
 66
     8
 43
1.0
 76
     1
 77
     6
 78
     2
 67
     7
 79
     5
170
     0
171
     0
290
     0
174
     0
 93
        1
 44
0.0
173
     0
291
     1
 45
0.0
1001
ACAD
1000
AcDbSavedByObjectVersion
1070
     0
  0
VISUALSTYLE
  5
1D
102
{ACAD_REACTORS
330
14
102
}
330
14
100
AcDbVisualStyle
  2
Conceptual
 70
     9
 71
     3
 72
     2
 73
     0
 90
        0
 40
-0.6
 41
-30.0
 62
     5
 63
     7
 74
     2
 91
        2
 64
     7
 65
   257
 75
     1
175
     1
 42
40.0
 92
        8
 66
     7
 43
1.0
 76
     1
 77
     6
 78
     2
 67
     7
 79
     3
170
     0
171
     0
290
     0
174
     0
 93
        1
 44
0.0
173
     0
291
     0
 45
0.0
1001
ACAD
1000
AcDbSavedByObjectVersion
1070
     0
  0
VISUALSTYLE
  5
1F
102
{ACAD_REACTORS
330
14
102
}
330
14
100
AcDbVisualStyle
  2
Dim
 70
    11
 71
     2
 72
     2
 73
     0
 90
        0
 40
-0.6
 41
-30.0
 62
     5
 63
     7
 74
     1
 91
        4
 64
     7
 65
   257
 75
     1
175
     1
 42
1.0
 92
        8
 66
     7
 43
1.0
 76
     1
 77
     6
 78
     2
 67
     7
 79
     5
170
     0
171
     0
290
     0
174
     0
 93
        1
 44
-50.0
173
     0
291
     1
 45
0.0
1001
ACAD
1000
AcDbSavedByObjectVersion
1070
     0
  0
VISUALSTYLE
  5
23
102
{ACAD_REACTORS
330
14
102
}
330
14
100
AcDbVisualStyle
  2
Facepattern
 70
    15
 71
     2
 72
     2
 73
     0
 90
        0
 40
-0.6
 41
-30.0
 62
     5
 63
     7
 74
     1
 91
        4
 64
     7
 65
   257
 75
     1
175
     1
 42
1.0
 92
        8
 66
     7
 43
1.0
 76
     1
 77
     6
 78
     2
 67
     7
 79
     5
170
     0
171
     0
290
     0
174
     0
 93
        1
 44
0.0
173
     0
291
     1
 45
0.0
1001
ACAD
1000
AcDbSavedByObjectVersion
1070
     0
  0
VISUALSTYLE
  5
15
102
{ACAD_REACTORS
330
14
102
}
330
14
100
AcDbVisualStyle
  2
Flat
 70
     0
 71
     2
 72
     1
 73
     1
 90
        2
 40
-0.6
 41
30.0
 62
     5
 63
     7
 74
     0
 91
        4
 64
     7
 65
   257
 75
     1
175
     1
 42
1.0
 92
        8
 66
     7
 43
1.0
 76
     1
 77
     6
 78
     2
 67
     7
 79
     5
170
     0
171
     0
290
     0
174
     0
 93
       13
 44
0.0
173
     0
291
     1
 45
0.0
1001
ACAD
1000
AcDbSavedByObjectVersion
1070
     0
  0
VISUALSTYLE
  5
16
102
{ACAD_REACTORS
330
14
102
}
330
14
100
AcDbVisualStyle
  2
FlatWithEdges
 70
     1
 71
     2
 72
     1
 73
     1
 90
        2
 40
-0.6
 41
30.0
 62
     5
 63
     7
 74
     1
 91
        4
 64
     7
 65
   257
 75
     1
175
     1
 42
1.0
 92
        0
 66
   257
 43
1.0
 76
     1
 77
     6
 78
     2
 67
     7
 79
     5
170
     0
171
     0
290
     0
174
     0
 93
       13
 44
0.0
173
     0
291
     1
 45
0.0
1001
ACAD
1000
AcDbSavedByObjectVersion
1070
     0
  0
VISUALSTYLE
  5
17
102
{ACAD_REACTORS
330
14
102
}
330
14
100
AcDbVisualStyle
  2
Gouraud
 70
     2
 71
     2
 72
     2
 73
     1
 90
        2
 40
-0.6
 41
30.0
 62
     5
 63
     7
 74
     0
 91
        4
 64
     7
 65
   257
 75
     1
175
     1
 42
1.0
 92
        0
 66
     7
 43
1.0
 76
     1
 77
     6
 78
     2
 67
     7
 79
     5
170
     0
171
     0
290
     0
174
     0
 93
       13
 44
0.0
173
     0
291
     1
 45
0.0
1001
ACAD
1000
AcDbSavedByObjectVersion
1070
     0
  0
VISUALSTYLE
  5
18
102
{ACAD_REACTORS
330
14
102
}
330
14
100
AcDbVisualStyle
  2
GouraudWithEdges
 70
     3
 71
     2
 72
     2
 73
     1
 90
        2
 40
-0.6
 41
30.0
 62
     5
 63
     7
 74
     1
 91
        4
 64
     7
 65
   257
 75
     1
175
     1
 42
1.0
 92
        0
 66
   257
 43
1.0
 76
     1
 77
     6
 78
     2
 67
     7
 79
     5
170
     0
171
     0
290
     0
174
     0
 93
       13
 44
0.0
173
     0
291
     1
 45
0.0
1001
ACAD
1000
AcDbSavedByObjectVersion
1070
     0
  0
VISUALSTYLE
  5
22
102
{ACAD_REACTORS
330
14
102
}
330
14
100
AcDbVisualStyle
  2
Linepattern
 70
    14
 71
     2
 72
     2
 73
     0
 90
        0
 40
-0.6
 41
-30.0
 62
     5
 63
     7
 74
     1
 91
        4
 64
     7
 65
   257
 75
     7
175
     7
 42
1.0
 92
        8
 66
     7
 43
1.0
 76
     1
 77
     6
 78
     2
 67
     7
 79
     5
170
     0
171
     0
290
     0
174
     0
 93
        1
 44
0.0
173
     0
291
     1
 45
0.0
1001
ACAD
1000
AcDbSavedByObjectVersion
1070
     0
  0
VISUALSTYLE
  5
1E
102
{ACAD_REACTORS
330
14
102
}
330
14
100
AcDbVisualStyle
  2
Realistic
 70
     8
 71
     2
 72
     2
 73
     0
 90
        0
 40
-0.6
 41
-30.0
 62
     5
 63
     7
 74
     1
 91
        0
 64
     7
 65
   257
 75
     1
175
     1
 42
1.0
 92
        8
 66
     8
 43
1.0
 76
     1
 77
     6
 78
     2
 67
     7
 79
     5
170
     0
171
     0
290
     0
174
     0
 93
       13
 44
0.0
173
     0
291
     0
 45
0.0
1001
ACAD
1000
AcDbSavedByObjectVersion
1070
     0
  0
VISUALSTYLE
  5
21
102
{ACAD_REACTORS
330
14
102
}
330
14
100
AcDbVisualStyle
  2
Thicken
 70
    13
 71
     2
 72
     2
 73
     0
 90
        0
 40
-0.6
 41
-30.0
 62
     5
 63
     7
 74
     1
 91
        4
 64
     7
 65
   257
 75
     1
175
     1
 42
1.0
 92
       12
 66
     7
 43
1.0
 76
     1
 77
     6
 78
     2
 67
     7
 79
     5
170
     0
171
     0
290
     0
174
     0
 93
        1
 44
0.0
173
     0
291
     1
 45
0.0
1001
ACAD
1000
AcDbSavedByObjectVersion
1070
     0
  0
DICTIONARYVAR
  5
EFD
102
{ACAD_REACTORS
330
EFC
102
}
330
EFC
100
DictionaryVariables
280
     0
  1
STANDARD
  0
DICTIONARYVAR
  5
21C3
102
{ACAD_REACTORS
330
EFC
102
}
330
EFC
100
DictionaryVariables
280
     0
  1
2
  0
DICTIONARYVAR
  5
21C2
102
{ACAD_REACTORS
330
EFC
102
}
330
EFC
100
DictionaryVariables
280
     0
  1
1
  0
DICTIONARYVAR
  5
21C1
102
{ACAD_REACTORS
330
EFC
102
}
330
EFC
100
DictionaryVariables
280
     0
  1
0
  0
DICTIONARYVAR
  5
21C0
102
{ACAD_REACTORS
330
EFC
102
}
330
EFC
100
DictionaryVariables
280
     0
  1
127
  0
XRECORD
  5
2197
102
{ACAD_REACTORS
330
2196
102
}
330
2196
100
AcDbXrecord
280
     1
330
0
330
DD
  0
DICTIONARY
  5
22C7
330
3A
100
AcDbDictionary
280
     1
281
     1
  3
ACAD_XREC_ROUNDTRIP
360
22C8
  0
DICTIONARY
  5
22C5
330
36
100
AcDbDictionary
280
     1
281
     1
  3
ACAD_XREC_ROUNDTRIP
360
22C6
  0
DICTIONARY
  5
22C9
330
3E
100
AcDbDictionary
280
     1
281
     1
  3
ACAD_XREC_ROUNDTRIP
360
22CA
  0
DICTIONARY
  5
22BF
330
12
100
AcDbDictionary
280
     1
281
     1
  3
ACAD_XREC_ROUNDTRIP
360
22C0
  0
DICTIONARY
  5
22BD
330
11
100
AcDbDictionary
280
     1
281
     1
  3
ACAD_XREC_ROUNDTRIP
360
22BE
  0
DICTIONARY
  5
22C1
330
13
100
AcDbDictionary
280
     1
281
     1
  3
ACAD_XREC_ROUNDTRIP
360
22C2
  0
DICTIONARY
  5
22C3
330
32
100
AcDbDictionary
280
     1
281
     1
  3
ACAD_XREC_ROUNDTRIP
360
22C4
  0
XRECORD
  5
22C8
102
{ACAD_REACTORS
330
22C7
102
}
330
22C7
100
AcDbXrecord
280
     1
102
SHADEPLOT
 70
     0
102
SHADEPLOTRESLEVEL
 70
     2
102
SHADEPLOTCUSTOMDPI
 70
   300
  0
XRECORD
  5
22C6
102
{ACAD_REACTORS
330
22C5
102
}
330
22C5
100
AcDbXrecord
280
     1
102
SHADEPLOT
 70
     0
102
SHADEPLOTRESLEVEL
 70
     2
102
SHADEPLOTCUSTOMDPI
 70
   300
  0
XRECORD
  5
22CA
102
{ACAD_REACTORS
330
22C9
102
}
330
22C9
100
AcDbXrecord
280
     1
102
SHADEPLOT
 70
     0
102
SHADEPLOTRESLEVEL
 70
     2
102
SHADEPLOTCUSTOMDPI
 70
   300
  0
XRECORD
  5
22C0
102
{ACAD_REACTORS
330
22BF
102
}
330
22BF
100
AcDbXrecord
280
     1
102
MATERIAL
148
0.0
149
0.0
149
0.0
 93
        0
 94
       63
282
     0
 72
     1
 77
     1
171
     1
175
     1
179
     1
273
     0
  0
XRECORD
  5
22BE
102
{ACAD_REACTORS
330
22BD
102
}
330
22BD
100
AcDbXrecord
280
     1
102
MATERIAL
148
0.0
149
0.0
149
0.0
 93
        0
 94
       63
282
     0
 72
     1
 77
     1
171
     1
175
     1
179
     1
273
     0
  0
XRECORD
  5
22C2
102
{ACAD_REACTORS
330
22C1
102
}
330
22C1
100
AcDbXrecord
280
     1
102
MATERIAL
148
0.0
149
0.0
149
0.0
 93
        0
 94
       63
282
     0
 72
     1
 77
     1
171
     1
175
     1
179
     1
273
     0
  0
XRECORD
  5
22C4
102
{ACAD_REACTORS
330
22C3
102
}
330
22C3
100
AcDbXrecord
280
     1
102
ACAD_ROUNDTRIP_PRE2007_TABLESTYLE
 90
      512
 91
        0
  1

 92
      512
 93
        0
  2

 94
      512
 95
        0
  3

  0
ENDSEC
  0
EOF
