  0
SECTION
  2
HEADER
  9
$ACADVER
  1
AC1018
  9
$ACADMAINTVER
 70
     0
  9
$DWGCODEPAGE
  3
ANSI_1252
  9
$INSBASE
 10
0.0
 20
0.0
 30
0.0
  9
$EXTMIN
 10
-10.95175791027827
 20
43.99661050694976
 30
0.0
  9
$EXTMAX
 10
1930.855670494665
 20
2085.516023992403
 30
0.0
  9
$LIMMIN
 10
0.0
 20
0.0
  9
$LIMMAX
 10
12.0
 20
9.0
  9
$ORTHOMODE
 70
     0
  9
$REGENMODE
 70
     1
  9
$FILLMODE
 70
     1
  9
$QTEXTMODE
 70
     0
  9
$MIRRTEXT
 70
     0
  9
$LTSCALE
 40
1.0
  9
$ATTMODE
 70
     1
  9
$TEXTSIZE
 40
0.2
  9
$TRACEWID
 40
0.05
  9
$TEXTSTYLE
  7
Standard
  9
$CLAYER
  8
0
  9
$CELTYPE
  6
ByLayer
  9
$CECOLOR
 62
   256
  9
$CELTSCALE
 40
1.0
  9
$DISPSILH
 70
     0
  9
$DIMSCALE
 40
1.0
  9
$DIMASZ
 40
0.18
  9
$DIMEXO
 40
0.0625
  9
$DIMDLI
 40
0.38
  9
$DIMRND
 40
0.0
  9
$DIMDLE
 40
0.0
  9
$DIMEXE
 40
0.18
  9
$DIMTP
 40
0.0
  9
$DIMTM
 40
0.0
  9
$DIMTXT
 40
0.18
  9
$DIMCEN
 40
0.09
  9
$DIMTSZ
 40
0.0
  9
$DIMTOL
 70
     0
  9
$DIMLIM
 70
     0
  9
$DIMTIH
 70
     1
  9
$DIMTOH
 70
     1
  9
$DIMSE1
 70
     0
  9
$DIMSE2
 70
     0
  9
$DIMTAD
 70
     0
  9
$DIMZIN
 70
     0
  9
$DIMBLK
  1

  9
$DIMASO
 70
     1
  9
$DIMSHO
 70
     1
  9
$DIMPOST
  1

  9
$DIMAPOST
  1

  9
$DIMALT
 70
     0
  9
$DIMALTD
 70
     2
  9
$DIMALTF
 40
25.4
  9
$DIMLFAC
 40
1.0
  9
$DIMTOFL
 70
     0
  9
$DIMTVP
 40
0.0
  9
$DIMTIX
 70
     0
  9
$DIMSOXD
 70
     0
  9
$DIMSAH
 70
     0
  9
$DIMBLK1
  1

  9
$DIMBLK2
  1

  9
$DIMSTYLE
  2
Standard
  9
$DIMCLRD
 70
     0
  9
$DIMCLRE
 70
     0
  9
$DIMCLRT
 70
     0
  9
$DIMTFAC
 40
1.0
  9
$DIMGAP
 40
0.09
  9
$DIMJUST
 70
     0
  9
$DIMSD1
 70
     0
  9
$DIMSD2
 70
     0
  9
$DIMTOLJ
 70
     1
  9
$DIMTZIN
 70
     0
  9
$DIMALTZ
 70
     0
  9
$DIMALTTZ
 70
     0
  9
$DIMUPT
 70
     0
  9
$DIMDEC
 70
     4
  9
$DIMTDEC
 70
     4
  9
$DIMALTU
 70
     2
  9
$DIMALTTD
 70
     2
  9
$DIMTXSTY
  7
Standard
  9
$DIMAUNIT
 70
     0
  9
$DIMADEC
 70
     0
  9
$DIMALTRND
 40
0.0
  9
$DIMAZIN
 70
     0
  9
$DIMDSEP
 70
    46
  9
$DIMATFIT
 70
     3
  9
$DIMFRAC
 70
     0
  9
$DIMLDRBLK
  1

  9
$DIMLUNIT
 70
     2
  9
$DIMLWD
 70
    -2
  9
$DIMLWE
 70
    -2
  9
$DIMTMOVE
 70
     0
  9
$LUNITS
 70
     2
  9
$LUPREC
 70
     4
  9
$SKETCHINC
 40
0.1
  9
$FILLETRAD
 40
0.0
  9
$AUNITS
 70
     0
  9
$AUPREC
 70
     0
  9
$MENU
  1
.
  9
$ELEVATION
 40
0.0
  9
$PELEVATION
 40
0.0
  9
$THICKNESS
 40
0.0
  9
$LIMCHECK
 70
     0
  9
$CHAMFERA
 40
0.0
  9
$CHAMFERB
 40
0.0
  9
$CHAMFERC
 40
0.0
  9
$CHAMFERD
 40
0.0
  9
$SKPOLY
 70
     0
  9
$TDCREATE
 40
2454473.974709722
  9
$TDUCREATE
 40
2454473.933043056
  9
$TDUPDATE
 40
2454485.412128901
  9
$TDUUPDATE
 40
2454485.370462234
  9
$TDINDWG
 40
0.0043617940
  9
$TDUSRTIMER
 40
0.0043617940
  9
$USRTIMER
 70
     1
  9
$ANGBASE
 50
0.0
  9
$ANGDIR
 70
     0
  9
$PDMODE
 70
     0
  9
$PDSIZE
 40
0.0
  9
$PLINEWID
 40
0.0
  9
$SPLFRAME
 70
     0
  9
$SPLINETYPE
 70
     6
  9
$SPLINESEGS
 70
     8
  9
$HANDSEED
  5
335
  9
$SURFTAB1
 70
     6
  9
$SURFTAB2
 70
     6
  9
$SURFTYPE
 70
     6
  9
$SURFU
 70
     6
  9
$SURFV
 70
     6
  9
$UCSBASE
  2

  9
$UCSNAME
  2

  9
$UCSORG
 10
0.0
 20
0.0
 30
0.0
  9
$UCSXDIR
 10
1.0
 20
0.0
 30
0.0
  9
$UCSYDIR
 10
0.0
 20
1.0
 30
0.0
  9
$UCSORTHOREF
  2

  9
$UCSORTHOVIEW
 70
     0
  9
$UCSORGTOP
 10
0.0
 20
0.0
 30
0.0
  9
$UCSORGBOTTOM
 10
0.0
 20
0.0
 30
0.0
  9
$UCSORGLEFT
 10
0.0
 20
0.0
 30
0.0
  9
$UCSORGRIGHT
 10
0.0
 20
0.0
 30
0.0
  9
$UCSORGFRONT
 10
0.0
 20
0.0
 30
0.0
  9
$UCSORGBACK
 10
0.0
 20
0.0
 30
0.0
  9
$PUCSBASE
  2

  9
$PUCSNAME
  2

  9
$PUCSORG
 10
0.0
 20
0.0
 30
0.0
  9
$PUCSXDIR
 10
1.0
 20
0.0
 30
0.0
  9
$PUCSYDIR
 10
0.0
 20
1.0
 30
0.0
  9
$PUCSORTHOREF
  2

  9
$PUCSORTHOVIEW
 70
     0
  9
$PUCSORGTOP
 10
0.0
 20
0.0
 30
0.0
  9
$PUCSORGBOTTOM
 10
0.0
 20
0.0
 30
0.0
  9
$PUCSORGLEFT
 10
0.0
 20
0.0
 30
0.0
  9
$PUCSORGRIGHT
 10
0.0
 20
0.0
 30
0.0
  9
$PUCSORGFRONT
 10
0.0
 20
0.0
 30
0.0
  9
$PUCSORGBACK
 10
0.0
 20
0.0
 30
0.0
  9
$USERI1
 70
     0
  9
$USERI2
 70
     0
  9
$USERI3
 70
     0
  9
$USERI4
 70
     0
  9
$USERI5
 70
     0
  9
$USERR1
 40
0.0
  9
$USERR2
 40
0.0
  9
$USERR3
 40
0.0
  9
$USERR4
 40
0.0
  9
$USERR5
 40
0.0
  9
$WORLDVIEW
 70
     1
  9
$SHADEDGE
 70
     3
  9
$SHADEDIF
 70
    70
  9
$TILEMODE
 70
     1
  9
$MAXACTVP
 70
    64
  9
$PINSBASE
 10
0.0
 20
0.0
 30
0.0
  9
$PLIMCHECK
 70
     0
  9
$PEXTMIN
 10
0.0
 20
0.0
 30
0.0
  9
$PEXTMAX
 10
0.0
 20
0.0
 30
0.0
  9
$PLIMMIN
 10
0.0
 20
0.0
  9
$PLIMMAX
 10
12.0
 20
9.0
  9
$UNITMODE
 70
     0
  9
$VISRETAIN
 70
     1
  9
$PLINEGEN
 70
     0
  9
$PSLTSCALE
 70
     1
  9
$TREEDEPTH
 70
  3020
  9
$CMLSTYLE
  2
Standard
  9
$CMLJUST
 70
     0
  9
$CMLSCALE
 40
1.0
  9
$PROXYGRAPHICS
 70
     1
  9
$MEASUREMENT
 70
     0
  9
$CELWEIGHT
370
    -1
  9
$ENDCAPS
280
     0
  9
$JOINSTYLE
280
     0
  9
$LWDISPLAY
290
     0
  9
$INSUNITS
 70
     1
  9
$HYPERLINKBASE
  1

  9
$STYLESHEET
  1

  9
$XEDIT
290
     1
  9
$CEPSNTYPE
380
     0
  9
$PSTYLEMODE
290
     1
  9
$FINGERPRINTGUID
  2
{FDEAD576-A652-11D2-9A35-0060089B3A3F}
  9
$VERSIONGUID
  2
{EFCEEED7-BE40-437C-A2C0-47F04CBC6661}
  9
$EXTNAMES
290
     1
  9
$PSVPSCALE
 40
0.0
  9
$OLESTARTUP
290
     0
  9
$SORTENTS
280
   127
  9
$INDEXCTL
280
     0
  9
$HIDETEXT
280
     1
  9
$XCLIPFRAME
290
     0
  9
$HALOGAP
280
     0
  9
$OBSCOLOR
 70
   257
  9
$OBSLTYPE
280
     0
  9
$INTERSECTIONDISPLAY
280
     0
  9
$INTERSECTIONCOLOR
 70
   257
  9
$DIMASSOC
280
     2
  9
$PROJECTNAME
  1

  0
ENDSEC
  0
SECTION
  2
CLASSES
  0
CLASS
  1
ACDBDICTIONARYWDFLT
  2
AcDbDictionaryWithDefault
  3
ObjectDBX Classes
 90
        0
 91
        1
280
     0
281
     0
  0
CLASS
  1
DICTIONARYVAR
  2
AcDbDictionaryVar
  3
ObjectDBX Classes
 90
        0
 91
        2
280
     0
281
     0
  0
ENDSEC
  0
SECTION
  2
TABLES
  0
TABLE
  2
VPORT
  5
8
330
0
100
AcDbSymbolTable
 70
    10
  0
VPORT
  5
334
330
8
100
AcDbSymbolTableRecord
100
AcDbViewportTableRecord
  2
*Active
 70
     0
 10
0.0
 20
0.0
 11
1.0
 21
1.0
 12
2169.878131917575
 22
612.3389319035723
 13
0.0
 23
0.0
 14
0.5
 24
0.5
 15
0.5
 25
0.5
 16
0.0
 26
0.0
 36
1.0
 17
0.0
 27
0.0
 37
0.0
 40
2943.425458022157
 41
2.03019538188277
 42
50.0
 43
0.0
 44
0.0
 50
0.0
 51
0.0
 71
     0
 72
  1000
 73
     1
 74
     3
 75
     0
 76
     0
 77
     0
 78
     0
281
     0
 65
     1
110
0.0
120
0.0
130
0.0
111
1.0
121
0.0
131
0.0
112
0.0
122
1.0
132
0.0
 79
     0
146
0.0
  0
ENDTAB
  0
TABLE
  2
LTYPE
  5
5
330
0
100
AcDbSymbolTable
 70
     1
  0
LTYPE
  5
14
330
5
100
AcDbSymbolTableRecord
100
AcDbLinetypeTableRecord
  2
ByBlock
 70
     0
  3

 72
    65
 73
     0
 40
0.0
  0
LTYPE
  5
15
330
5
100
AcDbSymbolTableRecord
100
AcDbLinetypeTableRecord
  2
ByLayer
 70
     0
  3

 72
    65
 73
     0
 40
0.0
  0
LTYPE
  5
16
330
5
100
AcDbSymbolTableRecord
100
AcDbLinetypeTableRecord
  2
Continuous
 70
     0
  3
Solid line
 72
    65
 73
     0
 40
0.0
  0
ENDTAB
  0
TABLE
  2
LAYER
  5
2
330
0
100
AcDbSymbolTable
 70
     1
  0
LAYER
  5
10
330
2
100
AcDbSymbolTableRecord
100
AcDbLayerTableRecord
  2
0
 70
     0
 62
     7
  6
Continuous
370
    -3
390
F
  0
ENDTAB
  0
TABLE
  2
STYLE
  5
3
330
0
100
AcDbSymbolTable
 70
     3
  0
STYLE
  5
11
330
3
100
AcDbSymbolTableRecord
100
AcDbTextStyleTableRecord
  2
Standard
 70
     0
 40
0.0
 41
1.0
 50
0.0
 71
     0
 42
0.2
  3
txt
  4

  0
STYLE
  5
93
330
3
100
AcDbSymbolTableRecord
100
AcDbTextStyleTableRecord
  2
NOMBRE
 70
     0
 40
0.0
 41
1.0
 50
0.0
 71
     0
 42
2.0
  3
stylu.ttf
  4

1001
ACAD
1000
Stylus BT
1071
       34
  0
STYLE
  5
94
330
3
100
AcDbSymbolTableRecord
100
AcDbTextStyleTableRecord
  2
ISO
 70
     0
 40
0.0
 41
1.0
 50
0.0
 71
     0
 42
4.0
  3
ISOCP.SHX
  4

  0
ENDTAB
  0
TABLE
  2
VIEW
  5
6
330
0
100
AcDbSymbolTable
 70
     0
  0
ENDTAB
  0
TABLE
  2
UCS
  5
7
330
0
100
AcDbSymbolTable
 70
     0
  0
ENDTAB
  0
TABLE
  2
APPID
  5
9
330
0
100
AcDbSymbolTable
 70
     1
  0
APPID
  5
12
330
9
100
AcDbSymbolTableRecord
100
AcDbRegAppTableRecord
  2
ACAD
 70
     0
  0
ENDTAB
  0
TABLE
  2
DIMSTYLE
  5
A
330
0
100
AcDbSymbolTable
 70
     1
100
AcDbDimStyleTable
 71
     0
  0
DIMSTYLE
105
27
330
A
100
AcDbSymbolTableRecord
100
AcDbDimStyleTableRecord
  2
Standard
 70
     0
340
11
  0
ENDTAB
  0
TABLE
  2
BLOCK_RECORD
  5
1
330
0
100
AcDbSymbolTable
 70
     6
  0
BLOCK_RECORD
  5
1F
330
1
100
AcDbSymbolTableRecord
100
AcDbBlockTableRecord
  2
*Model_Space
340
22
  0
BLOCK_RECORD
  5
58
330
1
100
AcDbSymbolTableRecord
100
AcDbBlockTableRecord
  2
*Paper_Space
340
59
  0
BLOCK_RECORD
  5
5D
330
1
100
AcDbSymbolTableRecord
100
AcDbBlockTableRecord
  2
*Paper_Space0
340
5E
  0
BLOCK_RECORD
  5
1A5
330
1
100
AcDbSymbolTableRecord
100
AcDbBlockTableRecord
  2
68600_P
340
0
1001
ACAD
1000
DesignCenter Data
1002
{
1070
     1
1070
     4
1002
}
  0
BLOCK_RECORD
  5
26D
330
1
100
AcDbSymbolTableRecord
100
AcDbBlockTableRecord
  2
68700_P
340
0
310
2800000020000000200000000100080000000000000400000000000000000000000000000000000000000000000080000080000000808000800000008000800080800000C0C0C000C0DCC000F0CAA6000020400000206000002080000020A0000020C0000020E00000400000004020000040400000406000004080000040A0
310
000040C0000040E00000600000006020000060400000606000006080000060A0000060C0000060E00000800000008020000080400000806000008080000080A0000080C0000080E00000A0000000A0200000A0400000A0600000A0800000A0A00000A0C00000A0E00000C0000000C0200000C0400000C0600000C0800000C0
310
A00000C0C00000C0E00000E0000000E0200000E0400000E0600000E0800000E0A00000E0C00000E0E00040000000400020004000400040006000400080004000A0004000C0004000E00040200000402020004020400040206000402080004020A0004020C0004020E000404000004040200040404000404060004040800040
310
40A0004040C0004040E00040600000406020004060400040606000406080004060A0004060C0004060E00040800000408020004080400040806000408080004080A0004080C0004080E00040A0000040A0200040A0400040A0600040A0800040A0A00040A0C00040A0E00040C0000040C0200040C0400040C0600040C08000
310
40C0A00040C0C00040C0E00040E0000040E0200040E0400040E0600040E0800040E0A00040E0C00040E0E00080000000800020008000400080006000800080008000A0008000C0008000E00080200000802020008020400080206000802080008020A0008020C0008020E00080400000804020008040400080406000804080
310
008040A0008040C0008040E00080600000806020008060400080606000806080008060A0008060C0008060E00080800000808020008080400080806000808080008080A0008080C0008080E00080A0000080A0200080A0400080A0600080A0800080A0A00080A0C00080A0E00080C0000080C0200080C0400080C0600080C0
310
800080C0A00080C0C00080C0E00080E0000080E0200080E0400080E0600080E0800080E0A00080E0C00080E0E000C0000000C0002000C0004000C0006000C0008000C000A000C000C000C000E000C0200000C0202000C0204000C0206000C0208000C020A000C020C000C020E000C0400000C0402000C0404000C0406000C0
310
408000C040A000C040C000C040E000C0600000C0602000C0604000C0606000C0608000C060A000C060C000C060E000C0800000C0802000C0804000C0806000C0808000C080A000C080C000C080E000C0A00000C0A02000C0A04000C0A06000C0A08000C0A0A000C0A0C000C0A0E000C0C00000C0C02000C0C04000C0C06000
310
C0C08000C0C0A000F0FBFF00A4A0A000808080000000FF0000FF000000FFFF00FF000000FF00FF00FFFF0000FFFFFF0000000000000000000000000000000000000000000000000000000000000000000000000000000000000000000000FFFFFF0000000000000000000000000000000000000000000000000000FFFFFFFF
310
FFFFFFFFFFFF00000000000000000000000000000000000000FFFFFFFFFFFFFF000000FFFFFFFFFF00000000000000000000000000000000FFFFFFFF00000000FFFF00000000FFFFFFFF00000000000000000000000000FFFFFF0000000000000000FFFF00000000FFFFFF0000000000000000000000FFFF00000000000000
310
0000000000FFFF00000000FFFF000000000000000000FFFF00000000000000FFFFFFFFFF000000FFFF000000FFFF00000000000000FFFFFF0000000000FFFF0000000000FFFF000000FFFF00FFFF00000000000000FFFF0000000000FF000000000000000000FFFFFF0000FF00FFFF0000000000FF00FF000000FFFF000000
310
00000000000000000000FFFF00FFFFFF0000000000FFFF00000000FF0000000000000000000000000000FF00FFFFFFFFFF00000000FFFF000000FF0000000000000000000000000000FFFFFF0000FFFFFF00000000FFFF000000FF000000000000000000000000000000FFFF0000FFFFFF00000000FF00000000FF00000000
310
000000000000000000000000000000FFFFFFFF0000FFFF00000000FF0000000000000000000000000000000000000000FFFFFF0000FFFF00000000FF0000000000000000000000000000000000000000FFFFFF000000FF00000000FF00000000000000000000000000000000000000FFFFFFFF000000FFFF000000FF000000
310
00000000000000000000000000000000FFFFFF00000000FFFF000000FF000000000000000000000000000000000000FFFFFFFF00000000FFFF00000000FF00000000000000000000000000000000FF00FFFFFF00000000FF00FF00000000FF0000000000000000000000000000FFFFFFFFFF000000000000FFFF00000000FF
310
FF0000000000FFFFFFFFFFFFFFFFFFFF00FFFF000000000000FFFFFF0000000000FFFFFFFFFFFFFFFFFFFFFFFFFF0000FFFF0000000000000000FFFF000000000000FFFFFF000000000000FFFF000000FFFF000000000000000000FFFFFFFFFFFFFF0000000000000000FF00000000FFFF0000000000000000000000FFFFFF
310
FF00000000000000000000FF0000FFFFFF00000000000000000000000000FFFFFFFFFF000000000000FFFF00FFFFFFFF000000000000000000000000000000FFFFFFFFFFFFFFFFFFFFFFFFFFFFFF0000000000000000000000000000000000000000FFFFFFFFFFFFFFFFFFFF00000000000000000000000000000000000000
310
000000000000FFFFFFFF00000000000000000000000000000000000000000000000000000000000000000000000000000000000000000000
1001
ACAD
1000
DesignCenter Data
1002
{
1070
     1
1070
     1
1002
}
  0
BLOCK_RECORD
  5
2FB
330
1
100
AcDbSymbolTableRecord
100
AcDbBlockTableRecord
  2
68710_P
340
0
310
2800000020000000200000000100080000000000000400000000000000000000000000000000000000000000000080000080000000808000800000008000800080800000C0C0C000C0DCC000F0CAA6000020400000206000002080000020A0000020C0000020E00000400000004020000040400000406000004080000040A0
310
000040C0000040E00000600000006020000060400000606000006080000060A0000060C0000060E00000800000008020000080400000806000008080000080A0000080C0000080E00000A0000000A0200000A0400000A0600000A0800000A0A00000A0C00000A0E00000C0000000C0200000C0400000C0600000C0800000C0
310
A00000C0C00000C0E00000E0000000E0200000E0400000E0600000E0800000E0A00000E0C00000E0E00040000000400020004000400040006000400080004000A0004000C0004000E00040200000402020004020400040206000402080004020A0004020C0004020E000404000004040200040404000404060004040800040
310
40A0004040C0004040E00040600000406020004060400040606000406080004060A0004060C0004060E00040800000408020004080400040806000408080004080A0004080C0004080E00040A0000040A0200040A0400040A0600040A0800040A0A00040A0C00040A0E00040C0000040C0200040C0400040C0600040C08000
310
40C0A00040C0C00040C0E00040E0000040E0200040E0400040E0600040E0800040E0A00040E0C00040E0E00080000000800020008000400080006000800080008000A0008000C0008000E00080200000802020008020400080206000802080008020A0008020C0008020E00080400000804020008040400080406000804080
310
008040A0008040C0008040E00080600000806020008060400080606000806080008060A0008060C0008060E00080800000808020008080400080806000808080008080A0008080C0008080E00080A0000080A0200080A0400080A0600080A0800080A0A00080A0C00080A0E00080C0000080C0200080C0400080C0600080C0
310
800080C0A00080C0C00080C0E00080E0000080E0200080E0400080E0600080E0800080E0A00080E0C00080E0E000C0000000C0002000C0004000C0006000C0008000C000A000C000C000C000E000C0200000C0202000C0204000C0206000C0208000C020A000C020C000C020E000C0400000C0402000C0404000C0406000C0
310
408000C040A000C040C000C040E000C0600000C0602000C0604000C0606000C0608000C060A000C060C000C060E000C0800000C0802000C0804000C0806000C0808000C080A000C080C000C080E000C0A00000C0A02000C0A04000C0A06000C0A08000C0A0A000C0A0C000C0A0E000C0C00000C0C02000C0C04000C0C06000
310
C0C08000C0C0A000F0FBFF00A4A0A000808080000000FF0000FF000000FFFF00FF000000FF00FF00FFFF0000FFFFFF0000000000000000000000000000000000000000000000000000000000000000000000000000000000000000000000FFFFFFFF000000000000000000000000000000000000000000000000FFFFFFFFFF
310
FFFFFFFFFFFFFF000000000000000000000000000000000000FFFFFFFFFFFFFF000000FFFFFFFFFFFF000000000000000000000000000000FFFFFFFF00000000FFFF00000000FFFFFFFF00000000000000000000000000FFFFFF000000000000FFFFFFFF00000000FFFFFF0000000000000000000000FFFF00000000FFFF00
310
0000000000FFFF00000000FFFF000000000000000000FFFF0000000000FFFFFFFFFFFFFF000000FFFF000000FFFF00000000000000FFFFFF0000000000FFFF0000000000FFFF00FFFFFFFF00FFFFFF000000000000FFFF0000000000FF000000000000000000FFFFFF0000FF00FFFF000000000000FFFF000000FFFF000000
310
00000000000000000000FFFF00FFFFFFFF00000000FFFF00000000FF0000000000000000000000000000FF00FFFFFFFFFF00000000FFFF0000FFFF0000000000000000000000000000FFFFFF0000FFFFFF00000000FFFF0000FFFF000000000000000000000000000000FFFF0000FFFFFF000000FFFF00000000FF00000000
310
000000000000000000000000000000FFFFFFFF0000FFFF00000000FF0000000000000000000000000000000000000000FFFFFF0000FFFF00000000FF0000000000000000000000000000000000000000FFFFFF0000FFFF00000000FF00000000000000000000000000000000000000FF00FFFF000000FFFF0000FFFF000000
310
00000000000000000000000000000000FFFFFF00000000FFFF0000FFFF000000000000000000000000000000000000FFFFFFFF00000000FFFF00000000FF00000000000000000000000000000000FF00FFFFFF00000000FFFFFF000000FF000000000000000000000000000000FFFFFFFF00FF0000000000FFFF00000000FF
310
FF00000000FFFF000000FFFFFFFFFFFF00FFFF00000000000000FFFF0000000000FFFFFFFFFFFFFFFFFFFFFFFFFF0000FFFF0000000000000000FFFF000000000000FFFFFF000000000000FFFF000000FFFF000000000000000000FFFFFFFFFFFFFF0000000000000000FF00000000FFFF0000000000000000000000FFFFFF
310
FF00000000000000000000FF0000FFFFFF00000000000000000000000000FFFFFFFFFF000000000000FFFF00FFFFFFFF00000000000000000000000000000000FFFFFFFFFFFFFFFFFFFFFFFFFFFF0000000000000000000000000000000000000000FFFFFFFFFFFFFFFFFFFF00000000000000000000000000000000000000
310
0000000000FFFFFFFFFF00000000000000000000000000000000000000000000000000000000000000000000000000000000000000000000
102
{BLKREFS
331
331
102
}
1001
ACAD
1000
DesignCenter Data
1002
{
1070
     1
1070
     1
1002
}
  0
ENDTAB
  0
ENDSEC
  0
SECTION
  2
BLOCKS
  0
BLOCK
  5
20
330
1F
100
AcDbEntity
  8
0
100
AcDbBlockBegin
  2
*Model_Space
 70
     0
 10
0.0
 20
0.0
 30
0.0
  3
*Model_Space
  1

  0
ENDBLK
  5
21
330
1F
100
AcDbEntity
  8
0
100
AcDbBlockEnd
  0
BLOCK
  5
5A
330
58
100
AcDbEntity
 67
     1
  8
0
100
AcDbBlockBegin
  2
*Paper_Space
 70
     0
 10
0.0
 20
0.0
 30
0.0
  3
*Paper_Space
  1

  0
ENDBLK
  5
5B
330
58
100
AcDbEntity
 67
     1
  8
0
100
AcDbBlockEnd
  0
BLOCK
  5
5F
330
5D
100
AcDbEntity
  8
0
100
AcDbBlockBegin
  2
*Paper_Space0
 70
     0
 10
0.0
 20
0.0
 30
0.0
  3
*Paper_Space0
  1

  0
ENDBLK
  5
60
330
5D
100
AcDbEntity
  8
0
100
AcDbBlockEnd
  0
BLOCK
  5
1A6
330
1A5
100
AcDbEntity
  8
0
100
AcDbBlockBegin
  2
68600_P
 70
     0
 10
0.0
 20
0.0
 30
0.0
  3
68600_P
  1

  0
ARC
  5
1A8
330
1A5
100
AcDbEntity
  8
0
100
AcDbCircle
 10
937.6235917318554
 20
-949.6235917570247
 30
0.0
 40
12.0
100
AcDbArc
 50
315.0000000000184
 51
44.99999999629222
  0
ARC
  5
1A9
330
1A5
100
AcDbEntity
  8
0
100
AcDbCircle
 10
937.6235917318554
 20
-949.6235917570247
 30
0.0
 40
7.0
100
AcDbArc
 50
315.0000000000184
 51
44.99999999629222
  0
ARC
  5
1AA
330
1A5
100
AcDbEntity
  8
0
100
AcDbCircle
 10
937.6235917318554
 20
-949.6235917570247
 30
0.0
 40
9.5
100
AcDbArc
 50
315.0000000000184
 51
44.99999999629222
  0
ARC
  5
1AB
330
1A5
100
AcDbEntity
  8
0
100
AcDbCircle
 10
541.7778006525895
 20
-654.623591853362
 30
0.0
 40
30.0
100
AcDbArc
 50
27.68219804867787
 51
173.931549879956
  0
ARC
  5
1AC
330
1A5
100
AcDbEntity
  8
0
100
AcDbCircle
 10
0.0
 20
-12.0
 30
0.0
 40
7.0
100
AcDbArc
 50
44.99999999998157
 51
135.0000000000184
  0
ARC
  5
1AD
330
1A5
100
AcDbEntity
  8
0
100
AcDbCircle
 10
-176.77669541869
 20
-949.6235918533621
 30
0.0
 40
800.0
100
AcDbArc
 50
82.91298251784326
 51
86.9581315128787
  0
ARC
  5
1AE
330
1A5
100
AcDbEntity
  8
0
100
AcDbCircle
 10
-81.77669541868999
 20
-185.5064542363607
 30
0.0
 40
30.0
100
AcDbArc
 50
262.9129825178432
 51
82.91298251784326
  0
LINE
  5
1AF
330
1A5
100
AcDbEntity
  8
0
100
AcDbLine
 10
-8.485281374239093
 20
-3.514718625761815
 30
0.0
 11
-147.3554118042539
 21
-142.3848489337233
 31
0.0
  0
LINE
  5
1B0
330
1A5
100
AcDbEntity
  8
0
100
AcDbLine
 10
-6.717514422049134
 20
-5.282485579505191
 30
0.0
 11
-145.5876448520648
 21
-144.1526158874667
 31
0.0
  0
LINE
  5
1B1
330
1A5
100
AcDbEntity
  8
0
100
AcDbLine
 10
-4.949747469860085
 20
-7.050252533248567
 30
0.0
 11
-143.8198778998749
 21
-145.9203828412101
 31
0.0
  0
ARC
  5
1B2
330
1A5
100
AcDbEntity
  8
0
100
AcDbCircle
 10
0.0
 20
-12.0
 30
0.0
 40
12.0
100
AcDbArc
 50
44.99999999998157
 51
135.0000000000184
  0
ARC
  5
1B3
330
1A5
100
AcDbEntity
  8
0
100
AcDbCircle
 10
0.0
 20
-12.0
 30
0.0
 40
9.5
100
AcDbArc
 50
44.99999999998157
 51
135.0000000000184
  0
ARC
  5
1B4
330
1A5
100
AcDbEntity
  8
0
100
AcDbCircle
 10
-273.8279371771978
 20
-1250.149122989476
 30
0.0
 40
850.0
100
AcDbArc
 50
65.49369592712757
 51
73.65304935310962
  0
ARC
  5
1B5
330
1A5
100
AcDbEntity
  8
0
100
AcDbCircle
 10
-87.17092504304492
 20
-840.687085895497
 30
0.0
 40
400.0
100
AcDbArc
 50
21.29203371239828
 51
65.49369592712757
  0
ARC
  5
1B6
330
1A5
100
AcDbEntity
  8
0
100
AcDbCircle
 10
-175.9287725490539
 20
-1229.362698270388
 30
0.0
 40
925.0
100
AcDbArc
 50
60.94863240470432
 51
85.82247185042659
  0
ARC
  5
1B7
330
1A5
100
AcDbEntity
  8
0
100
AcDbCircle
 10
-20.53883612779191
 20
-949.6235918533621
 30
0.0
 40
605.0
100
AcDbArc
 50
29.43185177152553
 51
60.94863240470432
  0
LINE
  5
1B8
330
1A5
100
AcDbEntity
  8
0
100
AcDbLine
 10
946.1088731066411
 20
-941.138310383334
 30
0.0
 11
8.485281374238184
 21
-3.514718625761815
 31
0.0
  0
LINE
  5
1B9
330
1A5
100
AcDbEntity
  8
0
100
AcDbLine
 10
944.3411061536508
 20
-942.9060773362767
 30
0.0
 11
6.717514421247869
 21
-5.282485578704381
 31
0.0
  0
LINE
  5
1BA
330
1A5
100
AcDbEntity
  8
0
100
AcDbLine
 10
942.5733392006604
 20
-944.6738442892192
 30
0.0
 11
4.949747468257555
 21
-7.050252531646947
 31
0.0
  0
ARC
  5
1BB
330
1A5
100
AcDbEntity
  8
0
100
AcDbCircle
 10
541.7778006525895
 20
-1244.623591853362
 30
0.0
 40
30.0
100
AcDbArc
 50
186.5492789606867
 51
332.3178019513222
  0
ARC
  5
1BC
330
1A5
100
AcDbEntity
  8
0
100
AcDbCircle
 10
-87.17092504304492
 20
-1058.560097811227
 30
0.0
 40
400.0
100
AcDbArc
 50
294.5063040728724
 51
338.7079662876017
  0
ARC
  5
1BD
330
1A5
100
AcDbEntity
  8
0
100
AcDbCircle
 10
-0.0000002446531653
 20
-1887.247183706295
 30
0.0
 40
12.0
100
AcDbArc
 50
224.9999999999816
 51
315.0000000028971
  0
ARC
  5
1BE
330
1A5
100
AcDbEntity
  8
0
100
AcDbCircle
 10
-0.0000002446531653
 20
-1887.247183706295
 30
0.0
 40
9.5
100
AcDbArc
 50
224.9999999999816
 51
315.0000000028971
  0
ARC
  5
1BF
330
1A5
100
AcDbEntity
  8
0
100
AcDbCircle
 10
-0.0000002446531653
 20
-1887.247183706295
 30
0.0
 40
7.0
100
AcDbArc
 50
224.9999999999816
 51
315.0000000028971
  0
ARC
  5
1C0
330
1A5
100
AcDbEntity
  8
0
100
AcDbCircle
 10
-176.77669541869
 20
-949.6235918533621
 30
0.0
 40
800.0
100
AcDbArc
 50
272.8304641587239
 51
277.0870174821567
  0
LINE
  5
1C1
330
1A5
100
AcDbEntity
  8
0
100
AcDbLine
 10
-8.485281618892258
 20
-1895.732465080533
 30
0.0
 11
-147.3554118042539
 21
-1756.862334773002
 31
0.0
  0
LINE
  5
1C2
330
1A5
100
AcDbEntity
  8
0
100
AcDbLine
 10
-6.717514665147973
 20
-1893.964698128344
 30
0.0
 11
-145.5876448505096
 21
-1755.094567820813
 31
0.0
  0
LINE
  5
1C3
330
1A5
100
AcDbEntity
  8
0
100
AcDbLine
 10
-4.949747711403688
 20
-1892.196931176155
 30
0.0
 11
-143.8198778967653
 21
-1753.326800868624
 31
0.0
  0
ARC
  5
1C4
330
1A5
100
AcDbEntity
  8
0
100
AcDbCircle
 10
-81.77669541868999
 20
-1713.740729470364
 30
0.0
 40
30.0
100
AcDbArc
 50
277.0870174821567
 51
97.08701748215673
  0
ARC
  5
1C5
330
1A5
100
AcDbEntity
  8
0
100
AcDbCircle
 10
-20.53883612779191
 20
-949.6235918533621
 30
0.0
 40
605.0
100
AcDbArc
 50
299.0513675952957
 51
330.5681482284744
  0
ARC
  5
1C6
330
1A5
100
AcDbEntity
  8
0
100
AcDbCircle
 10
-366.6934423286694
 20
-949.6235918533621
 30
0.0
 40
700.0
100
AcDbArc
 50
338.7079662876017
 51
21.29203371239828
  0
ARC
  5
1C7
330
1A5
100
AcDbEntity
  8
0
100
AcDbCircle
 10
-20.53883612779191
 20
-949.6235918533621
 30
0.0
 40
605.0
100
AcDbArc
 50
332.017923744224
 51
27.98207625577603
  0
ARC
  5
1C8
330
1A5
100
AcDbEntity
  8
0
100
AcDbCircle
 10
-20.53883612779191
 20
-949.6235918533621
 30
0.0
 40
665.0
100
AcDbArc
 50
332.3178019513222
 51
27.68219804867787
  0
LINE
  5
1C9
330
1A5
100
AcDbEntity
  8
0
100
AcDbLine
 10
946.1088731060936
 20
-958.1088731312629
 30
0.0
 11
8.485281129462237
 21
-1895.732465080658
 31
0.0
  0
LINE
  5
1CA
330
1A5
100
AcDbEntity
  8
0
100
AcDbLine
 10
944.3411061531532
 20
-956.3411061782709
 30
0.0
 11
6.717514176521945
 21
-1893.964698127665
 31
0.0
  0
LINE
  5
1CB
330
1A5
100
AcDbEntity
  8
0
100
AcDbLine
 10
942.573339200212
 20
-954.5733392252786
 30
0.0
 11
4.949747223580743
 21
-1892.196931174673
 31
0.0
  0
LINE
  5
1CC
330
1A5
100
AcDbEntity
  8
0
100
AcDbLine
 10
-242.1677542374037
 20
-400.1748324210224
 30
0.0
 11
-246.4763732956599
 21
-404.377922860172
 31
0.0
  0
ARC
  5
1CD
330
1A5
100
AcDbEntity
  8
0
100
AcDbCircle
 10
-243.5643269754737
 20
-398.7431953904606
 30
0.0
 40
2.0
100
AcDbArc
 50
314.2896803250961
 51
348.9477615145722
  0
ARC
  5
1CE
330
1A5
100
AcDbEntity
  8
0
100
AcDbCircle
 10
-290.6740617841006
 20
-389.5414082672528
 30
0.0
 40
50.0
100
AcDbArc
 50
348.9477615145722
 51
359.265938699363
  0
LINE
  5
1CF
330
1A5
100
AcDbEntity
  8
0
100
AcDbLine
 10
-249.5376173822515
 20
-420.0976999704998
 30
0.0
 11
-249.5376173822515
 21
-420.0976999704998
 31
0.0
  0
POLYLINE
  5
1D0
330
1A5
100
AcDbEntity
  8
0
100
AcDb2dPolyline
 66
     1
 10
0.0
 20
0.0
 30
0.0
 70
     4
 75
     6
  0
VERTEX
  5
1D1
330
1D0
100
AcDbEntity
  8
0
100
AcDbVertex
100
AcDb2dVertex
 10
-249.5376173822515
 20
-420.0976999705003
 30
0.0
 70
    16
  0
VERTEX
  5
1D2
330
1D0
100
AcDbEntity
  8
0
100
AcDbVertex
100
AcDb2dVertex
 10
-249.5376173822515
 20
-420.0976999705003
 30
0.0
 70
     8
  0
VERTEX
  5
1D3
330
1D0
100
AcDbEntity
  8
0
100
AcDbVertex
100
AcDb2dVertex
 10
-249.3282227965456
 20
-419.5109824500205
 30
0.0
 70
     8
  0
VERTEX
  5
1D4
330
1D0
100
AcDbEntity
  8
0
100
AcDbVertex
100
AcDb2dVertex
 10
-249.1590531165111
 20
-419.0088444147104
 30
0.0
 70
     8
  0
VERTEX
  5
1D5
330
1D0
100
AcDbEntity
  8
0
100
AcDbVertex
100
AcDb2dVertex
 10
-249.0247063261795
 20
-418.580622666981
 30
0.0
 70
     8
  0
VERTEX
  5
1D6
330
1D0
100
AcDbEntity
  8
0
100
AcDbVertex
100
AcDb2dVertex
 10
-248.9197804095875
 20
-418.2156540092401
 30
0.0
 70
     8
  0
VERTEX
  5
1D7
330
1D0
100
AcDbEntity
  8
0
100
AcDbVertex
100
AcDb2dVertex
 10
-248.8388733507672
 20
-417.9032752438988
 30
0.0
 70
     8
  0
VERTEX
  5
1D8
330
1D0
100
AcDbEntity
  8
0
100
AcDbVertex
100
AcDb2dVertex
 10
-248.776583133752
 20
-417.6328231733673
 30
0.0
 70
     8
  0
VERTEX
  5
1D9
330
1D0
100
AcDbEntity
  8
0
100
AcDbVertex
100
AcDb2dVertex
 10
-248.7275077425766
 20
-417.3936346000545
 30
0.0
 70
     8
  0
VERTEX
  5
1DA
330
1D0
100
AcDbEntity
  8
0
100
AcDbVertex
100
AcDb2dVertex
 10
-248.6862451612742
 20
-417.1750463263715
 30
0.0
 70
     8
  0
VERTEX
  5
1DB
330
1D0
100
AcDbEntity
  8
0
100
AcDbVertex
100
AcDb2dVertex
 10
-248.6483281447363
 20
-416.967721303029
 30
0.0
 70
     8
  0
VERTEX
  5
1DC
330
1D0
100
AcDbEntity
  8
0
100
AcDbVertex
100
AcDb2dVertex
 10
-248.6130285312747
 20
-416.7676270739584
 30
0.0
 70
     8
  0
VERTEX
  5
1DD
330
1D0
100
AcDbEntity
  8
0
100
AcDbVertex
100
AcDb2dVertex
 10
-248.5805529300614
 20
-416.5720573313879
 30
0.0
 70
     8
  0
VERTEX
  5
1DE
330
1D0
100
AcDbEntity
  8
0
100
AcDbVertex
100
AcDb2dVertex
 10
-248.5511079502667
 20
-416.3783057675478
 30
0.0
 70
     8
  0
VERTEX
  5
1DF
330
1D0
100
AcDbEntity
  8
0
100
AcDbVertex
100
AcDb2dVertex
 10
-248.5249002010614
 20
-416.1836660746699
 30
0.0
 70
     8
  0
VERTEX
  5
1E0
330
1D0
100
AcDbEntity
  8
0
100
AcDbVertex
100
AcDb2dVertex
 10
-248.5021362916141
 20
-415.9854319449841
 30
0.0
 70
     8
  0
VERTEX
  5
1E1
330
1D0
100
AcDbEntity
  8
0
100
AcDbVertex
100
AcDb2dVertex
 10
-248.4830228310966
 20
-415.7808970707224
 30
0.0
 70
     8
  0
VERTEX
  5
1E2
330
1D0
100
AcDbEntity
  8
0
100
AcDbVertex
100
AcDb2dVertex
 10
-248.4677664286792
 20
-415.5673551441145
 30
0.0
 70
     8
  0
VERTEX
  5
1E3
330
1D0
100
AcDbEntity
  8
0
100
AcDbVertex
100
AcDb2dVertex
 10
-248.456497268
 20
-415.3425386837734
 30
0.0
 70
     8
  0
VERTEX
  5
1E4
330
1D0
100
AcDbEntity
  8
0
100
AcDbVertex
100
AcDb2dVertex
 10
-248.4490398305697
 20
-415.1059355138472
 30
0.0
 70
     8
  0
VERTEX
  5
1E5
330
1D0
100
AcDbEntity
  8
0
100
AcDbVertex
100
AcDb2dVertex
 10
-248.4451421723643
 20
-414.8574722848625
 30
0.0
 70
     8
  0
VERTEX
  5
1E6
330
1D0
100
AcDbEntity
  8
0
100
AcDbVertex
100
AcDb2dVertex
 10
-248.4445523493614
 20
-414.5970756473484
 30
0.0
 70
     8
  0
VERTEX
  5
1E7
330
1D0
100
AcDbEntity
  8
0
100
AcDbVertex
100
AcDb2dVertex
 10
-248.4470184175397
 20
-414.3246722518352
 30
0.0
 70
     8
  0
VERTEX
  5
1E8
330
1D0
100
AcDbEntity
  8
0
100
AcDbVertex
100
AcDb2dVertex
 10
-248.4522884328762
 20
-414.040188748851
 30
0.0
 70
     8
  0
VERTEX
  5
1E9
330
1D0
100
AcDbEntity
  8
0
100
AcDbVertex
100
AcDb2dVertex
 10
-248.4601104513485
 20
-413.743551788923
 30
0.0
 70
     8
  0
VERTEX
  5
1EA
330
1D0
100
AcDbEntity
  8
0
100
AcDbVertex
100
AcDb2dVertex
 10
-248.4702325289336
 20
-413.4346880225816
 30
0.0
 70
     8
  0
VERTEX
  5
1EB
330
1D0
100
AcDbEntity
  8
0
100
AcDbVertex
100
AcDb2dVertex
 10
-248.482242101969
 20
-413.1139509343093
 30
0.0
 70
     8
  0
VERTEX
  5
1EC
330
1D0
100
AcDbEntity
  8
0
100
AcDbVertex
100
AcDb2dVertex
 10
-248.4950841282343
 20
-412.783401344403
 30
0.0
 70
     8
  0
VERTEX
  5
1ED
330
1D0
100
AcDbEntity
  8
0
100
AcDbVertex
100
AcDb2dVertex
 10
-248.5075429458657
 20
-412.4455269071131
 30
0.0
 70
     8
  0
VERTEX
  5
1EE
330
1D0
100
AcDbEntity
  8
0
100
AcDbVertex
100
AcDb2dVertex
 10
-248.5184028930016
 20
-412.1028152766907
 30
0.0
 70
     8
  0
VERTEX
  5
1EF
330
1D0
100
AcDbEntity
  8
0
100
AcDbVertex
100
AcDb2dVertex
 10
-248.5264483077808
 20
-411.7577541073861
 30
0.0
 70
     8
  0
VERTEX
  5
1F0
330
1D0
100
AcDbEntity
  8
0
100
AcDbVertex
100
AcDb2dVertex
 10
-248.5304635283392
 20
-411.4128310534506
 30
0.0
 70
     8
  0
VERTEX
  5
1F1
330
1D0
100
AcDbEntity
  8
0
100
AcDbVertex
100
AcDb2dVertex
 10
-248.5292328928153
 20
-411.0705337691351
 30
0.0
 70
     8
  0
VERTEX
  5
1F2
330
1D0
100
AcDbEntity
  8
0
100
AcDbVertex
100
AcDb2dVertex
 10
-248.5215407393489
 20
-410.7333499086898
 30
0.0
 70
     8
  0
VERTEX
  5
1F3
330
1D0
100
AcDbEntity
  8
0
100
AcDbVertex
100
AcDb2dVertex
 10
-248.5062753247494
 20
-410.4029480911658
 30
0.0
 70
     8
  0
VERTEX
  5
1F4
330
1D0
100
AcDbEntity
  8
0
100
AcDbVertex
100
AcDb2dVertex
 10
-248.4827405805317
 20
-410.0777207948149
 30
0.0
 70
     8
  0
VERTEX
  5
1F5
330
1D0
100
AcDbEntity
  8
0
100
AcDbVertex
100
AcDb2dVertex
 10
-248.450344356882
 20
-409.7552414626875
 30
0.0
 70
     8
  0
VERTEX
  5
1F6
330
1D0
100
AcDbEntity
  8
0
100
AcDbVertex
100
AcDb2dVertex
 10
-248.4084945039867
 20
-409.4330835378359
 30
0.0
 70
     8
  0
VERTEX
  5
1F7
330
1D0
100
AcDbEntity
  8
0
100
AcDbVertex
100
AcDb2dVertex
 10
-248.3565988720311
 20
-409.108820463311
 30
0.0
 70
     8
  0
VERTEX
  5
1F8
330
1D0
100
AcDbEntity
  8
0
100
AcDbVertex
100
AcDb2dVertex
 10
-248.2940653112046
 20
-408.7800256821647
 30
0.0
 70
     8
  0
VERTEX
  5
1F9
330
1D0
100
AcDbEntity
  8
0
100
AcDbVertex
100
AcDb2dVertex
 10
-248.2203016716921
 20
-408.4442726374477
 30
0.0
 70
     8
  0
VERTEX
  5
1FA
330
1D0
100
AcDbEntity
  8
0
100
AcDbVertex
100
AcDb2dVertex
 10
-248.1347158036815
 20
-408.0991347722129
 30
0.0
 70
     8
  0
VERTEX
  5
1FB
330
1D0
100
AcDbEntity
  8
0
100
AcDbVertex
100
AcDb2dVertex
 10
-248.0357839218896
 20
-407.7415389111165
 30
0.0
 70
     8
  0
VERTEX
  5
1FC
330
1D0
100
AcDbEntity
  8
0
100
AcDbVertex
100
AcDb2dVertex
 10
-247.9182556991554
 20
-407.3658254052406
 30
0.0
 70
     8
  0
VERTEX
  5
1FD
330
1D0
100
AcDbEntity
  8
0
100
AcDbVertex
100
AcDb2dVertex
 10
-247.7759491728484
 20
-406.9656879872741
 30
0.0
 70
     8
  0
VERTEX
  5
1FE
330
1D0
100
AcDbEntity
  8
0
100
AcDbVertex
100
AcDb2dVertex
 10
-247.6026823803386
 20
-406.5348203899052
 30
0.0
 70
     8
  0
VERTEX
  5
1FF
330
1D0
100
AcDbEntity
  8
0
100
AcDbVertex
100
AcDb2dVertex
 10
-247.3922733589952
 20
-406.0669163458219
 30
0.0
 70
     8
  0
VERTEX
  5
200
330
1D0
100
AcDbEntity
  8
0
100
AcDbVertex
100
AcDb2dVertex
 10
-247.1385401461875
 20
-405.555669587713
 30
0.0
 70
     8
  0
VERTEX
  5
201
330
1D0
100
AcDbEntity
  8
0
100
AcDbVertex
100
AcDb2dVertex
 10
-246.8353007792848
 20
-404.9947738482664
 30
0.0
 70
     8
  0
VERTEX
  5
202
330
1D0
100
AcDbEntity
  8
0
100
AcDbVertex
100
AcDb2dVertex
 10
-246.4763732956599
 20
-404.3779228601716
 30
0.0
 70
     8
  0
VERTEX
  5
203
330
1D0
100
AcDbEntity
  8
0
100
AcDbVertex
100
AcDb2dVertex
 10
-248.9207968208384
 20
-418.4108688711376
 30
0.0
 70
    16
  0
VERTEX
  5
204
330
1D0
100
AcDbEntity
  8
0
100
AcDbVertex
100
AcDb2dVertex
 10
-248.6605300262654
 20
-417.0690505712882
 30
0.0
 70
    16
  0
VERTEX
  5
205
330
1D0
100
AcDbEntity
  8
0
100
AcDbVertex
100
AcDb2dVertex
 10
-248.4244206444619
 20
-415.69229765201
 30
0.0
 70
    16
  0
VERTEX
  5
206
330
1D0
100
AcDbEntity
  8
0
100
AcDbVertex
100
AcDb2dVertex
 10
-248.4483859679649
 20
-413.5658896853547
 30
0.0
 70
    16
  0
VERTEX
  5
207
330
1D0
100
AcDbEntity
  8
0
100
AcDbVertex
100
AcDb2dVertex
 10
-248.6034306572792
 20
-410.6522717420634
 30
0.0
 70
    16
  0
VERTEX
  5
208
330
1D0
100
AcDbEntity
  8
0
100
AcDbVertex
100
AcDb2dVertex
 10
-248.2671358390071
 20
-408.225122798532
 30
0.0
 70
    16
  0
VERTEX
  5
209
330
1D0
100
AcDbEntity
  8
0
100
AcDbVertex
100
AcDb2dVertex
 10
-247.5132591521906
 20
-406.1030713975688
 30
0.0
 70
    16
  0
VERTEX
  5
20A
330
1D0
100
AcDbEntity
  8
0
100
AcDbVertex
100
AcDb2dVertex
 10
-246.4763732956599
 20
-404.3779228601716
 30
0.0
 70
    16
  0
SEQEND
  5
20B
330
1D0
100
AcDbEntity
  8
0
  0
ARC
  5
20C
330
1A5
100
AcDbEntity
  8
0
100
AcDbCircle
 10
-307.5787217770939
 20
-397.5511426462654
 30
0.0
 40
50.0
100
AcDbArc
 50
328.9581897736352
 51
348.3124507275734
  0
ARC
  5
20D
330
1A5
100
AcDbEntity
  8
0
100
AcDbCircle
 10
-734.8769311260284
 20
98.48209660034308
 30
0.0
 40
695.0
100
AcDbArc
 50
313.2567205368003
 51
315.3226401133173
  0
ARC
  5
20E
330
1A5
100
AcDbEntity
  8
0
100
AcDbCircle
 10
-621.8263897655997
 20
-248.3389448594453
 30
0.0
 40
410.0
100
AcDbArc
 50
314.8575484345642
 51
335.233339328332
  0
ARC
  5
20F
330
1A5
100
AcDbEntity
  8
0
100
AcDbCircle
 10
-616.0235666590415
 20
-211.9123060151578
 30
0.0
 40
410.0
100
AcDbArc
 50
309.9721900145479
 51
328.9581897736352
  0
ARC
  5
210
330
1A5
100
AcDbEntity
  8
0
100
AcDbCircle
 10
-734.8769311260284
 20
98.48209660034308
 30
0.0
 40
695.0
100
AcDbArc
 50
294.0016698651816
 51
296.0324420057958
  0
ARC
  5
211
330
1A5
100
AcDbEntity
  8
0
100
AcDbCircle
 10
-391.1780665695396
 20
-480.1370272648991
 30
0.0
 40
60.0
100
AcDbArc
 50
229.8627216240186
 51
309.9721900145479
  0
ARC
  5
212
330
1A5
100
AcDbEntity
  8
0
100
AcDbCircle
 10
-391.1780665695396
 20
-480.1370272648991
 30
0.0
 40
83.0
100
AcDbArc
 50
222.6995093661265
 51
314.8575484345642
  0
CIRCLE
  5
213
330
1A5
100
AcDbEntity
  8
0
100
AcDbCircle
 10
-695.5921285244212
 20
-949.6235918533621
 30
0.0
 40
37.5
  0
CIRCLE
  5
214
330
1A5
100
AcDbEntity
  8
0
100
AcDbCircle
 10
-695.5921285244212
 20
-949.6235918533621
 30
0.0
 40
26.0
  0
ARC
  5
215
330
1A5
100
AcDbEntity
  8
0
100
AcDbCircle
 10
-649.477314990936
 20
-786.739793665436
 30
0.0
 40
200.0
100
AcDbArc
 50
95.47184419215033
 51
160.7122757260005
  0
ARC
  5
216
330
1A5
100
AcDbEntity
  8
0
100
AcDbCircle
 10
-651.6857108893482
 20
-793.3438497222796
 30
0.0
 40
155.0
100
AcDbArc
 50
91.65348313846537
 51
161.3111102224782
  0
ARC
  5
217
330
1A5
100
AcDbEntity
  8
0
100
AcDbCircle
 10
-733.8678987143557
 20
94.22741876577584
 30
0.0
 40
685.0
100
AcDbArc
 50
275.4718441921503
 51
319.5313696563224
  0
ARC
  5
218
330
1A5
100
AcDbEntity
  8
0
100
AcDbCircle
 10
-678.2847653971466
 20
128.0991477946963
 30
0.0
 40
766.8268315544834
100
AcDbArc
 50
271.6534831384654
 51
309.135307120668
  0
ARC
  5
219
330
1A5
100
AcDbEntity
  8
0
100
AcDbCircle
 10
-271.9286176963706
 20
-980.3825204247914
 30
0.0
 40
600.0
100
AcDbArc
 50
197.9140095570397
 51
252.8194265544862
  0
ARC
  5
21A
330
1A5
100
AcDbEntity
  8
0
100
AcDbCircle
 10
-324.8767225425727
 20
-995.3552216723974
 30
0.0
 40
500.0
100
AcDbArc
 50
197.1601022464834
 51
261.6132834111664
  0
ARC
  5
21B
330
1A5
100
AcDbEntity
  8
0
100
AcDbCircle
 10
-176.77669541869
 20
-949.6235918533621
 30
0.0
 40
700.0
100
AcDbArc
 50
160.9085091742288
 51
197.9140095570397
  0
ARC
  5
21C
330
1A5
100
AcDbEntity
  8
0
100
AcDbCircle
 10
-176.77669541869
 20
-949.6235918533621
 30
0.0
 40
655.0
100
AcDbArc
 50
161.6728671102776
 51
197.1601022464834
  0
ARC
  5
21D
330
1A5
100
AcDbEntity
  8
0
100
AcDbCircle
 10
-165.0330813339187
 20
-124.7071794040603
 30
0.0
 40
25.0
100
AcDbArc
 50
269.184385153298
 51
315.0000000000184
  0
ARC
  5
21E
330
1A5
100
AcDbEntity
  8
0
100
AcDbCircle
 10
-165.0330813339178
 20
-1774.540004302665
 30
0.0
 40
25.0
100
AcDbArc
 50
44.99999999998157
 51
90.81561484670201
  0
ARC
  5
21F
330
1A5
100
AcDbEntity
  8
0
100
AcDbCircle
 10
-273.8279371771978
 20
-649.0980607172486
 30
0.0
 40
850.0
100
AcDbArc
 50
261.6132834111664
 51
294.5063040728724
  0
ARC
  5
220
330
1A5
100
AcDbEntity
  8
0
100
AcDbCircle
 10
-176.77669541869
 20
-949.6235918533621
 30
0.0
 40
740.0
100
AcDbArc
 50
82.91298251784326
 51
277.0870174821567
  0
ARC
  5
221
330
1A5
100
AcDbEntity
  8
0
100
AcDbCircle
 10
-175.9287725490539
 20
-669.8844854363378
 30
0.0
 40
925.0
100
AcDbArc
 50
252.8194265544862
 51
299.0513675952957
  0
ARC
  5
222
330
1A5
100
AcDbEntity
  8
0
100
AcDbCircle
 10
-117.6511429419734
 20
-431.4881981844536
 30
0.0
 40
125.0
100
AcDbArc
 50
85.82247185042659
 51
139.5313696563223
  0
ARC
  5
223
330
1A5
100
AcDbEntity
  8
0
100
AcDbCircle
 10
-83.84708071282876
 20
-602.4360119773055
 30
0.0
 40
175.0
100
AcDbArc
 50
73.65304935310962
 51
129.135307120668
  0
ARC
  5
224
330
1A5
100
AcDbEntity
  8
0
100
AcDbCircle
 10
-176.77669541869
 20
-949.6235918533621
 30
0.0
 40
800.0
100
AcDbArc
 50
89.184385153298
 51
270.815614846702
  0
ARC
  5
225
330
1A5
100
AcDbEntity
  8
0
100
AcDbCircle
 10
-165.0330813339187
 20
-124.7071794040603
 30
0.0
 40
27.5
100
AcDbArc
 50
269.184385153298
 51
315.0000000000184
  0
ARC
  5
226
330
1A5
100
AcDbEntity
  8
0
100
AcDbCircle
 10
-165.0330813339187
 20
-124.7071794040603
 30
0.0
 40
30.0
100
AcDbArc
 50
269.184385153298
 51
315.0000000000184
  0
ARC
  5
227
330
1A5
100
AcDbEntity
  8
0
100
AcDbCircle
 10
-176.77669541869
 20
-949.6235918533621
 30
0.0
 40
797.5
100
AcDbArc
 50
89.184385153298
 51
270.815614846702
  0
ARC
  5
228
330
1A5
100
AcDbEntity
  8
0
100
AcDbCircle
 10
-176.77669541869
 20
-949.6235918533621
 30
0.0
 40
795.0
100
AcDbArc
 50
89.184385153298
 51
270.815614846702
  0
ARC
  5
229
330
1A5
100
AcDbEntity
  8
0
100
AcDbCircle
 10
-165.0330813339178
 20
-1774.540004302665
 30
0.0
 40
27.5
100
AcDbArc
 50
44.99999999998157
 51
90.81561484670201
  0
ARC
  5
22A
330
1A5
100
AcDbEntity
  8
0
100
AcDbCircle
 10
-165.0330813339178
 20
-1774.540004302665
 30
0.0
 40
30.0
100
AcDbArc
 50
44.99999999998157
 51
90.81561484670201
  0
ENDBLK
  5
1A7
330
1A5
100
AcDbEntity
  8
0
100
AcDbBlockEnd
  0
BLOCK
  5
26E
330
26D
100
AcDbEntity
  8
0
100
AcDbBlockBegin
  2
68700_P
 70
     0
 10
0.0
 20
0.0
 30
0.0
  3
68700_P
  1

  0
ARC
  5
270
330
26D
100
AcDbEntity
  8
0
100
AcDbCircle
 10
-534.5132478293074
 20
-141.1671017038227
 30
0.0
 40
350.0
100
AcDbArc
 50
59.43928516971084
 51
95.85846333416233
  0
ARC
  5
271
330
26D
100
AcDbEntity
  8
0
100
AcDbCircle
 10
-558.7209151926601
 20
-224.3031755001823
 30
0.0
 40
400.0
100
AcDbArc
 50
60.73714554172032
 51
96.45120026369458
  0
ARC
  5
272
330
26D
100
AcDbEntity
  8
0
100
AcDbCircle
 10
-686.2269616013421
 20
365.8858341995663
 30
0.0
 40
150.0
100
AcDbArc
 50
21.72431554274849
 51
82.57018672129099
  0
ARC
  5
273
330
26D
100
AcDbEntity
  8
0
100
AcDbCircle
 10
-96.32747311614298
 20
600.925391476421
 30
0.0
 40
511.8051065034637
100
AcDbArc
 50
201.7243155427485
 51
239.4392851697108
  0
ARC
  5
274
330
26D
100
AcDbEntity
  8
0
100
AcDbCircle
 10
-686.2269616013421
 20
365.8858341995663
 30
0.0
 40
123.1948934965362
100
AcDbArc
 50
21.72431554274849
 51
82.57018672129099
  0
ARC
  5
275
330
26D
100
AcDbEntity
  8
0
100
AcDbCircle
 10
-96.32747311614298
 20
600.925391476421
 30
0.0
 40
485.0
100
AcDbArc
 50
201.7243155427485
 51
248.6154452973722
  0
ARC
  5
276
330
26D
100
AcDbEntity
  8
0
100
AcDbCircle
 10
-96.32747311614298
 20
600.925391476421
 30
0.0
 40
545.9439111435874
100
AcDbArc
 50
240.7371455417203
 51
248.6154452973722
  0
CIRCLE
  5
277
330
26D
100
AcDbEntity
  8
0
100
AcDbCircle
 10
-333.4980906748008
 20
-418.9499203488396
 30
0.0
 40
26.0
  0
CIRCLE
  5
278
330
26D
100
AcDbEntity
  8
0
100
AcDbCircle
 10
-333.4980906748008
 20
-418.9499203488396
 30
0.0
 40
37.5
  0
LINE
  5
279
330
26D
100
AcDbEntity
  8
0
100
AcDbLine
 10
-756.2310125960323
 20
-706.0221857645013
 30
0.0
 11
-303.4762634745177
 21
-541.9067145822748
 31
0.0
  0
ARC
  5
27A
330
26D
100
AcDbEntity
  8
0
100
AcDbCircle
 10
-419.0212929851461
 20
-223.1460244933062
 30
0.0
 40
400.0
100
AcDbArc
 50
297.5317050160972
 51
68.61544529737699
  0
ARC
  5
27B
330
26D
100
AcDbEntity
  8
0
100
AcDbCircle
 10
-419.0212929851461
 20
-223.1460244933062
 30
0.0
 40
339.0560888564126
100
AcDbArc
 50
289.9246718192537
 51
68.61544529737699
  0
ARC
  5
27C
330
26D
100
AcDbEntity
  8
0
100
AcDbCircle
 10
-976.3901543681516
 20
-10.58849829673113
 30
0.0
 40
200.0
100
AcDbArc
 50
79.20696084721527
 51
135.1065579198718
  0
ARC
  5
27D
330
26D
100
AcDbEntity
  8
0
100
AcDbCircle
 10
-1154.591084778077
 20
187.244075991726
 30
0.0
 40
150.0
100
AcDbArc
 50
59.77733668940053
 51
133.6542295991152
  0
ARC
  5
27E
330
26D
100
AcDbEntity
  8
0
100
AcDbCircle
 10
-959.5332159598331
 20
-730.4403728724239
 30
0.0
 40
200.0
100
AcDbArc
 50
248.8268873660061
 51
297.5317050160972
  0
ARC
  5
27F
330
26D
100
AcDbEntity
  8
0
100
AcDbCircle
 10
-763.0405308716128
 20
-223.1460244933062
 30
0.0
 40
501.1623545347634
100
AcDbArc
 50
135.1065579198718
 51
258.2464760386376
  0
CIRCLE
  5
280
330
26D
100
AcDbEntity
  8
0
100
AcDbCircle
 10
-763.0405308716128
 20
-223.1460244933062
 30
0.0
 40
800.0
  0
CIRCLE
  5
281
330
26D
100
AcDbEntity
  8
0
100
AcDbCircle
 10
-763.0405308716128
 20
-223.1460244933062
 30
0.0
 40
744.0192378864667
  0
ARC
  5
282
330
26D
100
AcDbEntity
  8
0
100
AcDbCircle
 10
-824.3878947805381
 20
-517.9938915880995
 30
0.0
 40
200.0
100
AcDbArc
 50
258.2464760386376
 51
289.9246718192537
  0
ARC
  5
283
330
26D
100
AcDbEntity
  8
0
100
AcDbCircle
 10
-656.0262135845389
 20
1043.085436346806
 30
0.0
 40
840.4702746083108
100
AcDbArc
 50
239.7773366894005
 51
275.8584633341623
  0
ARC
  5
284
330
26D
100
AcDbEntity
  8
0
100
AcDbCircle
 10
-763.0405308716128
 20
-223.1460244933062
 30
0.0
 40
717.2141313830029
100
AcDbArc
 50
82.57018672129099
 51
133.6542295991152
  0
ARC
  5
285
330
26D
100
AcDbEntity
  8
0
100
AcDbCircle
 10
-729.3912873169759
 20
1285.080089104447
 30
0.0
 40
1119.001716717127
100
AcDbArc
 50
259.2069608472153
 51
276.4512002636946
  0
LINE
  5
286
330
26D
100
AcDbEntity
  8
0
100
AcDbLine
 10
-234.1255425458105
 20
-577.8480987323421
 30
0.0
 11
-867.0853407401658
 21
-907.791409991942
 31
0.0
  0
CIRCLE
  5
287
330
26D
100
AcDbEntity
  8
0
100
AcDbCircle
 10
-763.0405308716128
 20
-223.1460244933062
 30
0.0
 40
797.5
  0
CIRCLE
  5
288
330
26D
100
AcDbEntity
  8
0
100
AcDbCircle
 10
-763.0405308716128
 20
-223.1460244933062
 30
0.0
 40
795.0
  0
ENDBLK
  5
26F
330
26D
100
AcDbEntity
  8
0
100
AcDbBlockEnd
  0
BLOCK
  5
2FC
330
2FB
100
AcDbEntity
  8
0
100
AcDbBlockBegin
  2
68710_P
 70
     0
 10
0.0
 20
0.0
 30
0.0
  3
68710_P
  1

  0
LWPOLYLINE
  5
2FE
330
2FB
100
AcDbEntity
  8
0
100
AcDbPolyline
 90
        2
 70
     0
 43
8.0
 10
-758.7203413609767
 20
129.8017812240064
 42
9186.11465879403
 10
-758.4911945301436
 20
130.0627093549087
 42
887.7659549299698
  0
CIRCLE
  5
2FF
330
2FB
100
AcDbEntity
  8
0
100
AcDbCircle
 10
-145.5845901957835
 20
-1047.973216180277
 30
0.0
 40
11.76753925074079
  0
ELLIPSE
  5
300
330
2FB
100
AcDbEntity
  8
0
100
AcDbEllipse
 10
-170.9293413713429
 20
-1004.564921435475
 30
0.0
 11
12.69539393061042
 21
5.554666124477536
 31
0.0
210
0.0
220
0.0
230
1.0
 40
0.3282501634089296
 41
0.0000000000000009
 42
6.283185307179587
  0
LINE
  5
301
330
2FB
100
AcDbEntity
  8
0
100
AcDbLine
 10
-140.7402733818179
 20
5.957153581752663
 30
0.0
 11
-140.5913657913341
 21
10.18195660619358
 31
0.0
  0
LINE
  5
302
330
2FB
100
AcDbEntity
  8
0
100
AcDbLine
 10
-196.204308990077
 20
6.663485278567804
 30
0.0
 11
-196.1739755635698
 21
11.40880630713809
 31
0.0
  0
ELLIPSE
  5
303
330
2FB
100
AcDbEntity
  8
0
100
AcDbEllipse
 10
-168.4283336427114
 20
5.82539021399134
 30
0.0
 11
-27.79147787694856
 21
0.616617280862581
 31
0.0
210
0.0
220
0.0
230
1.0
 40
0.2891010909128095
 41
-0.0000000000000201
 42
6.283185307179565
  0
ELLIPSE
  5
304
330
2FB
100
AcDbEntity
  8
0
100
AcDbEllipse
 10
-168.3819734523657
 20
10.8288784291276
 30
0.0
 11
-27.79147787694856
 21
0.616617280862581
 31
0.0
210
0.0
220
0.0
230
1.0
 40
0.2891010909128095
 41
3.137820318577522
 42
6.287750979078646
  0
ELLIPSE
  5
305
330
2FB
100
AcDbEntity
  8
0
100
AcDbEllipse
 10
541.6737246322519
 20
-396.3100139063286
 30
0.0
 11
0.0
 21
30.0
 31
0.0
210
0.0
220
0.0
230
-1.0
 40
0.118036516391597
 41
0.0
 42
6.283185307179586
  0
SPLINE
  5
306
330
2FB
100
AcDbEntity
  8
0
100
AcDbSpline
210
0.0
220
0.0
230
1.0
 70
     8
 71
     3
 72
    20
 73
    16
 74
     0
 42
0.0000000001
 43
0.0000000001
 40
4.09807738876958
 40
4.09807738876958
 40
4.09807738876958
 40
4.09807738876958
 40
4.1887902047864
 40
4.1887902047864
 40
4.45058959258555
 40
4.45058959258555
 40
4.7123889803847
 40
4.7123889803847
 40
4.97418836818385
 40
4.97418836818385
 40
5.105088062083424
 40
5.105088062083424
 40
5.235987755983
 40
5.235987755983
 40
5.326700572008751
 40
5.326700572008751
 40
5.326700572008751
 40
5.326700572008751
 10
-414.9569856492142
 20
-896.2436647415293
 30
0.0
 10
-414.6516934334148
 20
-896.6129572655987
 30
0.0
 10
-414.32022169048
 20
-896.9885098322734
 30
0.0
 10
-412.9000161260726
 20
-898.4866658761243
 30
0.0
 10
-411.6722167569131
 20
-899.5750241454912
 30
0.0
 10
-408.9706678966357
 20
-901.6064611758352
 30
0.0
 10
-407.497244623344
 20
-902.5499737281311
 30
0.0
 10
-404.4192079877592
 20
-904.2214800956758
 30
0.0
 10
-402.8315652561376
 20
-904.9413317947442
 30
0.0
 10
-400.4413161434703
 20
-905.8144446396731
 30
0.0
 10
-399.6544201330697
 20
-906.0672696810938
 30
0.0
 10
-398.0852418793619
 20
-906.5018316835253
 30
0.0
 10
-397.3025859300741
 20
-906.6822180841814
 30
0.0
 10
-396.0481628879506
 20
-906.9142067407952
 30
0.0
 10
-395.546455721087
 20
-906.9890640881418
 30
0.0
 10
-395.0678068200922
 20
-907.0443448482842
 30
0.0
  0
SPLINE
  5
307
330
2FB
100
AcDbEntity
  8
0
100
AcDbSpline
210
0.0
220
0.0
230
1.0
 70
     8
 71
     3
 72
    20
 73
    16
 74
     0
 42
0.0000000001
 43
0.0000000001
 40
0.9564847351797714
 40
0.9564847351797714
 40
0.9564847351797714
 40
0.9564847351797714
 40
1.0471975511966
 40
1.0471975511966
 40
1.30899693899575
 40
1.30899693899575
 40
1.5707963267949
 40
1.5707963267949
 40
1.83259571459405
 40
1.83259571459405
 40
1.963495408493625
 40
1.963495408493625
 40
2.0943951023932
 40
2.0943951023932
 40
2.185107918419384
 40
2.185107918419384
 40
2.185107918419384
 40
2.185107918419384
 10
-395.0678068207825
 20
-907.0443448493138
 30
0.0
 10
-395.373099036582
 20
-906.6750523252444
 30
0.0
 10
-395.7045707795231
 20
-906.2994997585589
 30
0.0
 10
-397.1247763439304
 20
-904.8013437147087
 30
0.0
 10
-398.35257571309
 20
-903.7129854453429
 30
0.0
 10
-401.0541245733628
 20
-901.6815484150015
 30
0.0
 10
-402.5275478466491
 20
-900.738035862701
 30
0.0
 10
-405.6055844822439
 20
-899.0665294951563
 30
0.0
 10
-407.1932272138591
 20
-898.3466777960897
 30
0.0
 10
-409.5834763265319
 20
-897.4735649511599
 30
0.0
 10
-410.3703723369397
 20
-897.2207399097383
 30
0.0
 10
-411.9395505906539
 20
-896.7861779073059
 30
0.0
 10
-412.7222065399409
 20
-896.6057915066544
 30
0.0
 10
-413.9766295820535
 20
-896.373802850036
 30
0.0
 10
-414.4783367489334
 20
-896.2989455026949
 30
0.0
 10
-414.9569856499218
 20
-896.2436647425489
 30
0.0
  0
SPLINE
  5
308
330
2FB
100
AcDbEntity
  8
0
100
AcDbSpline
210
0.0
220
0.0
230
1.0
 70
    11
 71
     3
 72
    46
 73
    42
 74
     0
 42
0.0000000001
 43
0.0000000001
 40
0.0
 40
0.0
 40
0.0
 40
0.0
 40
0.26179938779915
 40
0.26179938779915
 40
0.5235987755983001
 40
0.5235987755983001
 40
0.7853981633974501
 40
0.7853981633974501
 40
1.0471975511966
 40
1.0471975511966
 40
1.5707963267949
 40
1.5707963267949
 40
2.0943951023932
 40
2.0943951023932
 40
2.35619449019235
 40
2.35619449019235
 40
2.6179938779915
 40
2.6179938779915
 40
2.87979326579065
 40
2.87979326579065
 40
3.1415926535898
 40
3.1415926535898
 40
3.40339204138895
 40
3.40339204138895
 40
3.6651914291881
 40
3.6651914291881
 40
3.92699081698725
 40
3.92699081698725
 40
4.1887902047864
 40
4.1887902047864
 40
4.7123889803847
 40
4.7123889803847
 40
5.235987755983
 40
5.235987755983
 40
5.49778714378215
 40
5.49778714378215
 40
5.7595865315813
 40
5.7595865315813
 40
6.02138591938045
 40
6.02138591938045
 40
6.2831853071796
 40
6.2831853071796
 40
6.2831853071796
 40
6.2831853071796
 10
-385.4290987959765
 20
-912.2785781426969
 30
0.0
 10
-385.2746148062232
 20
-911.9940997887365
 30
0.0
 10
-385.1531413368392
 20
-911.6737110630616
 30
0.0
 10
-385.0536288369375
 20
-910.5505900751454
 30
0.0
 10
-385.1003044591061
 20
-909.7458049087467
 30
0.0
 10
-385.6745827406129
 20
-907.6755167372844
 30
0.0
 10
-386.2275476052145
 20
-906.3657449778661
 30
0.0
 10
-387.9379481964051
 20
-903.5596874636445
 30
0.0
 10
-389.0913322381619
 20
-902.0609340552987
 30
0.0
 10
-393.2292536511176
 20
-897.6958955502045
 30
0.0
 10
-396.6626194875443
 20
-895.1432270942728
 30
0.0
 10
-404.1065773534763
 20
-891.1008375954766
 30
0.0
 10
-408.1171693829809
 20
-889.6111165526139
 30
0.0
 10
-414.0315247308562
 20
-888.5173361405591
 30
0.0
 10
-415.9166426831578
 20
-888.3660521932355
 30
0.0
 10
-419.2015640871976
 20
-888.4594348723362
 30
0.0
 10
-420.6012310213244
 20
-888.7088435264836
 30
0.0
 10
-422.650382265653
 20
-889.3544965566574
 30
0.0
 10
-423.3508071068662
 20
-889.7535740172775
 30
0.0
 10
-424.2386310014715
 20
-890.4486079900376
 30
0.0
 10
-424.4412096842705
 20
-890.7249530941767
 30
0.0
 10
-424.7501776637736
 20
-891.2939098020911
 30
0.0
 10
-424.8716511331612
 20
-891.6142985277733
 30
0.0
 10
-424.9711636330657
 20
-892.7374195156922
 30
0.0
 10
-424.9244880108961
 20
-893.5422046820882
 30
0.0
 10
-424.3502097293893
 20
-895.6124928535505
 30
0.0
 10
-423.7972448647869
 20
-896.9222646129678
 30
0.0
 10
-422.0868442735962
 20
-899.7283221271896
 30
0.0
 10
-420.9334602318393
 20
-901.2270755355361
 30
0.0
 10
-416.7955388188828
 20
-905.5921140406294
 30
0.0
 10
-413.3621729824552
 20
-908.144782496563
 30
0.0
 10
-405.9182151165249
 20
-912.1871719953574
 30
0.0
 10
-401.9076230870203
 20
-913.6768930382208
 30
0.0
 10
-395.9932677391424
 20
-914.7706734502721
 30
0.0
 10
-394.1081497868416
 20
-914.9219573975992
 30
0.0
 10
-390.8232283828037
 20
-914.8285747184996
 30
0.0
 10
-389.4235614486769
 20
-914.5791660643503
 30
0.0
 10
-387.3744102043482
 20
-913.9335130341764
 30
0.0
 10
-386.6739853631351
 20
-913.5344355735565
 30
0.0
 10
-385.786161468527
 20
-912.8394016007947
 30
0.0
 10
-385.5835827857299
 20
-912.5630564966572
 30
0.0
 10
-385.4290987959765
 20
-912.2785781426969
 30
0.0
  0
ELLIPSE
  5
309
330
2FB
100
AcDbEntity
  8
0
100
AcDbEllipse
 10
-405.0123962350006
 20
-901.6440047954178
 30
0.0
 11
26.36354777307968
 21
-14.31654109121798
 31
0.0
210
0.0
220
0.0
230
0.9999999999999998
 40
0.5804310905463396
 41
-0.0000000000001057
 42
6.28318530717948
  0
SPLINE
  5
30A
330
2FB
100
AcDbEntity
  8
0
100
AcDbSpline
210
0.0
220
0.0
230
1.0
 70
     8
 71
     3
 72
    10
 73
     6
 74
     0
 42
0.0000000001
 43
0.0000000001
 40
4.197515940174923
 40
4.197515940174923
 40
4.197515940174923
 40
4.197515940174923
 40
4.7123889803847
 40
4.7123889803847
 40
5.227262020594626
 40
5.227262020594626
 40
5.227262020594626
 40
5.227262020594626
 10
176.0353374201059
 20
-11.20669320484285
 30
0.0
 10
180.346178667087
 20
-12.5019538640945
 30
0.0
 10
184.8358965377521
 20
-14.11485800200762
 30
0.0
 10
193.671675591937
 20
-17.69653376491215
 30
0.0
 10
198.0172232270234
 20
-19.66509721765578
 30
0.0
 10
202.0132059930676
 20
-21.73709484448318
 30
0.0
  0
SPLINE
  5
30B
330
2FB
100
AcDbEntity
  8
0
100
AcDbSpline
210
0.0
220
0.0
230
1.0
 70
     8
 71
     3
 72
    10
 73
     6
 74
     0
 42
0.0000000001
 43
0.0000000001
 40
1.055923286584964
 40
1.055923286584964
 40
1.055923286584964
 40
1.055923286584964
 40
1.5707963267949
 40
1.5707963267949
 40
2.085669367004702
 40
2.085669367004702
 40
2.085669367004702
 40
2.085669367004702
 10
202.0132059930585
 20
-21.73709484450546
 30
0.0
 10
197.702364746072
 20
-20.4418341852529
 30
0.0
 10
193.2126468754087
 20
-18.82893004734069
 30
0.0
 10
184.3768678212237
 20
-15.24725428443662
 30
0.0
 10
180.0313201861373
 20
-13.27869083169253
 30
0.0
 10
176.0353374200932
 20
-11.20669320486467
 30
0.0
  0
SPLINE
  5
30C
330
2FB
100
AcDbEntity
  8
0
100
AcDbSpline
210
0.0
220
0.0
230
1.0
 70
     8
 71
     3
 72
    14
 73
    10
 74
     0
 42
0.0000000001
 43
0.0000000001
 40
4.063900527840287
 40
4.063900527840287
 40
4.063900527840287
 40
4.063900527840287
 40
4.1887902047864
 40
4.1887902047864
 40
4.7123889803847
 40
4.7123889803847
 40
5.235987755983
 40
5.235987755983
 40
5.360877432928742
 40
5.360877432928742
 40
5.360877432928742
 40
5.360877432928742
 10
172.0359289080862
 20
-799.3470118028031
 30
0.0
 10
172.8763388650078
 20
-798.8314901021733
 30
0.0
 10
173.7813574238772
 20
-798.3007183054639
 30
0.0
 10
178.6512577015074
 20
-795.5631784507807
 30
0.0
 10
182.9875282295762
 20
-793.4913221374215
 30
0.0
 10
191.8460591284585
 20
-789.7931227438964
 30
0.0
 10
196.3683194992665
 20
-788.1667796637287
 30
0.0
 10
201.739128328216
 20
-786.6290977418564
 30
0.0
 10
202.7528988813338
 20
-786.3588264749646
 30
0.0
 10
203.7103956681677
 20
-786.1237702631508
 30
0.0
  0
SPLINE
  5
30D
330
2FB
100
AcDbEntity
  8
0
100
AcDbSpline
210
0.0
220
0.0
230
1.0
 70
     8
 71
     3
 72
    14
 73
    10
 74
     0
 42
0.0000000001
 43
0.0000000001
 40
0.9223078742507929
 40
0.9223078742507929
 40
0.9223078742507929
 40
0.9223078742507929
 40
1.0471975511966
 40
1.0471975511966
 40
1.5707963267949
 40
1.5707963267949
 40
2.0943951023932
 40
2.0943951023932
 40
2.219284779339259
 40
2.219284779339259
 40
2.219284779339259
 40
2.219284779339259
 10
203.7103956389056
 20
-786.1237701930429
 30
0.0
 10
202.8699856819823
 20
-786.6392918936715
 30
0.0
 10
201.9649671231146
 20
-787.1700636903796
 30
0.0
 10
197.0950668454899
 20
-789.9076035450619
 30
0.0
 10
192.7587963174193
 20
-791.9794598584189
 30
0.0
 10
183.9002654185352
 20
-795.6776592519452
 30
0.0
 10
179.3780050477236
 20
-797.3040023321125
 30
0.0
 10
174.0071962187741
 20
-798.8416842539861
 30
0.0
 10
172.9934256656526
 20
-799.1119555208779
 30
0.0
 10
172.0359288788187
 20
-799.3470117326924
 30
0.0
  0
ELLIPSE
  5
30E
330
2FB
100
AcDbEntity
  8
0
100
AcDbEllipse
 10
187.8731622734941
 20
-792.7353909979204
 30
0.0
 11
27.68437375602096
 21
11.55748457653967
 31
0.0
210
0.0
220
0.0
230
-1.0
 40
0.2089777704752513
 41
0.0000000000002004
 42
6.283185307179786
  0
ELLIPSE
  5
30F
330
2FB
100
AcDbEntity
  8
0
100
AcDbEllipse
 10
189.0242717065795
 20
-16.47189402467393
 30
0.0
 11
27.80261278267481
 21
-11.27008085404257
 31
0.0
210
0.0
220
0.0
230
-1.0
 40
0.1703649256147326
 41
0.0000000000000445
 42
6.28318530717963
  0
ELLIPSE
  5
310
330
2FB
100
AcDbEntity
  8
0
100
AcDbEllipse
 10
-405.3815070887184
 20
39.29409977242767
 30
0.0
 11
-29.76415321129672
 21
-3.754355286122518
 31
0.0
210
0.0
220
0.0
230
1.0
 40
0.3065026007781729
 41
0.0000000000000014
 42
6.283185307179588
  0
SPLINE
  5
311
330
2FB
100
AcDbEntity
  8
0
100
AcDbSpline
210
0.0
220
0.0
230
1.0
 70
     8
 71
     3
 72
    22
 73
    18
 74
     0
 42
0.0000000001
 43
0.0000000001
 40
0.6003459195211995
 40
0.6003459195211995
 40
0.6003459195211995
 40
0.6003459195211995
 40
0.6544984694978751
 40
0.6544984694978751
 40
0.7853981633974501
 40
0.7853981633974501
 40
1.0471975511966
 40
1.0471975511966
 40
1.5707963267949
 40
1.5707963267949
 40
2.0943951023932
 40
2.0943951023932
 40
2.35619449019235
 40
2.35619449019235
 40
2.487094184091925
 40
2.487094184091925
 40
2.541246734068622
 40
2.541246734068622
 40
2.541246734068622
 40
2.541246734068622
 10
-427.7779423680639
 20
36.46908511836136
 30
0.0
 10
-427.5229684385729
 20
36.38933188274223
 30
0.0
 10
-427.268678383475
 20
36.3158883925853
 30
0.0
 10
-426.2855343692307
 20
36.05482918924281
 30
0.0
 10
-425.5287023775171
 20
35.88951234525211
 30
0.0
 10
-422.8948623003369
 20
35.43214027282693
 30
0.0
 10
-420.8790349789613
 20
35.22478489815694
 30
0.0
 10
-414.2879440465175
 20
34.92991745018935
 30
0.0
 10
-409.5899500989479
 20
35.17145317723362
 30
0.0
 10
-400.2811369321324
 20
36.34563715862351
 30
0.0
 10
-395.6703177128874
 20
37.27828541297004
 30
0.0
 10
-389.3588993595794
 20
39.20063420056568
 30
0.0
 10
-387.4577040943758
 20
39.90207030212332
 30
0.0
 10
-385.0199386748126
 20
40.99915850457182
 30
0.0
 10
-384.3278645734644
 20
41.34723573858673
 30
0.0
 10
-383.4403421366513
 20
41.84425483735185
 30
0.0
 10
-383.2122547992211
 20
41.97854387217012
 30
0.0
 10
-382.9850718610468
 20
42.11911483614722
 30
0.0
  0
SPLINE
  5
312
330
2FB
100
AcDbEntity
  8
0
100
AcDbSpline
210
0.0
220
0.0
230
1.0
 70
     8
 71
     3
 72
    22
 73
    18
 74
     0
 42
0.0000000001
 43
0.0000000001
 40
3.741938573111022
 40
3.741938573111022
 40
3.741938573111022
 40
3.741938573111022
 40
3.796091123087675
 40
3.796091123087675
 40
3.92699081698725
 40
3.92699081698725
 40
4.1887902047864
 40
4.1887902047864
 40
4.7123889803847
 40
4.7123889803847
 40
5.235987755983
 40
5.235987755983
 40
5.49778714378215
 40
5.49778714378215
 40
5.628686837681724
 40
5.628686837681724
 40
5.682839387658605
 40
5.682839387658605
 40
5.682839387658605
 40
5.682839387658605
 10
-382.9850718093756
 20
42.11911442649443
 30
0.0
 10
-383.2400457388638
 20
42.1988676621122
 30
0.0
 10
-383.4943357939609
 20
42.27231115226959
 30
0.0
 10
-384.4774798082016
 20
42.53337035561116
 30
0.0
 10
-385.2343117999216
 20
42.69868719960459
 30
0.0
 10
-387.8681518770989
 20
43.1560592720275
 30
0.0
 10
-389.8839791984755
 20
43.36341464669749
 30
0.0
 10
-396.4750701309193
 20
43.65828209466463
 30
0.0
 10
-401.1730640784916
 20
43.41674636762173
 30
0.0
 10
-410.4818772453044
 20
42.24256238623138
 30
0.0
 10
-415.0926964645485
 20
41.30991413188394
 30
0.0
 10
-421.4041148178528
 20
39.3875653442874
 30
0.0
 10
-423.3053100830638
 20
38.68612924273248
 30
0.0
 10
-425.743075502627
 20
37.58904104028352
 30
0.0
 10
-426.4351496039706
 20
37.24096380626816
 30
0.0
 10
-427.3226720407855
 20
36.74394470750258
 30
0.0
 10
-427.5507593782184
 20
36.6096556726834
 30
0.0
 10
-427.7779423163937
 20
36.46908470870585
 30
0.0
  0
ELLIPSE
  5
313
330
2FB
100
AcDbEntity
  8
0
100
AcDbEllipse
 10
-705.631240129689
 20
-591.3100139063285
 30
0.0
 11
7.145405902550918
 21
-29.13662942908422
 31
0.0
210
0.0
220
0.0
230
1.0
 40
0.5804310905463397
 41
-0.0000000000001077
 42
6.283185307179478
  0
SPLINE
  5
314
330
2FB
100
AcDbEntity
  8
0
100
AcDbSpline
210
0.0
220
0.0
230
1.0
 70
    11
 71
     3
 72
    46
 73
    42
 74
     0
 42
0.0000000001
 43
0.0000000001
 40
0.0
 40
0.0
 40
0.0
 40
0.0
 40
0.26179938779915
 40
0.26179938779915
 40
0.5235987755983001
 40
0.5235987755983001
 40
0.7853981633974501
 40
0.7853981633974501
 40
1.0471975511966
 40
1.0471975511966
 40
1.5707963267949
 40
1.5707963267949
 40
2.0943951023932
 40
2.0943951023932
 40
2.35619449019235
 40
2.35619449019235
 40
2.6179938779915
 40
2.6179938779915
 40
2.87979326579065
 40
2.87979326579065
 40
3.1415926535898
 40
3.1415926535898
 40
3.40339204138895
 40
3.40339204138895
 40
3.6651914291881
 40
3.6651914291881
 40
3.92699081698725
 40
3.92699081698725
 40
4.1887902047864
 40
4.1887902047864
 40
4.7123889803847
 40
4.7123889803847
 40
5.235987755983
 40
5.235987755983
 40
5.49778714378215
 40
5.49778714378215
 40
5.7595865315813
 40
5.7595865315813
 40
6.02138591938045
 40
6.02138591938045
 40
6.2831853071796
 40
6.2831853071796
 40
6.2831853071796
 40
6.2831853071796
 10
-700.3235095345261
 20
-612.9532041700845
 30
0.0
 10
-700.0091079808624
 20
-612.876100992355
 30
0.0
 10
-699.6903480980689
 20
-612.750415366982
 30
0.0
 10
-698.7924776208346
 20
-612.0684094306112
 30
0.0
 10
-698.2284760789696
 20
-611.4924232862153
 30
0.0
 10
-697.083184404946
 20
-609.6746786289773
 30
0.0
 10
-696.4862064220504
 20
-608.3843726609252
 30
0.0
 10
-695.5609456867604
 20
-605.2310693886101
 30
0.0
 10
-695.2281113425268
 20
-603.3694094233892
 30
0.0
 10
-694.7826887968766
 20
-597.3712802545082
 30
0.0
 10
-695.2040925432083
 20
-593.1137532616134
 30
0.0
 10
-697.2216548580908
 20
-584.8867936849956
 30
0.0
 10
-698.8178134266417
 20
-580.9173611012729
 30
0.0
 10
-701.9877402127348
 20
-575.8058526212298
 30
0.0
 10
-703.14411053438
 20
-574.3094020854536
 30
0.0
 10
-705.4232711156654
 20
-571.9419443772389
 30
0.0
 10
-706.549477823777
 20
-571.0742286093404
 30
0.0
 10
-708.4058069112833
 20
-569.9925951333507
 30
0.0
 10
-709.1722977427852
 20
-569.742896148598
 30
0.0
 10
-710.2838270546016
 20
-569.5536712028428
 30
0.0
 10
-710.6245691711882
 20
-569.5897204648436
 30
0.0
 10
-711.2533722785082
 20
-569.7439268203015
 30
0.0
 10
-711.572132161309
 20
-569.8696124456751
 30
0.0
 10
-712.470002638547
 20
-570.5516183820468
 30
0.0
 10
-713.0340041804082
 20
-571.1276045264408
 30
0.0
 10
-714.1792958544319
 20
-572.9453491836793
 30
0.0
 10
-714.7762738373274
 20
-574.2356551517304
 30
0.0
 10
-715.7015345726176
 20
-577.3889584240464
 30
0.0
 10
-716.0343689168511
 20
-579.2506183892678
 30
0.0
 10
-716.4797914625013
 20
-585.2487475581487
 30
0.0
 10
-716.0583877161696
 20
-589.5062745510454
 30
0.0
 10
-714.0408254012871
 20
-597.7332341276624
 30
0.0
 10
-712.4446668327363
 20
-601.7026667113837
 30
0.0
 10
-709.2747400466395
 20
-606.8141751914268
 30
0.0
 10
-708.1183697249979
 20
-608.3106257272052
 30
0.0
 10
-705.8392091437125
 20
-610.6780834354189
 30
0.0
 10
-704.7130024356009
 20
-611.5457992033157
 30
0.0
 10
-702.8566733480946
 20
-612.6274326793058
 30
0.0
 10
-702.0901825165927
 20
-612.8771316640587
 30
0.0
 10
-700.9786532047727
 20
-613.0663566098137
 30
0.0
 10
-700.6379110881897
 20
-613.0303073478139
 30
0.0
 10
-700.3235095345261
 20
-612.9532041700845
 30
0.0
  0
SPLINE
  5
315
330
2FB
100
AcDbEntity
  8
0
100
AcDbSpline
210
0.0
220
0.0
230
1.0
 70
     8
 71
     3
 72
    20
 73
    16
 74
     0
 42
0.0000000001
 43
0.0000000001
 40
0.9564847351797714
 40
0.9564847351797714
 40
0.9564847351797714
 40
0.9564847351797714
 40
1.0471975511966
 40
1.0471975511966
 40
1.30899693899575
 40
1.30899693899575
 40
1.5707963267949
 40
1.5707963267949
 40
1.83259571459405
 40
1.83259571459405
 40
1.963495408493625
 40
1.963495408493625
 40
2.0943951023932
 40
2.0943951023932
 40
2.185107918419384
 40
2.185107918419384
 40
2.185107918419384
 40
2.185107918419384
 10
-702.9359227734202
 20
-602.3006369853037
 30
0.0
 10
-702.8681074793857
 20
-601.8263149520221
 30
0.0
 10
-702.8132742264678
 20
-601.3284127918664
 30
0.0
 10
-702.6603975730175
 20
-599.2697520364895
 30
0.0
 10
-702.6812521944775
 20
-597.6291484590933
 30
0.0
 10
-702.99591724767
 20
-594.2637229946103
 30
0.0
 10
-703.2891872701801
 20
-592.5388506015028
 30
0.0
 10
-704.1234384617709
 20
-589.1370469598832
 30
0.0
 10
-704.6590256892667
 20
-587.4781490625901
 30
0.0
 10
-705.6212138754634
 20
-585.122345430078
 30
0.0
 10
-705.9635845976516
 20
-584.3700767803571
 30
0.0
 10
-706.6978150583453
 20
-582.9167804731719
 30
0.0
 10
-707.0909254094511
 20
-582.2163849846451
 30
0.0
 10
-707.7632605953475
 20
-581.1322441712864
 30
0.0
 10
-708.045424087213
 20
-580.7107023968355
 30
0.0
 10
-708.326557487191
 20
-580.3193908275248
 30
0.0
  0
SPLINE
  5
316
330
2FB
100
AcDbEntity
  8
0
100
AcDbSpline
210
0.0
220
0.0
230
1.0
 70
     8
 71
     3
 72
    20
 73
    16
 74
     0
 42
0.0000000001
 43
0.0000000001
 40
4.09807738876958
 40
4.09807738876958
 40
4.09807738876958
 40
4.09807738876958
 40
4.1887902047864
 40
4.1887902047864
 40
4.45058959258555
 40
4.45058959258555
 40
4.7123889803847
 40
4.7123889803847
 40
4.97418836818385
 40
4.97418836818385
 40
5.105088062083424
 40
5.105088062083424
 40
5.235987755983
 40
5.235987755983
 40
5.326700572008751
 40
5.326700572008751
 40
5.326700572008751
 40
5.326700572008751
 10
-708.3265574859614
 20
-580.3193908273633
 30
0.0
 10
-708.3943727799959
 20
-580.7937128606445
 30
0.0
 10
-708.4492060329101
 20
-581.2916150207879
 30
0.0
 10
-708.6020826863603
 20
-583.3502757761643
 30
0.0
 10
-708.5812280649005
 20
-584.9908793535628
 30
0.0
 10
-708.2665630117079
 20
-588.3563048180503
 30
0.0
 10
-707.9732929891905
 20
-590.0811772111592
 30
0.0
 10
-707.139041797607
 20
-593.4829808527715
 30
0.0
 10
-706.6034545701076
 20
-595.1418787500702
 30
0.0
 10
-705.6412663839145
 20
-597.4976823825777
 30
0.0
 10
-705.2988956617299
 20
-598.2499510322927
 30
0.0
 10
-704.5646652010399
 20
-599.7032473394733
 30
0.0
 10
-704.1715548499377
 20
-600.4036428280019
 30
0.0
 10
-703.4992196640303
 20
-601.4877836413661
 30
0.0
 10
-703.2170561721795
 20
-601.9093254158088
 30
0.0
 10
-702.9359227721942
 20
-602.3006369851214
 30
0.0
  0
SPLINE
  5
317
330
2FB
100
AcDbEntity
  8
0
100
AcDbSpline
210
0.0
220
0.0
230
1.0
 70
     8
 71
     3
 72
    20
 73
    16
 74
     0
 42
0.0000000001
 43
0.0000000001
 40
4.09807738876958
 40
4.09807738876958
 40
4.09807738876958
 40
4.09807738876958
 40
4.1887902047864
 40
4.1887902047864
 40
4.45058959258555
 40
4.45058959258555
 40
4.7123889803847
 40
4.7123889803847
 40
4.97418836818385
 40
4.97418836818385
 40
5.105088062083424
 40
5.105088062083424
 40
5.235987755983
 40
5.235987755983
 40
5.326700572008751
 40
5.326700572008751
 40
5.326700572008751
 40
5.326700572008751
 10
-708.3265574859614
 20
-212.3006369852937
 30
0.0
 10
-708.3943727799959
 20
-211.8263149520126
 30
0.0
 10
-708.4492060329101
 20
-211.3284127918691
 30
0.0
 10
-708.6020826863603
 20
-209.2697520364927
 30
0.0
 10
-708.5812280649005
 20
-207.6291484590943
 30
0.0
 10
-708.2665630117079
 20
-204.2637229946067
 30
0.0
 10
-707.9732929891905
 20
-202.5388506014979
 30
0.0
 10
-707.139041797607
 20
-199.1370469598855
 30
0.0
 10
-706.6034545701076
 20
-197.4781490625869
 30
0.0
 10
-705.6412663839145
 20
-195.1223454300793
 30
0.0
 10
-705.2988956617299
 20
-194.3700767803643
 30
0.0
 10
-704.5646652010399
 20
-192.9167804731837
 30
0.0
 10
-704.1715548499377
 20
-192.2163849846551
 30
0.0
 10
-703.4992196640303
 20
-191.1322441712909
 30
0.0
 10
-703.2170561721795
 20
-190.7107023968483
 30
0.0
 10
-702.9359227721942
 20
-190.3193908275357
 30
0.0
  0
SPLINE
  5
318
330
2FB
100
AcDbEntity
  8
0
100
AcDbSpline
210
0.0
220
0.0
230
1.0
 70
     8
 71
     3
 72
    20
 73
    16
 74
     0
 42
0.0000000001
 43
0.0000000001
 40
0.9564847351797714
 40
0.9564847351797714
 40
0.9564847351797714
 40
0.9564847351797714
 40
1.0471975511966
 40
1.0471975511966
 40
1.30899693899575
 40
1.30899693899575
 40
1.5707963267949
 40
1.5707963267949
 40
1.83259571459405
 40
1.83259571459405
 40
1.963495408493625
 40
1.963495408493625
 40
2.0943951023932
 40
2.0943951023932
 40
2.185107918419384
 40
2.185107918419384
 40
2.185107918419384
 40
2.185107918419384
 10
-702.9359227734202
 20
-190.3193908273533
 30
0.0
 10
-702.8681074793857
 20
-190.793712860635
 30
0.0
 10
-702.8132742264678
 20
-191.2916150207907
 30
0.0
 10
-702.6603975730175
 20
-193.3502757761675
 30
0.0
 10
-702.6812521944775
 20
-194.9908793535637
 30
0.0
 10
-702.99591724767
 20
-198.3563048180467
 30
0.0
 10
-703.2891872701801
 20
-200.0811772111542
 30
0.0
 10
-704.1234384617709
 20
-203.4829808527738
 30
0.0
 10
-704.6590256892667
 20
-205.141878750067
 30
0.0
 10
-705.6212138754634
 20
-207.4976823825791
 30
0.0
 10
-705.9635845976516
 20
-208.2499510323
 30
0.0
 10
-706.6978150583453
 20
-209.7032473394852
 30
0.0
 10
-707.0909254094511
 20
-210.4036428280119
 30
0.0
 10
-707.7632605953475
 20
-211.4877836413707
 30
0.0
 10
-708.045424087213
 20
-211.9093254158215
 30
0.0
 10
-708.326557487191
 20
-212.3006369851323
 30
0.0
  0
SPLINE
  5
319
330
2FB
100
AcDbEntity
  8
0
100
AcDbSpline
210
0.0
220
0.0
230
1.0
 70
    11
 71
     3
 72
    46
 73
    42
 74
     0
 42
0.0000000001
 43
0.0000000001
 40
0.0
 40
0.0
 40
0.0
 40
0.0
 40
0.26179938779915
 40
0.26179938779915
 40
0.5235987755983001
 40
0.5235987755983001
 40
0.7853981633974501
 40
0.7853981633974501
 40
1.0471975511966
 40
1.0471975511966
 40
1.5707963267949
 40
1.5707963267949
 40
2.0943951023932
 40
2.0943951023932
 40
2.35619449019235
 40
2.35619449019235
 40
2.6179938779915
 40
2.6179938779915
 40
2.87979326579065
 40
2.87979326579065
 40
3.1415926535898
 40
3.1415926535898
 40
3.40339204138895
 40
3.40339204138895
 40
3.6651914291881
 40
3.6651914291881
 40
3.92699081698725
 40
3.92699081698725
 40
4.1887902047864
 40
4.1887902047864
 40
4.7123889803847
 40
4.7123889803847
 40
5.235987755983
 40
5.235987755983
 40
5.49778714378215
 40
5.49778714378215
 40
5.7595865315813
 40
5.7595865315813
 40
6.02138591938045
 40
6.02138591938045
 40
6.2831853071796
 40
6.2831853071796
 40
6.2831853071796
 40
6.2831853071796
 10
-700.3235095345261
 20
-179.6668236425726
 30
0.0
 10
-700.0091079808624
 20
-179.743926820302
 30
0.0
 10
-699.6903480980689
 20
-179.8696124456751
 30
0.0
 10
-698.7924776208346
 20
-180.5516183820459
 30
0.0
 10
-698.2284760789696
 20
-181.1276045264417
 30
0.0
 10
-697.083184404946
 20
-182.9453491836798
 30
0.0
 10
-696.4862064220504
 20
-184.2356551517318
 30
0.0
 10
-695.5609456867604
 20
-187.3889584240469
 30
0.0
 10
-695.2281113425268
 20
-189.2506183892678
 30
0.0
 10
-694.7826887968766
 20
-195.2487475581488
 30
0.0
 10
-695.2040925432083
 20
-199.5062745510436
 30
0.0
 10
-697.2216548580908
 20
-207.7332341276615
 30
0.0
 10
-698.8178134266417
 20
-211.7026667113842
 30
0.0
 10
-701.9877402127348
 20
-216.8141751914272
 30
0.0
 10
-703.14411053438
 20
-218.3106257272034
 30
0.0
 10
-705.4232711156654
 20
-220.6780834354181
 30
0.0
 10
-706.549477823777
 20
-221.5457992033166
 30
0.0
 10
-708.4058069112833
 20
-222.6274326793064
 30
0.0
 10
-709.1722977427852
 20
-222.8771316640591
 30
0.0
 10
-710.2838270546016
 20
-223.0663566098142
 30
0.0
 10
-710.6245691711882
 20
-223.0303073478135
 30
0.0
 10
-711.2533722785082
 20
-222.8761009923555
 30
0.0
 10
-711.572132161309
 20
-222.750415366982
 30
0.0
 10
-712.470002638547
 20
-222.0684094306102
 30
0.0
 10
-713.0340041804082
 20
-221.4924232862163
 30
0.0
 10
-714.1792958544319
 20
-219.6746786289777
 30
0.0
 10
-714.7762738373274
 20
-218.3843726609266
 30
0.0
 10
-715.7015345726176
 20
-215.2310693886107
 30
0.0
 10
-716.0343689168511
 20
-213.3694094233892
 30
0.0
 10
-716.4797914625013
 20
-207.3712802545083
 30
0.0
 10
-716.0583877161696
 20
-203.1137532616117
 30
0.0
 10
-714.0408254012871
 20
-194.8867936849947
 30
0.0
 10
-712.4446668327363
 20
-190.9173611012734
 30
0.0
 10
-709.2747400466395
 20
-185.8058526212303
 30
0.0
 10
-708.1183697249979
 20
-184.3094020854519
 30
0.0
 10
-705.8392091437125
 20
-181.9419443772381
 30
0.0
 10
-704.7130024356009
 20
-181.0742286093414
 30
0.0
 10
-702.8566733480946
 20
-179.9925951333512
 30
0.0
 10
-702.0901825165927
 20
-179.7428961485984
 30
0.0
 10
-700.9786532047727
 20
-179.5536712028433
 30
0.0
 10
-700.6379110881897
 20
-179.5897204648431
 30
0.0
 10
-700.3235095345261
 20
-179.6668236425726
 30
0.0
  0
ELLIPSE
  5
31A
330
2FB
100
AcDbEntity
  8
0
100
AcDbEllipse
 10
-705.631240129689
 20
-201.3100139063285
 30
0.0
 11
7.145405902550918
 21
29.13662942908422
 31
0.0
210
0.0
220
0.0
230
-1.0
 40
0.5804310905463397
 41
-0.0000000000001077
 42
6.283185307179478
  0
ARC
  5
31B
330
2FB
100
AcDbEntity
  8
0
100
AcDbCircle
 10
-82.56327373209558
 20
192.7218447865439
 30
0.0
 40
150.0
100
AcDbArc
 50
21.72431554274607
 51
82.57018672131684
  0
ARC
  5
31C
330
2FB
100
AcDbEntity
  8
0
100
AcDbCircle
 10
-82.56327373209558
 20
192.7218447865439
 30
0.0
 40
123.1948934965362
100
AcDbArc
 50
21.72431554274607
 51
82.57018672131684
  0
ARC
  5
31D
330
2FB
100
AcDbEntity
  8
0
100
AcDbCircle
 10
507.3362147531043
 20
427.7614020633986
 30
0.0
 40
545.9439111435874
100
AcDbArc
 50
240.7371455417437
 51
248.6154452974012
  0
ARC
  5
31E
330
2FB
100
AcDbEntity
  8
0
100
AcDbCircle
 10
44.94277267658628
 20
-397.4671649132046
 30
0.0
 40
400.0
100
AcDbArc
 50
60.73714554174375
 51
96.45120026369458
  0
ARC
  5
31F
330
2FB
100
AcDbEntity
  8
0
100
AcDbCircle
 10
507.3362147531043
 20
427.7614020633986
 30
0.0
 40
485.0
100
AcDbArc
 50
201.7243155427461
 51
248.6154452974012
  0
ARC
  5
320
330
2FB
100
AcDbEntity
  8
0
100
AcDbCircle
 10
507.3362147531043
 20
427.7614020633986
 30
0.0
 40
511.8051065034637
100
AcDbArc
 50
201.7243155427461
 51
239.4392851696874
  0
ARC
  5
321
330
2FB
100
AcDbEntity
  8
0
100
AcDbCircle
 10
69.1504400399391
 20
-314.3310911168451
 30
0.0
 40
350.0
100
AcDbArc
 50
59.43928516968739
 51
95.85846333416233
  0
ARC
  5
322
330
2FB
100
AcDbEntity
  8
0
100
AcDbCircle
 10
-372.7264664989051
 20
-183.7524877097535
 30
0.0
 40
200.0
100
AcDbArc
 50
79.20696084718724
 51
135.1065579198533
  0
ARC
  5
323
330
2FB
100
AcDbEntity
  8
0
100
AcDbCircle
 10
-52.36252571529246
 20
869.9214469337835
 30
0.0
 40
840.4702746083108
100
AcDbArc
 50
239.7773366894005
 51
275.8584633341623
  0
ARC
  5
324
330
2FB
100
AcDbEntity
  8
0
100
AcDbCircle
 10
-125.7275994477294
 20
1111.916099691425
 30
0.0
 40
1119.001716717127
100
AcDbArc
 50
259.2069608471872
 51
276.4512002636946
  0
ARC
  5
325
330
2FB
100
AcDbEntity
  8
0
100
AcDbCircle
 10
-159.3768430023664
 20
-396.3100139063286
 30
0.0
 40
717.2141313830029
100
AcDbArc
 50
82.57018672131684
 51
133.6542295991336
  0
ARC
  5
326
330
2FB
100
AcDbEntity
  8
0
100
AcDbCircle
 10
-550.9273969088306
 20
14.08008657870368
 30
0.0
 40
150.0
100
AcDbArc
 50
59.77733668940053
 51
133.6542295991336
  0
CIRCLE
  5
327
330
2FB
100
AcDbEntity
  8
0
100
AcDbCircle
 10
270.1655971944457
 20
-592.113909761862
 30
0.0
 40
26.0
  0
CIRCLE
  5
328
330
2FB
100
AcDbEntity
  8
0
100
AcDbCircle
 10
270.1655971944457
 20
-592.113909761862
 30
0.0
 40
37.5
  0
ARC
  5
329
330
2FB
100
AcDbEntity
  8
0
100
AcDbCircle
 10
-220.7242069112916
 20
-691.1578810011219
 30
0.0
 40
200.0
100
AcDbArc
 50
258.2464760386658
 51
289.9246718192537
  0
LINE
  5
32A
330
2FB
100
AcDbEntity
  8
0
100
AcDbLine
 10
-152.5673247267858
 20
-879.1861751775236
 30
0.0
 11
300.1874243947278
 21
-715.0707039952972
 31
0.0
  0
ARC
  5
32B
330
2FB
100
AcDbEntity
  8
0
100
AcDbCircle
 10
-355.8695280905866
 20
-903.6043622854462
 30
0.0
 40
200.0
100
AcDbArc
 50
248.8268873659771
 51
297.5317050160972
  0
LINE
  5
32C
330
2FB
100
AcDbEntity
  8
0
100
AcDbLine
 10
369.5381453234369
 20
-751.0120881453644
 30
0.0
 11
-263.4216528709193
 21
-1080.955399404964
 31
0.0
  0
CIRCLE
  5
32D
330
2FB
100
AcDbEntity
  8
0
100
AcDbCircle
 10
-159.3768430023664
 20
-396.3100139063286
 30
0.0
 40
744.0192378864667
  0
ARC
  5
32E
330
2FB
100
AcDbEntity
  8
0
100
AcDbCircle
 10
184.6423948841003
 20
-396.3100139063286
 30
0.0
 40
400.0
100
AcDbArc
 50
297.5317050160972
 51
68.61544529740125
  0
ARC
  5
32F
330
2FB
100
AcDbEntity
  8
0
100
AcDbCircle
 10
184.6423948841003
 20
-396.3100139063286
 30
0.0
 40
339.0560888564126
100
AcDbArc
 50
289.9246718192537
 51
68.61544529740125
  0
ARC
  5
330
330
2FB
100
AcDbEntity
  8
0
100
AcDbCircle
 10
-159.3768430023664
 20
-396.3100139063286
 30
0.0
 40
501.1623545347634
100
AcDbArc
 50
135.1065579198533
 51
258.2464760386658
  0
ENDBLK
  5
2FD
330
2FB
100
AcDbEntity
  8
0
100
AcDbBlockEnd
  0
ENDSEC
  0
SECTION
  2
ENTITIES
  0
MTEXT
  5
26B
330
1F
100
AcDbEntity
  8
0
100
AcDbMText
 10
287.2250942467113
 20
215.4898444925965
 30
0.0
 40
40.0
 41
1074.522749308889
 71
     1
 72
     5
  1
{\fTimes New Roman|b0|i0|c0|p18;\C0;BAÑERA OMEGA CON HIDROMASAJE}
 73
     1
 44
1.0
  0
INSERT
  5
331
330
1F
100
AcDbEntity
  8
0
100
AcDbBlockReference
  2
68710_P
 10
949.925085092962
 20
1524.028967830096
 30
0.0
  0
ENDSEC
  0
SECTION
  2
OBJECTS
  0
DICTIONARY
  5
C
330
0
100
AcDbDictionary
281
     1
  3
ACAD_COLOR
350
73
  3
ACAD_GROUP
350
D
  3
ACAD_LAYOUT
350
1A
  3
ACAD_MATERIAL
350
72
  3
ACAD_MLINESTYLE
350
17
  3
ACAD_PLOTSETTINGS
350
19
  3
ACAD_PLOTSTYLENAME
350
E
  3
AcDbVariableDictionary
350
66
  0
DICTIONARY
  5
73
102
{ACAD_REACTORS
330
C
102
}
330
C
100
AcDbDictionary
281
     1
  0
DICTIONARY
  5
D
102
{ACAD_REACTORS
330
C
102
}
330
C
100
AcDbDictionary
281
     1
  0
DICTIONARY
  5
1A
102
{ACAD_REACTORS
330
C
102
}
330
C
100
AcDbDictionary
281
     1
  3
Model
350
22
  3
Presentación1
350
59
  3
Presentación2
350
5E
  0
DICTIONARY
  5
72
102
{ACAD_REACTORS
330
C
102
}
330
C
100
AcDbDictionary
281
     1
  0
DICTIONARY
  5
17
102
{ACAD_REACTORS
330
C
102
}
330
C
100
AcDbDictionary
281
     1
  3
Standard
350
18
  0
DICTIONARY
  5
19
102
{ACAD_REACTORS
330
C
102
}
330
C
100
AcDbDictionary
281
     1
  0
ACDBDICTIONARYWDFLT
  5
E
102
{ACAD_REACTORS
330
C
102
}
330
C
100
AcDbDictionary
281
     1
  3
Normal
350
F
100
AcDbDictionaryWithDefault
340
F
  0
DICTIONARY
  5
66
102
{ACAD_REACTORS
330
C
102
}
330
C
100
AcDbDictionary
281
     1
  3
DIMASSOC
350
67
  3
HIDETEXT
350
6B
  0
LAYOUT
  5
22
102
{ACAD_REACTORS
330
1A
102
}
330
1A
100
AcDbPlotSettings
  1

  2
none_device
  4
ANSI_A_(8.50_x_11.00_Inches)
  6

 40
6.349999904632567
 41
19.04999923706055
 42
6.350006103515625
 43
19.04998779296875
 44
215.8999938964844
 45
279.3999938964844
 46
0.0
 47
0.0
 48
0.0
 49
0.0
140
0.0
141
0.0
142
1.0
143
2.584895464708373
 70
 11952
 72
     0
 73
     1
 74
     0
  7

 75
     0
147
0.3868628397755418
 76
     0
 77
     2
 78
   300
148
0.0
149
0.0
100
AcDbLayout
  1
Model
 70
     1
 71
     0
 10
0.0
 20
0.0
 11
12.0
 21
9.0
 12
0.0
 22
0.0
 32
0.0
 14
0.0
 24
0.0
 34
0.0
 15
0.0
 25
0.0
 35
0.0
146
0.0
 13
0.0
 23
0.0
 33
0.0
 16
1.0
 26
0.0
 36
0.0
 17
0.0
 27
1.0
 37
0.0
 76
     0
330
1F
  0
LAYOUT
  5
59
102
{ACAD_REACTORS
330
1A
102
}
330
1A
100
AcDbPlotSettings
  1

  2
None
  4

  6

 40
0.0
 41
0.0
 42
0.0
 43
0.0
 44
0.0
 45
0.0
 46
0.0
 47
0.0
 48
0.0
 49
0.0
140
0.0
141
0.0
142
1.0
143
1.0
 70
   688
 72
     0
 73
     0
 74
     5
  7

 75
    16
147
1.0
 76
     0
 77
     2
 78
   300
148
0.0
149
0.0
100
AcDbLayout
  1
Presentación1
 70
     1
 71
     1
 10
0.0
 20
0.0
 11
12.0
 21
9.0
 12
0.0
 22
0.0
 32
0.0
 14
0.0
 24
0.0
 34
0.0
 15
0.0
 25
0.0
 35
0.0
146
0.0
 13
0.0
 23
0.0
 33
0.0
 16
1.0
 26
0.0
 36
0.0
 17
0.0
 27
1.0
 37
0.0
 76
     0
330
58
  0
LAYOUT
  5
5E
102
{ACAD_REACTORS
330
1A
102
}
330
1A
100
AcDbPlotSettings
  1

  2
None
  4

  6

 40
0.0
 41
0.0
 42
0.0
 43
0.0
 44
0.0
 45
0.0
 46
0.0
 47
0.0
 48
0.0
 49
0.0
140
0.0
141
0.0
142
1.0
143
1.0
 70
   688
 72
     0
 73
     0
 74
     5
  7

 75
    16
147
1.0
 76
     0
 77
     2
 78
   300
148
0.0
149
0.0
100
AcDbLayout
  1
Presentación2
 70
     1
 71
     2
 10
0.0
 20
0.0
 11
12.0
 21
9.0
 12
0.0
 22
0.0
 32
0.0
 14
0.0
 24
0.0
 34
0.0
 15
0.0
 25
0.0
 35
0.0
146
0.0
 13
0.0
 23
0.0
 33
0.0
 16
1.0
 26
0.0
 36
0.0
 17
0.0
 27
1.0
 37
0.0
 76
     0
330
5D
  0
MLINESTYLE
  5
18
102
{ACAD_REACTORS
330
17
102
}
330
17
100
AcDbMlineStyle
  2
STANDARD
 70
     0
  3

 62
   256
 51
90.0
 52
90.0
 71
     2
 49
0.5
 62
   256
  6
BYLAYER
 49
-0.5
 62
   256
  6
BYLAYER
  0
ACDBPLACEHOLDER
  5
F
102
{ACAD_REACTORS
330
E
102
}
330
E
  0
DICTIONARYVAR
  5
67
102
{ACAD_REACTORS
330
66
102
}
330
66
100
DictionaryVariables
280
     0
  1
2
  0
DICTIONARYVAR
  5
6B
102
{ACAD_REACTORS
330
66
102
}
330
66
100
DictionaryVariables
280
     0
  1
1
  0
ENDSEC
  0
EOF
