  0
SECTION
  2
HEADER
  9
$ACADVER
  1
AC1018
  9
$ACADMAINTVER
 70
     0
  9
$DWGCODEPAGE
  3
ASCII
  9
$INSBASE
 10
0.0
 20
0.0
 30
0.0
  9
$EXTMIN
 10
1.000000000000000E+20
 20
1.000000000000000E+20
 30
1.000000000000000E+20
  9
$EXTMAX
 10
-1.000000000000000E+20
 20
-1.000000000000000E+20
 30
-1.000000000000000E+20
  9
$LIMMIN
 10
0.0
 20
0.0
  9
$LIMMAX
 10
12.0
 20
9.0
  9
$ORTHOMODE
 70
     0
  9
$REGENMODE
 70
     1
  9
$FILLMODE
 70
     1
  9
$QTEXTMODE
 70
     0
  9
$MIRRTEXT
 70
     1
  9
$LTSCALE
 40
1.0
  9
$ATTMODE
 70
     1
  9
$TEXTSIZE
 40
0.2
  9
$TRACEWID
 40
0.05
  9
$TEXTSTYLE
  7
Standard
  9
$CLAYER
  8
0
  9
$CELTYPE
  6
ByLayer
  9
$CECOLOR
 62
   256
  9
$CELTSCALE
 40
1.0
  9
$DISPSILH
 70
     0
  9
$DIMSCALE
 40
1.0
  9
$DIMASZ
 40
0.18
  9
$DIMEXO
 40
0.0625
  9
$DIMDLI
 40
0.38
  9
$DIMRND
 40
0.0
  9
$DIMDLE
 40
0.0
  9
$DIMEXE
 40
0.18
  9
$DIMTP
 40
0.0
  9
$DIMTM
 40
0.0
  9
$DIMTXT
 40
0.18
  9
$DIMCEN
 40
0.09
  9
$DIMTSZ
 40
0.0
  9
$DIMTOL
 70
     0
  9
$DIMLIM
 70
     0
  9
$DIMTIH
 70
     1
  9
$DIMTOH
 70
     1
  9
$DIMSE1
 70
     0
  9
$DIMSE2
 70
     0
  9
$DIMTAD
 70
     0
  9
$DIMZIN
 70
     0
  9
$DIMBLK
  1

  9
$DIMASO
 70
     1
  9
$DIMSHO
 70
     1
  9
$DIMPOST
  1

  9
$DIMAPOST
  1

  9
$DIMALT
 70
     0
  9
$DIMALTD
 70
     2
  9
$DIMALTF
 40
25.4
  9
$DIMLFAC
 40
1.0
  9
$DIMTOFL
 70
     0
  9
$DIMTVP
 40
0.0
  9
$DIMTIX
 70
     0
  9
$DIMSOXD
 70
     0
  9
$DIMSAH
 70
     0
  9
$DIMBLK1
  1

  9
$DIMBLK2
  1

  9
$DIMSTYLE
  2
Standard
  9
$DIMCLRD
 70
     0
  9
$DIMCLRE
 70
     0
  9
$DIMCLRT
 70
     0
  9
$DIMTFAC
 40
1.0
  9
$DIMGAP
 40
0.09
  9
$DIMJUST
 70
     0
  9
$DIMSD1
 70
     0
  9
$DIMSD2
 70
     0
  9
$DIMTOLJ
 70
     1
  9
$DIMTZIN
 70
     0
  9
$DIMALTZ
 70
     0
  9
$DIMALTTZ
 70
     0
  9
$DIMUPT
 70
     0
  9
$DIMDEC
 70
     4
  9
$DIMTDEC
 70
     4
  9
$DIMALTU
 70
     2
  9
$DIMALTTD
 70
     2
  9
$DIMTXSTY
  7
Standard
  9
$DIMAUNIT
 70
     0
  9
$DIMADEC
 70
     0
  9
$DIMALTRND
 40
0.0
  9
$DIMAZIN
 70
     0
  9
$DIMDSEP
 70
    46
  9
$DIMATFIT
 70
     3
  9
$DIMFRAC
 70
     0
  9
$DIMLDRBLK
  1

  9
$DIMLUNIT
 70
     2
  9
$DIMLWD
 70
    -2
  9
$DIMLWE
 70
    -2
  9
$DIMTMOVE
 70
     0
  9
$LUNITS
 70
     2
  9
$LUPREC
 70
     4
  9
$SKETCHINC
 40
0.1
  9
$FILLETRAD
 40
0.5
  9
$AUNITS
 70
     0
  9
$AUPREC
 70
     0
  9
$MENU
  1
.
  9
$ELEVATION
 40
0.0
  9
$PELEVATION
 40
0.0
  9
$THICKNESS
 40
0.0
  9
$LIMCHECK
 70
     0
  9
$CHAMFERA
 40
0.5
  9
$CHAMFERB
 40
0.5
  9
$CHAMFERC
 40
1.0
  9
$CHAMFERD
 40
0.0
  9
$SKPOLY
 70
     0
  9
$TDCREATE
 40
2456954.379421296
  9
$TDUCREATE
 40
2456954.296087963
  9
$TDUPDATE
 40
2456954.379421308
  9
$TDUUPDATE
 40
2456954.296087975
  9
$TDINDWG
 40
0.0000000116
  9
$TDUSRTIMER
 40
0.0000000116
  9
$USRTIMER
 70
     1
  9
$ANGBASE
 50
0.0
  9
$ANGDIR
 70
     0
  9
$PDMODE
 70
     0
  9
$PDSIZE
 40
0.0
  9
$PLINEWID
 40
0.0
  9
$SPLFRAME
 70
     0
  9
$SPLINETYPE
 70
     6
  9
$SPLINESEGS
 70
     8
  9
$HANDSEED
  5
911
  9
$SURFTAB1
 70
     6
  9
$SURFTAB2
 70
     6
  9
$SURFTYPE
 70
     6
  9
$SURFU
 70
     6
  9
$SURFV
 70
     6
  9
$UCSBASE
  2

  9
$UCSNAME
  2

  9
$UCSORG
 10
0.0
 20
0.0
 30
0.0
  9
$UCSXDIR
 10
1.0
 20
0.0
 30
0.0
  9
$UCSYDIR
 10
0.0
 20
1.0
 30
0.0
  9
$UCSORTHOREF
  2

  9
$UCSORTHOVIEW
 70
     0
  9
$UCSORGTOP
 10
0.0
 20
0.0
 30
0.0
  9
$UCSORGBOTTOM
 10
0.0
 20
0.0
 30
0.0
  9
$UCSORGLEFT
 10
0.0
 20
0.0
 30
0.0
  9
$UCSORGRIGHT
 10
0.0
 20
0.0
 30
0.0
  9
$UCSORGFRONT
 10
0.0
 20
0.0
 30
0.0
  9
$UCSORGBACK
 10
0.0
 20
0.0
 30
0.0
  9
$PUCSBASE
  2

  9
$PUCSNAME
  2

  9
$PUCSORG
 10
0.0
 20
0.0
 30
0.0
  9
$PUCSXDIR
 10
1.0
 20
0.0
 30
0.0
  9
$PUCSYDIR
 10
0.0
 20
1.0
 30
0.0
  9
$PUCSORTHOREF
  2

  9
$PUCSORTHOVIEW
 70
     0
  9
$PUCSORGTOP
 10
0.0
 20
0.0
 30
0.0
  9
$PUCSORGBOTTOM
 10
0.0
 20
0.0
 30
0.0
  9
$PUCSORGLEFT
 10
0.0
 20
0.0
 30
0.0
  9
$PUCSORGRIGHT
 10
0.0
 20
0.0
 30
0.0
  9
$PUCSORGFRONT
 10
0.0
 20
0.0
 30
0.0
  9
$PUCSORGBACK
 10
0.0
 20
0.0
 30
0.0
  9
$USERI1
 70
     0
  9
$USERI2
 70
     0
  9
$USERI3
 70
     0
  9
$USERI4
 70
     0
  9
$USERI5
 70
     0
  9
$USERR1
 40
0.0
  9
$USERR2
 40
0.0
  9
$USERR3
 40
0.0
  9
$USERR4
 40
0.0
  9
$USERR5
 40
0.0
  9
$WORLDVIEW
 70
     1
  9
$SHADEDGE
 70
     3
  9
$SHADEDIF
 70
    70
  9
$TILEMODE
 70
     1
  9
$MAXACTVP
 70
    64
  9
$PINSBASE
 10
0.0
 20
0.0
 30
0.0
  9
$PLIMCHECK
 70
     0
  9
$PEXTMIN
 10
1.000000000000000E+20
 20
1.000000000000000E+20
 30
1.000000000000000E+20
  9
$PEXTMAX
 10
-1.000000000000000E+20
 20
-1.000000000000000E+20
 30
-1.000000000000000E+20
  9
$PLIMMIN
 10
0.0
 20
0.0
  9
$PLIMMAX
 10
12.0
 20
9.0
  9
$UNITMODE
 70
     0
  9
$VISRETAIN
 70
     1
  9
$PLINEGEN
 70
     0
  9
$PSLTSCALE
 70
     1
  9
$TREEDEPTH
 70
  3020
  9
$CMLSTYLE
  2
Standard
  9
$CMLJUST
 70
     0
  9
$CMLSCALE
 40
1.0
  9
$PROXYGRAPHICS
 70
     1
  9
$MEASUREMENT
 70
     0
  9
$CELWEIGHT
370
    -1
  9
$ENDCAPS
280
     0
  9
$JOINSTYLE
280
     0
  9
$LWDISPLAY
290
     1
  9
$INSUNITS
 70
     1
  9
$HYPERLINKBASE
  1

  9
$STYLESHEET
  1

  9
$XEDIT
290
     1
  9
$CEPSNTYPE
380
     0
  9
$PSTYLEMODE
290
     1
  9
$FINGERPRINTGUID
  2
{D1DBD5E4-E9B4-43FC-8C5E-70591FA9E62D}
  9
$VERSIONGUID
  2
{FAEB1C32-E019-11D5-929B-00C0DF256EC4}
  9
$EXTNAMES
290
     1
  9
$PSVPSCALE
 40
0.0
  9
$OLESTARTUP
290
     0
  9
$SORTENTS
280
   127
  9
$INDEXCTL
280
     0
  9
$HIDETEXT
280
     1
  9
$XCLIPFRAME
290
     0
  9
$HALOGAP
280
     0
  9
$OBSCOLOR
 70
   257
  9
$OBSLTYPE
280
     0
  9
$INTERSECTIONDISPLAY
280
     0
  9
$INTERSECTIONCOLOR
 70
   257
  9
$DIMASSOC
280
     2
  9
$PROJECTNAME
  1

  0
ENDSEC
  0
SECTION
  2
CLASSES
  0
CLASS
  1
ACDBDICTIONARYWDFLT
  2
AcDbDictionaryWithDefault
  3
ObjectDBX Classes
 90
        0
 91
        3
280
     0
281
     0
  0
CLASS
  1
VISUALSTYLE
  2
AcDbVisualStyle
  3
ObjectDBX Classes
 90
     4095
 91
        3
280
     0
281
     0
  0
ENDSEC
  0
SECTION
  2
TABLES
  0
TABLE
  2
VPORT
  5
8
330
0
100
AcDbSymbolTable
 70
     1
  0
VPORT
  5
29
330
8
100
AcDbSymbolTableRecord
100
AcDbViewportTableRecord
  2
*Active
 70
     0
 10
0.0
 20
0.0
 11
1.0
 21
1.0
 12
0.0
 22
0.0
 13
0.0
 23
0.0
 14
0.5
 24
0.5
 15
0.5
 25
0.5
 16
0.0
 26
0.0
 36
1.0
 17
306.0
 27
396.0
 37
0.0
 40
792.0
 41
0.7727272727272727
 42
50.0
 43
0.0
 44
0.0
 50
0.0
 51
0.0
 71
     0
 72
   100
 73
     1
 74
     3
 75
     0
 76
     0
 77
     0
 78
     0
281
     0
 65
     1
110
0.0
120
0.0
130
0.0
111
1.0
121
0.0
131
0.0
112
0.0
122
1.0
132
0.0
 79
     0
146
0.0
  0
ENDTAB
  0
TABLE
  2
LTYPE
  5
5
330
0
100
AcDbSymbolTable
 70
     7
  0
LTYPE
  5
14
330
5
100
AcDbSymbolTableRecord
100
AcDbLinetypeTableRecord
  2
ByBlock
 70
     0
  3

 72
    65
 73
     0
 40
0.0
  0
LTYPE
  5
15
330
5
100
AcDbSymbolTableRecord
100
AcDbLinetypeTableRecord
  2
ByLayer
 70
     0
  3

 72
    65
 73
     0
 40
0.0
  0
LTYPE
  5
16
330
5
100
AcDbSymbolTableRecord
100
AcDbLinetypeTableRecord
  2
Continuous
 70
     0
  3
Solid line
 72
    65
 73
     0
 40
0.0
  0
LTYPE
  5
8E2
330
5
100
AcDbSymbolTableRecord
100
AcDbLinetypeTableRecord
  2
AI-Linetype-1
 70
     0
  3
Adobe Illustrator Linetype No. 1
 72
    65
 73
     6
 40
1127.011388549581
 49
322.0003967285156
 74
     0
 49
-161.0001983642578
 74
     0
 49
322.0003967285156
 74
     0
 49
-161.0001983642578
 74
     0
 49
0.0099999997764826
 74
     0
 49
-161.0001983642578
 74
     0
  0
LTYPE
  5
8EB
330
5
100
AcDbSymbolTableRecord
100
AcDbLinetypeTableRecord
  2
AI-Linetype-2
 70
     0
  3
Adobe Illustrator Linetype No. 2
 72
    65
 73
     6
 40
1127.011388549581
 49
322.0003967285156
 74
     0
 49
-161.0001983642578
 74
     0
 49
322.0003967285156
 74
     0
 49
-161.0001983642578
 74
     0
 49
0.0099999997764826
 74
     0
 49
-161.0001983642578
 74
     0
  0
LTYPE
  5
8F4
330
5
100
AcDbSymbolTableRecord
100
AcDbLinetypeTableRecord
  2
AI-Linetype-3
 70
     0
  3
Adobe Illustrator Linetype No. 3
 72
    65
 73
     6
 40
1127.011388549581
 49
322.0003967285156
 74
     0
 49
-161.0001983642578
 74
     0
 49
322.0003967285156
 74
     0
 49
-161.0001983642578
 74
     0
 49
0.0099999997764826
 74
     0
 49
-161.0001983642578
 74
     0
  0
LTYPE
  5
8FD
330
5
100
AcDbSymbolTableRecord
100
AcDbLinetypeTableRecord
  2
AI-Linetype-4
 70
     0
  3
Adobe Illustrator Linetype No. 4
 72
    65
 73
     6
 40
1127.011388549581
 49
322.0003967285156
 74
     0
 49
-161.0001983642578
 74
     0
 49
322.0003967285156
 74
     0
 49
-161.0001983642578
 74
     0
 49
0.0099999997764826
 74
     0
 49
-161.0001983642578
 74
     0
  0
LTYPE
  5
906
330
5
100
AcDbSymbolTableRecord
100
AcDbLinetypeTableRecord
  2
AI-Linetype-5
 70
     0
  3
Adobe Illustrator Linetype No. 5
 72
    65
 73
     6
 40
1127.011388549581
 49
322.0003967285156
 74
     0
 49
-161.0001983642578
 74
     0
 49
322.0003967285156
 74
     0
 49
-161.0001983642578
 74
     0
 49
0.0099999997764826
 74
     0
 49
-161.0001983642578
 74
     0
  0
LTYPE
  5
90F
330
5
100
AcDbSymbolTableRecord
100
AcDbLinetypeTableRecord
  2
AI-Linetype-6
 70
     0
  3
Adobe Illustrator Linetype No. 6
 72
    65
 73
     6
 40
1127.011388549581
 49
322.0003967285156
 74
     0
 49
-161.0001983642578
 74
     0
 49
322.0003967285156
 74
     0
 49
-161.0001983642578
 74
     0
 49
0.0099999997764826
 74
     0
 49
-161.0001983642578
 74
     0
  0
ENDTAB
  0
TABLE
  2
LAYER
  5
2
330
0
100
AcDbSymbolTable
 70
     6
  0
LAYER
  5
10
330
2
100
AcDbSymbolTableRecord
100
AcDbLayerTableRecord
  2
0
 70
     0
 62
     7
  6
Continuous
370
    -3
390
F
  0
LAYER
  5
3B
330
2
100
AcDbSymbolTableRecord
100
AcDbLayerTableRecord
  2
COTAS
 70
     0
 62
     7
  6
Continuous
370
    -3
390
F
  0
LAYER
  5
741
330
2
100
AcDbSymbolTableRecord
100
AcDbLayerTableRecord
  2
LINHAEXT
 70
     0
 62
     7
  6
Continuous
370
    -3
390
F
  0
LAYER
  5
8A7
330
2
100
AcDbSymbolTableRecord
100
AcDbLayerTableRecord
  2
INVIS\U+00CDVEIS
 70
     0
 62
     7
  6
Continuous
370
    -3
390
F
  0
LAYER
  5
8B8
330
2
100
AcDbSymbolTableRecord
100
AcDbLayerTableRecord
  2
ESPECIAL
 70
     0
 62
     7
  6
Continuous
370
    -3
390
F
  0
LAYER
  5
8D9
330
2
100
AcDbSymbolTableRecord
100
AcDbLayerTableRecord
  2
COERTES
 70
     0
 62
     7
  6
Continuous
370
    -3
390
F
  0
ENDTAB
  0
TABLE
  2
STYLE
  5
3
330
0
100
AcDbSymbolTable
 70
     1
  0
STYLE
  5
11
330
3
100
AcDbSymbolTableRecord
100
AcDbTextStyleTableRecord
  2
Standard
 70
     0
 40
0.0
 41
1.0
 50
0.0
 71
     0
 42
0.2
  3
txt
  4

  0
ENDTAB
  0
TABLE
  2
VIEW
  5
6
330
0
100
AcDbSymbolTable
 70
     0
  0
ENDTAB
  0
TABLE
  2
UCS
  5
7
330
0
100
AcDbSymbolTable
 70
     0
  0
ENDTAB
  0
TABLE
  2
APPID
  5
9
330
0
100
AcDbSymbolTable
 70
     1
  0
APPID
  5
12
330
9
100
AcDbSymbolTableRecord
100
AcDbRegAppTableRecord
  2
ACAD
 70
     0
  0
ENDTAB
  0
TABLE
  2
DIMSTYLE
  5
A
330
0
100
AcDbSymbolTable
 70
     1
100
AcDbDimStyleTable
  0
DIMSTYLE
105
27
330
A
100
AcDbSymbolTableRecord
100
AcDbDimStyleTableRecord
  2
Standard
 70
     0
340
11
  0
ENDTAB
  0
TABLE
  2
BLOCK_RECORD
  5
1
330
0
100
AcDbSymbolTable
 70
   319
  0
BLOCK_RECORD
  5
1F
330
1
100
AcDbSymbolTableRecord
100
AcDbBlockTableRecord
  2
*Model_Space
340
22
  0
BLOCK_RECORD
  5
1B
330
1
100
AcDbSymbolTableRecord
100
AcDbBlockTableRecord
  2
*Paper_Space
340
1E
  0
BLOCK_RECORD
  5
23
330
1
100
AcDbSymbolTableRecord
100
AcDbBlockTableRecord
  2
*Paper_Space0
340
26
  0
BLOCK_RECORD
  5
3C
330
1
100
AcDbSymbolTableRecord
100
AcDbBlockTableRecord
  2
block 2
340
0
102
{BLKREFS
331
3D
102
}
  0
BLOCK_RECORD
  5
40
330
1
100
AcDbSymbolTableRecord
100
AcDbBlockTableRecord
  2
block 3
340
0
102
{BLKREFS
331
41
102
}
  0
BLOCK_RECORD
  5
45
330
1
100
AcDbSymbolTableRecord
100
AcDbBlockTableRecord
  2
block 4
340
0
102
{BLKREFS
331
46
102
}
  0
BLOCK_RECORD
  5
4D
330
1
100
AcDbSymbolTableRecord
100
AcDbBlockTableRecord
  2
block 5
340
0
102
{BLKREFS
331
4E
102
}
  0
BLOCK_RECORD
  5
55
330
1
100
AcDbSymbolTableRecord
100
AcDbBlockTableRecord
  2
block 6
340
0
102
{BLKREFS
331
56
102
}
  0
BLOCK_RECORD
  5
5D
330
1
100
AcDbSymbolTableRecord
100
AcDbBlockTableRecord
  2
block 7
340
0
102
{BLKREFS
331
5E
102
}
  0
BLOCK_RECORD
  5
62
330
1
100
AcDbSymbolTableRecord
100
AcDbBlockTableRecord
  2
block 8
340
0
102
{BLKREFS
331
63
102
}
  0
BLOCK_RECORD
  5
67
330
1
100
AcDbSymbolTableRecord
100
AcDbBlockTableRecord
  2
block 9
340
0
102
{BLKREFS
331
68
102
}
  0
BLOCK_RECORD
  5
6F
330
1
100
AcDbSymbolTableRecord
100
AcDbBlockTableRecord
  2
block 10
340
0
102
{BLKREFS
331
70
102
}
  0
BLOCK_RECORD
  5
77
330
1
100
AcDbSymbolTableRecord
100
AcDbBlockTableRecord
  2
block 11
340
0
102
{BLKREFS
331
78
102
}
  0
BLOCK_RECORD
  5
7F
330
1
100
AcDbSymbolTableRecord
100
AcDbBlockTableRecord
  2
block 12
340
0
102
{BLKREFS
331
80
102
}
  0
BLOCK_RECORD
  5
84
330
1
100
AcDbSymbolTableRecord
100
AcDbBlockTableRecord
  2
block 13
340
0
102
{BLKREFS
331
85
102
}
  0
BLOCK_RECORD
  5
89
330
1
100
AcDbSymbolTableRecord
100
AcDbBlockTableRecord
  2
block 14
340
0
102
{BLKREFS
331
8A
102
}
  0
BLOCK_RECORD
  5
8E
330
1
100
AcDbSymbolTableRecord
100
AcDbBlockTableRecord
  2
block 15
340
0
102
{BLKREFS
331
8F
102
}
  0
BLOCK_RECORD
  5
93
330
1
100
AcDbSymbolTableRecord
100
AcDbBlockTableRecord
  2
block 16
340
0
102
{BLKREFS
331
94
102
}
  0
BLOCK_RECORD
  5
98
330
1
100
AcDbSymbolTableRecord
100
AcDbBlockTableRecord
  2
block 17
340
0
102
{BLKREFS
331
99
102
}
  0
BLOCK_RECORD
  5
9D
330
1
100
AcDbSymbolTableRecord
100
AcDbBlockTableRecord
  2
block 18
340
0
102
{BLKREFS
331
9E
102
}
  0
BLOCK_RECORD
  5
A2
330
1
100
AcDbSymbolTableRecord
100
AcDbBlockTableRecord
  2
block 19
340
0
102
{BLKREFS
331
A3
102
}
  0
BLOCK_RECORD
  5
A7
330
1
100
AcDbSymbolTableRecord
100
AcDbBlockTableRecord
  2
block 20
340
0
102
{BLKREFS
331
A8
102
}
  0
BLOCK_RECORD
  5
AC
330
1
100
AcDbSymbolTableRecord
100
AcDbBlockTableRecord
  2
block 21
340
0
102
{BLKREFS
331
AD
102
}
  0
BLOCK_RECORD
  5
B1
330
1
100
AcDbSymbolTableRecord
100
AcDbBlockTableRecord
  2
block 22
340
0
102
{BLKREFS
331
B2
102
}
  0
BLOCK_RECORD
  5
B6
330
1
100
AcDbSymbolTableRecord
100
AcDbBlockTableRecord
  2
block 23
340
0
102
{BLKREFS
331
B7
102
}
  0
BLOCK_RECORD
  5
BB
330
1
100
AcDbSymbolTableRecord
100
AcDbBlockTableRecord
  2
block 24
340
0
102
{BLKREFS
331
BC
102
}
  0
BLOCK_RECORD
  5
C0
330
1
100
AcDbSymbolTableRecord
100
AcDbBlockTableRecord
  2
block 25
340
0
102
{BLKREFS
331
C1
102
}
  0
BLOCK_RECORD
  5
C5
330
1
100
AcDbSymbolTableRecord
100
AcDbBlockTableRecord
  2
block 26
340
0
102
{BLKREFS
331
C6
102
}
  0
BLOCK_RECORD
  5
CA
330
1
100
AcDbSymbolTableRecord
100
AcDbBlockTableRecord
  2
block 27
340
0
102
{BLKREFS
331
CB
102
}
  0
BLOCK_RECORD
  5
CF
330
1
100
AcDbSymbolTableRecord
100
AcDbBlockTableRecord
  2
block 28
340
0
102
{BLKREFS
331
D0
102
}
  0
BLOCK_RECORD
  5
D4
330
1
100
AcDbSymbolTableRecord
100
AcDbBlockTableRecord
  2
block 29
340
0
102
{BLKREFS
331
D5
102
}
  0
BLOCK_RECORD
  5
D9
330
1
100
AcDbSymbolTableRecord
100
AcDbBlockTableRecord
  2
block 30
340
0
102
{BLKREFS
331
DA
102
}
  0
BLOCK_RECORD
  5
DE
330
1
100
AcDbSymbolTableRecord
100
AcDbBlockTableRecord
  2
block 31
340
0
102
{BLKREFS
331
DF
102
}
  0
BLOCK_RECORD
  5
E3
330
1
100
AcDbSymbolTableRecord
100
AcDbBlockTableRecord
  2
block 32
340
0
102
{BLKREFS
331
E4
102
}
  0
BLOCK_RECORD
  5
E8
330
1
100
AcDbSymbolTableRecord
100
AcDbBlockTableRecord
  2
block 33
340
0
102
{BLKREFS
331
E9
102
}
  0
BLOCK_RECORD
  5
ED
330
1
100
AcDbSymbolTableRecord
100
AcDbBlockTableRecord
  2
block 34
340
0
102
{BLKREFS
331
EE
102
}
  0
BLOCK_RECORD
  5
F2
330
1
100
AcDbSymbolTableRecord
100
AcDbBlockTableRecord
  2
block 35
340
0
102
{BLKREFS
331
F3
102
}
  0
BLOCK_RECORD
  5
F7
330
1
100
AcDbSymbolTableRecord
100
AcDbBlockTableRecord
  2
block 36
340
0
102
{BLKREFS
331
F8
102
}
  0
BLOCK_RECORD
  5
FC
330
1
100
AcDbSymbolTableRecord
100
AcDbBlockTableRecord
  2
block 37
340
0
102
{BLKREFS
331
FD
102
}
  0
BLOCK_RECORD
  5
101
330
1
100
AcDbSymbolTableRecord
100
AcDbBlockTableRecord
  2
block 38
340
0
102
{BLKREFS
331
102
102
}
  0
BLOCK_RECORD
  5
106
330
1
100
AcDbSymbolTableRecord
100
AcDbBlockTableRecord
  2
block 39
340
0
102
{BLKREFS
331
107
102
}
  0
BLOCK_RECORD
  5
10B
330
1
100
AcDbSymbolTableRecord
100
AcDbBlockTableRecord
  2
block 40
340
0
102
{BLKREFS
331
10C
102
}
  0
BLOCK_RECORD
  5
110
330
1
100
AcDbSymbolTableRecord
100
AcDbBlockTableRecord
  2
block 41
340
0
102
{BLKREFS
331
111
102
}
  0
BLOCK_RECORD
  5
114
330
1
100
AcDbSymbolTableRecord
100
AcDbBlockTableRecord
  2
block 42
340
0
102
{BLKREFS
331
115
102
}
  0
BLOCK_RECORD
  5
11C
330
1
100
AcDbSymbolTableRecord
100
AcDbBlockTableRecord
  2
block 43
340
0
102
{BLKREFS
331
11D
102
}
  0
BLOCK_RECORD
  5
124
330
1
100
AcDbSymbolTableRecord
100
AcDbBlockTableRecord
  2
block 44
340
0
102
{BLKREFS
331
125
102
}
  0
BLOCK_RECORD
  5
12C
330
1
100
AcDbSymbolTableRecord
100
AcDbBlockTableRecord
  2
block 45
340
0
102
{BLKREFS
331
12D
102
}
  0
BLOCK_RECORD
  5
134
330
1
100
AcDbSymbolTableRecord
100
AcDbBlockTableRecord
  2
block 46
340
0
102
{BLKREFS
331
135
102
}
  0
BLOCK_RECORD
  5
13C
330
1
100
AcDbSymbolTableRecord
100
AcDbBlockTableRecord
  2
block 47
340
0
102
{BLKREFS
331
13D
102
}
  0
BLOCK_RECORD
  5
144
330
1
100
AcDbSymbolTableRecord
100
AcDbBlockTableRecord
  2
block 48
340
0
102
{BLKREFS
331
145
102
}
  0
BLOCK_RECORD
  5
14C
330
1
100
AcDbSymbolTableRecord
100
AcDbBlockTableRecord
  2
block 49
340
0
102
{BLKREFS
331
14D
102
}
  0
BLOCK_RECORD
  5
154
330
1
100
AcDbSymbolTableRecord
100
AcDbBlockTableRecord
  2
block 50
340
0
102
{BLKREFS
331
155
102
}
  0
BLOCK_RECORD
  5
15C
330
1
100
AcDbSymbolTableRecord
100
AcDbBlockTableRecord
  2
block 51
340
0
102
{BLKREFS
331
15D
102
}
  0
BLOCK_RECORD
  5
164
330
1
100
AcDbSymbolTableRecord
100
AcDbBlockTableRecord
  2
block 52
340
0
102
{BLKREFS
331
165
102
}
  0
BLOCK_RECORD
  5
169
330
1
100
AcDbSymbolTableRecord
100
AcDbBlockTableRecord
  2
block 53
340
0
102
{BLKREFS
331
16A
102
}
  0
BLOCK_RECORD
  5
16E
330
1
100
AcDbSymbolTableRecord
100
AcDbBlockTableRecord
  2
block 54
340
0
102
{BLKREFS
331
16F
102
}
  0
BLOCK_RECORD
  5
173
330
1
100
AcDbSymbolTableRecord
100
AcDbBlockTableRecord
  2
block 55
340
0
102
{BLKREFS
331
174
102
}
  0
BLOCK_RECORD
  5
178
330
1
100
AcDbSymbolTableRecord
100
AcDbBlockTableRecord
  2
block 56
340
0
102
{BLKREFS
331
179
102
}
  0
BLOCK_RECORD
  5
180
330
1
100
AcDbSymbolTableRecord
100
AcDbBlockTableRecord
  2
block 57
340
0
102
{BLKREFS
331
181
102
}
  0
BLOCK_RECORD
  5
185
330
1
100
AcDbSymbolTableRecord
100
AcDbBlockTableRecord
  2
block 58
340
0
102
{BLKREFS
331
186
102
}
  0
BLOCK_RECORD
  5
18A
330
1
100
AcDbSymbolTableRecord
100
AcDbBlockTableRecord
  2
block 59
340
0
102
{BLKREFS
331
18B
102
}
  0
BLOCK_RECORD
  5
192
330
1
100
AcDbSymbolTableRecord
100
AcDbBlockTableRecord
  2
block 60
340
0
102
{BLKREFS
331
193
102
}
  0
BLOCK_RECORD
  5
19A
330
1
100
AcDbSymbolTableRecord
100
AcDbBlockTableRecord
  2
block 61
340
0
102
{BLKREFS
331
19B
102
}
  0
BLOCK_RECORD
  5
1A2
330
1
100
AcDbSymbolTableRecord
100
AcDbBlockTableRecord
  2
block 62
340
0
102
{BLKREFS
331
1A3
102
}
  0
BLOCK_RECORD
  5
1AA
330
1
100
AcDbSymbolTableRecord
100
AcDbBlockTableRecord
  2
block 63
340
0
102
{BLKREFS
331
1AB
102
}
  0
BLOCK_RECORD
  5
1B2
330
1
100
AcDbSymbolTableRecord
100
AcDbBlockTableRecord
  2
block 64
340
0
102
{BLKREFS
331
1B3
102
}
  0
BLOCK_RECORD
  5
1BA
330
1
100
AcDbSymbolTableRecord
100
AcDbBlockTableRecord
  2
block 65
340
0
102
{BLKREFS
331
1BB
102
}
  0
BLOCK_RECORD
  5
1BF
330
1
100
AcDbSymbolTableRecord
100
AcDbBlockTableRecord
  2
block 66
340
0
102
{BLKREFS
331
1C0
102
}
  0
BLOCK_RECORD
  5
1C4
330
1
100
AcDbSymbolTableRecord
100
AcDbBlockTableRecord
  2
block 67
340
0
102
{BLKREFS
331
1C5
102
}
  0
BLOCK_RECORD
  5
1C9
330
1
100
AcDbSymbolTableRecord
100
AcDbBlockTableRecord
  2
block 68
340
0
102
{BLKREFS
331
1CA
102
}
  0
BLOCK_RECORD
  5
1CE
330
1
100
AcDbSymbolTableRecord
100
AcDbBlockTableRecord
  2
block 69
340
0
102
{BLKREFS
331
1CF
102
}
  0
BLOCK_RECORD
  5
1D6
330
1
100
AcDbSymbolTableRecord
100
AcDbBlockTableRecord
  2
block 70
340
0
102
{BLKREFS
331
1D7
102
}
  0
BLOCK_RECORD
  5
1DE
330
1
100
AcDbSymbolTableRecord
100
AcDbBlockTableRecord
  2
block 71
340
0
102
{BLKREFS
331
1DF
102
}
  0
BLOCK_RECORD
  5
1E6
330
1
100
AcDbSymbolTableRecord
100
AcDbBlockTableRecord
  2
block 72
340
0
102
{BLKREFS
331
1E7
102
}
  0
BLOCK_RECORD
  5
1EE
330
1
100
AcDbSymbolTableRecord
100
AcDbBlockTableRecord
  2
block 73
340
0
102
{BLKREFS
331
1EF
102
}
  0
BLOCK_RECORD
  5
1F6
330
1
100
AcDbSymbolTableRecord
100
AcDbBlockTableRecord
  2
block 74
340
0
102
{BLKREFS
331
1F7
102
}
  0
BLOCK_RECORD
  5
1FB
330
1
100
AcDbSymbolTableRecord
100
AcDbBlockTableRecord
  2
block 75
340
0
102
{BLKREFS
331
1FC
102
}
  0
BLOCK_RECORD
  5
200
330
1
100
AcDbSymbolTableRecord
100
AcDbBlockTableRecord
  2
block 76
340
0
102
{BLKREFS
331
201
102
}
  0
BLOCK_RECORD
  5
205
330
1
100
AcDbSymbolTableRecord
100
AcDbBlockTableRecord
  2
block 77
340
0
102
{BLKREFS
331
206
102
}
  0
BLOCK_RECORD
  5
20A
330
1
100
AcDbSymbolTableRecord
100
AcDbBlockTableRecord
  2
block 78
340
0
102
{BLKREFS
331
20B
102
}
  0
BLOCK_RECORD
  5
20F
330
1
100
AcDbSymbolTableRecord
100
AcDbBlockTableRecord
  2
block 79
340
0
102
{BLKREFS
331
210
102
}
  0
BLOCK_RECORD
  5
214
330
1
100
AcDbSymbolTableRecord
100
AcDbBlockTableRecord
  2
block 80
340
0
102
{BLKREFS
331
215
102
}
  0
BLOCK_RECORD
  5
219
330
1
100
AcDbSymbolTableRecord
100
AcDbBlockTableRecord
  2
block 81
340
0
102
{BLKREFS
331
21A
102
}
  0
BLOCK_RECORD
  5
21E
330
1
100
AcDbSymbolTableRecord
100
AcDbBlockTableRecord
  2
block 82
340
0
102
{BLKREFS
331
21F
102
}
  0
BLOCK_RECORD
  5
223
330
1
100
AcDbSymbolTableRecord
100
AcDbBlockTableRecord
  2
block 83
340
0
102
{BLKREFS
331
224
102
}
  0
BLOCK_RECORD
  5
228
330
1
100
AcDbSymbolTableRecord
100
AcDbBlockTableRecord
  2
block 84
340
0
102
{BLKREFS
331
229
102
}
  0
BLOCK_RECORD
  5
230
330
1
100
AcDbSymbolTableRecord
100
AcDbBlockTableRecord
  2
block 85
340
0
102
{BLKREFS
331
231
102
}
  0
BLOCK_RECORD
  5
238
330
1
100
AcDbSymbolTableRecord
100
AcDbBlockTableRecord
  2
block 86
340
0
102
{BLKREFS
331
239
102
}
  0
BLOCK_RECORD
  5
240
330
1
100
AcDbSymbolTableRecord
100
AcDbBlockTableRecord
  2
block 87
340
0
102
{BLKREFS
331
241
102
}
  0
BLOCK_RECORD
  5
245
330
1
100
AcDbSymbolTableRecord
100
AcDbBlockTableRecord
  2
block 88
340
0
102
{BLKREFS
331
246
102
}
  0
BLOCK_RECORD
  5
24A
330
1
100
AcDbSymbolTableRecord
100
AcDbBlockTableRecord
  2
block 89
340
0
102
{BLKREFS
331
24B
102
}
  0
BLOCK_RECORD
  5
24F
330
1
100
AcDbSymbolTableRecord
100
AcDbBlockTableRecord
  2
block 90
340
0
102
{BLKREFS
331
250
102
}
  0
BLOCK_RECORD
  5
254
330
1
100
AcDbSymbolTableRecord
100
AcDbBlockTableRecord
  2
block 91
340
0
102
{BLKREFS
331
255
102
}
  0
BLOCK_RECORD
  5
259
330
1
100
AcDbSymbolTableRecord
100
AcDbBlockTableRecord
  2
block 92
340
0
102
{BLKREFS
331
25A
102
}
  0
BLOCK_RECORD
  5
25E
330
1
100
AcDbSymbolTableRecord
100
AcDbBlockTableRecord
  2
block 93
340
0
102
{BLKREFS
331
25F
102
}
  0
BLOCK_RECORD
  5
263
330
1
100
AcDbSymbolTableRecord
100
AcDbBlockTableRecord
  2
block 94
340
0
102
{BLKREFS
331
264
102
}
  0
BLOCK_RECORD
  5
268
330
1
100
AcDbSymbolTableRecord
100
AcDbBlockTableRecord
  2
block 95
340
0
102
{BLKREFS
331
269
102
}
  0
BLOCK_RECORD
  5
26C
330
1
100
AcDbSymbolTableRecord
100
AcDbBlockTableRecord
  2
block 96
340
0
102
{BLKREFS
331
26D
102
}
  0
BLOCK_RECORD
  5
274
330
1
100
AcDbSymbolTableRecord
100
AcDbBlockTableRecord
  2
block 97
340
0
102
{BLKREFS
331
275
102
}
  0
BLOCK_RECORD
  5
27C
330
1
100
AcDbSymbolTableRecord
100
AcDbBlockTableRecord
  2
block 98
340
0
102
{BLKREFS
331
27D
102
}
  0
BLOCK_RECORD
  5
284
330
1
100
AcDbSymbolTableRecord
100
AcDbBlockTableRecord
  2
block 99
340
0
102
{BLKREFS
331
285
102
}
  0
BLOCK_RECORD
  5
28C
330
1
100
AcDbSymbolTableRecord
100
AcDbBlockTableRecord
  2
block 100
340
0
102
{BLKREFS
331
28D
102
}
  0
BLOCK_RECORD
  5
294
330
1
100
AcDbSymbolTableRecord
100
AcDbBlockTableRecord
  2
block 101
340
0
102
{BLKREFS
331
295
102
}
  0
BLOCK_RECORD
  5
29C
330
1
100
AcDbSymbolTableRecord
100
AcDbBlockTableRecord
  2
block 102
340
0
102
{BLKREFS
331
29D
102
}
  0
BLOCK_RECORD
  5
2A7
330
1
100
AcDbSymbolTableRecord
100
AcDbBlockTableRecord
  2
block 103
340
0
102
{BLKREFS
331
2A8
102
}
  0
BLOCK_RECORD
  5
2B2
330
1
100
AcDbSymbolTableRecord
100
AcDbBlockTableRecord
  2
block 104
340
0
102
{BLKREFS
331
2B3
102
}
  0
BLOCK_RECORD
  5
2B7
330
1
100
AcDbSymbolTableRecord
100
AcDbBlockTableRecord
  2
block 105
340
0
102
{BLKREFS
331
2B8
102
}
  0
BLOCK_RECORD
  5
2BF
330
1
100
AcDbSymbolTableRecord
100
AcDbBlockTableRecord
  2
block 106
340
0
102
{BLKREFS
331
2C0
102
}
  0
BLOCK_RECORD
  5
2C7
330
1
100
AcDbSymbolTableRecord
100
AcDbBlockTableRecord
  2
block 107
340
0
102
{BLKREFS
331
2C8
102
}
  0
BLOCK_RECORD
  5
2CF
330
1
100
AcDbSymbolTableRecord
100
AcDbBlockTableRecord
  2
block 108
340
0
102
{BLKREFS
331
2D0
102
}
  0
BLOCK_RECORD
  5
2D3
330
1
100
AcDbSymbolTableRecord
100
AcDbBlockTableRecord
  2
block 109
340
0
102
{BLKREFS
331
2D4
102
}
  0
BLOCK_RECORD
  5
2DB
330
1
100
AcDbSymbolTableRecord
100
AcDbBlockTableRecord
  2
block 110
340
0
102
{BLKREFS
331
2DC
102
}
  0
BLOCK_RECORD
  5
2E3
330
1
100
AcDbSymbolTableRecord
100
AcDbBlockTableRecord
  2
block 111
340
0
102
{BLKREFS
331
2E4
102
}
  0
BLOCK_RECORD
  5
2EB
330
1
100
AcDbSymbolTableRecord
100
AcDbBlockTableRecord
  2
block 112
340
0
102
{BLKREFS
331
2EC
102
}
  0
BLOCK_RECORD
  5
2F0
330
1
100
AcDbSymbolTableRecord
100
AcDbBlockTableRecord
  2
block 113
340
0
102
{BLKREFS
331
2F1
102
}
  0
BLOCK_RECORD
  5
2F8
330
1
100
AcDbSymbolTableRecord
100
AcDbBlockTableRecord
  2
block 114
340
0
102
{BLKREFS
331
2F9
102
}
  0
BLOCK_RECORD
  5
303
330
1
100
AcDbSymbolTableRecord
100
AcDbBlockTableRecord
  2
block 115
340
0
102
{BLKREFS
331
304
102
}
  0
BLOCK_RECORD
  5
30E
330
1
100
AcDbSymbolTableRecord
100
AcDbBlockTableRecord
  2
block 116
340
0
102
{BLKREFS
331
30F
102
}
  0
BLOCK_RECORD
  5
316
330
1
100
AcDbSymbolTableRecord
100
AcDbBlockTableRecord
  2
block 117
340
0
102
{BLKREFS
331
317
102
}
  0
BLOCK_RECORD
  5
31E
330
1
100
AcDbSymbolTableRecord
100
AcDbBlockTableRecord
  2
block 118
340
0
102
{BLKREFS
331
31F
102
}
  0
BLOCK_RECORD
  5
322
330
1
100
AcDbSymbolTableRecord
100
AcDbBlockTableRecord
  2
block 119
340
0
102
{BLKREFS
331
323
102
}
  0
BLOCK_RECORD
  5
32A
330
1
100
AcDbSymbolTableRecord
100
AcDbBlockTableRecord
  2
block 120
340
0
102
{BLKREFS
331
32B
102
}
  0
BLOCK_RECORD
  5
332
330
1
100
AcDbSymbolTableRecord
100
AcDbBlockTableRecord
  2
block 121
340
0
102
{BLKREFS
331
333
102
}
  0
BLOCK_RECORD
  5
33A
330
1
100
AcDbSymbolTableRecord
100
AcDbBlockTableRecord
  2
block 122
340
0
102
{BLKREFS
331
33B
102
}
  0
BLOCK_RECORD
  5
342
330
1
100
AcDbSymbolTableRecord
100
AcDbBlockTableRecord
  2
block 123
340
0
102
{BLKREFS
331
343
102
}
  0
BLOCK_RECORD
  5
34A
330
1
100
AcDbSymbolTableRecord
100
AcDbBlockTableRecord
  2
block 124
340
0
102
{BLKREFS
331
34B
102
}
  0
BLOCK_RECORD
  5
355
330
1
100
AcDbSymbolTableRecord
100
AcDbBlockTableRecord
  2
block 125
340
0
102
{BLKREFS
331
356
102
}
  0
BLOCK_RECORD
  5
360
330
1
100
AcDbSymbolTableRecord
100
AcDbBlockTableRecord
  2
block 126
340
0
102
{BLKREFS
331
361
102
}
  0
BLOCK_RECORD
  5
365
330
1
100
AcDbSymbolTableRecord
100
AcDbBlockTableRecord
  2
block 127
340
0
102
{BLKREFS
331
366
102
}
  0
BLOCK_RECORD
  5
36D
330
1
100
AcDbSymbolTableRecord
100
AcDbBlockTableRecord
  2
block 128
340
0
102
{BLKREFS
331
36E
102
}
  0
BLOCK_RECORD
  5
375
330
1
100
AcDbSymbolTableRecord
100
AcDbBlockTableRecord
  2
block 129
340
0
102
{BLKREFS
331
376
102
}
  0
BLOCK_RECORD
  5
37D
330
1
100
AcDbSymbolTableRecord
100
AcDbBlockTableRecord
  2
block 130
340
0
102
{BLKREFS
331
37E
102
}
  0
BLOCK_RECORD
  5
381
330
1
100
AcDbSymbolTableRecord
100
AcDbBlockTableRecord
  2
block 131
340
0
102
{BLKREFS
331
382
102
}
  0
BLOCK_RECORD
  5
389
330
1
100
AcDbSymbolTableRecord
100
AcDbBlockTableRecord
  2
block 132
340
0
102
{BLKREFS
331
38A
102
}
  0
BLOCK_RECORD
  5
391
330
1
100
AcDbSymbolTableRecord
100
AcDbBlockTableRecord
  2
block 133
340
0
102
{BLKREFS
331
392
102
}
  0
BLOCK_RECORD
  5
399
330
1
100
AcDbSymbolTableRecord
100
AcDbBlockTableRecord
  2
block 134
340
0
102
{BLKREFS
331
39A
102
}
  0
BLOCK_RECORD
  5
3A1
330
1
100
AcDbSymbolTableRecord
100
AcDbBlockTableRecord
  2
block 135
340
0
102
{BLKREFS
331
3A2
102
}
  0
BLOCK_RECORD
  5
3AC
330
1
100
AcDbSymbolTableRecord
100
AcDbBlockTableRecord
  2
block 136
340
0
102
{BLKREFS
331
3AD
102
}
  0
BLOCK_RECORD
  5
3B7
330
1
100
AcDbSymbolTableRecord
100
AcDbBlockTableRecord
  2
block 137
340
0
102
{BLKREFS
331
3B8
102
}
  0
BLOCK_RECORD
  5
3BC
330
1
100
AcDbSymbolTableRecord
100
AcDbBlockTableRecord
  2
block 138
340
0
102
{BLKREFS
331
3BD
102
}
  0
BLOCK_RECORD
  5
3C4
330
1
100
AcDbSymbolTableRecord
100
AcDbBlockTableRecord
  2
block 139
340
0
102
{BLKREFS
331
3C5
102
}
  0
BLOCK_RECORD
  5
3CC
330
1
100
AcDbSymbolTableRecord
100
AcDbBlockTableRecord
  2
block 140
340
0
102
{BLKREFS
331
3CD
102
}
  0
BLOCK_RECORD
  5
3D4
330
1
100
AcDbSymbolTableRecord
100
AcDbBlockTableRecord
  2
block 141
340
0
102
{BLKREFS
331
3D5
102
}
  0
BLOCK_RECORD
  5
3D8
330
1
100
AcDbSymbolTableRecord
100
AcDbBlockTableRecord
  2
block 142
340
0
102
{BLKREFS
331
3D9
102
}
  0
BLOCK_RECORD
  5
3E0
330
1
100
AcDbSymbolTableRecord
100
AcDbBlockTableRecord
  2
block 143
340
0
102
{BLKREFS
331
3E1
102
}
  0
BLOCK_RECORD
  5
3E8
330
1
100
AcDbSymbolTableRecord
100
AcDbBlockTableRecord
  2
block 144
340
0
102
{BLKREFS
331
3E9
102
}
  0
BLOCK_RECORD
  5
3F0
330
1
100
AcDbSymbolTableRecord
100
AcDbBlockTableRecord
  2
block 145
340
0
102
{BLKREFS
331
3F1
102
}
  0
BLOCK_RECORD
  5
3F8
330
1
100
AcDbSymbolTableRecord
100
AcDbBlockTableRecord
  2
block 146
340
0
102
{BLKREFS
331
3F9
102
}
  0
BLOCK_RECORD
  5
400
330
1
100
AcDbSymbolTableRecord
100
AcDbBlockTableRecord
  2
block 147
340
0
102
{BLKREFS
331
401
102
}
  0
BLOCK_RECORD
  5
40B
330
1
100
AcDbSymbolTableRecord
100
AcDbBlockTableRecord
  2
block 148
340
0
102
{BLKREFS
331
40C
102
}
  0
BLOCK_RECORD
  5
416
330
1
100
AcDbSymbolTableRecord
100
AcDbBlockTableRecord
  2
block 149
340
0
102
{BLKREFS
331
417
102
}
  0
BLOCK_RECORD
  5
41B
330
1
100
AcDbSymbolTableRecord
100
AcDbBlockTableRecord
  2
block 150
340
0
102
{BLKREFS
331
41C
102
}
  0
BLOCK_RECORD
  5
423
330
1
100
AcDbSymbolTableRecord
100
AcDbBlockTableRecord
  2
block 151
340
0
102
{BLKREFS
331
424
102
}
  0
BLOCK_RECORD
  5
42B
330
1
100
AcDbSymbolTableRecord
100
AcDbBlockTableRecord
  2
block 152
340
0
102
{BLKREFS
331
42C
102
}
  0
BLOCK_RECORD
  5
433
330
1
100
AcDbSymbolTableRecord
100
AcDbBlockTableRecord
  2
block 153
340
0
102
{BLKREFS
331
434
102
}
  0
BLOCK_RECORD
  5
437
330
1
100
AcDbSymbolTableRecord
100
AcDbBlockTableRecord
  2
block 154
340
0
102
{BLKREFS
331
438
102
}
  0
BLOCK_RECORD
  5
43F
330
1
100
AcDbSymbolTableRecord
100
AcDbBlockTableRecord
  2
block 155
340
0
102
{BLKREFS
331
440
102
}
  0
BLOCK_RECORD
  5
447
330
1
100
AcDbSymbolTableRecord
100
AcDbBlockTableRecord
  2
block 156
340
0
102
{BLKREFS
331
448
102
}
  0
BLOCK_RECORD
  5
44F
330
1
100
AcDbSymbolTableRecord
100
AcDbBlockTableRecord
  2
block 157
340
0
102
{BLKREFS
331
450
102
}
  0
BLOCK_RECORD
  5
457
330
1
100
AcDbSymbolTableRecord
100
AcDbBlockTableRecord
  2
block 158
340
0
102
{BLKREFS
331
458
102
}
  0
BLOCK_RECORD
  5
462
330
1
100
AcDbSymbolTableRecord
100
AcDbBlockTableRecord
  2
block 159
340
0
102
{BLKREFS
331
463
102
}
  0
BLOCK_RECORD
  5
46D
330
1
100
AcDbSymbolTableRecord
100
AcDbBlockTableRecord
  2
block 160
340
0
102
{BLKREFS
331
46E
102
}
  0
BLOCK_RECORD
  5
472
330
1
100
AcDbSymbolTableRecord
100
AcDbBlockTableRecord
  2
block 161
340
0
102
{BLKREFS
331
473
102
}
  0
BLOCK_RECORD
  5
47A
330
1
100
AcDbSymbolTableRecord
100
AcDbBlockTableRecord
  2
block 162
340
0
102
{BLKREFS
331
47B
102
}
  0
BLOCK_RECORD
  5
482
330
1
100
AcDbSymbolTableRecord
100
AcDbBlockTableRecord
  2
block 163
340
0
102
{BLKREFS
331
483
102
}
  0
BLOCK_RECORD
  5
48A
330
1
100
AcDbSymbolTableRecord
100
AcDbBlockTableRecord
  2
block 164
340
0
102
{BLKREFS
331
48B
102
}
  0
BLOCK_RECORD
  5
48E
330
1
100
AcDbSymbolTableRecord
100
AcDbBlockTableRecord
  2
block 165
340
0
102
{BLKREFS
331
48F
102
}
  0
BLOCK_RECORD
  5
496
330
1
100
AcDbSymbolTableRecord
100
AcDbBlockTableRecord
  2
block 166
340
0
102
{BLKREFS
331
497
102
}
  0
BLOCK_RECORD
  5
49E
330
1
100
AcDbSymbolTableRecord
100
AcDbBlockTableRecord
  2
block 167
340
0
102
{BLKREFS
331
49F
102
}
  0
BLOCK_RECORD
  5
4A6
330
1
100
AcDbSymbolTableRecord
100
AcDbBlockTableRecord
  2
block 168
340
0
102
{BLKREFS
331
4A7
102
}
  0
BLOCK_RECORD
  5
4AE
330
1
100
AcDbSymbolTableRecord
100
AcDbBlockTableRecord
  2
block 169
340
0
102
{BLKREFS
331
4AF
102
}
  0
BLOCK_RECORD
  5
4B9
330
1
100
AcDbSymbolTableRecord
100
AcDbBlockTableRecord
  2
block 170
340
0
102
{BLKREFS
331
4BA
102
}
  0
BLOCK_RECORD
  5
4C4
330
1
100
AcDbSymbolTableRecord
100
AcDbBlockTableRecord
  2
block 171
340
0
102
{BLKREFS
331
4C5
102
}
  0
BLOCK_RECORD
  5
4C9
330
1
100
AcDbSymbolTableRecord
100
AcDbBlockTableRecord
  2
block 172
340
0
102
{BLKREFS
331
4CA
102
}
  0
BLOCK_RECORD
  5
4D1
330
1
100
AcDbSymbolTableRecord
100
AcDbBlockTableRecord
  2
block 173
340
0
102
{BLKREFS
331
4D2
102
}
  0
BLOCK_RECORD
  5
4D9
330
1
100
AcDbSymbolTableRecord
100
AcDbBlockTableRecord
  2
block 174
340
0
102
{BLKREFS
331
4DA
102
}
  0
BLOCK_RECORD
  5
4E1
330
1
100
AcDbSymbolTableRecord
100
AcDbBlockTableRecord
  2
block 175
340
0
102
{BLKREFS
331
4E2
102
}
  0
BLOCK_RECORD
  5
4E5
330
1
100
AcDbSymbolTableRecord
100
AcDbBlockTableRecord
  2
block 176
340
0
102
{BLKREFS
331
4E6
102
}
  0
BLOCK_RECORD
  5
4ED
330
1
100
AcDbSymbolTableRecord
100
AcDbBlockTableRecord
  2
block 177
340
0
102
{BLKREFS
331
4EE
102
}
  0
BLOCK_RECORD
  5
4F5
330
1
100
AcDbSymbolTableRecord
100
AcDbBlockTableRecord
  2
block 178
340
0
102
{BLKREFS
331
4F6
102
}
  0
BLOCK_RECORD
  5
4FD
330
1
100
AcDbSymbolTableRecord
100
AcDbBlockTableRecord
  2
block 179
340
0
102
{BLKREFS
331
4FE
102
}
  0
BLOCK_RECORD
  5
505
330
1
100
AcDbSymbolTableRecord
100
AcDbBlockTableRecord
  2
block 180
340
0
102
{BLKREFS
331
506
102
}
  0
BLOCK_RECORD
  5
510
330
1
100
AcDbSymbolTableRecord
100
AcDbBlockTableRecord
  2
block 181
340
0
102
{BLKREFS
331
511
102
}
  0
BLOCK_RECORD
  5
51B
330
1
100
AcDbSymbolTableRecord
100
AcDbBlockTableRecord
  2
block 182
340
0
102
{BLKREFS
331
51C
102
}
  0
BLOCK_RECORD
  5
520
330
1
100
AcDbSymbolTableRecord
100
AcDbBlockTableRecord
  2
block 183
340
0
102
{BLKREFS
331
521
102
}
  0
BLOCK_RECORD
  5
528
330
1
100
AcDbSymbolTableRecord
100
AcDbBlockTableRecord
  2
block 184
340
0
102
{BLKREFS
331
529
102
}
  0
BLOCK_RECORD
  5
530
330
1
100
AcDbSymbolTableRecord
100
AcDbBlockTableRecord
  2
block 185
340
0
102
{BLKREFS
331
531
102
}
  0
BLOCK_RECORD
  5
538
330
1
100
AcDbSymbolTableRecord
100
AcDbBlockTableRecord
  2
block 186
340
0
102
{BLKREFS
331
539
102
}
  0
BLOCK_RECORD
  5
53C
330
1
100
AcDbSymbolTableRecord
100
AcDbBlockTableRecord
  2
block 187
340
0
102
{BLKREFS
331
53D
102
}
  0
BLOCK_RECORD
  5
544
330
1
100
AcDbSymbolTableRecord
100
AcDbBlockTableRecord
  2
block 188
340
0
102
{BLKREFS
331
545
102
}
  0
BLOCK_RECORD
  5
54C
330
1
100
AcDbSymbolTableRecord
100
AcDbBlockTableRecord
  2
block 189
340
0
102
{BLKREFS
331
54D
102
}
  0
BLOCK_RECORD
  5
554
330
1
100
AcDbSymbolTableRecord
100
AcDbBlockTableRecord
  2
block 190
340
0
102
{BLKREFS
331
555
102
}
  0
BLOCK_RECORD
  5
55C
330
1
100
AcDbSymbolTableRecord
100
AcDbBlockTableRecord
  2
block 191
340
0
102
{BLKREFS
331
55D
102
}
  0
BLOCK_RECORD
  5
567
330
1
100
AcDbSymbolTableRecord
100
AcDbBlockTableRecord
  2
block 192
340
0
102
{BLKREFS
331
568
102
}
  0
BLOCK_RECORD
  5
572
330
1
100
AcDbSymbolTableRecord
100
AcDbBlockTableRecord
  2
block 193
340
0
102
{BLKREFS
331
573
102
}
  0
BLOCK_RECORD
  5
577
330
1
100
AcDbSymbolTableRecord
100
AcDbBlockTableRecord
  2
block 194
340
0
102
{BLKREFS
331
578
102
}
  0
BLOCK_RECORD
  5
57F
330
1
100
AcDbSymbolTableRecord
100
AcDbBlockTableRecord
  2
block 195
340
0
102
{BLKREFS
331
580
102
}
  0
BLOCK_RECORD
  5
587
330
1
100
AcDbSymbolTableRecord
100
AcDbBlockTableRecord
  2
block 196
340
0
102
{BLKREFS
331
588
102
}
  0
BLOCK_RECORD
  5
58F
330
1
100
AcDbSymbolTableRecord
100
AcDbBlockTableRecord
  2
block 197
340
0
102
{BLKREFS
331
590
102
}
  0
BLOCK_RECORD
  5
593
330
1
100
AcDbSymbolTableRecord
100
AcDbBlockTableRecord
  2
block 198
340
0
102
{BLKREFS
331
594
102
}
  0
BLOCK_RECORD
  5
59B
330
1
100
AcDbSymbolTableRecord
100
AcDbBlockTableRecord
  2
block 199
340
0
102
{BLKREFS
331
59C
102
}
  0
BLOCK_RECORD
  5
5A3
330
1
100
AcDbSymbolTableRecord
100
AcDbBlockTableRecord
  2
block 200
340
0
102
{BLKREFS
331
5A4
102
}
  0
BLOCK_RECORD
  5
5AB
330
1
100
AcDbSymbolTableRecord
100
AcDbBlockTableRecord
  2
block 201
340
0
102
{BLKREFS
331
5AC
102
}
  0
BLOCK_RECORD
  5
5B3
330
1
100
AcDbSymbolTableRecord
100
AcDbBlockTableRecord
  2
block 202
340
0
102
{BLKREFS
331
5B4
102
}
  0
BLOCK_RECORD
  5
5BE
330
1
100
AcDbSymbolTableRecord
100
AcDbBlockTableRecord
  2
block 203
340
0
102
{BLKREFS
331
5BF
102
}
  0
BLOCK_RECORD
  5
5C9
330
1
100
AcDbSymbolTableRecord
100
AcDbBlockTableRecord
  2
block 204
340
0
102
{BLKREFS
331
5CA
102
}
  0
BLOCK_RECORD
  5
5CE
330
1
100
AcDbSymbolTableRecord
100
AcDbBlockTableRecord
  2
block 205
340
0
102
{BLKREFS
331
5CF
102
}
  0
BLOCK_RECORD
  5
5D6
330
1
100
AcDbSymbolTableRecord
100
AcDbBlockTableRecord
  2
block 206
340
0
102
{BLKREFS
331
5D7
102
}
  0
BLOCK_RECORD
  5
5DE
330
1
100
AcDbSymbolTableRecord
100
AcDbBlockTableRecord
  2
block 207
340
0
102
{BLKREFS
331
5DF
102
}
  0
BLOCK_RECORD
  5
5E6
330
1
100
AcDbSymbolTableRecord
100
AcDbBlockTableRecord
  2
block 208
340
0
102
{BLKREFS
331
5E7
102
}
  0
BLOCK_RECORD
  5
5EA
330
1
100
AcDbSymbolTableRecord
100
AcDbBlockTableRecord
  2
block 209
340
0
102
{BLKREFS
331
5EB
102
}
  0
BLOCK_RECORD
  5
5F2
330
1
100
AcDbSymbolTableRecord
100
AcDbBlockTableRecord
  2
block 210
340
0
102
{BLKREFS
331
5F3
102
}
  0
BLOCK_RECORD
  5
5FA
330
1
100
AcDbSymbolTableRecord
100
AcDbBlockTableRecord
  2
block 211
340
0
102
{BLKREFS
331
5FB
102
}
  0
BLOCK_RECORD
  5
602
330
1
100
AcDbSymbolTableRecord
100
AcDbBlockTableRecord
  2
block 212
340
0
102
{BLKREFS
331
603
102
}
  0
BLOCK_RECORD
  5
60A
330
1
100
AcDbSymbolTableRecord
100
AcDbBlockTableRecord
  2
block 213
340
0
102
{BLKREFS
331
60B
102
}
  0
BLOCK_RECORD
  5
612
330
1
100
AcDbSymbolTableRecord
100
AcDbBlockTableRecord
  2
block 214
340
0
102
{BLKREFS
331
613
102
}
  0
BLOCK_RECORD
  5
61D
330
1
100
AcDbSymbolTableRecord
100
AcDbBlockTableRecord
  2
block 215
340
0
102
{BLKREFS
331
61E
102
}
  0
BLOCK_RECORD
  5
628
330
1
100
AcDbSymbolTableRecord
100
AcDbBlockTableRecord
  2
block 216
340
0
102
{BLKREFS
331
629
102
}
  0
BLOCK_RECORD
  5
62D
330
1
100
AcDbSymbolTableRecord
100
AcDbBlockTableRecord
  2
block 217
340
0
102
{BLKREFS
331
62E
102
}
  0
BLOCK_RECORD
  5
635
330
1
100
AcDbSymbolTableRecord
100
AcDbBlockTableRecord
  2
block 218
340
0
102
{BLKREFS
331
636
102
}
  0
BLOCK_RECORD
  5
63D
330
1
100
AcDbSymbolTableRecord
100
AcDbBlockTableRecord
  2
block 219
340
0
102
{BLKREFS
331
63E
102
}
  0
BLOCK_RECORD
  5
645
330
1
100
AcDbSymbolTableRecord
100
AcDbBlockTableRecord
  2
block 220
340
0
102
{BLKREFS
331
646
102
}
  0
BLOCK_RECORD
  5
649
330
1
100
AcDbSymbolTableRecord
100
AcDbBlockTableRecord
  2
block 221
340
0
102
{BLKREFS
331
64A
102
}
  0
BLOCK_RECORD
  5
651
330
1
100
AcDbSymbolTableRecord
100
AcDbBlockTableRecord
  2
block 222
340
0
102
{BLKREFS
331
652
102
}
  0
BLOCK_RECORD
  5
659
330
1
100
AcDbSymbolTableRecord
100
AcDbBlockTableRecord
  2
block 223
340
0
102
{BLKREFS
331
65A
102
}
  0
BLOCK_RECORD
  5
661
330
1
100
AcDbSymbolTableRecord
100
AcDbBlockTableRecord
  2
block 224
340
0
102
{BLKREFS
331
662
102
}
  0
BLOCK_RECORD
  5
669
330
1
100
AcDbSymbolTableRecord
100
AcDbBlockTableRecord
  2
block 225
340
0
102
{BLKREFS
331
66A
102
}
  0
BLOCK_RECORD
  5
671
330
1
100
AcDbSymbolTableRecord
100
AcDbBlockTableRecord
  2
block 226
340
0
102
{BLKREFS
331
672
102
}
  0
BLOCK_RECORD
  5
67C
330
1
100
AcDbSymbolTableRecord
100
AcDbBlockTableRecord
  2
block 227
340
0
102
{BLKREFS
331
67D
102
}
  0
BLOCK_RECORD
  5
687
330
1
100
AcDbSymbolTableRecord
100
AcDbBlockTableRecord
  2
block 228
340
0
102
{BLKREFS
331
688
102
}
  0
BLOCK_RECORD
  5
68C
330
1
100
AcDbSymbolTableRecord
100
AcDbBlockTableRecord
  2
block 229
340
0
102
{BLKREFS
331
68D
102
}
  0
BLOCK_RECORD
  5
694
330
1
100
AcDbSymbolTableRecord
100
AcDbBlockTableRecord
  2
block 230
340
0
102
{BLKREFS
331
695
102
}
  0
BLOCK_RECORD
  5
69C
330
1
100
AcDbSymbolTableRecord
100
AcDbBlockTableRecord
  2
block 231
340
0
102
{BLKREFS
331
69D
102
}
  0
BLOCK_RECORD
  5
6A4
330
1
100
AcDbSymbolTableRecord
100
AcDbBlockTableRecord
  2
block 232
340
0
102
{BLKREFS
331
6A5
102
}
  0
BLOCK_RECORD
  5
6A8
330
1
100
AcDbSymbolTableRecord
100
AcDbBlockTableRecord
  2
block 233
340
0
102
{BLKREFS
331
6A9
102
}
  0
BLOCK_RECORD
  5
6BA
330
1
100
AcDbSymbolTableRecord
100
AcDbBlockTableRecord
  2
block 234
340
0
102
{BLKREFS
331
6BB
102
}
  0
BLOCK_RECORD
  5
6C0
330
1
100
AcDbSymbolTableRecord
100
AcDbBlockTableRecord
  2
block 235
340
0
102
{BLKREFS
331
6C1
102
}
  0
BLOCK_RECORD
  5
6D2
330
1
100
AcDbSymbolTableRecord
100
AcDbBlockTableRecord
  2
block 236
340
0
102
{BLKREFS
331
6D3
102
}
  0
BLOCK_RECORD
  5
6D7
330
1
100
AcDbSymbolTableRecord
100
AcDbBlockTableRecord
  2
block 237
340
0
102
{BLKREFS
331
6D8
102
}
  0
BLOCK_RECORD
  5
6DC
330
1
100
AcDbSymbolTableRecord
100
AcDbBlockTableRecord
  2
block 238
340
0
102
{BLKREFS
331
6DD
102
}
  0
BLOCK_RECORD
  5
6E1
330
1
100
AcDbSymbolTableRecord
100
AcDbBlockTableRecord
  2
block 239
340
0
102
{BLKREFS
331
6E2
102
}
  0
BLOCK_RECORD
  5
6E9
330
1
100
AcDbSymbolTableRecord
100
AcDbBlockTableRecord
  2
block 240
340
0
102
{BLKREFS
331
6EA
102
}
  0
BLOCK_RECORD
  5
6F1
330
1
100
AcDbSymbolTableRecord
100
AcDbBlockTableRecord
  2
block 241
340
0
102
{BLKREFS
331
6F2
102
}
  0
BLOCK_RECORD
  5
6F9
330
1
100
AcDbSymbolTableRecord
100
AcDbBlockTableRecord
  2
block 242
340
0
102
{BLKREFS
331
6FA
102
}
  0
BLOCK_RECORD
  5
701
330
1
100
AcDbSymbolTableRecord
100
AcDbBlockTableRecord
  2
block 243
340
0
102
{BLKREFS
331
702
102
}
  0
BLOCK_RECORD
  5
709
330
1
100
AcDbSymbolTableRecord
100
AcDbBlockTableRecord
  2
block 244
340
0
102
{BLKREFS
331
70A
102
}
  0
BLOCK_RECORD
  5
711
330
1
100
AcDbSymbolTableRecord
100
AcDbBlockTableRecord
  2
block 245
340
0
102
{BLKREFS
331
712
102
}
  0
BLOCK_RECORD
  5
719
330
1
100
AcDbSymbolTableRecord
100
AcDbBlockTableRecord
  2
block 246
340
0
102
{BLKREFS
331
71A
102
}
  0
BLOCK_RECORD
  5
721
330
1
100
AcDbSymbolTableRecord
100
AcDbBlockTableRecord
  2
block 247
340
0
102
{BLKREFS
331
722
102
}
  0
BLOCK_RECORD
  5
729
330
1
100
AcDbSymbolTableRecord
100
AcDbBlockTableRecord
  2
block 248
340
0
102
{BLKREFS
331
72A
102
}
  0
BLOCK_RECORD
  5
731
330
1
100
AcDbSymbolTableRecord
100
AcDbBlockTableRecord
  2
block 249
340
0
102
{BLKREFS
331
732
102
}
  0
BLOCK_RECORD
  5
739
330
1
100
AcDbSymbolTableRecord
100
AcDbBlockTableRecord
  2
block 250
340
0
102
{BLKREFS
331
73A
102
}
  0
BLOCK_RECORD
  5
742
330
1
100
AcDbSymbolTableRecord
100
AcDbBlockTableRecord
  2
block 251
340
0
102
{BLKREFS
331
743
102
}
  0
BLOCK_RECORD
  5
74A
330
1
100
AcDbSymbolTableRecord
100
AcDbBlockTableRecord
  2
block 252
340
0
102
{BLKREFS
331
74B
102
}
  0
BLOCK_RECORD
  5
752
330
1
100
AcDbSymbolTableRecord
100
AcDbBlockTableRecord
  2
block 253
340
0
102
{BLKREFS
331
753
102
}
  0
BLOCK_RECORD
  5
75A
330
1
100
AcDbSymbolTableRecord
100
AcDbBlockTableRecord
  2
block 254
340
0
102
{BLKREFS
331
75B
102
}
  0
BLOCK_RECORD
  5
762
330
1
100
AcDbSymbolTableRecord
100
AcDbBlockTableRecord
  2
block 255
340
0
102
{BLKREFS
331
763
102
}
  0
BLOCK_RECORD
  5
76A
330
1
100
AcDbSymbolTableRecord
100
AcDbBlockTableRecord
  2
block 256
340
0
102
{BLKREFS
331
76B
102
}
  0
BLOCK_RECORD
  5
76F
330
1
100
AcDbSymbolTableRecord
100
AcDbBlockTableRecord
  2
block 257
340
0
102
{BLKREFS
331
770
102
}
  0
BLOCK_RECORD
  5
774
330
1
100
AcDbSymbolTableRecord
100
AcDbBlockTableRecord
  2
block 258
340
0
102
{BLKREFS
331
775
102
}
  0
BLOCK_RECORD
  5
779
330
1
100
AcDbSymbolTableRecord
100
AcDbBlockTableRecord
  2
block 259
340
0
102
{BLKREFS
331
77A
102
}
  0
BLOCK_RECORD
  5
77E
330
1
100
AcDbSymbolTableRecord
100
AcDbBlockTableRecord
  2
block 260
340
0
102
{BLKREFS
331
77F
102
}
  0
BLOCK_RECORD
  5
786
330
1
100
AcDbSymbolTableRecord
100
AcDbBlockTableRecord
  2
block 261
340
0
102
{BLKREFS
331
787
102
}
  0
BLOCK_RECORD
  5
78E
330
1
100
AcDbSymbolTableRecord
100
AcDbBlockTableRecord
  2
block 262
340
0
102
{BLKREFS
331
78F
102
}
  0
BLOCK_RECORD
  5
796
330
1
100
AcDbSymbolTableRecord
100
AcDbBlockTableRecord
  2
block 263
340
0
102
{BLKREFS
331
797
102
}
  0
BLOCK_RECORD
  5
79B
330
1
100
AcDbSymbolTableRecord
100
AcDbBlockTableRecord
  2
block 264
340
0
102
{BLKREFS
331
79C
102
}
  0
BLOCK_RECORD
  5
7A0
330
1
100
AcDbSymbolTableRecord
100
AcDbBlockTableRecord
  2
block 265
340
0
102
{BLKREFS
331
7A1
102
}
  0
BLOCK_RECORD
  5
7A5
330
1
100
AcDbSymbolTableRecord
100
AcDbBlockTableRecord
  2
block 266
340
0
102
{BLKREFS
331
7A6
102
}
  0
BLOCK_RECORD
  5
7AA
330
1
100
AcDbSymbolTableRecord
100
AcDbBlockTableRecord
  2
block 267
340
0
102
{BLKREFS
331
7AB
102
}
  0
BLOCK_RECORD
  5
7B2
330
1
100
AcDbSymbolTableRecord
100
AcDbBlockTableRecord
  2
block 268
340
0
102
{BLKREFS
331
7B3
102
}
  0
BLOCK_RECORD
  5
7BA
330
1
100
AcDbSymbolTableRecord
100
AcDbBlockTableRecord
  2
block 269
340
0
102
{BLKREFS
331
7BB
102
}
  0
BLOCK_RECORD
  5
7BF
330
1
100
AcDbSymbolTableRecord
100
AcDbBlockTableRecord
  2
block 270
340
0
102
{BLKREFS
331
7C0
102
}
  0
BLOCK_RECORD
  5
7C4
330
1
100
AcDbSymbolTableRecord
100
AcDbBlockTableRecord
  2
block 271
340
0
102
{BLKREFS
331
7C5
102
}
  0
BLOCK_RECORD
  5
7CC
330
1
100
AcDbSymbolTableRecord
100
AcDbBlockTableRecord
  2
block 272
340
0
102
{BLKREFS
331
7CD
102
}
  0
BLOCK_RECORD
  5
7D4
330
1
100
AcDbSymbolTableRecord
100
AcDbBlockTableRecord
  2
block 273
340
0
102
{BLKREFS
331
7D5
102
}
  0
BLOCK_RECORD
  5
7D9
330
1
100
AcDbSymbolTableRecord
100
AcDbBlockTableRecord
  2
block 274
340
0
102
{BLKREFS
331
7DA
102
}
  0
BLOCK_RECORD
  5
7DE
330
1
100
AcDbSymbolTableRecord
100
AcDbBlockTableRecord
  2
block 275
340
0
102
{BLKREFS
331
7DF
102
}
  0
BLOCK_RECORD
  5
7E6
330
1
100
AcDbSymbolTableRecord
100
AcDbBlockTableRecord
  2
block 276
340
0
102
{BLKREFS
331
7E7
102
}
  0
BLOCK_RECORD
  5
7EE
330
1
100
AcDbSymbolTableRecord
100
AcDbBlockTableRecord
  2
block 277
340
0
102
{BLKREFS
331
7EF
102
}
  0
BLOCK_RECORD
  5
7F3
330
1
100
AcDbSymbolTableRecord
100
AcDbBlockTableRecord
  2
block 278
340
0
102
{BLKREFS
331
7F4
102
}
  0
BLOCK_RECORD
  5
7F8
330
1
100
AcDbSymbolTableRecord
100
AcDbBlockTableRecord
  2
block 279
340
0
102
{BLKREFS
331
7F9
102
}
  0
BLOCK_RECORD
  5
800
330
1
100
AcDbSymbolTableRecord
100
AcDbBlockTableRecord
  2
block 280
340
0
102
{BLKREFS
331
801
102
}
  0
BLOCK_RECORD
  5
808
330
1
100
AcDbSymbolTableRecord
100
AcDbBlockTableRecord
  2
block 281
340
0
102
{BLKREFS
331
809
102
}
  0
BLOCK_RECORD
  5
80D
330
1
100
AcDbSymbolTableRecord
100
AcDbBlockTableRecord
  2
block 282
340
0
102
{BLKREFS
331
80E
102
}
  0
BLOCK_RECORD
  5
812
330
1
100
AcDbSymbolTableRecord
100
AcDbBlockTableRecord
  2
block 283
340
0
102
{BLKREFS
331
813
102
}
  0
BLOCK_RECORD
  5
817
330
1
100
AcDbSymbolTableRecord
100
AcDbBlockTableRecord
  2
block 284
340
0
102
{BLKREFS
331
818
102
}
  0
BLOCK_RECORD
  5
81C
330
1
100
AcDbSymbolTableRecord
100
AcDbBlockTableRecord
  2
block 285
340
0
102
{BLKREFS
331
81D
102
}
  0
BLOCK_RECORD
  5
824
330
1
100
AcDbSymbolTableRecord
100
AcDbBlockTableRecord
  2
block 286
340
0
102
{BLKREFS
331
825
102
}
  0
BLOCK_RECORD
  5
82C
330
1
100
AcDbSymbolTableRecord
100
AcDbBlockTableRecord
  2
block 287
340
0
102
{BLKREFS
331
82D
102
}
  0
BLOCK_RECORD
  5
834
330
1
100
AcDbSymbolTableRecord
100
AcDbBlockTableRecord
  2
block 288
340
0
102
{BLKREFS
331
835
102
}
  0
BLOCK_RECORD
  5
83C
330
1
100
AcDbSymbolTableRecord
100
AcDbBlockTableRecord
  2
block 289
340
0
102
{BLKREFS
331
83D
102
}
  0
BLOCK_RECORD
  5
844
330
1
100
AcDbSymbolTableRecord
100
AcDbBlockTableRecord
  2
block 290
340
0
102
{BLKREFS
331
845
102
}
  0
BLOCK_RECORD
  5
849
330
1
100
AcDbSymbolTableRecord
100
AcDbBlockTableRecord
  2
block 291
340
0
102
{BLKREFS
331
84A
102
}
  0
BLOCK_RECORD
  5
84E
330
1
100
AcDbSymbolTableRecord
100
AcDbBlockTableRecord
  2
block 292
340
0
102
{BLKREFS
331
84F
102
}
  0
BLOCK_RECORD
  5
853
330
1
100
AcDbSymbolTableRecord
100
AcDbBlockTableRecord
  2
block 293
340
0
102
{BLKREFS
331
854
102
}
  0
BLOCK_RECORD
  5
858
330
1
100
AcDbSymbolTableRecord
100
AcDbBlockTableRecord
  2
block 294
340
0
102
{BLKREFS
331
859
102
}
  0
BLOCK_RECORD
  5
860
330
1
100
AcDbSymbolTableRecord
100
AcDbBlockTableRecord
  2
block 295
340
0
102
{BLKREFS
331
861
102
}
  0
BLOCK_RECORD
  5
868
330
1
100
AcDbSymbolTableRecord
100
AcDbBlockTableRecord
  2
block 296
340
0
102
{BLKREFS
331
869
102
}
  0
BLOCK_RECORD
  5
86D
330
1
100
AcDbSymbolTableRecord
100
AcDbBlockTableRecord
  2
block 297
340
0
102
{BLKREFS
331
86E
102
}
  0
BLOCK_RECORD
  5
872
330
1
100
AcDbSymbolTableRecord
100
AcDbBlockTableRecord
  2
block 298
340
0
102
{BLKREFS
331
873
102
}
  0
BLOCK_RECORD
  5
87A
330
1
100
AcDbSymbolTableRecord
100
AcDbBlockTableRecord
  2
block 299
340
0
102
{BLKREFS
331
87B
102
}
  0
BLOCK_RECORD
  5
87F
330
1
100
AcDbSymbolTableRecord
100
AcDbBlockTableRecord
  2
block 300
340
0
102
{BLKREFS
331
880
102
}
  0
BLOCK_RECORD
  5
884
330
1
100
AcDbSymbolTableRecord
100
AcDbBlockTableRecord
  2
block 301
340
0
102
{BLKREFS
331
885
102
}
  0
BLOCK_RECORD
  5
889
330
1
100
AcDbSymbolTableRecord
100
AcDbBlockTableRecord
  2
block 302
340
0
102
{BLKREFS
331
88A
102
}
  0
BLOCK_RECORD
  5
88E
330
1
100
AcDbSymbolTableRecord
100
AcDbBlockTableRecord
  2
block 303
340
0
102
{BLKREFS
331
88F
102
}
  0
BLOCK_RECORD
  5
893
330
1
100
AcDbSymbolTableRecord
100
AcDbBlockTableRecord
  2
block 304
340
0
102
{BLKREFS
331
894
102
}
  0
BLOCK_RECORD
  5
898
330
1
100
AcDbSymbolTableRecord
100
AcDbBlockTableRecord
  2
block 305
340
0
102
{BLKREFS
331
899
102
}
  0
BLOCK_RECORD
  5
89D
330
1
100
AcDbSymbolTableRecord
100
AcDbBlockTableRecord
  2
block 306
340
0
102
{BLKREFS
331
89E
102
}
  0
BLOCK_RECORD
  5
8A2
330
1
100
AcDbSymbolTableRecord
100
AcDbBlockTableRecord
  2
block 307
340
0
102
{BLKREFS
331
8A3
102
}
  0
BLOCK_RECORD
  5
8A8
330
1
100
AcDbSymbolTableRecord
100
AcDbBlockTableRecord
  2
block 308
340
0
102
{BLKREFS
331
8A9
102
}
  0
BLOCK_RECORD
  5
8B0
330
1
100
AcDbSymbolTableRecord
100
AcDbBlockTableRecord
  2
block 309
340
0
102
{BLKREFS
331
8B1
102
}
  0
BLOCK_RECORD
  5
8B9
330
1
100
AcDbSymbolTableRecord
100
AcDbBlockTableRecord
  2
block 310
340
0
102
{BLKREFS
331
8BA
102
}
  0
BLOCK_RECORD
  5
8C1
330
1
100
AcDbSymbolTableRecord
100
AcDbBlockTableRecord
  2
block 311
340
0
102
{BLKREFS
331
8C2
102
}
  0
BLOCK_RECORD
  5
8C9
330
1
100
AcDbSymbolTableRecord
100
AcDbBlockTableRecord
  2
block 312
340
0
102
{BLKREFS
331
8CA
102
}
  0
BLOCK_RECORD
  5
8D1
330
1
100
AcDbSymbolTableRecord
100
AcDbBlockTableRecord
  2
block 313
340
0
102
{BLKREFS
331
8D2
102
}
  0
BLOCK_RECORD
  5
8DA
330
1
100
AcDbSymbolTableRecord
100
AcDbBlockTableRecord
  2
block 314
340
0
102
{BLKREFS
331
8DB
102
}
  0
BLOCK_RECORD
  5
8E3
330
1
100
AcDbSymbolTableRecord
100
AcDbBlockTableRecord
  2
block 315
340
0
102
{BLKREFS
331
8E4
102
}
  0
BLOCK_RECORD
  5
8EC
330
1
100
AcDbSymbolTableRecord
100
AcDbBlockTableRecord
  2
block 316
340
0
102
{BLKREFS
331
8ED
102
}
  0
BLOCK_RECORD
  5
8F5
330
1
100
AcDbSymbolTableRecord
100
AcDbBlockTableRecord
  2
block 317
340
0
102
{BLKREFS
331
8F6
102
}
  0
BLOCK_RECORD
  5
8FE
330
1
100
AcDbSymbolTableRecord
100
AcDbBlockTableRecord
  2
block 318
340
0
102
{BLKREFS
331
8FF
102
}
  0
BLOCK_RECORD
  5
907
330
1
100
AcDbSymbolTableRecord
100
AcDbBlockTableRecord
  2
block 319
340
0
102
{BLKREFS
331
908
102
}
  0
ENDTAB
  0
ENDSEC
  0
SECTION
  2
BLOCKS
  0
BLOCK
  5
20
330
1F
100
AcDbEntity
  8
0
100
AcDbBlockBegin
  2
*Model_Space
 70
     0
 71
     0
 10
0.0
 20
0.0
 30
0.0
  3
*Model_Space
  1

  0
ENDBLK
  5
21
330
1F
100
AcDbEntity
  8
0
100
AcDbBlockEnd
  0
BLOCK
  5
1C
330
1B
100
AcDbEntity
 67
     1
  8
0
100
AcDbBlockBegin
  2
*Paper_Space
 70
     0
 71
     0
 10
0.0
 20
0.0
 30
0.0
  3
*Paper_Space
  1

  0
ENDBLK
  5
1D
330
1B
100
AcDbEntity
 67
     1
  8
0
100
AcDbBlockEnd
  0
BLOCK
  5
24
330
23
100
AcDbEntity
  8
0
100
AcDbBlockBegin
  2
*Paper_Space0
 70
     0
 71
     0
 10
0.0
 20
0.0
 30
0.0
  3
*Paper_Space0
  1

  0
ENDBLK
  5
25
330
23
100
AcDbEntity
  8
0
100
AcDbBlockEnd
  0
BLOCK
  5
3E
330
3C
100
AcDbEntity
  8
0
100
AcDbBlockBegin
  2
block 2
 70
     0
 71
     0
 10
0.0
 20
0.0
 30
0.0
  3
block 2
  1

  0
INSERT
  5
41
330
3C
100
AcDbEntity
  8
COTAS
100
AcDbBlockReference
  2
block 3
 10
0.0
 20
0.0
 30
0.0
  0
INSERT
  5
46
330
3C
100
AcDbEntity
  8
COTAS
100
AcDbBlockReference
  2
block 4
 10
0.0
 20
0.0
 30
0.0
  0
INSERT
  5
4E
330
3C
100
AcDbEntity
  8
COTAS
100
AcDbBlockReference
  2
block 5
 10
0.0
 20
0.0
 30
0.0
  0
INSERT
  5
56
330
3C
100
AcDbEntity
  8
COTAS
100
AcDbBlockReference
  2
block 6
 10
0.0
 20
0.0
 30
0.0
  0
INSERT
  5
5E
330
3C
100
AcDbEntity
  8
COTAS
100
AcDbBlockReference
  2
block 7
 10
0.0
 20
0.0
 30
0.0
  0
INSERT
  5
63
330
3C
100
AcDbEntity
  8
COTAS
100
AcDbBlockReference
  2
block 8
 10
0.0
 20
0.0
 30
0.0
  0
INSERT
  5
68
330
3C
100
AcDbEntity
  8
COTAS
100
AcDbBlockReference
  2
block 9
 10
0.0
 20
0.0
 30
0.0
  0
INSERT
  5
70
330
3C
100
AcDbEntity
  8
COTAS
100
AcDbBlockReference
  2
block 10
 10
0.0
 20
0.0
 30
0.0
  0
INSERT
  5
78
330
3C
100
AcDbEntity
  8
COTAS
100
AcDbBlockReference
  2
block 11
 10
0.0
 20
0.0
 30
0.0
  0
INSERT
  5
80
330
3C
100
AcDbEntity
  8
COTAS
100
AcDbBlockReference
  2
block 12
 10
0.0
 20
0.0
 30
0.0
  0
INSERT
  5
85
330
3C
100
AcDbEntity
  8
COTAS
100
AcDbBlockReference
  2
block 13
 10
0.0
 20
0.0
 30
0.0
  0
INSERT
  5
8A
330
3C
100
AcDbEntity
  8
COTAS
100
AcDbBlockReference
  2
block 14
 10
0.0
 20
0.0
 30
0.0
  0
INSERT
  5
8F
330
3C
100
AcDbEntity
  8
COTAS
100
AcDbBlockReference
  2
block 15
 10
0.0
 20
0.0
 30
0.0
  0
INSERT
  5
94
330
3C
100
AcDbEntity
  8
COTAS
100
AcDbBlockReference
  2
block 16
 10
0.0
 20
0.0
 30
0.0
  0
INSERT
  5
99
330
3C
100
AcDbEntity
  8
COTAS
100
AcDbBlockReference
  2
block 17
 10
0.0
 20
0.0
 30
0.0
  0
INSERT
  5
9E
330
3C
100
AcDbEntity
  8
COTAS
100
AcDbBlockReference
  2
block 18
 10
0.0
 20
0.0
 30
0.0
  0
INSERT
  5
A3
330
3C
100
AcDbEntity
  8
COTAS
100
AcDbBlockReference
  2
block 19
 10
0.0
 20
0.0
 30
0.0
  0
INSERT
  5
A8
330
3C
100
AcDbEntity
  8
COTAS
100
AcDbBlockReference
  2
block 20
 10
0.0
 20
0.0
 30
0.0
  0
INSERT
  5
AD
330
3C
100
AcDbEntity
  8
COTAS
100
AcDbBlockReference
  2
block 21
 10
0.0
 20
0.0
 30
0.0
  0
INSERT
  5
B2
330
3C
100
AcDbEntity
  8
COTAS
100
AcDbBlockReference
  2
block 22
 10
0.0
 20
0.0
 30
0.0
  0
INSERT
  5
B7
330
3C
100
AcDbEntity
  8
COTAS
100
AcDbBlockReference
  2
block 23
 10
0.0
 20
0.0
 30
0.0
  0
INSERT
  5
BC
330
3C
100
AcDbEntity
  8
COTAS
100
AcDbBlockReference
  2
block 24
 10
0.0
 20
0.0
 30
0.0
  0
INSERT
  5
C1
330
3C
100
AcDbEntity
  8
COTAS
100
AcDbBlockReference
  2
block 25
 10
0.0
 20
0.0
 30
0.0
  0
INSERT
  5
C6
330
3C
100
AcDbEntity
  8
COTAS
100
AcDbBlockReference
  2
block 26
 10
0.0
 20
0.0
 30
0.0
  0
INSERT
  5
CB
330
3C
100
AcDbEntity
  8
COTAS
100
AcDbBlockReference
  2
block 27
 10
0.0
 20
0.0
 30
0.0
  0
INSERT
  5
D0
330
3C
100
AcDbEntity
  8
COTAS
100
AcDbBlockReference
  2
block 28
 10
0.0
 20
0.0
 30
0.0
  0
INSERT
  5
D5
330
3C
100
AcDbEntity
  8
COTAS
100
AcDbBlockReference
  2
block 29
 10
0.0
 20
0.0
 30
0.0
  0
INSERT
  5
DA
330
3C
100
AcDbEntity
  8
COTAS
100
AcDbBlockReference
  2
block 30
 10
0.0
 20
0.0
 30
0.0
  0
INSERT
  5
DF
330
3C
100
AcDbEntity
  8
COTAS
100
AcDbBlockReference
  2
block 31
 10
0.0
 20
0.0
 30
0.0
  0
INSERT
  5
E4
330
3C
100
AcDbEntity
  8
COTAS
100
AcDbBlockReference
  2
block 32
 10
0.0
 20
0.0
 30
0.0
  0
INSERT
  5
E9
330
3C
100
AcDbEntity
  8
COTAS
100
AcDbBlockReference
  2
block 33
 10
0.0
 20
0.0
 30
0.0
  0
INSERT
  5
EE
330
3C
100
AcDbEntity
  8
COTAS
100
AcDbBlockReference
  2
block 34
 10
0.0
 20
0.0
 30
0.0
  0
INSERT
  5
F3
330
3C
100
AcDbEntity
  8
COTAS
100
AcDbBlockReference
  2
block 35
 10
0.0
 20
0.0
 30
0.0
  0
INSERT
  5
F8
330
3C
100
AcDbEntity
  8
COTAS
100
AcDbBlockReference
  2
block 36
 10
0.0
 20
0.0
 30
0.0
  0
INSERT
  5
FD
330
3C
100
AcDbEntity
  8
COTAS
100
AcDbBlockReference
  2
block 37
 10
0.0
 20
0.0
 30
0.0
  0
INSERT
  5
102
330
3C
100
AcDbEntity
  8
COTAS
100
AcDbBlockReference
  2
block 38
 10
0.0
 20
0.0
 30
0.0
  0
INSERT
  5
107
330
3C
100
AcDbEntity
  8
COTAS
100
AcDbBlockReference
  2
block 39
 10
0.0
 20
0.0
 30
0.0
  0
INSERT
  5
10C
330
3C
100
AcDbEntity
  8
COTAS
100
AcDbBlockReference
  2
block 40
 10
0.0
 20
0.0
 30
0.0
  0
ENDBLK
  5
3F
330
3C
100
AcDbEntity
  8
0
100
AcDbBlockEnd
  0
BLOCK
  5
42
330
40
100
AcDbEntity
  8
0
100
AcDbBlockBegin
  2
block 3
 70
     0
 71
     0
 10
0.0
 20
0.0
 30
0.0
  3
block 3
  1

  0
SPLINE
  5
44
330
40
100
AcDbEntity
  8
COTAS
 62
     7
370
     5
100
AcDbSpline
210
0.0
220
0.0
230
1.0
 70
    11
 71
     3
 72
    23
 73
    19
 74
     0
 42
0.0000000001
 43
0.0000000001
 40
0.0
 40
0.0
 40
0.0
 40
0.0
 40
1.0
 40
1.0
 40
1.0
 40
2.0
 40
2.0
 40
2.0
 40
3.0
 40
3.0
 40
3.0
 40
4.0
 40
4.0
 40
4.0
 40
5.0
 40
5.0
 40
5.0
 40
6.0
 40
6.0
 40
6.0
 40
6.0
 10
99.2685546875
 20
342.1396484375
 30
0.0
 10
99.2685546875
 20
344.9072265625
 30
0.0
 10
97.025390625
 20
347.150390625
 30
0.0
 10
94.25830078125
 20
347.150390625
 30
0.0
 10
91.4912109375
 20
347.150390625
 30
0.0
 10
89.24853515625
 20
344.9072265625
 30
0.0
 10
89.24853515625
 20
342.1396484375
 30
0.0
 10
89.24853515625
 20
339.373046875
 30
0.0
 10
91.4912109375
 20
337.1298828125
 30
0.0
 10
94.25830078125
 20
337.1298828125
 30
0.0
 10
97.025390625
 20
337.1298828125
 30
0.0
 10
99.2685546875
 20
339.373046875
 30
0.0
 10
99.2685546875
 20
342.1396484375
 30
0.0
 10
99.2685546875
 20
342.1396484375
 30
0.0
 10
99.2685546875
 20
342.1396484375
 30
0.0
 10
99.2685546875
 20
342.1396484375
 30
0.0
 10
99.2685546875
 20
342.1396484375
 30
0.0
 10
99.2685546875
 20
342.1396484375
 30
0.0
 10
99.2685546875
 20
342.1396484375
 30
0.0
  0
ENDBLK
  5
43
330
40
100
AcDbEntity
  8
0
100
AcDbBlockEnd
  0
BLOCK
  5
47
330
45
100
AcDbEntity
  8
0
100
AcDbBlockBegin
  2
block 4
 70
     0
 71
     0
 10
0.0
 20
0.0
 30
0.0
  3
block 4
  1

  0
POLYLINE
  5
49
330
45
100
AcDbEntity
  8
COTAS
 62
     7
370
     5
100
AcDb2dPolyline
 66
     1
 10
0.0
 20
0.0
 30
0.0
  0
VERTEX
  5
4A
330
49
100
AcDbEntity
  8
COTAS
 62
     7
370
     5
100
AcDbVertex
100
AcDb2dVertex
 10
319.130859375
 20
274.697265625
 30
0.0
  0
VERTEX
  5
4B
330
49
100
AcDbEntity
  8
COTAS
 62
     7
370
     5
100
AcDbVertex
100
AcDb2dVertex
 10
179.04345703125
 20
274.697265625
 30
0.0
  0
SEQEND
  5
4C
330
49
100
AcDbEntity
  8
COTAS
370
     5
  0
ENDBLK
  5
48
330
45
100
AcDbEntity
  8
0
100
AcDbBlockEnd
  0
BLOCK
  5
4F
330
4D
100
AcDbEntity
  8
0
100
AcDbBlockBegin
  2
block 5
 70
     0
 71
     0
 10
0.0
 20
0.0
 30
0.0
  3
block 5
  1

  0
POLYLINE
  5
51
330
4D
100
AcDbEntity
  8
COTAS
 62
     7
370
     5
100
AcDb2dPolyline
 66
     1
 10
0.0
 20
0.0
 30
0.0
  0
VERTEX
  5
52
330
51
100
AcDbEntity
  8
COTAS
 62
     7
370
     5
100
AcDbVertex
100
AcDb2dVertex
 10
179.04345703125
 20
274.697265625
 30
0.0
  0
VERTEX
  5
53
330
51
100
AcDbEntity
  8
COTAS
 62
     7
370
     5
100
AcDbVertex
100
AcDb2dVertex
 10
38.95556640625
 20
274.697265625
 30
0.0
  0
SEQEND
  5
54
330
51
100
AcDbEntity
  8
COTAS
370
     5
  0
ENDBLK
  5
50
330
4D
100
AcDbEntity
  8
0
100
AcDbBlockEnd
  0
BLOCK
  5
57
330
55
100
AcDbEntity
  8
0
100
AcDbBlockBegin
  2
block 6
 70
     0
 71
     0
 10
0.0
 20
0.0
 30
0.0
  3
block 6
  1

  0
POLYLINE
  5
59
330
55
100
AcDbEntity
  8
COTAS
 62
     7
370
     5
100
AcDb2dPolyline
 66
     1
 10
0.0
 20
0.0
 30
0.0
  0
VERTEX
  5
5A
330
59
100
AcDbEntity
  8
COTAS
 62
     7
370
     5
100
AcDbVertex
100
AcDb2dVertex
 10
34.52392578125
 20
279.1298828125
 30
0.0
  0
VERTEX
  5
5B
330
59
100
AcDbEntity
  8
COTAS
 62
     7
370
     5
100
AcDbVertex
100
AcDb2dVertex
 10
34.52392578125
 20
405.15087890625
 30
0.0
  0
SEQEND
  5
5C
330
59
100
AcDbEntity
  8
COTAS
370
     5
  0
ENDBLK
  5
58
330
55
100
AcDbEntity
  8
0
100
AcDbBlockEnd
  0
BLOCK
  5
5F
330
5D
100
AcDbEntity
  8
0
100
AcDbBlockBegin
  2
block 7
 70
     0
 71
     0
 10
0.0
 20
0.0
 30
0.0
  3
block 7
  1

  0
SPLINE
  5
61
330
5D
100
AcDbEntity
  8
COTAS
 62
     7
370
     5
100
AcDbSpline
210
0.0
220
0.0
230
1.0
 70
     8
 71
     3
 72
    11
 73
     7
 74
     0
 42
0.0000000001
 43
0.0000000001
 40
0.0
 40
0.0
 40
0.0
 40
0.0
 40
1.0
 40
1.0
 40
1.0
 40
2.0
 40
2.0
 40
2.0
 40
2.0
 10
34.52392578125
 20
279.1298828125
 30
0.0
 10
34.52392578125
 20
276.681640625
 30
0.0
 10
36.5078125
 20
274.697265625
 30
0.0
 10
38.95556640625
 20
274.697265625
 30
0.0
 10
38.95556640625
 20
274.697265625
 30
0.0
 10
38.95556640625
 20
274.697265625
 30
0.0
 10
38.95556640625
 20
274.697265625
 30
0.0
  0
ENDBLK
  5
60
330
5D
100
AcDbEntity
  8
0
100
AcDbBlockEnd
  0
BLOCK
  5
64
330
62
100
AcDbEntity
  8
0
100
AcDbBlockBegin
  2
block 8
 70
     0
 71
     0
 10
0.0
 20
0.0
 30
0.0
  3
block 8
  1

  0
SPLINE
  5
66
330
62
100
AcDbEntity
  8
COTAS
 62
     7
370
     5
100
AcDbSpline
210
0.0
220
0.0
230
1.0
 70
     8
 71
     3
 72
    11
 73
     7
 74
     0
 42
0.0000000001
 43
0.0000000001
 40
0.0
 40
0.0
 40
0.0
 40
0.0
 40
1.0
 40
1.0
 40
1.0
 40
2.0
 40
2.0
 40
2.0
 40
2.0
 10
38.95556640625
 20
409.58251953125
 30
0.0
 10
36.5078125
 20
409.58251953125
 30
0.0
 10
34.52392578125
 20
407.59814453125
 30
0.0
 10
34.52392578125
 20
405.15087890625
 30
0.0
 10
34.52392578125
 20
405.15087890625
 30
0.0
 10
34.52392578125
 20
405.15087890625
 30
0.0
 10
34.52392578125
 20
405.15087890625
 30
0.0
  0
ENDBLK
  5
65
330
62
100
AcDbEntity
  8
0
100
AcDbBlockEnd
  0
BLOCK
  5
69
330
67
100
AcDbEntity
  8
0
100
AcDbBlockBegin
  2
block 9
 70
     0
 71
     0
 10
0.0
 20
0.0
 30
0.0
  3
block 9
  1

  0
POLYLINE
  5
6B
330
67
100
AcDbEntity
  8
COTAS
 62
     7
370
     5
100
AcDb2dPolyline
 66
     1
 10
0.0
 20
0.0
 30
0.0
  0
VERTEX
  5
6C
330
6B
100
AcDbEntity
  8
COTAS
 62
     7
370
     5
100
AcDbVertex
100
AcDb2dVertex
 10
38.95556640625
 20
409.58251953125
 30
0.0
  0
VERTEX
  5
6D
330
6B
100
AcDbEntity
  8
COTAS
 62
     7
370
     5
100
AcDbVertex
100
AcDb2dVertex
 10
179.04345703125
 20
409.58251953125
 30
0.0
  0
SEQEND
  5
6E
330
6B
100
AcDbEntity
  8
COTAS
370
     5
  0
ENDBLK
  5
6A
330
67
100
AcDbEntity
  8
0
100
AcDbBlockEnd
  0
BLOCK
  5
71
330
6F
100
AcDbEntity
  8
0
100
AcDbBlockBegin
  2
block 10
 70
     0
 71
     0
 10
0.0
 20
0.0
 30
0.0
  3
block 10
  1

  0
POLYLINE
  5
73
330
6F
100
AcDbEntity
  8
COTAS
 62
     7
370
     5
100
AcDb2dPolyline
 66
     1
 10
0.0
 20
0.0
 30
0.0
  0
VERTEX
  5
74
330
73
100
AcDbEntity
  8
COTAS
 62
     7
370
     5
100
AcDbVertex
100
AcDb2dVertex
 10
179.04345703125
 20
409.58251953125
 30
0.0
  0
VERTEX
  5
75
330
73
100
AcDbEntity
  8
COTAS
 62
     7
370
     5
100
AcDbVertex
100
AcDb2dVertex
 10
319.130859375
 20
409.58251953125
 30
0.0
  0
SEQEND
  5
76
330
73
100
AcDbEntity
  8
COTAS
370
     5
  0
ENDBLK
  5
72
330
6F
100
AcDbEntity
  8
0
100
AcDbBlockEnd
  0
BLOCK
  5
79
330
77
100
AcDbEntity
  8
0
100
AcDbBlockBegin
  2
block 11
 70
     0
 71
     0
 10
0.0
 20
0.0
 30
0.0
  3
block 11
  1

  0
POLYLINE
  5
7B
330
77
100
AcDbEntity
  8
COTAS
 62
     7
370
     5
100
AcDb2dPolyline
 66
     1
 10
0.0
 20
0.0
 30
0.0
  0
VERTEX
  5
7C
330
7B
100
AcDbEntity
  8
COTAS
 62
     7
370
     5
100
AcDbVertex
100
AcDb2dVertex
 10
323.5634765625
 20
405.15087890625
 30
0.0
  0
VERTEX
  5
7D
330
7B
100
AcDbEntity
  8
COTAS
 62
     7
370
     5
100
AcDbVertex
100
AcDb2dVertex
 10
323.5634765625
 20
279.1298828125
 30
0.0
  0
SEQEND
  5
7E
330
7B
100
AcDbEntity
  8
COTAS
370
     5
  0
ENDBLK
  5
7A
330
77
100
AcDbEntity
  8
0
100
AcDbBlockEnd
  0
BLOCK
  5
81
330
7F
100
AcDbEntity
  8
0
100
AcDbBlockBegin
  2
block 12
 70
     0
 71
     0
 10
0.0
 20
0.0
 30
0.0
  3
block 12
  1

  0
SPLINE
  5
83
330
7F
100
AcDbEntity
  8
COTAS
 62
     7
370
     5
100
AcDbSpline
210
0.0
220
0.0
230
1.0
 70
     8
 71
     3
 72
    11
 73
     7
 74
     0
 42
0.0000000001
 43
0.0000000001
 40
0.0
 40
0.0
 40
0.0
 40
0.0
 40
1.0
 40
1.0
 40
1.0
 40
2.0
 40
2.0
 40
2.0
 40
2.0
 10
323.5634765625
 20
405.15087890625
 30
0.0
 10
323.5634765625
 20
407.59814453125
 30
0.0
 10
321.5791015625
 20
409.58251953125
 30
0.0
 10
319.130859375
 20
409.58251953125
 30
0.0
 10
319.130859375
 20
409.58251953125
 30
0.0
 10
319.130859375
 20
409.58251953125
 30
0.0
 10
319.130859375
 20
409.58251953125
 30
0.0
  0
ENDBLK
  5
82
330
7F
100
AcDbEntity
  8
0
100
AcDbBlockEnd
  0
BLOCK
  5
86
330
84
100
AcDbEntity
  8
0
100
AcDbBlockBegin
  2
block 13
 70
     0
 71
     0
 10
0.0
 20
0.0
 30
0.0
  3
block 13
  1

  0
SPLINE
  5
88
330
84
100
AcDbEntity
  8
COTAS
 62
     7
370
     5
100
AcDbSpline
210
0.0
220
0.0
230
1.0
 70
     8
 71
     3
 72
    11
 73
     7
 74
     0
 42
0.0000000001
 43
0.0000000001
 40
0.0
 40
0.0
 40
0.0
 40
0.0
 40
1.0
 40
1.0
 40
1.0
 40
2.0
 40
2.0
 40
2.0
 40
2.0
 10
319.130859375
 20
274.697265625
 30
0.0
 10
321.5791015625
 20
274.697265625
 30
0.0
 10
323.5634765625
 20
276.681640625
 30
0.0
 10
323.5634765625
 20
279.1298828125
 30
0.0
 10
323.5634765625
 20
279.1298828125
 30
0.0
 10
323.5634765625
 20
279.1298828125
 30
0.0
 10
323.5634765625
 20
279.1298828125
 30
0.0
  0
ENDBLK
  5
87
330
84
100
AcDbEntity
  8
0
100
AcDbBlockEnd
  0
BLOCK
  5
8B
330
89
100
AcDbEntity
  8
0
100
AcDbBlockBegin
  2
block 14
 70
     0
 71
     0
 10
0.0
 20
0.0
 30
0.0
  3
block 14
  1

  0
SPLINE
  5
8D
330
89
100
AcDbEntity
  8
COTAS
 62
     7
370
     9
100
AcDbSpline
210
0.0
220
0.0
230
1.0
 70
    11
 71
     3
 72
    23
 73
    19
 74
     0
 42
0.0000000001
 43
0.0000000001
 40
0.0
 40
0.0
 40
0.0
 40
0.0
 40
1.0
 40
1.0
 40
1.0
 40
2.0
 40
2.0
 40
2.0
 40
3.0
 40
3.0
 40
3.0
 40
4.0
 40
4.0
 40
4.0
 40
5.0
 40
5.0
 40
5.0
 40
6.0
 40
6.0
 40
6.0
 40
6.0
 10
102.15869140625
 20
342.1396484375
 30
0.0
 10
102.15869140625
 20
346.50390625
 30
0.0
 10
98.6220703125
 20
350.0400390625
 30
0.0
 10
94.25830078125
 20
350.0400390625
 30
0.0
 10
89.89501953125
 20
350.0400390625
 30
0.0
 10
86.35791015625
 20
346.50390625
 30
0.0
 10
86.35791015625
 20
342.1396484375
 30
0.0
 10
86.35791015625
 20
337.7763671875
 30
0.0
 10
89.89501953125
 20
334.240234375
 30
0.0
 10
94.25830078125
 20
334.240234375
 30
0.0
 10
98.6220703125
 20
334.240234375
 30
0.0
 10
102.15869140625
 20
337.7763671875
 30
0.0
 10
102.15869140625
 20
342.1396484375
 30
0.0
 10
102.15869140625
 20
342.1396484375
 30
0.0
 10
102.15869140625
 20
342.1396484375
 30
0.0
 10
102.15869140625
 20
342.1396484375
 30
0.0
 10
102.15869140625
 20
342.1396484375
 30
0.0
 10
102.15869140625
 20
342.1396484375
 30
0.0
 10
102.15869140625
 20
342.1396484375
 30
0.0
  0
ENDBLK
  5
8C
330
89
100
AcDbEntity
  8
0
100
AcDbBlockEnd
  0
BLOCK
  5
90
330
8E
100
AcDbEntity
  8
0
100
AcDbBlockBegin
  2
block 15
 70
     0
 71
     0
 10
0.0
 20
0.0
 30
0.0
  3
block 15
  1

  0
SPLINE
  5
92
330
8E
100
AcDbEntity
  8
COTAS
 62
     7
370
     9
100
AcDbSpline
210
0.0
220
0.0
230
1.0
 70
    11
 71
     3
 72
    23
 73
    19
 74
     0
 42
0.0000000001
 43
0.0000000001
 40
0.0
 40
0.0
 40
0.0
 40
0.0
 40
1.0
 40
1.0
 40
1.0
 40
2.0
 40
2.0
 40
2.0
 40
3.0
 40
3.0
 40
3.0
 40
4.0
 40
4.0
 40
4.0
 40
5.0
 40
5.0
 40
5.0
 40
6.0
 40
6.0
 40
6.0
 40
6.0
 10
100.23193359375
 20
342.1396484375
 30
0.0
 10
100.23193359375
 20
345.439453125
 30
0.0
 10
97.55712890625
 20
348.11328125
 30
0.0
 10
94.25830078125
 20
348.11328125
 30
0.0
 10
90.958984375
 20
348.11328125
 30
0.0
 10
88.28515625
 20
345.439453125
 30
0.0
 10
88.28515625
 20
342.1396484375
 30
0.0
 10
88.28515625
 20
338.8408203125
 30
0.0
 10
90.958984375
 20
336.1669921875
 30
0.0
 10
94.25830078125
 20
336.1669921875
 30
0.0
 10
97.55712890625
 20
336.1669921875
 30
0.0
 10
100.23193359375
 20
338.8408203125
 30
0.0
 10
100.23193359375
 20
342.1396484375
 30
0.0
 10
100.23193359375
 20
342.1396484375
 30
0.0
 10
100.23193359375
 20
342.1396484375
 30
0.0
 10
100.23193359375
 20
342.1396484375
 30
0.0
 10
100.23193359375
 20
342.1396484375
 30
0.0
 10
100.23193359375
 20
342.1396484375
 30
0.0
 10
100.23193359375
 20
342.1396484375
 30
0.0
  0
ENDBLK
  5
91
330
8E
100
AcDbEntity
  8
0
100
AcDbBlockEnd
  0
BLOCK
  5
95
330
93
100
AcDbEntity
  8
0
100
AcDbBlockBegin
  2
block 16
 70
     0
 71
     0
 10
0.0
 20
0.0
 30
0.0
  3
block 16
  1

  0
SPLINE
  5
97
330
93
100
AcDbEntity
  8
COTAS
 62
     7
370
     5
100
AcDbSpline
210
0.0
220
0.0
230
1.0
 70
     8
 71
     3
 72
     8
 73
     4
 74
     0
 42
0.0000000001
 43
0.0000000001
 40
0.0
 40
0.0
 40
0.0
 40
0.0
 40
1.0
 40
1.0
 40
1.0
 40
1.0
 10
55.7197265625
 20
342.1396484375
 30
0.0
 10
55.68896484375
 20
337.845703125
 30
0.0
 10
55.8759765625
 20
329.388671875
 30
0.0
 10
56.0966796875
 20
325.1005859375
 30
0.0
  0
ENDBLK
  5
96
330
93
100
AcDbEntity
  8
0
100
AcDbBlockEnd
  0
BLOCK
  5
9A
330
98
100
AcDbEntity
  8
0
100
AcDbBlockBegin
  2
block 17
 70
     0
 71
     0
 10
0.0
 20
0.0
 30
0.0
  3
block 17
  1

  0
SPLINE
  5
9C
330
98
100
AcDbEntity
  8
COTAS
 62
     7
370
     5
100
AcDbSpline
210
0.0
220
0.0
230
1.0
 70
     8
 71
     3
 72
     8
 73
     4
 74
     0
 42
0.0000000001
 43
0.0000000001
 40
0.0
 40
0.0
 40
0.0
 40
0.0
 40
1.0
 40
1.0
 40
1.0
 40
1.0
 10
307.44921875
 20
314.3232421875
 30
0.0
 10
309.4580078125
 20
321.3955078125
 30
0.0
 10
311.09375
 20
334.7919921875
 30
0.0
 10
310.845703125
 20
342.1396484375
 30
0.0
  0
ENDBLK
  5
9B
330
98
100
AcDbEntity
  8
0
100
AcDbBlockEnd
  0
BLOCK
  5
9F
330
9D
100
AcDbEntity
  8
0
100
AcDbBlockBegin
  2
block 18
 70
     0
 71
     0
 10
0.0
 20
0.0
 30
0.0
  3
block 18
  1

  0
SPLINE
  5
A1
330
9D
100
AcDbEntity
  8
COTAS
 62
     7
370
     5
100
AcDbSpline
210
0.0
220
0.0
230
1.0
 70
     8
 71
     3
 72
     8
 73
     4
 74
     0
 42
0.0000000001
 43
0.0000000001
 40
0.0
 40
0.0
 40
0.0
 40
0.0
 40
1.0
 40
1.0
 40
1.0
 40
1.0
 10
90.34130859375
 20
290.181640625
 30
0.0
 10
112.67724609375
 20
288.5673828125
 30
0.0
 10
156.6494140625
 20
286.916015625
 30
0.0
 10
179.04345703125
 20
286.8505859375
 30
0.0
  0
ENDBLK
  5
A0
330
9D
100
AcDbEntity
  8
0
100
AcDbBlockEnd
  0
BLOCK
  5
A4
330
A2
100
AcDbEntity
  8
0
100
AcDbBlockBegin
  2
block 19
 70
     0
 71
     0
 10
0.0
 20
0.0
 30
0.0
  3
block 19
  1

  0
SPLINE
  5
A6
330
A2
100
AcDbEntity
  8
COTAS
 62
     7
370
     5
100
AcDbSpline
210
0.0
220
0.0
230
1.0
 70
     8
 71
     3
 72
     8
 73
     4
 74
     0
 42
0.0000000001
 43
0.0000000001
 40
0.0
 40
0.0
 40
0.0
 40
0.0
 40
1.0
 40
1.0
 40
1.0
 40
1.0
 10
179.04345703125
 20
286.8505859375
 30
0.0
 10
204.49365234375
 20
286.8974609375
 30
0.0
 10
254.33642578125
 20
288.9462890625
 30
0.0
 10
279.70458984375
 20
290.9873046875
 30
0.0
  0
ENDBLK
  5
A5
330
A2
100
AcDbEntity
  8
0
100
AcDbBlockEnd
  0
BLOCK
  5
A9
330
A7
100
AcDbEntity
  8
0
100
AcDbBlockBegin
  2
block 20
 70
     0
 71
     0
 10
0.0
 20
0.0
 30
0.0
  3
block 20
  1

  0
SPLINE
  5
AB
330
A7
100
AcDbEntity
  8
COTAS
 62
     7
370
     5
100
AcDbSpline
210
0.0
220
0.0
230
1.0
 70
     8
 71
     3
 72
     8
 73
     4
 74
     0
 42
0.0000000001
 43
0.0000000001
 40
0.0
 40
0.0
 40
0.0
 40
0.0
 40
1.0
 40
1.0
 40
1.0
 40
1.0
 10
279.70458984375
 20
290.9873046875
 30
0.0
 10
292.46728515625
 20
291.45703125
 30
0.0
 10
304.79931640625
 20
301.8291015625
 30
0.0
 10
307.44921875
 20
314.3232421875
 30
0.0
  0
ENDBLK
  5
AA
330
A7
100
AcDbEntity
  8
0
100
AcDbBlockEnd
  0
BLOCK
  5
AE
330
AC
100
AcDbEntity
  8
0
100
AcDbBlockBegin
  2
block 21
 70
     0
 71
     0
 10
0.0
 20
0.0
 30
0.0
  3
block 21
  1

  0
SPLINE
  5
B0
330
AC
100
AcDbEntity
  8
COTAS
 62
     7
370
     5
100
AcDbSpline
210
0.0
220
0.0
230
1.0
 70
     8
 71
     3
 72
     8
 73
     4
 74
     0
 42
0.0000000001
 43
0.0000000001
 40
0.0
 40
0.0
 40
0.0
 40
0.0
 40
1.0
 40
1.0
 40
1.0
 40
1.0
 10
56.0966796875
 20
325.1005859375
 30
0.0
 10
56.67333984375
 20
306.6796875
 30
0.0
 10
71.935546875
 20
291.1181640625
 30
0.0
 10
90.34130859375
 20
290.181640625
 30
0.0
  0
ENDBLK
  5
AF
330
AC
100
AcDbEntity
  8
0
100
AcDbBlockEnd
  0
BLOCK
  5
B3
330
B1
100
AcDbEntity
  8
0
100
AcDbBlockBegin
  2
block 22
 70
     0
 71
     0
 10
0.0
 20
0.0
 30
0.0
  3
block 22
  1

  0
SPLINE
  5
B5
330
B1
100
AcDbEntity
  8
COTAS
 62
     7
370
     5
100
AcDbSpline
210
0.0
220
0.0
230
1.0
 70
     8
 71
     3
 72
     8
 73
     4
 74
     0
 42
0.0000000001
 43
0.0000000001
 40
0.0
 40
0.0
 40
0.0
 40
0.0
 40
1.0
 40
1.0
 40
1.0
 40
1.0
 10
56.0966796875
 20
359.1787109375
 30
0.0
 10
55.8759765625
 20
354.8916015625
 30
0.0
 10
55.68896484375
 20
346.43359375
 30
0.0
 10
55.7197265625
 20
342.1396484375
 30
0.0
  0
ENDBLK
  5
B4
330
B1
100
AcDbEntity
  8
0
100
AcDbBlockEnd
  0
BLOCK
  5
B8
330
B6
100
AcDbEntity
  8
0
100
AcDbBlockBegin
  2
block 23
 70
     0
 71
     0
 10
0.0
 20
0.0
 30
0.0
  3
block 23
  1

  0
SPLINE
  5
BA
330
B6
100
AcDbEntity
  8
COTAS
 62
     7
370
     5
100
AcDbSpline
210
0.0
220
0.0
230
1.0
 70
     8
 71
     3
 72
     8
 73
     4
 74
     0
 42
0.0000000001
 43
0.0000000001
 40
0.0
 40
0.0
 40
0.0
 40
0.0
 40
1.0
 40
1.0
 40
1.0
 40
1.0
 10
310.845703125
 20
342.1396484375
 30
0.0
 10
311.09375
 20
349.48828125
 30
0.0
 10
309.4580078125
 20
362.884765625
 30
0.0
 10
307.44921875
 20
369.95703125
 30
0.0
  0
ENDBLK
  5
B9
330
B6
100
AcDbEntity
  8
0
100
AcDbBlockEnd
  0
BLOCK
  5
BD
330
BB
100
AcDbEntity
  8
0
100
AcDbBlockBegin
  2
block 24
 70
     0
 71
     0
 10
0.0
 20
0.0
 30
0.0
  3
block 24
  1

  0
SPLINE
  5
BF
330
BB
100
AcDbEntity
  8
COTAS
 62
     7
370
     5
100
AcDbSpline
210
0.0
220
0.0
230
1.0
 70
     8
 71
     3
 72
     8
 73
     4
 74
     0
 42
0.0000000001
 43
0.0000000001
 40
0.0
 40
0.0
 40
0.0
 40
0.0
 40
1.0
 40
1.0
 40
1.0
 40
1.0
 10
279.70458984375
 20
393.29296875
 30
0.0
 10
254.33642578125
 20
395.333984375
 30
0.0
 10
204.49365234375
 20
397.38232421875
 30
0.0
 10
179.04345703125
 20
397.4296875
 30
0.0
  0
ENDBLK
  5
BE
330
BB
100
AcDbEntity
  8
0
100
AcDbBlockEnd
  0
BLOCK
  5
C2
330
C0
100
AcDbEntity
  8
0
100
AcDbBlockBegin
  2
block 25
 70
     0
 71
     0
 10
0.0
 20
0.0
 30
0.0
  3
block 25
  1

  0
SPLINE
  5
C4
330
C0
100
AcDbEntity
  8
COTAS
 62
     7
370
     5
100
AcDbSpline
210
0.0
220
0.0
230
1.0
 70
     8
 71
     3
 72
     8
 73
     4
 74
     0
 42
0.0000000001
 43
0.0000000001
 40
0.0
 40
0.0
 40
0.0
 40
0.0
 40
1.0
 40
1.0
 40
1.0
 40
1.0
 10
179.04345703125
 20
397.4296875
 30
0.0
 10
156.6494140625
 20
397.36376953125
 30
0.0
 10
112.67724609375
 20
395.71240234375
 30
0.0
 10
90.34130859375
 20
394.09765625
 30
0.0
  0
ENDBLK
  5
C3
330
C0
100
AcDbEntity
  8
0
100
AcDbBlockEnd
  0
BLOCK
  5
C7
330
C5
100
AcDbEntity
  8
0
100
AcDbBlockBegin
  2
block 26
 70
     0
 71
     0
 10
0.0
 20
0.0
 30
0.0
  3
block 26
  1

  0
SPLINE
  5
C9
330
C5
100
AcDbEntity
  8
COTAS
 62
     7
370
     5
100
AcDbSpline
210
0.0
220
0.0
230
1.0
 70
     8
 71
     3
 72
     8
 73
     4
 74
     0
 42
0.0000000001
 43
0.0000000001
 40
0.0
 40
0.0
 40
0.0
 40
0.0
 40
1.0
 40
1.0
 40
1.0
 40
1.0
 10
307.44921875
 20
369.95703125
 30
0.0
 10
304.79931640625
 20
382.4501953125
 30
0.0
 10
292.46728515625
 20
392.822265625
 30
0.0
 10
279.70458984375
 20
393.29296875
 30
0.0
  0
ENDBLK
  5
C8
330
C5
100
AcDbEntity
  8
0
100
AcDbBlockEnd
  0
BLOCK
  5
CC
330
CA
100
AcDbEntity
  8
0
100
AcDbBlockBegin
  2
block 27
 70
     0
 71
     0
 10
0.0
 20
0.0
 30
0.0
  3
block 27
  1

  0
SPLINE
  5
CE
330
CA
100
AcDbEntity
  8
COTAS
 62
     7
370
     5
100
AcDbSpline
210
0.0
220
0.0
230
1.0
 70
     8
 71
     3
 72
     8
 73
     4
 74
     0
 42
0.0000000001
 43
0.0000000001
 40
0.0
 40
0.0
 40
0.0
 40
0.0
 40
1.0
 40
1.0
 40
1.0
 40
1.0
 10
90.34130859375
 20
394.09765625
 30
0.0
 10
71.935546875
 20
393.1630859375
 30
0.0
 10
56.67333984375
 20
377.6005859375
 30
0.0
 10
56.0966796875
 20
359.1787109375
 30
0.0
  0
ENDBLK
  5
CD
330
CA
100
AcDbEntity
  8
0
100
AcDbBlockEnd
  0
BLOCK
  5
D1
330
CF
100
AcDbEntity
  8
0
100
AcDbBlockBegin
  2
block 28
 70
     0
 71
     0
 10
0.0
 20
0.0
 30
0.0
  3
block 28
  1

  0
SPLINE
  5
D3
330
CF
100
AcDbEntity
  8
COTAS
 62
     7
370
     5
100
AcDbSpline
210
0.0
220
0.0
230
1.0
 70
     8
 71
     3
 72
     8
 73
     4
 74
     0
 42
0.0000000001
 43
0.0000000001
 40
0.0
 40
0.0
 40
0.0
 40
0.0
 40
1.0
 40
1.0
 40
1.0
 40
1.0
 10
266.5185546875
 20
332.615234375
 30
0.0
 10
266.7490234375
 20
335.0224609375
 30
0.0
 10
266.94287109375
 20
339.7216796875
 30
0.0
 10
266.91162109375
 20
342.1396484375
 30
0.0
  0
ENDBLK
  5
D2
330
CF
100
AcDbEntity
  8
0
100
AcDbBlockEnd
  0
BLOCK
  5
D6
330
D4
100
AcDbEntity
  8
0
100
AcDbBlockBegin
  2
block 29
 70
     0
 71
     0
 10
0.0
 20
0.0
 30
0.0
  3
block 29
  1

  0
SPLINE
  5
D8
330
D4
100
AcDbEntity
  8
COTAS
 62
     7
370
     5
100
AcDbSpline
210
0.0
220
0.0
230
1.0
 70
     8
 71
     3
 72
     8
 73
     4
 74
     0
 42
0.0000000001
 43
0.0000000001
 40
0.0
 40
0.0
 40
0.0
 40
0.0
 40
1.0
 40
1.0
 40
1.0
 40
1.0
 10
266.91162109375
 20
342.1396484375
 30
0.0
 10
266.94287109375
 20
344.5576171875
 30
0.0
 10
266.7490234375
 20
349.2568359375
 30
0.0
 10
266.5185546875
 20
351.6640625
 30
0.0
  0
ENDBLK
  5
D7
330
D4
100
AcDbEntity
  8
0
100
AcDbBlockEnd
  0
BLOCK
  5
DB
330
D9
100
AcDbEntity
  8
0
100
AcDbBlockBegin
  2
block 30
 70
     0
 71
     0
 10
0.0
 20
0.0
 30
0.0
  3
block 30
  1

  0
SPLINE
  5
DD
330
D9
100
AcDbEntity
  8
COTAS
 62
     7
370
     5
100
AcDbSpline
210
0.0
220
0.0
230
1.0
 70
     8
 71
     3
 72
     8
 73
     4
 74
     0
 42
0.0000000001
 43
0.0000000001
 40
0.0
 40
0.0
 40
0.0
 40
0.0
 40
1.0
 40
1.0
 40
1.0
 40
1.0
 10
64.52978515625
 20
361.095703125
 30
0.0
 10
64.2568359375
 20
356.322265625
 30
0.0
 10
64.02587890625
 20
346.9208984375
 30
0.0
 10
64.0634765625
 20
342.1396484375
 30
0.0
  0
ENDBLK
  5
DC
330
D9
100
AcDbEntity
  8
0
100
AcDbBlockEnd
  0
BLOCK
  5
E0
330
DE
100
AcDbEntity
  8
0
100
AcDbBlockBegin
  2
block 31
 70
     0
 71
     0
 10
0.0
 20
0.0
 30
0.0
  3
block 31
  1

  0
SPLINE
  5
E2
330
DE
100
AcDbEntity
  8
COTAS
 62
     7
370
     5
100
AcDbSpline
210
0.0
220
0.0
230
1.0
 70
     8
 71
     3
 72
     8
 73
     4
 74
     0
 42
0.0000000001
 43
0.0000000001
 40
0.0
 40
0.0
 40
0.0
 40
0.0
 40
1.0
 40
1.0
 40
1.0
 40
1.0
 10
231.58154296875
 20
385.2275390625
 30
0.0
 10
218.38720703125
 20
385.853515625
 30
0.0
 10
192.25244140625
 20
386.5556640625
 30
0.0
 10
179.04345703125
 20
386.638671875
 30
0.0
  0
ENDBLK
  5
E1
330
DE
100
AcDbEntity
  8
0
100
AcDbBlockEnd
  0
BLOCK
  5
E5
330
E3
100
AcDbEntity
  8
0
100
AcDbBlockBegin
  2
block 32
 70
     0
 71
     0
 10
0.0
 20
0.0
 30
0.0
  3
block 32
  1

  0
SPLINE
  5
E7
330
E3
100
AcDbEntity
  8
COTAS
 62
     7
370
     5
100
AcDbSpline
210
0.0
220
0.0
230
1.0
 70
     8
 71
     3
 72
     8
 73
     4
 74
     0
 42
0.0000000001
 43
0.0000000001
 40
0.0
 40
0.0
 40
0.0
 40
0.0
 40
1.0
 40
1.0
 40
1.0
 40
1.0
 10
179.04345703125
 20
386.638671875
 30
0.0
 10
155.5654296875
 20
386.5791015625
 30
0.0
 10
109.5068359375
 20
384.791015625
 30
0.0
 10
86.0947265625
 20
383.03125
 30
0.0
  0
ENDBLK
  5
E6
330
E3
100
AcDbEntity
  8
0
100
AcDbBlockEnd
  0
BLOCK
  5
EA
330
E8
100
AcDbEntity
  8
0
100
AcDbBlockBegin
  2
block 33
 70
     0
 71
     0
 10
0.0
 20
0.0
 30
0.0
  3
block 33
  1

  0
SPLINE
  5
EC
330
E8
100
AcDbEntity
  8
COTAS
 62
     7
370
     5
100
AcDbSpline
210
0.0
220
0.0
230
1.0
 70
     8
 71
     3
 72
     8
 73
     4
 74
     0
 42
0.0000000001
 43
0.0000000001
 40
0.0
 40
0.0
 40
0.0
 40
0.0
 40
1.0
 40
1.0
 40
1.0
 40
1.0
 10
86.0947265625
 20
301.2490234375
 30
0.0
 10
109.5068359375
 20
299.48828125
 30
0.0
 10
155.5654296875
 20
297.701171875
 30
0.0
 10
179.04345703125
 20
297.640625
 30
0.0
  0
ENDBLK
  5
EB
330
E8
100
AcDbEntity
  8
0
100
AcDbBlockEnd
  0
BLOCK
  5
EF
330
ED
100
AcDbEntity
  8
0
100
AcDbBlockBegin
  2
block 34
 70
     0
 71
     0
 10
0.0
 20
0.0
 30
0.0
  3
block 34
  1

  0
SPLINE
  5
F1
330
ED
100
AcDbEntity
  8
COTAS
 62
     7
370
     5
100
AcDbSpline
210
0.0
220
0.0
230
1.0
 70
     8
 71
     3
 72
     8
 73
     4
 74
     0
 42
0.0000000001
 43
0.0000000001
 40
0.0
 40
0.0
 40
0.0
 40
0.0
 40
1.0
 40
1.0
 40
1.0
 40
1.0
 10
179.04345703125
 20
297.640625
 30
0.0
 10
192.25244140625
 20
297.724609375
 30
0.0
 10
218.38720703125
 20
298.4267578125
 30
0.0
 10
231.58154296875
 20
299.052734375
 30
0.0
  0
ENDBLK
  5
F0
330
ED
100
AcDbEntity
  8
0
100
AcDbBlockEnd
  0
BLOCK
  5
F4
330
F2
100
AcDbEntity
  8
0
100
AcDbBlockBegin
  2
block 35
 70
     0
 71
     0
 10
0.0
 20
0.0
 30
0.0
  3
block 35
  1

  0
SPLINE
  5
F6
330
F2
100
AcDbEntity
  8
COTAS
 62
     7
370
     5
100
AcDbSpline
210
0.0
220
0.0
230
1.0
 70
     8
 71
     3
 72
     8
 73
     4
 74
     0
 42
0.0000000001
 43
0.0000000001
 40
0.0
 40
0.0
 40
0.0
 40
0.0
 40
1.0
 40
1.0
 40
1.0
 40
1.0
 10
231.58154296875
 20
299.052734375
 30
0.0
 10
249.72900390625
 20
299.5517578125
 30
0.0
 10
265.29150390625
 20
314.501953125
 30
0.0
 10
266.5185546875
 20
332.615234375
 30
0.0
  0
ENDBLK
  5
F5
330
F2
100
AcDbEntity
  8
0
100
AcDbBlockEnd
  0
BLOCK
  5
F9
330
F7
100
AcDbEntity
  8
0
100
AcDbBlockBegin
  2
block 36
 70
     0
 71
     0
 10
0.0
 20
0.0
 30
0.0
  3
block 36
  1

  0
SPLINE
  5
FB
330
F7
100
AcDbEntity
  8
COTAS
 62
     7
370
     5
100
AcDbSpline
210
0.0
220
0.0
230
1.0
 70
     8
 71
     3
 72
     8
 73
     4
 74
     0
 42
0.0000000001
 43
0.0000000001
 40
0.0
 40
0.0
 40
0.0
 40
0.0
 40
1.0
 40
1.0
 40
1.0
 40
1.0
 10
266.5185546875
 20
351.6640625
 30
0.0
 10
265.29150390625
 20
369.77734375
 30
0.0
 10
249.72900390625
 20
384.7275390625
 30
0.0
 10
231.58154296875
 20
385.2275390625
 30
0.0
  0
ENDBLK
  5
FA
330
F7
100
AcDbEntity
  8
0
100
AcDbBlockEnd
  0
BLOCK
  5
FE
330
FC
100
AcDbEntity
  8
0
100
AcDbBlockBegin
  2
block 37
 70
     0
 71
     0
 10
0.0
 20
0.0
 30
0.0
  3
block 37
  1

  0
SPLINE
  5
100
330
FC
100
AcDbEntity
  8
COTAS
 62
     7
370
     5
100
AcDbSpline
210
0.0
220
0.0
230
1.0
 70
     8
 71
     3
 72
     8
 73
     4
 74
     0
 42
0.0000000001
 43
0.0000000001
 40
0.0
 40
0.0
 40
0.0
 40
0.0
 40
1.0
 40
1.0
 40
1.0
 40
1.0
 10
64.0634765625
 20
342.1396484375
 30
0.0
 10
64.02587890625
 20
337.3583984375
 30
0.0
 10
64.2568359375
 20
327.95703125
 30
0.0
 10
64.52978515625
 20
323.18359375
 30
0.0
  0
ENDBLK
  5
FF
330
FC
100
AcDbEntity
  8
0
100
AcDbBlockEnd
  0
BLOCK
  5
103
330
101
100
AcDbEntity
  8
0
100
AcDbBlockBegin
  2
block 38
 70
     0
 71
     0
 10
0.0
 20
0.0
 30
0.0
  3
block 38
  1

  0
SPLINE
  5
105
330
101
100
AcDbEntity
  8
COTAS
 62
     7
370
     5
100
AcDbSpline
210
0.0
220
0.0
230
1.0
 70
     8
 71
     3
 72
     8
 73
     4
 74
     0
 42
0.0000000001
 43
0.0000000001
 40
0.0
 40
0.0
 40
0.0
 40
0.0
 40
1.0
 40
1.0
 40
1.0
 40
1.0
 10
64.52978515625
 20
323.18359375
 30
0.0
 10
64.939453125
 20
311.6279296875
 30
0.0
 10
74.5478515625
 20
301.8544921875
 30
0.0
 10
86.0947265625
 20
301.2490234375
 30
0.0
  0
ENDBLK
  5
104
330
101
100
AcDbEntity
  8
0
100
AcDbBlockEnd
  0
BLOCK
  5
108
330
106
100
AcDbEntity
  8
0
100
AcDbBlockBegin
  2
block 39
 70
     0
 71
     0
 10
0.0
 20
0.0
 30
0.0
  3
block 39
  1

  0
SPLINE
  5
10A
330
106
100
AcDbEntity
  8
COTAS
 62
     7
370
     5
100
AcDbSpline
210
0.0
220
0.0
230
1.0
 70
     8
 71
     3
 72
     8
 73
     4
 74
     0
 42
0.0000000001
 43
0.0000000001
 40
0.0
 40
0.0
 40
0.0
 40
0.0
 40
1.0
 40
1.0
 40
1.0
 40
1.0
 10
86.0947265625
 20
383.03125
 30
0.0
 10
74.5478515625
 20
382.42578125
 30
0.0
 10
64.939453125
 20
372.6513671875
 30
0.0
 10
64.52978515625
 20
361.095703125
 30
0.0
  0
ENDBLK
  5
109
330
106
100
AcDbEntity
  8
0
100
AcDbBlockEnd
  0
BLOCK
  5
10D
330
10B
100
AcDbEntity
  8
0
100
AcDbBlockBegin
  2
block 40
 70
     0
 71
     0
 10
0.0
 20
0.0
 30
0.0
  3
block 40
  1

  0
SPLINE
  5
10F
330
10B
100
AcDbEntity
  8
COTAS
 62
     7
370
     5
100
AcDbSpline
210
0.0
220
0.0
230
1.0
 70
     8
 71
     3
 72
     8
 73
     4
 74
     0
 42
0.0000000001
 43
0.0000000001
 40
0.0
 40
0.0
 40
0.0
 40
0.0
 40
1.0
 40
1.0
 40
1.0
 40
1.0
 10
55.74853515625
 20
337.4306640625
 30
0.0
 10
56.69970703125
 20
339.96875
 30
0.0
 10
56.69970703125
 20
344.3115234375
 30
0.0
 10
55.74853515625
 20
346.849609375
 30
0.0
  0
ENDBLK
  5
10E
330
10B
100
AcDbEntity
  8
0
100
AcDbBlockEnd
  0
BLOCK
  5
112
330
110
100
AcDbEntity
  8
0
100
AcDbBlockBegin
  2
block 41
 70
     0
 71
     0
 10
0.0
 20
0.0
 30
0.0
  3
block 41
  1

  0
INSERT
  5
115
330
110
100
AcDbEntity
  8
COTAS
100
AcDbBlockReference
  2
block 42
 10
0.0
 20
0.0
 30
0.0
  0
INSERT
  5
11D
330
110
100
AcDbEntity
  8
COTAS
100
AcDbBlockReference
  2
block 43
 10
0.0
 20
0.0
 30
0.0
  0
INSERT
  5
125
330
110
100
AcDbEntity
  8
COTAS
100
AcDbBlockReference
  2
block 44
 10
0.0
 20
0.0
 30
0.0
  0
INSERT
  5
12D
330
110
100
AcDbEntity
  8
COTAS
100
AcDbBlockReference
  2
block 45
 10
0.0
 20
0.0
 30
0.0
  0
INSERT
  5
135
330
110
100
AcDbEntity
  8
COTAS
100
AcDbBlockReference
  2
block 46
 10
0.0
 20
0.0
 30
0.0
  0
INSERT
  5
13D
330
110
100
AcDbEntity
  8
COTAS
100
AcDbBlockReference
  2
block 47
 10
0.0
 20
0.0
 30
0.0
  0
INSERT
  5
145
330
110
100
AcDbEntity
  8
COTAS
100
AcDbBlockReference
  2
block 48
 10
0.0
 20
0.0
 30
0.0
  0
INSERT
  5
14D
330
110
100
AcDbEntity
  8
COTAS
100
AcDbBlockReference
  2
block 49
 10
0.0
 20
0.0
 30
0.0
  0
INSERT
  5
155
330
110
100
AcDbEntity
  8
COTAS
100
AcDbBlockReference
  2
block 50
 10
0.0
 20
0.0
 30
0.0
  0
INSERT
  5
15D
330
110
100
AcDbEntity
  8
COTAS
100
AcDbBlockReference
  2
block 51
 10
0.0
 20
0.0
 30
0.0
  0
INSERT
  5
165
330
110
100
AcDbEntity
  8
COTAS
100
AcDbBlockReference
  2
block 52
 10
0.0
 20
0.0
 30
0.0
  0
INSERT
  5
16A
330
110
100
AcDbEntity
  8
COTAS
100
AcDbBlockReference
  2
block 53
 10
0.0
 20
0.0
 30
0.0
  0
INSERT
  5
16F
330
110
100
AcDbEntity
  8
COTAS
100
AcDbBlockReference
  2
block 54
 10
0.0
 20
0.0
 30
0.0
  0
INSERT
  5
174
330
110
100
AcDbEntity
  8
COTAS
100
AcDbBlockReference
  2
block 55
 10
0.0
 20
0.0
 30
0.0
  0
INSERT
  5
179
330
110
100
AcDbEntity
  8
COTAS
100
AcDbBlockReference
  2
block 56
 10
0.0
 20
0.0
 30
0.0
  0
INSERT
  5
181
330
110
100
AcDbEntity
  8
COTAS
100
AcDbBlockReference
  2
block 57
 10
0.0
 20
0.0
 30
0.0
  0
INSERT
  5
186
330
110
100
AcDbEntity
  8
COTAS
100
AcDbBlockReference
  2
block 58
 10
0.0
 20
0.0
 30
0.0
  0
INSERT
  5
18B
330
110
100
AcDbEntity
  8
COTAS
100
AcDbBlockReference
  2
block 59
 10
0.0
 20
0.0
 30
0.0
  0
INSERT
  5
193
330
110
100
AcDbEntity
  8
COTAS
100
AcDbBlockReference
  2
block 60
 10
0.0
 20
0.0
 30
0.0
  0
INSERT
  5
19B
330
110
100
AcDbEntity
  8
COTAS
100
AcDbBlockReference
  2
block 61
 10
0.0
 20
0.0
 30
0.0
  0
INSERT
  5
1A3
330
110
100
AcDbEntity
  8
COTAS
100
AcDbBlockReference
  2
block 62
 10
0.0
 20
0.0
 30
0.0
  0
INSERT
  5
1AB
330
110
100
AcDbEntity
  8
COTAS
100
AcDbBlockReference
  2
block 63
 10
0.0
 20
0.0
 30
0.0
  0
INSERT
  5
1B3
330
110
100
AcDbEntity
  8
COTAS
100
AcDbBlockReference
  2
block 64
 10
0.0
 20
0.0
 30
0.0
  0
INSERT
  5
1BB
330
110
100
AcDbEntity
  8
COTAS
100
AcDbBlockReference
  2
block 65
 10
0.0
 20
0.0
 30
0.0
  0
INSERT
  5
1C0
330
110
100
AcDbEntity
  8
COTAS
100
AcDbBlockReference
  2
block 66
 10
0.0
 20
0.0
 30
0.0
  0
INSERT
  5
1C5
330
110
100
AcDbEntity
  8
COTAS
100
AcDbBlockReference
  2
block 67
 10
0.0
 20
0.0
 30
0.0
  0
INSERT
  5
1CA
330
110
100
AcDbEntity
  8
COTAS
100
AcDbBlockReference
  2
block 68
 10
0.0
 20
0.0
 30
0.0
  0
INSERT
  5
1CF
330
110
100
AcDbEntity
  8
COTAS
100
AcDbBlockReference
  2
block 69
 10
0.0
 20
0.0
 30
0.0
  0
INSERT
  5
1D7
330
110
100
AcDbEntity
  8
COTAS
100
AcDbBlockReference
  2
block 70
 10
0.0
 20
0.0
 30
0.0
  0
INSERT
  5
1DF
330
110
100
AcDbEntity
  8
COTAS
100
AcDbBlockReference
  2
block 71
 10
0.0
 20
0.0
 30
0.0
  0
INSERT
  5
1E7
330
110
100
AcDbEntity
  8
COTAS
100
AcDbBlockReference
  2
block 72
 10
0.0
 20
0.0
 30
0.0
  0
INSERT
  5
1EF
330
110
100
AcDbEntity
  8
COTAS
100
AcDbBlockReference
  2
block 73
 10
0.0
 20
0.0
 30
0.0
  0
INSERT
  5
1F7
330
110
100
AcDbEntity
  8
COTAS
100
AcDbBlockReference
  2
block 74
 10
0.0
 20
0.0
 30
0.0
  0
INSERT
  5
1FC
330
110
100
AcDbEntity
  8
COTAS
100
AcDbBlockReference
  2
block 75
 10
0.0
 20
0.0
 30
0.0
  0
INSERT
  5
201
330
110
100
AcDbEntity
  8
COTAS
100
AcDbBlockReference
  2
block 76
 10
0.0
 20
0.0
 30
0.0
  0
INSERT
  5
206
330
110
100
AcDbEntity
  8
COTAS
100
AcDbBlockReference
  2
block 77
 10
0.0
 20
0.0
 30
0.0
  0
INSERT
  5
20B
330
110
100
AcDbEntity
  8
COTAS
100
AcDbBlockReference
  2
block 78
 10
0.0
 20
0.0
 30
0.0
  0
INSERT
  5
210
330
110
100
AcDbEntity
  8
COTAS
100
AcDbBlockReference
  2
block 79
 10
0.0
 20
0.0
 30
0.0
  0
INSERT
  5
215
330
110
100
AcDbEntity
  8
COTAS
100
AcDbBlockReference
  2
block 80
 10
0.0
 20
0.0
 30
0.0
  0
INSERT
  5
21A
330
110
100
AcDbEntity
  8
COTAS
100
AcDbBlockReference
  2
block 81
 10
0.0
 20
0.0
 30
0.0
  0
INSERT
  5
21F
330
110
100
AcDbEntity
  8
COTAS
100
AcDbBlockReference
  2
block 82
 10
0.0
 20
0.0
 30
0.0
  0
INSERT
  5
224
330
110
100
AcDbEntity
  8
COTAS
100
AcDbBlockReference
  2
block 83
 10
0.0
 20
0.0
 30
0.0
  0
INSERT
  5
229
330
110
100
AcDbEntity
  8
COTAS
100
AcDbBlockReference
  2
block 84
 10
0.0
 20
0.0
 30
0.0
  0
INSERT
  5
231
330
110
100
AcDbEntity
  8
COTAS
100
AcDbBlockReference
  2
block 85
 10
0.0
 20
0.0
 30
0.0
  0
INSERT
  5
239
330
110
100
AcDbEntity
  8
COTAS
100
AcDbBlockReference
  2
block 86
 10
0.0
 20
0.0
 30
0.0
  0
INSERT
  5
241
330
110
100
AcDbEntity
  8
COTAS
100
AcDbBlockReference
  2
block 87
 10
0.0
 20
0.0
 30
0.0
  0
INSERT
  5
246
330
110
100
AcDbEntity
  8
COTAS
100
AcDbBlockReference
  2
block 88
 10
0.0
 20
0.0
 30
0.0
  0
INSERT
  5
24B
330
110
100
AcDbEntity
  8
COTAS
100
AcDbBlockReference
  2
block 89
 10
0.0
 20
0.0
 30
0.0
  0
INSERT
  5
250
330
110
100
AcDbEntity
  8
COTAS
100
AcDbBlockReference
  2
block 90
 10
0.0
 20
0.0
 30
0.0
  0
INSERT
  5
255
330
110
100
AcDbEntity
  8
COTAS
100
AcDbBlockReference
  2
block 91
 10
0.0
 20
0.0
 30
0.0
  0
INSERT
  5
25A
330
110
100
AcDbEntity
  8
COTAS
100
AcDbBlockReference
  2
block 92
 10
0.0
 20
0.0
 30
0.0
  0
INSERT
  5
25F
330
110
100
AcDbEntity
  8
COTAS
100
AcDbBlockReference
  2
block 93
 10
0.0
 20
0.0
 30
0.0
  0
INSERT
  5
264
330
110
100
AcDbEntity
  8
COTAS
100
AcDbBlockReference
  2
block 94
 10
0.0
 20
0.0
 30
0.0
  0
ENDBLK
  5
113
330
110
100
AcDbEntity
  8
0
100
AcDbBlockEnd
  0
BLOCK
  5
116
330
114
100
AcDbEntity
  8
0
100
AcDbBlockBegin
  2
block 42
 70
     0
 71
     0
 10
0.0
 20
0.0
 30
0.0
  3
block 42
  1

  0
POLYLINE
  5
118
330
114
100
AcDbEntity
  8
COTAS
 62
     7
370
     5
100
AcDb2dPolyline
 66
     1
 10
0.0
 20
0.0
 30
0.0
  0
VERTEX
  5
119
330
118
100
AcDbEntity
  8
COTAS
 62
     7
370
     5
100
AcDbVertex
100
AcDb2dVertex
 10
99.2685546875
 20
460.4208984375
 30
0.0
  0
VERTEX
  5
11A
330
118
100
AcDbEntity
  8
COTAS
 62
     7
370
     5
100
AcDbVertex
100
AcDb2dVertex
 10
89.24853515625
 20
460.4208984375
 30
0.0
  0
SEQEND
  5
11B
330
118
100
AcDbEntity
  8
COTAS
370
     5
  0
ENDBLK
  5
117
330
114
100
AcDbEntity
  8
0
100
AcDbBlockEnd
  0
BLOCK
  5
11E
330
11C
100
AcDbEntity
  8
0
100
AcDbBlockBegin
  2
block 43
 70
     0
 71
     0
 10
0.0
 20
0.0
 30
0.0
  3
block 43
  1

  0
POLYLINE
  5
120
330
11C
100
AcDbEntity
  8
COTAS
 62
     7
370
     5
100
AcDb2dPolyline
 66
     1
 10
0.0
 20
0.0
 30
0.0
  0
VERTEX
  5
121
330
120
100
AcDbEntity
  8
COTAS
 62
     7
370
     5
100
AcDbVertex
100
AcDb2dVertex
 10
103.46923828125
 20
462.71875
 30
0.0
  0
VERTEX
  5
122
330
120
100
AcDbEntity
  8
COTAS
 62
     7
370
     5
100
AcDbVertex
100
AcDb2dVertex
 10
179.04345703125
 20
463.736328125
 30
0.0
  0
SEQEND
  5
123
330
120
100
AcDbEntity
  8
COTAS
370
     5
  0
ENDBLK
  5
11F
330
11C
100
AcDbEntity
  8
0
100
AcDbBlockEnd
  0
BLOCK
  5
126
330
124
100
AcDbEntity
  8
0
100
AcDbBlockBegin
  2
block 44
 70
     0
 71
     0
 10
0.0
 20
0.0
 30
0.0
  3
block 44
  1

  0
POLYLINE
  5
128
330
124
100
AcDbEntity
  8
COTAS
 62
     7
370
     5
100
AcDb2dPolyline
 66
     1
 10
0.0
 20
0.0
 30
0.0
  0
VERTEX
  5
129
330
128
100
AcDbEntity
  8
COTAS
 62
     7
370
     5
100
AcDbVertex
100
AcDb2dVertex
 10
179.04345703125
 20
463.736328125
 30
0.0
  0
VERTEX
  5
12A
330
128
100
AcDbEntity
  8
COTAS
 62
     7
370
     5
100
AcDbVertex
100
AcDb2dVertex
 10
253.42724609375
 20
464.78759765625
 30
0.0
  0
SEQEND
  5
12B
330
128
100
AcDbEntity
  8
COTAS
370
     5
  0
ENDBLK
  5
127
330
124
100
AcDbEntity
  8
0
100
AcDbBlockEnd
  0
BLOCK
  5
12E
330
12C
100
AcDbEntity
  8
0
100
AcDbBlockBegin
  2
block 45
 70
     0
 71
     0
 10
0.0
 20
0.0
 30
0.0
  3
block 45
  1

  0
POLYLINE
  5
130
330
12C
100
AcDbEntity
  8
COTAS
 62
     7
370
     5
100
AcDb2dPolyline
 66
     1
 10
0.0
 20
0.0
 30
0.0
  0
VERTEX
  5
131
330
130
100
AcDbEntity
  8
COTAS
 62
     7
370
     5
100
AcDbVertex
100
AcDb2dVertex
 10
103.478515625
 20
462.43017578125
 30
0.0
  0
VERTEX
  5
132
330
130
100
AcDbEntity
  8
COTAS
 62
     7
370
     5
100
AcDbVertex
100
AcDb2dVertex
 10
179.04345703125
 20
463.447265625
 30
0.0
  0
SEQEND
  5
133
330
130
100
AcDbEntity
  8
COTAS
370
     5
  0
ENDBLK
  5
12F
330
12C
100
AcDbEntity
  8
0
100
AcDbBlockEnd
  0
BLOCK
  5
136
330
134
100
AcDbEntity
  8
0
100
AcDbBlockBegin
  2
block 46
 70
     0
 71
     0
 10
0.0
 20
0.0
 30
0.0
  3
block 46
  1

  0
POLYLINE
  5
138
330
134
100
AcDbEntity
  8
COTAS
 62
     7
370
     5
100
AcDb2dPolyline
 66
     1
 10
0.0
 20
0.0
 30
0.0
  0
VERTEX
  5
139
330
138
100
AcDbEntity
  8
COTAS
 62
     7
370
     5
100
AcDbVertex
100
AcDb2dVertex
 10
179.04345703125
 20
463.447265625
 30
0.0
  0
VERTEX
  5
13A
330
138
100
AcDbEntity
  8
COTAS
 62
     7
370
     5
100
AcDbVertex
100
AcDb2dVertex
 10
253.4453125
 20
464.4990234375
 30
0.0
  0
SEQEND
  5
13B
330
138
100
AcDbEntity
  8
COTAS
370
     5
  0
ENDBLK
  5
137
330
134
100
AcDbEntity
  8
0
100
AcDbBlockEnd
  0
BLOCK
  5
13E
330
13C
100
AcDbEntity
  8
0
100
AcDbBlockBegin
  2
block 47
 70
     0
 71
     0
 10
0.0
 20
0.0
 30
0.0
  3
block 47
  1

  0
POLYLINE
  5
140
330
13C
100
AcDbEntity
  8
COTAS
 62
     7
370
     5
100
AcDb2dPolyline
 66
     1
 10
0.0
 20
0.0
 30
0.0
  0
VERTEX
  5
141
330
140
100
AcDbEntity
  8
COTAS
 62
     7
370
     5
100
AcDbVertex
100
AcDb2dVertex
 10
99.2685546875
 20
460.7099609375
 30
0.0
  0
VERTEX
  5
142
330
140
100
AcDbEntity
  8
COTAS
 62
     7
370
     5
100
AcDbVertex
100
AcDb2dVertex
 10
89.24853515625
 20
460.7099609375
 30
0.0
  0
SEQEND
  5
143
330
140
100
AcDbEntity
  8
COTAS
370
     5
  0
ENDBLK
  5
13F
330
13C
100
AcDbEntity
  8
0
100
AcDbBlockEnd
  0
BLOCK
  5
146
330
144
100
AcDbEntity
  8
0
100
AcDbBlockBegin
  2
block 48
 70
     0
 71
     0
 10
0.0
 20
0.0
 30
0.0
  3
block 48
  1

  0
POLYLINE
  5
148
330
144
100
AcDbEntity
  8
COTAS
 62
     7
370
     5
100
AcDb2dPolyline
 66
     1
 10
0.0
 20
0.0
 30
0.0
  0
VERTEX
  5
149
330
148
100
AcDbEntity
  8
COTAS
 62
     7
370
     5
100
AcDbVertex
100
AcDb2dVertex
 10
35.19775390625
 20
535.2822265625
 30
0.0
  0
VERTEX
  5
14A
330
148
100
AcDbEntity
  8
COTAS
 62
     7
370
     5
100
AcDbVertex
100
AcDb2dVertex
 10
36.546875
 20
535.2822265625
 30
0.0
  0
SEQEND
  5
14B
330
148
100
AcDbEntity
  8
COTAS
370
     5
  0
ENDBLK
  5
147
330
144
100
AcDbEntity
  8
0
100
AcDbBlockEnd
  0
BLOCK
  5
14E
330
14C
100
AcDbEntity
  8
0
100
AcDbBlockBegin
  2
block 49
 70
     0
 71
     0
 10
0.0
 20
0.0
 30
0.0
  3
block 49
  1

  0
POLYLINE
  5
150
330
14C
100
AcDbEntity
  8
COTAS
 62
     7
370
     5
100
AcDb2dPolyline
 66
     1
 10
0.0
 20
0.0
 30
0.0
  0
VERTEX
  5
151
330
150
100
AcDbEntity
  8
COTAS
 62
     7
370
     5
100
AcDbVertex
100
AcDb2dVertex
 10
35.19775390625
 20
535.5712890625
 30
0.0
  0
VERTEX
  5
152
330
150
100
AcDbEntity
  8
COTAS
 62
     7
370
     5
100
AcDbVertex
100
AcDb2dVertex
 10
36.546875
 20
535.5712890625
 30
0.0
  0
SEQEND
  5
153
330
150
100
AcDbEntity
  8
COTAS
370
     5
  0
ENDBLK
  5
14F
330
14C
100
AcDbEntity
  8
0
100
AcDbBlockEnd
  0
BLOCK
  5
156
330
154
100
AcDbEntity
  8
0
100
AcDbBlockBegin
  2
block 50
 70
     0
 71
     0
 10
0.0
 20
0.0
 30
0.0
  3
block 50
  1

  0
POLYLINE
  5
158
330
154
100
AcDbEntity
  8
COTAS
 62
     7
370
     5
100
AcDb2dPolyline
 66
     1
 10
0.0
 20
0.0
 30
0.0
  0
VERTEX
  5
159
330
158
100
AcDbEntity
  8
COTAS
 62
     7
370
     5
100
AcDbVertex
100
AcDb2dVertex
 10
36.546875
 20
535.2822265625
 30
0.0
  0
VERTEX
  5
15A
330
158
100
AcDbEntity
  8
COTAS
 62
     7
370
     5
100
AcDbVertex
100
AcDb2dVertex
 10
36.546875
 20
535.5712890625
 30
0.0
  0
SEQEND
  5
15B
330
158
100
AcDbEntity
  8
COTAS
370
     5
  0
ENDBLK
  5
157
330
154
100
AcDbEntity
  8
0
100
AcDbBlockEnd
  0
BLOCK
  5
15E
330
15C
100
AcDbEntity
  8
0
100
AcDbBlockBegin
  2
block 51
 70
     0
 71
     0
 10
0.0
 20
0.0
 30
0.0
  3
block 51
  1

  0
POLYLINE
  5
160
330
15C
100
AcDbEntity
  8
COTAS
 62
     7
370
     5
100
AcDb2dPolyline
 66
     1
 10
0.0
 20
0.0
 30
0.0
  0
VERTEX
  5
161
330
160
100
AcDbEntity
  8
COTAS
 62
     7
370
     5
100
AcDbVertex
100
AcDb2dVertex
 10
34.8125
 20
535.95654296875
 30
0.0
  0
VERTEX
  5
162
330
160
100
AcDbEntity
  8
COTAS
 62
     7
370
     5
100
AcDbVertex
100
AcDb2dVertex
 10
34.8125
 20
539.232421875
 30
0.0
  0
SEQEND
  5
163
330
160
100
AcDbEntity
  8
COTAS
370
     5
  0
ENDBLK
  5
15F
330
15C
100
AcDbEntity
  8
0
100
AcDbBlockEnd
  0
BLOCK
  5
166
330
164
100
AcDbEntity
  8
0
100
AcDbBlockBegin
  2
block 52
 70
     0
 71
     0
 10
0.0
 20
0.0
 30
0.0
  3
block 52
  1

  0
SPLINE
  5
168
330
164
100
AcDbEntity
  8
COTAS
 62
     7
370
     5
100
AcDbSpline
210
0.0
220
0.0
230
1.0
 70
     8
 71
     3
 72
    11
 73
     7
 74
     0
 42
0.0000000001
 43
0.0000000001
 40
0.0
 40
0.0
 40
0.0
 40
0.0
 40
1.0
 40
1.0
 40
1.0
 40
2.0
 40
2.0
 40
2.0
 40
2.0
 10
34.8125
 20
539.232421875
 30
0.0
 10
34.8125
 20
539.232421875
 30
0.0
 10
34.8125
 20
539.232421875
 30
0.0
 10
34.8125
 20
539.232421875
 30
0.0
 10
34.8125
 20
539.87060546875
 30
0.0
 10
35.33056640625
 20
540.38818359375
 30
0.0
 10
35.96875
 20
540.38818359375
 30
0.0
  0
ENDBLK
  5
167
330
164
100
AcDbEntity
  8
0
100
AcDbBlockEnd
  0
BLOCK
  5
16B
330
169
100
AcDbEntity
  8
0
100
AcDbBlockBegin
  2
block 53
 70
     0
 71
     0
 10
0.0
 20
0.0
 30
0.0
  3
block 53
  1

  0
SPLINE
  5
16D
330
169
100
AcDbEntity
  8
COTAS
 62
     7
370
     5
100
AcDbSpline
210
0.0
220
0.0
230
1.0
 70
     8
 71
     3
 72
    11
 73
     7
 74
     0
 42
0.0000000001
 43
0.0000000001
 40
0.0
 40
0.0
 40
0.0
 40
0.0
 40
1.0
 40
1.0
 40
1.0
 40
2.0
 40
2.0
 40
2.0
 40
2.0
 10
34.52392578125
 20
539.232421875
 30
0.0
 10
34.52392578125
 20
539.232421875
 30
0.0
 10
34.52392578125
 20
539.232421875
 30
0.0
 10
34.52392578125
 20
539.232421875
 30
0.0
 10
34.52392578125
 20
540.03076171875
 30
0.0
 10
35.17041015625
 20
540.67724609375
 30
0.0
 10
35.96875
 20
540.67724609375
 30
0.0
  0
ENDBLK
  5
16C
330
169
100
AcDbEntity
  8
0
100
AcDbBlockEnd
  0
BLOCK
  5
170
330
16E
100
AcDbEntity
  8
0
100
AcDbBlockBegin
  2
block 54
 70
     0
 71
     0
 10
0.0
 20
0.0
 30
0.0
  3
block 54
  1

  0
SPLINE
  5
172
330
16E
100
AcDbEntity
  8
COTAS
 62
     7
370
     5
100
AcDbSpline
210
0.0
220
0.0
230
1.0
 70
     8
 71
     3
 72
    11
 73
     7
 74
     0
 42
0.0000000001
 43
0.0000000001
 40
0.0
 40
0.0
 40
0.0
 40
0.0
 40
1.0
 40
1.0
 40
1.0
 40
2.0
 40
2.0
 40
2.0
 40
2.0
 10
35.19775390625
 20
535.5712890625
 30
0.0
 10
35.19775390625
 20
535.5712890625
 30
0.0
 10
35.19775390625
 20
535.5712890625
 30
0.0
 10
35.19775390625
 20
535.5712890625
 30
0.0
 10
34.9853515625
 20
535.5712890625
 30
0.0
 10
34.8125
 20
535.74365234375
 30
0.0
 10
34.8125
 20
535.95654296875
 30
0.0
  0
ENDBLK
  5
171
330
16E
100
AcDbEntity
  8
0
100
AcDbBlockEnd
  0
BLOCK
  5
175
330
173
100
AcDbEntity
  8
0
100
AcDbBlockBegin
  2
block 55
 70
     0
 71
     0
 10
0.0
 20
0.0
 30
0.0
  3
block 55
  1

  0
SPLINE
  5
177
330
173
100
AcDbEntity
  8
COTAS
 62
     7
370
     5
100
AcDbSpline
210
0.0
220
0.0
230
1.0
 70
     8
 71
     3
 72
    11
 73
     7
 74
     0
 42
0.0000000001
 43
0.0000000001
 40
0.0
 40
0.0
 40
0.0
 40
0.0
 40
1.0
 40
1.0
 40
1.0
 40
2.0
 40
2.0
 40
2.0
 40
2.0
 10
35.19775390625
 20
535.2822265625
 30
0.0
 10
35.19775390625
 20
535.2822265625
 30
0.0
 10
35.19775390625
 20
535.2822265625
 30
0.0
 10
35.19775390625
 20
535.2822265625
 30
0.0
 10
34.8251953125
 20
535.2822265625
 30
0.0
 10
34.52392578125
 20
535.583984375
 30
0.0
 10
34.52392578125
 20
535.95654296875
 30
0.0
  0
ENDBLK
  5
176
330
173
100
AcDbEntity
  8
0
100
AcDbBlockEnd
  0
BLOCK
  5
17A
330
178
100
AcDbEntity
  8
0
100
AcDbBlockBegin
  2
block 56
 70
     0
 71
     0
 10
0.0
 20
0.0
 30
0.0
  3
block 56
  1

  0
POLYLINE
  5
17C
330
178
100
AcDbEntity
  8
COTAS
 62
     7
370
     5
100
AcDb2dPolyline
 66
     1
 10
0.0
 20
0.0
 30
0.0
  0
VERTEX
  5
17D
330
17C
100
AcDbEntity
  8
COTAS
 62
     7
370
     5
100
AcDbVertex
100
AcDb2dVertex
 10
34.52392578125
 20
535.95654296875
 30
0.0
  0
VERTEX
  5
17E
330
17C
100
AcDbEntity
  8
COTAS
 62
     7
370
     5
100
AcDbVertex
100
AcDb2dVertex
 10
34.52392578125
 20
539.232421875
 30
0.0
  0
SEQEND
  5
17F
330
17C
100
AcDbEntity
  8
COTAS
370
     5
  0
ENDBLK
  5
17B
330
178
100
AcDbEntity
  8
0
100
AcDbBlockEnd
  0
BLOCK
  5
182
330
180
100
AcDbEntity
  8
0
100
AcDbBlockBegin
  2
block 57
 70
     0
 71
     0
 10
0.0
 20
0.0
 30
0.0
  3
block 57
  1

  0
SPLINE
  5
184
330
180
100
AcDbEntity
  8
COTAS
 62
     7
370
     5
100
AcDbSpline
210
0.0
220
0.0
230
1.0
 70
     8
 71
     3
 72
     8
 73
     4
 74
     0
 42
0.0000000001
 43
0.0000000001
 40
0.0
 40
0.0
 40
0.0
 40
0.0
 40
1.0
 40
1.0
 40
1.0
 40
1.0
 10
51.0107421875
 20
540.06591796875
 30
0.0
 10
53.7060546875
 20
539.8017578125
 30
0.0
 10
55.84375
 20
537.412109375
 30
0.0
 10
55.8076171875
 20
534.7041015625
 30
0.0
  0
ENDBLK
  5
183
330
180
100
AcDbEntity
  8
0
100
AcDbBlockEnd
  0
BLOCK
  5
187
330
185
100
AcDbEntity
  8
0
100
AcDbBlockBegin
  2
block 58
 70
     0
 71
     0
 10
0.0
 20
0.0
 30
0.0
  3
block 58
  1

  0
SPLINE
  5
189
330
185
100
AcDbEntity
  8
COTAS
 62
     7
370
     5
100
AcDbSpline
210
0.0
220
0.0
230
1.0
 70
     8
 71
     3
 72
     8
 73
     4
 74
     0
 42
0.0000000001
 43
0.0000000001
 40
0.0
 40
0.0
 40
0.0
 40
0.0
 40
1.0
 40
1.0
 40
1.0
 40
1.0
 10
51.0302734375
 20
540.35498046875
 30
0.0
 10
53.87646484375
 20
540.0810546875
 30
0.0
 10
56.1337890625
 20
537.5625
 30
0.0
 10
56.0966796875
 20
534.7041015625
 30
0.0
  0
ENDBLK
  5
188
330
185
100
AcDbEntity
  8
0
100
AcDbBlockEnd
  0
BLOCK
  5
18C
330
18A
100
AcDbEntity
  8
0
100
AcDbBlockBegin
  2
block 59
 70
     0
 71
     0
 10
0.0
 20
0.0
 30
0.0
  3
block 59
  1

  0
POLYLINE
  5
18E
330
18A
100
AcDbEntity
  8
COTAS
 62
     7
370
     5
100
AcDb2dPolyline
 66
     1
 10
0.0
 20
0.0
 30
0.0
  0
VERTEX
  5
18F
330
18E
100
AcDbEntity
  8
COTAS
 62
     7
370
     5
100
AcDbVertex
100
AcDb2dVertex
 10
51.0107421875
 20
540.06591796875
 30
0.0
  0
VERTEX
  5
190
330
18E
100
AcDbEntity
  8
COTAS
 62
     7
370
     5
100
AcDbVertex
100
AcDb2dVertex
 10
35.96875
 20
540.38818359375
 30
0.0
  0
SEQEND
  5
191
330
18E
100
AcDbEntity
  8
COTAS
370
     5
  0
ENDBLK
  5
18D
330
18A
100
AcDbEntity
  8
0
100
AcDbBlockEnd
  0
BLOCK
  5
194
330
192
100
AcDbEntity
  8
0
100
AcDbBlockBegin
  2
block 60
 70
     0
 71
     0
 10
0.0
 20
0.0
 30
0.0
  3
block 60
  1

  0
POLYLINE
  5
196
330
192
100
AcDbEntity
  8
COTAS
 62
     7
370
     5
100
AcDb2dPolyline
 66
     1
 10
0.0
 20
0.0
 30
0.0
  0
VERTEX
  5
197
330
196
100
AcDbEntity
  8
COTAS
 62
     7
370
     5
100
AcDbVertex
100
AcDb2dVertex
 10
51.0302734375
 20
540.35498046875
 30
0.0
  0
VERTEX
  5
198
330
196
100
AcDbEntity
  8
COTAS
 62
     7
370
     5
100
AcDbVertex
100
AcDb2dVertex
 10
35.96875
 20
540.67724609375
 30
0.0
  0
SEQEND
  5
199
330
196
100
AcDbEntity
  8
COTAS
370
     5
  0
ENDBLK
  5
195
330
192
100
AcDbEntity
  8
0
100
AcDbBlockEnd
  0
BLOCK
  5
19C
330
19A
100
AcDbEntity
  8
0
100
AcDbBlockBegin
  2
block 61
 70
     0
 71
     0
 10
0.0
 20
0.0
 30
0.0
  3
block 61
  1

  0
POLYLINE
  5
19E
330
19A
100
AcDbEntity
  8
COTAS
 62
     7
370
     5
100
AcDb2dPolyline
 66
     1
 10
0.0
 20
0.0
 30
0.0
  0
VERTEX
  5
19F
330
19E
100
AcDbEntity
  8
COTAS
 62
     7
370
     5
100
AcDbVertex
100
AcDb2dVertex
 10
322.888671875
 20
535.2822265625
 30
0.0
  0
VERTEX
  5
1A0
330
19E
100
AcDbEntity
  8
COTAS
 62
     7
370
     5
100
AcDbVertex
100
AcDb2dVertex
 10
321.5400390625
 20
535.2822265625
 30
0.0
  0
SEQEND
  5
1A1
330
19E
100
AcDbEntity
  8
COTAS
370
     5
  0
ENDBLK
  5
19D
330
19A
100
AcDbEntity
  8
0
100
AcDbBlockEnd
  0
BLOCK
  5
1A4
330
1A2
100
AcDbEntity
  8
0
100
AcDbBlockBegin
  2
block 62
 70
     0
 71
     0
 10
0.0
 20
0.0
 30
0.0
  3
block 62
  1

  0
POLYLINE
  5
1A6
330
1A2
100
AcDbEntity
  8
COTAS
 62
     7
370
     5
100
AcDb2dPolyline
 66
     1
 10
0.0
 20
0.0
 30
0.0
  0
VERTEX
  5
1A7
330
1A6
100
AcDbEntity
  8
COTAS
 62
     7
370
     5
100
AcDbVertex
100
AcDb2dVertex
 10
322.888671875
 20
535.5712890625
 30
0.0
  0
VERTEX
  5
1A8
330
1A6
100
AcDbEntity
  8
COTAS
 62
     7
370
     5
100
AcDbVertex
100
AcDb2dVertex
 10
321.5400390625
 20
535.5712890625
 30
0.0
  0
SEQEND
  5
1A9
330
1A6
100
AcDbEntity
  8
COTAS
370
     5
  0
ENDBLK
  5
1A5
330
1A2
100
AcDbEntity
  8
0
100
AcDbBlockEnd
  0
BLOCK
  5
1AC
330
1AA
100
AcDbEntity
  8
0
100
AcDbBlockBegin
  2
block 63
 70
     0
 71
     0
 10
0.0
 20
0.0
 30
0.0
  3
block 63
  1

  0
POLYLINE
  5
1AE
330
1AA
100
AcDbEntity
  8
COTAS
 62
     7
370
     5
100
AcDb2dPolyline
 66
     1
 10
0.0
 20
0.0
 30
0.0
  0
VERTEX
  5
1AF
330
1AE
100
AcDbEntity
  8
COTAS
 62
     7
370
     5
100
AcDbVertex
100
AcDb2dVertex
 10
321.5400390625
 20
535.2822265625
 30
0.0
  0
VERTEX
  5
1B0
330
1AE
100
AcDbEntity
  8
COTAS
 62
     7
370
     5
100
AcDbVertex
100
AcDb2dVertex
 10
321.5400390625
 20
535.5712890625
 30
0.0
  0
SEQEND
  5
1B1
330
1AE
100
AcDbEntity
  8
COTAS
370
     5
  0
ENDBLK
  5
1AD
330
1AA
100
AcDbEntity
  8
0
100
AcDbBlockEnd
  0
BLOCK
  5
1B4
330
1B2
100
AcDbEntity
  8
0
100
AcDbBlockBegin
  2
block 64
 70
     0
 71
     0
 10
0.0
 20
0.0
 30
0.0
  3
block 64
  1

  0
POLYLINE
  5
1B6
330
1B2
100
AcDbEntity
  8
COTAS
 62
     7
370
     5
100
AcDb2dPolyline
 66
     1
 10
0.0
 20
0.0
 30
0.0
  0
VERTEX
  5
1B7
330
1B6
100
AcDbEntity
  8
COTAS
 62
     7
370
     5
100
AcDbVertex
100
AcDb2dVertex
 10
323.2744140625
 20
535.95654296875
 30
0.0
  0
VERTEX
  5
1B8
330
1B6
100
AcDbEntity
  8
COTAS
 62
     7
370
     5
100
AcDbVertex
100
AcDb2dVertex
 10
323.2744140625
 20
539.232421875
 30
0.0
  0
SEQEND
  5
1B9
330
1B6
100
AcDbEntity
  8
COTAS
370
     5
  0
ENDBLK
  5
1B5
330
1B2
100
AcDbEntity
  8
0
100
AcDbBlockEnd
  0
BLOCK
  5
1BC
330
1BA
100
AcDbEntity
  8
0
100
AcDbBlockBegin
  2
block 65
 70
     0
 71
     0
 10
0.0
 20
0.0
 30
0.0
  3
block 65
  1

  0
SPLINE
  5
1BE
330
1BA
100
AcDbEntity
  8
COTAS
 62
     7
370
     5
100
AcDbSpline
210
0.0
220
0.0
230
1.0
 70
     8
 71
     3
 72
    11
 73
     7
 74
     0
 42
0.0000000001
 43
0.0000000001
 40
0.0
 40
0.0
 40
0.0
 40
0.0
 40
1.0
 40
1.0
 40
1.0
 40
2.0
 40
2.0
 40
2.0
 40
2.0
 10
322.1181640625
 20
540.38818359375
 30
0.0
 10
322.1181640625
 20
540.38818359375
 30
0.0
 10
322.1181640625
 20
540.38818359375
 30
0.0
 10
322.1181640625
 20
540.38818359375
 30
0.0
 10
322.7568359375
 20
540.38818359375
 30
0.0
 10
323.2744140625
 20
539.87060546875
 30
0.0
 10
323.2744140625
 20
539.232421875
 30
0.0
  0
ENDBLK
  5
1BD
330
1BA
100
AcDbEntity
  8
0
100
AcDbBlockEnd
  0
BLOCK
  5
1C1
330
1BF
100
AcDbEntity
  8
0
100
AcDbBlockBegin
  2
block 66
 70
     0
 71
     0
 10
0.0
 20
0.0
 30
0.0
  3
block 66
  1

  0
SPLINE
  5
1C3
330
1BF
100
AcDbEntity
  8
COTAS
 62
     7
370
     5
100
AcDbSpline
210
0.0
220
0.0
230
1.0
 70
     8
 71
     3
 72
    11
 73
     7
 74
     0
 42
0.0000000001
 43
0.0000000001
 40
0.0
 40
0.0
 40
0.0
 40
0.0
 40
1.0
 40
1.0
 40
1.0
 40
2.0
 40
2.0
 40
2.0
 40
2.0
 10
322.1181640625
 20
540.67724609375
 30
0.0
 10
322.1181640625
 20
540.67724609375
 30
0.0
 10
322.1181640625
 20
540.67724609375
 30
0.0
 10
322.1181640625
 20
540.67724609375
 30
0.0
 10
322.916015625
 20
540.67724609375
 30
0.0
 10
323.5634765625
 20
540.03076171875
 30
0.0
 10
323.5634765625
 20
539.232421875
 30
0.0
  0
ENDBLK
  5
1C2
330
1BF
100
AcDbEntity
  8
0
100
AcDbBlockEnd
  0
BLOCK
  5
1C6
330
1C4
100
AcDbEntity
  8
0
100
AcDbBlockBegin
  2
block 67
 70
     0
 71
     0
 10
0.0
 20
0.0
 30
0.0
  3
block 67
  1

  0
SPLINE
  5
1C8
330
1C4
100
AcDbEntity
  8
COTAS
 62
     7
370
     5
100
AcDbSpline
210
0.0
220
0.0
230
1.0
 70
     8
 71
     3
 72
    11
 73
     7
 74
     0
 42
0.0000000001
 43
0.0000000001
 40
0.0
 40
0.0
 40
0.0
 40
0.0
 40
1.0
 40
1.0
 40
1.0
 40
2.0
 40
2.0
 40
2.0
 40
2.0
 10
323.2744140625
 20
535.95654296875
 30
0.0
 10
323.2744140625
 20
535.95654296875
 30
0.0
 10
323.2744140625
 20
535.95654296875
 30
0.0
 10
323.2744140625
 20
535.95654296875
 30
0.0
 10
323.2744140625
 20
535.74365234375
 30
0.0
 10
323.1015625
 20
535.5712890625
 30
0.0
 10
322.888671875
 20
535.5712890625
 30
0.0
  0
ENDBLK
  5
1C7
330
1C4
100
AcDbEntity
  8
0
100
AcDbBlockEnd
  0
BLOCK
  5
1CB
330
1C9
100
AcDbEntity
  8
0
100
AcDbBlockBegin
  2
block 68
 70
     0
 71
     0
 10
0.0
 20
0.0
 30
0.0
  3
block 68
  1

  0
SPLINE
  5
1CD
330
1C9
100
AcDbEntity
  8
COTAS
 62
     7
370
     5
100
AcDbSpline
210
0.0
220
0.0
230
1.0
 70
     8
 71
     3
 72
    11
 73
     7
 74
     0
 42
0.0000000001
 43
0.0000000001
 40
0.0
 40
0.0
 40
0.0
 40
0.0
 40
1.0
 40
1.0
 40
1.0
 40
2.0
 40
2.0
 40
2.0
 40
2.0
 10
323.5634765625
 20
535.95654296875
 30
0.0
 10
323.5634765625
 20
535.95654296875
 30
0.0
 10
323.5634765625
 20
535.95654296875
 30
0.0
 10
323.5634765625
 20
535.95654296875
 30
0.0
 10
323.5634765625
 20
535.583984375
 30
0.0
 10
323.26171875
 20
535.2822265625
 30
0.0
 10
322.888671875
 20
535.2822265625
 30
0.0
  0
ENDBLK
  5
1CC
330
1C9
100
AcDbEntity
  8
0
100
AcDbBlockEnd
  0
BLOCK
  5
1D0
330
1CE
100
AcDbEntity
  8
0
100
AcDbBlockBegin
  2
block 69
 70
     0
 71
     0
 10
0.0
 20
0.0
 30
0.0
  3
block 69
  1

  0
POLYLINE
  5
1D2
330
1CE
100
AcDbEntity
  8
COTAS
 62
     7
370
     5
100
AcDb2dPolyline
 66
     1
 10
0.0
 20
0.0
 30
0.0
  0
VERTEX
  5
1D3
330
1D2
100
AcDbEntity
  8
COTAS
 62
     7
370
     5
100
AcDbVertex
100
AcDb2dVertex
 10
323.5634765625
 20
535.95654296875
 30
0.0
  0
VERTEX
  5
1D4
330
1D2
100
AcDbEntity
  8
COTAS
 62
     7
370
     5
100
AcDbVertex
100
AcDb2dVertex
 10
323.5634765625
 20
539.232421875
 30
0.0
  0
SEQEND
  5
1D5
330
1D2
100
AcDbEntity
  8
COTAS
370
     5
  0
ENDBLK
  5
1D1
330
1CE
100
AcDbEntity
  8
0
100
AcDbBlockEnd
  0
BLOCK
  5
1D8
330
1D6
100
AcDbEntity
  8
0
100
AcDbBlockBegin
  2
block 70
 70
     0
 71
     0
 10
0.0
 20
0.0
 30
0.0
  3
block 70
  1

  0
POLYLINE
  5
1DA
330
1D6
100
AcDbEntity
  8
COTAS
 62
     7
370
     5
100
AcDb2dPolyline
 66
     1
 10
0.0
 20
0.0
 30
0.0
  0
VERTEX
  5
1DB
330
1DA
100
AcDbEntity
  8
COTAS
 62
     7
370
     5
100
AcDbVertex
100
AcDb2dVertex
 10
318.38671875
 20
540.30859375
 30
0.0
  0
VERTEX
  5
1DC
330
1DA
100
AcDbEntity
  8
COTAS
 62
     7
370
     5
100
AcDbVertex
100
AcDb2dVertex
 10
322.1181640625
 20
540.38818359375
 30
0.0
  0
SEQEND
  5
1DD
330
1DA
100
AcDbEntity
  8
COTAS
370
     5
  0
ENDBLK
  5
1D9
330
1D6
100
AcDbEntity
  8
0
100
AcDbBlockEnd
  0
BLOCK
  5
1E0
330
1DE
100
AcDbEntity
  8
0
100
AcDbBlockBegin
  2
block 71
 70
     0
 71
     0
 10
0.0
 20
0.0
 30
0.0
  3
block 71
  1

  0
POLYLINE
  5
1E2
330
1DE
100
AcDbEntity
  8
COTAS
 62
     7
370
     5
100
AcDb2dPolyline
 66
     1
 10
0.0
 20
0.0
 30
0.0
  0
VERTEX
  5
1E3
330
1E2
100
AcDbEntity
  8
COTAS
 62
     7
370
     5
100
AcDbVertex
100
AcDb2dVertex
 10
318.3408203125
 20
540.5966796875
 30
0.0
  0
VERTEX
  5
1E4
330
1E2
100
AcDbEntity
  8
COTAS
 62
     7
370
     5
100
AcDbVertex
100
AcDb2dVertex
 10
322.1181640625
 20
540.67724609375
 30
0.0
  0
SEQEND
  5
1E5
330
1E2
100
AcDbEntity
  8
COTAS
370
     5
  0
ENDBLK
  5
1E1
330
1DE
100
AcDbEntity
  8
0
100
AcDbBlockEnd
  0
BLOCK
  5
1E8
330
1E6
100
AcDbEntity
  8
0
100
AcDbBlockBegin
  2
block 72
 70
     0
 71
     0
 10
0.0
 20
0.0
 30
0.0
  3
block 72
  1

  0
POLYLINE
  5
1EA
330
1E6
100
AcDbEntity
  8
COTAS
 62
     7
370
     5
100
AcDb2dPolyline
 66
     1
 10
0.0
 20
0.0
 30
0.0
  0
VERTEX
  5
1EB
330
1EA
100
AcDbEntity
  8
COTAS
 62
     7
370
     5
100
AcDbVertex
100
AcDb2dVertex
 10
322.1181640625
 20
540.67724609375
 30
0.0
  0
VERTEX
  5
1EC
330
1EA
100
AcDbEntity
  8
COTAS
 62
     7
370
     5
100
AcDbVertex
100
AcDb2dVertex
 10
179.04345703125
 20
540.67724609375
 30
0.0
  0
SEQEND
  5
1ED
330
1EA
100
AcDbEntity
  8
COTAS
370
     5
  0
ENDBLK
  5
1E9
330
1E6
100
AcDbEntity
  8
0
100
AcDbBlockEnd
  0
BLOCK
  5
1F0
330
1EE
100
AcDbEntity
  8
0
100
AcDbBlockBegin
  2
block 73
 70
     0
 71
     0
 10
0.0
 20
0.0
 30
0.0
  3
block 73
  1

  0
POLYLINE
  5
1F2
330
1EE
100
AcDbEntity
  8
COTAS
 62
     7
370
     5
100
AcDb2dPolyline
 66
     1
 10
0.0
 20
0.0
 30
0.0
  0
VERTEX
  5
1F3
330
1F2
100
AcDbEntity
  8
COTAS
 62
     7
370
     5
100
AcDbVertex
100
AcDb2dVertex
 10
179.04345703125
 20
540.67724609375
 30
0.0
  0
VERTEX
  5
1F4
330
1F2
100
AcDbEntity
  8
COTAS
 62
     7
370
     5
100
AcDbVertex
100
AcDb2dVertex
 10
35.96875
 20
540.67724609375
 30
0.0
  0
SEQEND
  5
1F5
330
1F2
100
AcDbEntity
  8
COTAS
370
     5
  0
ENDBLK
  5
1F1
330
1EE
100
AcDbEntity
  8
0
100
AcDbBlockEnd
  0
BLOCK
  5
1F8
330
1F6
100
AcDbEntity
  8
0
100
AcDbBlockBegin
  2
block 74
 70
     0
 71
     0
 10
0.0
 20
0.0
 30
0.0
  3
block 74
  1

  0
SPLINE
  5
1FA
330
1F6
100
AcDbEntity
  8
COTAS
 62
     7
370
     5
100
AcDbSpline
210
0.0
220
0.0
230
1.0
 70
     8
 71
     3
 72
     8
 73
     4
 74
     0
 42
0.0000000001
 43
0.0000000001
 40
0.0
 40
0.0
 40
0.0
 40
0.0
 40
1.0
 40
1.0
 40
1.0
 40
1.0
 10
278.3955078125
 20
480.07861328125
 30
0.0
 10
273.794921875
 20
472.1943359375
 30
0.0
 10
262.54150390625
 20
465.302734375
 30
0.0
 10
253.42724609375
 20
464.78759765625
 30
0.0
  0
ENDBLK
  5
1F9
330
1F6
100
AcDbEntity
  8
0
100
AcDbBlockEnd
  0
BLOCK
  5
1FD
330
1FB
100
AcDbEntity
  8
0
100
AcDbBlockBegin
  2
block 75
 70
     0
 71
     0
 10
0.0
 20
0.0
 30
0.0
  3
block 75
  1

  0
SPLINE
  5
1FF
330
1FB
100
AcDbEntity
  8
COTAS
 62
     7
370
     5
100
AcDbSpline
210
0.0
220
0.0
230
1.0
 70
     8
 71
     3
 72
     8
 73
     4
 74
     0
 42
0.0000000001
 43
0.0000000001
 40
0.0
 40
0.0
 40
0.0
 40
0.0
 40
1.0
 40
1.0
 40
1.0
 40
1.0
 10
278.63623046875
 20
479.91845703125
 30
0.0
 10
273.994140625
 20
471.96435546875
 30
0.0
 10
262.640625
 20
465.0146484375
 30
0.0
 10
253.4453125
 20
464.4990234375
 30
0.0
  0
ENDBLK
  5
1FE
330
1FB
100
AcDbEntity
  8
0
100
AcDbBlockEnd
  0
BLOCK
  5
202
330
200
100
AcDbEntity
  8
0
100
AcDbBlockBegin
  2
block 76
 70
     0
 71
     0
 10
0.0
 20
0.0
 30
0.0
  3
block 76
  1

  0
SPLINE
  5
204
330
200
100
AcDbEntity
  8
COTAS
 62
     7
370
     5
100
AcDbSpline
210
0.0
220
0.0
230
1.0
 70
     8
 71
     3
 72
     8
 73
     4
 74
     0
 42
0.0000000001
 43
0.0000000001
 40
0.0
 40
0.0
 40
0.0
 40
0.0
 40
1.0
 40
1.0
 40
1.0
 40
1.0
 10
308.447265625
 20
533.751953125
 30
0.0
 10
309.9423828125
 20
537.4814453125
 30
0.0
 10
314.369140625
 20
540.40185546875
 30
0.0
 10
318.38671875
 20
540.30859375
 30
0.0
  0
ENDBLK
  5
203
330
200
100
AcDbEntity
  8
0
100
AcDbBlockEnd
  0
BLOCK
  5
207
330
205
100
AcDbEntity
  8
0
100
AcDbBlockBegin
  2
block 77
 70
     0
 71
     0
 10
0.0
 20
0.0
 30
0.0
  3
block 77
  1

  0
SPLINE
  5
209
330
205
100
AcDbEntity
  8
COTAS
 62
     7
370
     5
100
AcDbSpline
210
0.0
220
0.0
230
1.0
 70
     8
 71
     3
 72
     8
 73
     4
 74
     0
 42
0.0000000001
 43
0.0000000001
 40
0.0
 40
0.0
 40
0.0
 40
0.0
 40
1.0
 40
1.0
 40
1.0
 40
1.0
 10
308.18359375
 20
533.87158203125
 30
0.0
 10
309.7109375
 20
537.68310546875
 30
0.0
 10
314.2353515625
 20
540.67919921875
 30
0.0
 10
318.3408203125
 20
540.5966796875
 30
0.0
  0
ENDBLK
  5
208
330
205
100
AcDbEntity
  8
0
100
AcDbBlockEnd
  0
BLOCK
  5
20C
330
20A
100
AcDbEntity
  8
0
100
AcDbBlockBegin
  2
block 78
 70
     0
 71
     0
 10
0.0
 20
0.0
 30
0.0
  3
block 78
  1

  0
SPLINE
  5
20E
330
20A
100
AcDbEntity
  8
COTAS
 62
     7
370
     5
100
AcDbSpline
210
0.0
220
0.0
230
1.0
 70
     8
 71
     3
 72
     8
 73
     4
 74
     0
 42
0.0000000001
 43
0.0000000001
 40
0.0
 40
0.0
 40
0.0
 40
0.0
 40
1.0
 40
1.0
 40
1.0
 40
1.0
 10
308.18359375
 20
533.87158203125
 30
0.0
 10
301.9833984375
 20
519.29296875
 30
0.0
 10
287.46240234375
 20
493.06982421875
 30
0.0
 10
278.3955078125
 20
480.07861328125
 30
0.0
  0
ENDBLK
  5
20D
330
20A
100
AcDbEntity
  8
0
100
AcDbBlockEnd
  0
BLOCK
  5
211
330
20F
100
AcDbEntity
  8
0
100
AcDbBlockBegin
  2
block 79
 70
     0
 71
     0
 10
0.0
 20
0.0
 30
0.0
  3
block 79
  1

  0
SPLINE
  5
213
330
20F
100
AcDbEntity
  8
COTAS
 62
     7
370
     5
100
AcDbSpline
210
0.0
220
0.0
230
1.0
 70
     8
 71
     3
 72
     8
 73
     4
 74
     0
 42
0.0000000001
 43
0.0000000001
 40
0.0
 40
0.0
 40
0.0
 40
0.0
 40
1.0
 40
1.0
 40
1.0
 40
1.0
 10
308.447265625
 20
533.751953125
 30
0.0
 10
302.24169921875
 20
519.16259765625
 30
0.0
 10
287.70947265625
 20
492.919921875
 30
0.0
 10
278.63623046875
 20
479.91845703125
 30
0.0
  0
ENDBLK
  5
212
330
20F
100
AcDbEntity
  8
0
100
AcDbBlockEnd
  0
BLOCK
  5
216
330
214
100
AcDbEntity
  8
0
100
AcDbBlockBegin
  2
block 80
 70
     0
 71
     0
 10
0.0
 20
0.0
 30
0.0
  3
block 80
  1

  0
SPLINE
  5
218
330
214
100
AcDbEntity
  8
COTAS
 62
     7
370
     5
100
AcDbSpline
210
0.0
220
0.0
230
1.0
 70
     8
 71
     3
 72
     8
 73
     4
 74
     0
 42
0.0000000001
 43
0.0000000001
 40
0.0
 40
0.0
 40
0.0
 40
0.0
 40
1.0
 40
1.0
 40
1.0
 40
1.0
 10
59.212890625
 20
484.56201171875
 30
0.0
 10
57.72509765625
 20
495.3564453125
 30
0.0
 10
56.3740234375
 20
516.29248046875
 30
0.0
 10
56.46240234375
 20
527.18896484375
 30
0.0
  0
ENDBLK
  5
217
330
214
100
AcDbEntity
  8
0
100
AcDbBlockEnd
  0
BLOCK
  5
21B
330
219
100
AcDbEntity
  8
0
100
AcDbBlockBegin
  2
block 81
 70
     0
 71
     0
 10
0.0
 20
0.0
 30
0.0
  3
block 81
  1

  0
SPLINE
  5
21D
330
219
100
AcDbEntity
  8
COTAS
 62
     7
370
     5
100
AcDbSpline
210
0.0
220
0.0
230
1.0
 70
     8
 71
     3
 72
     8
 73
     4
 74
     0
 42
0.0000000001
 43
0.0000000001
 40
0.0
 40
0.0
 40
0.0
 40
0.0
 40
1.0
 40
1.0
 40
1.0
 40
1.0
 10
58.92626953125
 20
484.52734375
 30
0.0
 10
57.43701171875
 20
495.330078125
 30
0.0
 10
56.0849609375
 20
516.28173828125
 30
0.0
 10
56.17333984375
 20
527.18603515625
 30
0.0
  0
ENDBLK
  5
21C
330
219
100
AcDbEntity
  8
0
100
AcDbBlockEnd
  0
BLOCK
  5
220
330
21E
100
AcDbEntity
  8
0
100
AcDbBlockBegin
  2
block 82
 70
     0
 71
     0
 10
0.0
 20
0.0
 30
0.0
  3
block 82
  1

  0
SPLINE
  5
222
330
21E
100
AcDbEntity
  8
COTAS
 62
     7
370
     5
100
AcDbSpline
210
0.0
220
0.0
230
1.0
 70
     8
 71
     3
 72
     8
 73
     4
 74
     0
 42
0.0000000001
 43
0.0000000001
 40
0.0
 40
0.0
 40
0.0
 40
0.0
 40
1.0
 40
1.0
 40
1.0
 40
1.0
 10
85.2548828125
 20
462.24560546875
 30
0.0
 10
72.1298828125
 20
461.52099609375
 30
0.0
 10
60.38134765625
 20
471.462890625
 30
0.0
 10
58.92626953125
 20
484.52734375
 30
0.0
  0
ENDBLK
  5
221
330
21E
100
AcDbEntity
  8
0
100
AcDbBlockEnd
  0
BLOCK
  5
225
330
223
100
AcDbEntity
  8
0
100
AcDbBlockBegin
  2
block 83
 70
     0
 71
     0
 10
0.0
 20
0.0
 30
0.0
  3
block 83
  1

  0
SPLINE
  5
227
330
223
100
AcDbEntity
  8
COTAS
 62
     7
370
     5
100
AcDbSpline
210
0.0
220
0.0
230
1.0
 70
     8
 71
     3
 72
     8
 73
     4
 74
     0
 42
0.0000000001
 43
0.0000000001
 40
0.0
 40
0.0
 40
0.0
 40
0.0
 40
1.0
 40
1.0
 40
1.0
 40
1.0
 10
85.25341796875
 20
462.53515625
 30
0.0
 10
72.2734375
 20
461.8125
 30
0.0
 10
60.6533203125
 20
471.6416015625
 30
0.0
 10
59.212890625
 20
484.56201171875
 30
0.0
  0
ENDBLK
  5
226
330
223
100
AcDbEntity
  8
0
100
AcDbBlockEnd
  0
BLOCK
  5
22A
330
228
100
AcDbEntity
  8
0
100
AcDbBlockBegin
  2
block 84
 70
     0
 71
     0
 10
0.0
 20
0.0
 30
0.0
  3
block 84
  1

  0
POLYLINE
  5
22C
330
228
100
AcDbEntity
  8
COTAS
 62
     7
370
     5
100
AcDb2dPolyline
 66
     1
 10
0.0
 20
0.0
 30
0.0
  0
VERTEX
  5
22D
330
22C
100
AcDbEntity
  8
COTAS
 62
     7
370
     5
100
AcDbVertex
100
AcDb2dVertex
 10
56.46240234375
 20
527.18896484375
 30
0.0
  0
VERTEX
  5
22E
330
22C
100
AcDbEntity
  8
COTAS
 62
     7
370
     5
100
AcDbVertex
100
AcDb2dVertex
 10
56.0966796875
 20
534.7041015625
 30
0.0
  0
SEQEND
  5
22F
330
22C
100
AcDbEntity
  8
COTAS
370
     5
  0
ENDBLK
  5
22B
330
228
100
AcDbEntity
  8
0
100
AcDbBlockEnd
  0
BLOCK
  5
232
330
230
100
AcDbEntity
  8
0
100
AcDbBlockBegin
  2
block 85
 70
     0
 71
     0
 10
0.0
 20
0.0
 30
0.0
  3
block 85
  1

  0
POLYLINE
  5
234
330
230
100
AcDbEntity
  8
COTAS
 62
     7
370
     5
100
AcDb2dPolyline
 66
     1
 10
0.0
 20
0.0
 30
0.0
  0
VERTEX
  5
235
330
234
100
AcDbEntity
  8
COTAS
 62
     7
370
     5
100
AcDbVertex
100
AcDb2dVertex
 10
56.17333984375
 20
527.17529296875
 30
0.0
  0
VERTEX
  5
236
330
234
100
AcDbEntity
  8
COTAS
 62
     7
370
     5
100
AcDbVertex
100
AcDb2dVertex
 10
55.8076171875
 20
534.68994140625
 30
0.0
  0
SEQEND
  5
237
330
234
100
AcDbEntity
  8
COTAS
370
     5
  0
ENDBLK
  5
233
330
230
100
AcDbEntity
  8
0
100
AcDbBlockEnd
  0
BLOCK
  5
23A
330
238
100
AcDbEntity
  8
0
100
AcDbBlockBegin
  2
block 86
 70
     0
 71
     0
 10
0.0
 20
0.0
 30
0.0
  3
block 86
  1

  0
POLYLINE
  5
23C
330
238
100
AcDbEntity
  8
COTAS
 62
     7
370
     5
100
AcDb2dPolyline
 66
     1
 10
0.0
 20
0.0
 30
0.0
  0
VERTEX
  5
23D
330
23C
100
AcDbEntity
  8
COTAS
 62
     7
370
     5
100
AcDbVertex
100
AcDb2dVertex
 10
89.24853515625
 20
460.7099609375
 30
0.0
  0
VERTEX
  5
23E
330
23C
100
AcDbEntity
  8
COTAS
 62
     7
370
     5
100
AcDbVertex
100
AcDb2dVertex
 10
89.24072265625
 20
460.7099609375
 30
0.0
  0
SEQEND
  5
23F
330
23C
100
AcDbEntity
  8
COTAS
370
     5
  0
ENDBLK
  5
23B
330
238
100
AcDbEntity
  8
0
100
AcDbBlockEnd
  0
BLOCK
  5
242
330
240
100
AcDbEntity
  8
0
100
AcDbBlockBegin
  2
block 87
 70
     0
 71
     0
 10
0.0
 20
0.0
 30
0.0
  3
block 87
  1

  0
SPLINE
  5
244
330
240
100
AcDbEntity
  8
COTAS
 62
     7
370
     5
100
AcDbSpline
210
0.0
220
0.0
230
1.0
 70
     8
 71
     3
 72
     8
 73
     4
 74
     0
 42
0.0000000001
 43
0.0000000001
 40
0.0
 40
0.0
 40
0.0
 40
0.0
 40
1.0
 40
1.0
 40
1.0
 40
1.0
 10
85.25341796875
 20
462.53515625
 30
0.0
 10
86.28955078125
 20
462.5625
 30
0.0
 10
87.7294921875
 20
461.94091796875
 30
0.0
 10
88.419921875
 20
461.16845703125
 30
0.0
  0
ENDBLK
  5
243
330
240
100
AcDbEntity
  8
0
100
AcDbBlockEnd
  0
BLOCK
  5
247
330
245
100
AcDbEntity
  8
0
100
AcDbBlockBegin
  2
block 88
 70
     0
 71
     0
 10
0.0
 20
0.0
 30
0.0
  3
block 88
  1

  0
SPLINE
  5
249
330
245
100
AcDbEntity
  8
COTAS
 62
     7
370
     5
100
AcDbSpline
210
0.0
220
0.0
230
1.0
 70
     8
 71
     3
 72
     8
 73
     4
 74
     0
 42
0.0000000001
 43
0.0000000001
 40
0.0
 40
0.0
 40
0.0
 40
0.0
 40
1.0
 40
1.0
 40
1.0
 40
1.0
 10
85.244140625
 20
462.24609375
 30
0.0
 10
86.21630859375
 20
462.27197265625
 30
0.0
 10
87.568359375
 20
461.68798828125
 30
0.0
 10
88.21630859375
 20
460.96337890625
 30
0.0
  0
ENDBLK
  5
248
330
245
100
AcDbEntity
  8
0
100
AcDbBlockEnd
  0
BLOCK
  5
24C
330
24A
100
AcDbEntity
  8
0
100
AcDbBlockBegin
  2
block 89
 70
     0
 71
     0
 10
0.0
 20
0.0
 30
0.0
  3
block 89
  1

  0
SPLINE
  5
24E
330
24A
100
AcDbEntity
  8
COTAS
 62
     7
370
     5
100
AcDbSpline
210
0.0
220
0.0
230
1.0
 70
     8
 71
     3
 72
     8
 73
     4
 74
     0
 42
0.0000000001
 43
0.0000000001
 40
0.0
 40
0.0
 40
0.0
 40
0.0
 40
1.0
 40
1.0
 40
1.0
 40
1.0
 10
89.24072265625
 20
460.7099609375
 30
0.0
 10
88.93408203125
 20
460.6943359375
 30
0.0
 10
88.5673828125
 20
460.8994140625
 30
0.0
 10
88.419921875
 20
461.16845703125
 30
0.0
  0
ENDBLK
  5
24D
330
24A
100
AcDbEntity
  8
0
100
AcDbBlockEnd
  0
BLOCK
  5
251
330
24F
100
AcDbEntity
  8
0
100
AcDbBlockBegin
  2
block 90
 70
     0
 71
     0
 10
0.0
 20
0.0
 30
0.0
  3
block 90
  1

  0
SPLINE
  5
253
330
24F
100
AcDbEntity
  8
COTAS
 62
     7
370
     5
100
AcDbSpline
210
0.0
220
0.0
230
1.0
 70
     8
 71
     3
 72
     8
 73
     4
 74
     0
 42
0.0000000001
 43
0.0000000001
 40
0.0
 40
0.0
 40
0.0
 40
0.0
 40
1.0
 40
1.0
 40
1.0
 40
1.0
 10
89.24072265625
 20
460.4208984375
 30
0.0
 10
88.84228515625
 20
460.400390625
 30
0.0
 10
88.365234375
 20
460.6669921875
 30
0.0
 10
88.17431640625
 20
461.0166015625
 30
0.0
  0
ENDBLK
  5
252
330
24F
100
AcDbEntity
  8
0
100
AcDbBlockEnd
  0
BLOCK
  5
256
330
254
100
AcDbEntity
  8
0
100
AcDbBlockBegin
  2
block 91
 70
     0
 71
     0
 10
0.0
 20
0.0
 30
0.0
  3
block 91
  1

  0
SPLINE
  5
258
330
254
100
AcDbEntity
  8
COTAS
 62
     7
370
     5
100
AcDbSpline
210
0.0
220
0.0
230
1.0
 70
     8
 71
     3
 72
     8
 73
     4
 74
     0
 42
0.0000000001
 43
0.0000000001
 40
0.0
 40
0.0
 40
0.0
 40
0.0
 40
1.0
 40
1.0
 40
1.0
 40
1.0
 10
100.09716796875
 20
461.16845703125
 30
0.0
 10
100.8466796875
 20
461.93505859375
 30
0.0
 10
102.39892578125
 20
462.64892578125
 30
0.0
 10
103.46923828125
 20
462.71875
 30
0.0
  0
ENDBLK
  5
257
330
254
100
AcDbEntity
  8
0
100
AcDbBlockEnd
  0
BLOCK
  5
25B
330
259
100
AcDbEntity
  8
0
100
AcDbBlockBegin
  2
block 92
 70
     0
 71
     0
 10
0.0
 20
0.0
 30
0.0
  3
block 92
  1

  0
SPLINE
  5
25D
330
259
100
AcDbEntity
  8
COTAS
 62
     7
370
     5
100
AcDbSpline
210
0.0
220
0.0
230
1.0
 70
     8
 71
     3
 72
     8
 73
     4
 74
     0
 42
0.0000000001
 43
0.0000000001
 40
0.0
 40
0.0
 40
0.0
 40
0.0
 40
1.0
 40
1.0
 40
1.0
 40
1.0
 10
100.31982421875
 20
460.98046875
 30
0.0
 10
101.02490234375
 20
461.69091796875
 30
0.0
 10
102.48095703125
 20
462.35888671875
 30
0.0
 10
103.478515625
 20
462.43017578125
 30
0.0
  0
ENDBLK
  5
25C
330
259
100
AcDbEntity
  8
0
100
AcDbBlockEnd
  0
BLOCK
  5
260
330
25E
100
AcDbEntity
  8
0
100
AcDbBlockBegin
  2
block 93
 70
     0
 71
     0
 10
0.0
 20
0.0
 30
0.0
  3
block 93
  1

  0
SPLINE
  5
262
330
25E
100
AcDbEntity
  8
COTAS
 62
     7
370
     5
100
AcDbSpline
210
0.0
220
0.0
230
1.0
 70
     8
 71
     3
 72
     8
 73
     4
 74
     0
 42
0.0000000001
 43
0.0000000001
 40
0.0
 40
0.0
 40
0.0
 40
0.0
 40
1.0
 40
1.0
 40
1.0
 40
1.0
 10
100.09716796875
 20
461.16845703125
 30
0.0
 10
99.94921875
 20
460.8994140625
 30
0.0
 10
99.58251953125
 20
460.6943359375
 30
0.0
 10
99.2763671875
 20
460.7099609375
 30
0.0
  0
ENDBLK
  5
261
330
25E
100
AcDbEntity
  8
0
100
AcDbBlockEnd
  0
BLOCK
  5
265
330
263
100
AcDbEntity
  8
0
100
AcDbBlockBegin
  2
block 94
 70
     0
 71
     0
 10
0.0
 20
0.0
 30
0.0
  3
block 94
  1

  0
SPLINE
  5
267
330
263
100
AcDbEntity
  8
COTAS
 62
     7
370
     5
100
AcDbSpline
210
0.0
220
0.0
230
1.0
 70
     8
 71
     3
 72
     8
 73
     4
 74
     0
 42
0.0000000001
 43
0.0000000001
 40
0.0
 40
0.0
 40
0.0
 40
0.0
 40
1.0
 40
1.0
 40
1.0
 40
1.0
 10
100.31982421875
 20
460.98046875
 30
0.0
 10
100.12548828125
 20
460.6513671875
 30
0.0
 10
99.658203125
 20
460.400390625
 30
0.0
 10
99.2763671875
 20
460.4208984375
 30
0.0
  0
ENDBLK
  5
266
330
263
100
AcDbEntity
  8
0
100
AcDbBlockEnd
  0
BLOCK
  5
26A
330
268
100
AcDbEntity
  8
0
100
AcDbBlockBegin
  2
block 95
 70
     0
 71
     0
 10
0.0
 20
0.0
 30
0.0
  3
block 95
  1

  0
INSERT
  5
26D
330
268
100
AcDbEntity
  8
COTAS
100
AcDbBlockReference
  2
block 96
 10
0.0
 20
0.0
 30
0.0
  0
INSERT
  5
275
330
268
100
AcDbEntity
  8
COTAS
100
AcDbBlockReference
  2
block 97
 10
0.0
 20
0.0
 30
0.0
  0
INSERT
  5
27D
330
268
100
AcDbEntity
  8
COTAS
100
AcDbBlockReference
  2
block 98
 10
0.0
 20
0.0
 30
0.0
  0
INSERT
  5
285
330
268
100
AcDbEntity
  8
COTAS
100
AcDbBlockReference
  2
block 99
 10
0.0
 20
0.0
 30
0.0
  0
INSERT
  5
28D
330
268
100
AcDbEntity
  8
COTAS
100
AcDbBlockReference
  2
block 100
 10
0.0
 20
0.0
 30
0.0
  0
INSERT
  5
295
330
268
100
AcDbEntity
  8
COTAS
100
AcDbBlockReference
  2
block 101
 10
0.0
 20
0.0
 30
0.0
  0
INSERT
  5
29D
330
268
100
AcDbEntity
  8
COTAS
100
AcDbBlockReference
  2
block 102
 10
0.0
 20
0.0
 30
0.0
  0
INSERT
  5
2A8
330
268
100
AcDbEntity
  8
COTAS
100
AcDbBlockReference
  2
block 103
 10
0.0
 20
0.0
 30
0.0
  0
INSERT
  5
2B3
330
268
100
AcDbEntity
  8
COTAS
100
AcDbBlockReference
  2
block 104
 10
0.0
 20
0.0
 30
0.0
  0
INSERT
  5
2B8
330
268
100
AcDbEntity
  8
COTAS
100
AcDbBlockReference
  2
block 105
 10
0.0
 20
0.0
 30
0.0
  0
INSERT
  5
2C0
330
268
100
AcDbEntity
  8
COTAS
100
AcDbBlockReference
  2
block 106
 10
0.0
 20
0.0
 30
0.0
  0
INSERT
  5
2C8
330
268
100
AcDbEntity
  8
COTAS
100
AcDbBlockReference
  2
block 107
 10
0.0
 20
0.0
 30
0.0
  0
ENDBLK
  5
26B
330
268
100
AcDbEntity
  8
0
100
AcDbBlockEnd
  0
BLOCK
  5
26E
330
26C
100
AcDbEntity
  8
0
100
AcDbBlockBegin
  2
block 96
 70
     0
 71
     0
 10
0.0
 20
0.0
 30
0.0
  3
block 96
  1

  0
POLYLINE
  5
270
330
26C
100
AcDbEntity
  8
COTAS
 62
     7
370
     5
100
AcDb2dPolyline
 66
     1
 10
0.0
 20
0.0
 30
0.0
  0
VERTEX
  5
271
330
270
100
AcDbEntity
  8
COTAS
 62
     7
370
     5
100
AcDbVertex
100
AcDb2dVertex
 10
530.2744140625
 20
527.18896484375
 30
0.0
  0
VERTEX
  5
272
330
270
100
AcDbEntity
  8
COTAS
 62
     7
370
     5
100
AcDbVertex
100
AcDb2dVertex
 10
573.68359375
 20
527.18896484375
 30
0.0
  0
SEQEND
  5
273
330
270
100
AcDbEntity
  8
COTAS
370
     5
  0
ENDBLK
  5
26F
330
26C
100
AcDbEntity
  8
0
100
AcDbBlockEnd
  0
BLOCK
  5
276
330
274
100
AcDbEntity
  8
0
100
AcDbBlockBegin
  2
block 97
 70
     0
 71
     0
 10
0.0
 20
0.0
 30
0.0
  3
block 97
  1

  0
POLYLINE
  5
278
330
274
100
AcDbEntity
  8
COTAS
 62
     7
370
     5
100
AcDb2dPolyline
 66
     1
 10
0.0
 20
0.0
 30
0.0
  0
VERTEX
  5
279
330
278
100
AcDbEntity
  8
COTAS
 62
     7
370
     5
100
AcDbVertex
100
AcDb2dVertex
 10
542.658203125
 20
540.67724609375
 30
0.0
  0
VERTEX
  5
27A
330
278
100
AcDbEntity
  8
COTAS
 62
     7
370
     5
100
AcDbVertex
100
AcDb2dVertex
 10
573.68359375
 20
540.67724609375
 30
0.0
  0
SEQEND
  5
27B
330
278
100
AcDbEntity
  8
COTAS
370
     5
  0
ENDBLK
  5
277
330
274
100
AcDbEntity
  8
0
100
AcDbBlockEnd
  0
BLOCK
  5
27E
330
27C
100
AcDbEntity
  8
0
100
AcDbBlockBegin
  2
block 98
 70
     0
 71
     0
 10
0.0
 20
0.0
 30
0.0
  3
block 98
  1

  0
POLYLINE
  5
280
330
27C
100
AcDbEntity
  8
COTAS
 62
     7
370
     5
100
AcDb2dPolyline
 66
     1
 10
0.0
 20
0.0
 30
0.0
  0
VERTEX
  5
281
330
280
100
AcDbEntity
  8
COTAS
 62
     7
370
     5
100
AcDbVertex
100
AcDb2dVertex
 10
568.8662109375
 20
550.3125
 30
0.0
  0
VERTEX
  5
282
330
280
100
AcDbEntity
  8
COTAS
 62
     7
370
     5
100
AcDbVertex
100
AcDb2dVertex
 10
568.8662109375
 20
559.94677734375
 30
0.0
  0
SEQEND
  5
283
330
280
100
AcDbEntity
  8
COTAS
370
     5
  0
ENDBLK
  5
27F
330
27C
100
AcDbEntity
  8
0
100
AcDbBlockEnd
  0
BLOCK
  5
286
330
284
100
AcDbEntity
  8
0
100
AcDbBlockBegin
  2
block 99
 70
     0
 71
     0
 10
0.0
 20
0.0
 30
0.0
  3
block 99
  1

  0
POLYLINE
  5
288
330
284
100
AcDbEntity
  8
COTAS
 62
     7
370
     5
100
AcDb2dPolyline
 66
     1
 10
0.0
 20
0.0
 30
0.0
  0
VERTEX
  5
289
330
288
100
AcDbEntity
  8
COTAS
 62
     7
370
     5
100
AcDbVertex
100
AcDb2dVertex
 10
568.8662109375
 20
517.5546875
 30
0.0
  0
VERTEX
  5
28A
330
288
100
AcDbEntity
  8
COTAS
 62
     7
370
     5
100
AcDbVertex
100
AcDb2dVertex
 10
568.8662109375
 20
498.66650390625
 30
0.0
  0
SEQEND
  5
28B
330
288
100
AcDbEntity
  8
COTAS
370
     5
  0
ENDBLK
  5
287
330
284
100
AcDbEntity
  8
0
100
AcDbBlockEnd
  0
BLOCK
  5
28E
330
28C
100
AcDbEntity
  8
0
100
AcDbBlockBegin
  2
block 100
 70
     0
 71
     0
 10
0.0
 20
0.0
 30
0.0
  3
block 100
  1

  0
POLYLINE
  5
290
330
28C
100
AcDbEntity
  8
COTAS
 62
     7
370
     5
100
AcDb2dPolyline
 66
     1
 10
0.0
 20
0.0
 30
0.0
  0
VERTEX
  5
291
330
290
100
AcDbEntity
  8
COTAS
 62
     7
370
     5
100
AcDbVertex
100
AcDb2dVertex
 10
568.8662109375
 20
498.66650390625
 30
0.0
  0
VERTEX
  5
292
330
290
100
AcDbEntity
  8
COTAS
 62
     7
370
     5
100
AcDbVertex
100
AcDb2dVertex
 10
552.7685546875
 20
498.66650390625
 30
0.0
  0
SEQEND
  5
293
330
290
100
AcDbEntity
  8
COTAS
370
     5
  0
ENDBLK
  5
28F
330
28C
100
AcDbEntity
  8
0
100
AcDbBlockEnd
  0
BLOCK
  5
296
330
294
100
AcDbEntity
  8
0
100
AcDbBlockBegin
  2
block 101
 70
     0
 71
     0
 10
0.0
 20
0.0
 30
0.0
  3
block 101
  1

  0
POLYLINE
  5
298
330
294
100
AcDbEntity
  8
COTAS
 62
     7
370
     5
100
AcDb2dPolyline
 66
     1
 10
0.0
 20
0.0
 30
0.0
  0
VERTEX
  5
299
330
298
100
AcDbEntity
  8
COTAS
 62
     7
370
     5
100
AcDbVertex
100
AcDb2dVertex
 10
568.8662109375
 20
540.67724609375
 30
0.0
  0
VERTEX
  5
29A
330
298
100
AcDbEntity
  8
COTAS
 62
     7
370
     5
100
AcDbVertex
100
AcDb2dVertex
 10
568.8662109375
 20
527.18896484375
 30
0.0
  0
SEQEND
  5
29B
330
298
100
AcDbEntity
  8
COTAS
370
     5
  0
ENDBLK
  5
297
330
294
100
AcDbEntity
  8
0
100
AcDbBlockEnd
  0
BLOCK
  5
29E
330
29C
100
AcDbEntity
  8
0
100
AcDbBlockBegin
  2
block 102
 70
     0
 71
     0
 10
0.0
 20
0.0
 30
0.0
  3
block 102
  1

  0
POLYLINE
  5
2A0
330
29C
100
AcDbEntity
  8
COTAS
370
     0
100
AcDb2dPolyline
 66
     1
 10
0.0
 20
0.0
 30
0.0
  0
VERTEX
  5
2A1
330
2A0
100
AcDbEntity
  8
COTAS
370
     0
100
AcDbVertex
100
AcDb2dVertex
 10
567.2607421875
 20
550.3125
 30
0.0
  0
VERTEX
  5
2A2
330
2A0
100
AcDbEntity
  8
COTAS
370
     0
100
AcDbVertex
100
AcDb2dVertex
 10
570.47265625
 20
550.3125
 30
0.0
  0
VERTEX
  5
2A3
330
2A0
100
AcDbEntity
  8
COTAS
370
     0
100
AcDbVertex
100
AcDb2dVertex
 10
568.8662109375
 20
540.67724609375
 30
0.0
  0
VERTEX
  5
2A4
330
2A0
100
AcDbEntity
  8
COTAS
370
     0
100
AcDbVertex
100
AcDb2dVertex
 10
567.2607421875
 20
550.3125
 30
0.0
  0
SEQEND
  5
2A5
330
2A0
100
AcDbEntity
  8
COTAS
370
     0
  0
HATCH
  5
2A6
330
29C
100
AcDbEntity
  8
COTAS
 62
     7
100
AcDbHatch
 10
0.0
 20
0.0
 30
0.0
210
0.0
220
0.0
230
1.0
  2
SOLID
 70
     1
 71
     0
 91
        1
 92
        1
 93
        3
 72
     1
 10
567.2607421875
 20
550.3125
 11
570.47265625
 21
550.3125
 72
     1
 10
570.47265625
 20
550.3125
 11
568.8662109375
 21
540.67724609375
 72
     1
 10
568.8662109375
 20
540.67724609375
 11
567.2607421875
 21
550.3125
 97
        0
 75
     2
 76
     1
 98
        0
  0
ENDBLK
  5
29F
330
29C
100
AcDbEntity
  8
0
100
AcDbBlockEnd
  0
BLOCK
  5
2A9
330
2A7
100
AcDbEntity
  8
0
100
AcDbBlockBegin
  2
block 103
 70
     0
 71
     0
 10
0.0
 20
0.0
 30
0.0
  3
block 103
  1

  0
POLYLINE
  5
2AB
330
2A7
100
AcDbEntity
  8
COTAS
370
     0
100
AcDb2dPolyline
 66
     1
 10
0.0
 20
0.0
 30
0.0
  0
VERTEX
  5
2AC
330
2AB
100
AcDbEntity
  8
COTAS
370
     0
100
AcDbVertex
100
AcDb2dVertex
 10
567.2607421875
 20
517.5546875
 30
0.0
  0
VERTEX
  5
2AD
330
2AB
100
AcDbEntity
  8
COTAS
370
     0
100
AcDbVertex
100
AcDb2dVertex
 10
570.47265625
 20
517.5546875
 30
0.0
  0
VERTEX
  5
2AE
330
2AB
100
AcDbEntity
  8
COTAS
370
     0
100
AcDbVertex
100
AcDb2dVertex
 10
568.8662109375
 20
527.18896484375
 30
0.0
  0
VERTEX
  5
2AF
330
2AB
100
AcDbEntity
  8
COTAS
370
     0
100
AcDbVertex
100
AcDb2dVertex
 10
567.2607421875
 20
517.5546875
 30
0.0
  0
SEQEND
  5
2B0
330
2AB
100
AcDbEntity
  8
COTAS
370
     0
  0
HATCH
  5
2B1
330
2A7
100
AcDbEntity
  8
COTAS
 62
     7
100
AcDbHatch
 10
0.0
 20
0.0
 30
0.0
210
0.0
220
0.0
230
1.0
  2
SOLID
 70
     1
 71
     0
 91
        1
 92
        1
 93
        3
 72
     1
 10
567.2607421875
 20
517.5546875
 11
570.47265625
 21
517.5546875
 72
     1
 10
570.47265625
 20
517.5546875
 11
568.8662109375
 21
527.18896484375
 72
     1
 10
568.8662109375
 20
527.18896484375
 11
567.2607421875
 21
517.5546875
 97
        0
 75
     2
 76
     1
 98
        0
  0
ENDBLK
  5
2AA
330
2A7
100
AcDbEntity
  8
0
100
AcDbBlockEnd
  0
BLOCK
  5
2B4
330
2B2
100
AcDbEntity
  8
0
100
AcDbBlockBegin
  2
block 104
 70
     0
 71
     0
 10
0.0
 20
0.0
 30
0.0
  3
block 104
  1

  0
MTEXT
  5
2B6
330
2B2
100
AcDbEntity
  8
COTAS
 62
     7
100
AcDbMText
 10
552.1416015625
 20
501.2392578125
 30
0.0
 40
6.800000000000001
 41
0.0
 71
     7
 72
     1
  1
\fArial|b1|i0|c0|p34;\W1;70
 73
     1
 44
1.0
  0
ENDBLK
  5
2B5
330
2B2
100
AcDbEntity
  8
0
100
AcDbBlockEnd
  0
BLOCK
  5
2B9
330
2B7
100
AcDbEntity
  8
0
100
AcDbBlockBegin
  2
block 105
 70
     0
 71
     0
 10
0.0
 20
0.0
 30
0.0
  3
block 105
  1

  0
POLYLINE
  5
2BB
330
2B7
100
AcDbEntity
  8
COTAS
370
     0
100
AcDb2dPolyline
 66
     1
 10
0.0
 20
0.0
 30
0.0
  0
VERTEX
  5
2BC
330
2BB
100
AcDbEntity
  8
COTAS
370
     0
100
AcDbVertex
100
AcDb2dVertex
 10
527.865234375
 20
527.18896484375
 30
0.0
  0
VERTEX
  5
2BD
330
2BB
100
AcDbEntity
  8
COTAS
370
     0
100
AcDbVertex
100
AcDb2dVertex
 10
527.865234375
 20
527.18896484375
 30
0.0
  0
SEQEND
  5
2BE
330
2BB
100
AcDbEntity
  8
COTAS
370
     0
  0
ENDBLK
  5
2BA
330
2B7
100
AcDbEntity
  8
0
100
AcDbBlockEnd
  0
BLOCK
  5
2C1
330
2BF
100
AcDbEntity
  8
0
100
AcDbBlockBegin
  2
block 106
 70
     0
 71
     0
 10
0.0
 20
0.0
 30
0.0
  3
block 106
  1

  0
POLYLINE
  5
2C3
330
2BF
100
AcDbEntity
  8
COTAS
370
     0
100
AcDb2dPolyline
 66
     1
 10
0.0
 20
0.0
 30
0.0
  0
VERTEX
  5
2C4
330
2C3
100
AcDbEntity
  8
COTAS
370
     0
100
AcDbVertex
100
AcDb2dVertex
 10
540.2490234375
 20
540.67724609375
 30
0.0
  0
VERTEX
  5
2C5
330
2C3
100
AcDbEntity
  8
COTAS
370
     0
100
AcDbVertex
100
AcDb2dVertex
 10
540.2490234375
 20
540.67724609375
 30
0.0
  0
SEQEND
  5
2C6
330
2C3
100
AcDbEntity
  8
COTAS
370
     0
  0
ENDBLK
  5
2C2
330
2BF
100
AcDbEntity
  8
0
100
AcDbBlockEnd
  0
BLOCK
  5
2C9
330
2C7
100
AcDbEntity
  8
0
100
AcDbBlockBegin
  2
block 107
 70
     0
 71
     0
 10
0.0
 20
0.0
 30
0.0
  3
block 107
  1

  0
POLYLINE
  5
2CB
330
2C7
100
AcDbEntity
  8
COTAS
370
     0
100
AcDb2dPolyline
 66
     1
 10
0.0
 20
0.0
 30
0.0
  0
VERTEX
  5
2CC
330
2CB
100
AcDbEntity
  8
COTAS
370
     0
100
AcDbVertex
100
AcDb2dVertex
 10
568.8662109375
 20
540.67724609375
 30
0.0
  0
VERTEX
  5
2CD
330
2CB
100
AcDbEntity
  8
COTAS
370
     0
100
AcDbVertex
100
AcDb2dVertex
 10
568.8662109375
 20
540.67724609375
 30
0.0
  0
SEQEND
  5
2CE
330
2CB
100
AcDbEntity
  8
COTAS
370
     0
  0
ENDBLK
  5
2CA
330
2C7
100
AcDbEntity
  8
0
100
AcDbBlockEnd
  0
BLOCK
  5
2D1
330
2CF
100
AcDbEntity
  8
0
100
AcDbBlockBegin
  2
block 108
 70
     0
 71
     0
 10
0.0
 20
0.0
 30
0.0
  3
block 108
  1

  0
INSERT
  5
2D4
330
2CF
100
AcDbEntity
  8
COTAS
100
AcDbBlockReference
  2
block 109
 10
0.0
 20
0.0
 30
0.0
  0
INSERT
  5
2DC
330
2CF
100
AcDbEntity
  8
COTAS
100
AcDbBlockReference
  2
block 110
 10
0.0
 20
0.0
 30
0.0
  0
INSERT
  5
2E4
330
2CF
100
AcDbEntity
  8
COTAS
100
AcDbBlockReference
  2
block 111
 10
0.0
 20
0.0
 30
0.0
  0
INSERT
  5
2EC
330
2CF
100
AcDbEntity
  8
COTAS
100
AcDbBlockReference
  2
block 112
 10
0.0
 20
0.0
 30
0.0
  0
INSERT
  5
2F1
330
2CF
100
AcDbEntity
  8
COTAS
100
AcDbBlockReference
  2
block 113
 10
0.0
 20
0.0
 30
0.0
  0
INSERT
  5
2F9
330
2CF
100
AcDbEntity
  8
COTAS
100
AcDbBlockReference
  2
block 114
 10
0.0
 20
0.0
 30
0.0
  0
INSERT
  5
304
330
2CF
100
AcDbEntity
  8
COTAS
100
AcDbBlockReference
  2
block 115
 10
0.0
 20
0.0
 30
0.0
  0
INSERT
  5
30F
330
2CF
100
AcDbEntity
  8
COTAS
100
AcDbBlockReference
  2
block 116
 10
0.0
 20
0.0
 30
0.0
  0
INSERT
  5
317
330
2CF
100
AcDbEntity
  8
COTAS
100
AcDbBlockReference
  2
block 117
 10
0.0
 20
0.0
 30
0.0
  0
ENDBLK
  5
2D2
330
2CF
100
AcDbEntity
  8
0
100
AcDbBlockEnd
  0
BLOCK
  5
2D5
330
2D3
100
AcDbEntity
  8
0
100
AcDbBlockBegin
  2
block 109
 70
     0
 71
     0
 10
0.0
 20
0.0
 30
0.0
  3
block 109
  1

  0
POLYLINE
  5
2D7
330
2D3
100
AcDbEntity
  8
COTAS
 62
     7
370
     5
100
AcDb2dPolyline
 66
     1
 10
0.0
 20
0.0
 30
0.0
  0
VERTEX
  5
2D8
330
2D7
100
AcDbEntity
  8
COTAS
 62
     7
370
     5
100
AcDbVertex
100
AcDb2dVertex
 10
454.689453125
 20
504.01123046875
 30
0.0
  0
VERTEX
  5
2D9
330
2D7
100
AcDbEntity
  8
COTAS
 62
     7
370
     5
100
AcDbVertex
100
AcDb2dVertex
 10
464.32421875
 20
504.01123046875
 30
0.0
  0
SEQEND
  5
2DA
330
2D7
100
AcDbEntity
  8
COTAS
370
     5
  0
ENDBLK
  5
2D6
330
2D3
100
AcDbEntity
  8
0
100
AcDbBlockEnd
  0
BLOCK
  5
2DD
330
2DB
100
AcDbEntity
  8
0
100
AcDbBlockBegin
  2
block 110
 70
     0
 71
     0
 10
0.0
 20
0.0
 30
0.0
  3
block 110
  1

  0
POLYLINE
  5
2DF
330
2DB
100
AcDbEntity
  8
COTAS
 62
     7
370
     5
100
AcDb2dPolyline
 66
     1
 10
0.0
 20
0.0
 30
0.0
  0
VERTEX
  5
2E0
330
2DF
100
AcDbEntity
  8
COTAS
 62
     7
370
     5
100
AcDbVertex
100
AcDb2dVertex
 10
464.32421875
 20
504.01123046875
 30
0.0
  0
VERTEX
  5
2E1
330
2DF
100
AcDbEntity
  8
COTAS
 62
     7
370
     5
100
AcDbVertex
100
AcDb2dVertex
 10
468.33984375
 20
513.6669921875
 30
0.0
  0
SEQEND
  5
2E2
330
2DF
100
AcDbEntity
  8
COTAS
370
     5
  0
ENDBLK
  5
2DE
330
2DB
100
AcDbEntity
  8
0
100
AcDbBlockEnd
  0
BLOCK
  5
2E5
330
2E3
100
AcDbEntity
  8
0
100
AcDbBlockBegin
  2
block 111
 70
     0
 71
     0
 10
0.0
 20
0.0
 30
0.0
  3
block 111
  1

  0
POLYLINE
  5
2E7
330
2E3
100
AcDbEntity
  8
COTAS
 62
     7
370
     5
100
AcDb2dPolyline
 66
     1
 10
0.0
 20
0.0
 30
0.0
  0
VERTEX
  5
2E8
330
2E7
100
AcDbEntity
  8
COTAS
 62
     7
370
     5
100
AcDbVertex
100
AcDb2dVertex
 10
479.5859375
 20
540.71142578125
 30
0.0
  0
VERTEX
  5
2E9
330
2E7
100
AcDbEntity
  8
COTAS
 62
     7
370
     5
100
AcDbVertex
100
AcDb2dVertex
 10
483.28515625
 20
549.607421875
 30
0.0
  0
SEQEND
  5
2EA
330
2E7
100
AcDbEntity
  8
COTAS
370
     5
  0
ENDBLK
  5
2E6
330
2E3
100
AcDbEntity
  8
0
100
AcDbBlockEnd
  0
BLOCK
  5
2ED
330
2EB
100
AcDbEntity
  8
0
100
AcDbBlockBegin
  2
block 112
 70
     0
 71
     0
 10
0.0
 20
0.0
 30
0.0
  3
block 112
  1

  0
MTEXT
  5
2EF
330
2EB
100
AcDbEntity
  8
COTAS
 62
     7
100
AcDbMText
 10
427.5673828125
 20
499.212890625
 30
0.0
 40
6.800000000000001
 41
0.0
 71
     7
 72
     1
  1
\fArial|b1|i0|c0|p34;\W1;552
 73
     1
 44
1.0
  0
ENDBLK
  5
2EE
330
2EB
100
AcDbEntity
  8
0
100
AcDbBlockEnd
  0
BLOCK
  5
2F2
330
2F0
100
AcDbEntity
  8
0
100
AcDbBlockBegin
  2
block 113
 70
     0
 71
     0
 10
0.0
 20
0.0
 30
0.0
  3
block 113
  1

  0
POLYLINE
  5
2F4
330
2F0
100
AcDbEntity
  8
COTAS
 62
     7
370
     5
100
AcDb2dPolyline
 66
     1
 10
0.0
 20
0.0
 30
0.0
  0
VERTEX
  5
2F5
330
2F4
100
AcDbEntity
  8
COTAS
 62
     7
370
     5
100
AcDbVertex
100
AcDb2dVertex
 10
475.8857421875
 20
531.8154296875
 30
0.0
  0
VERTEX
  5
2F6
330
2F4
100
AcDbEntity
  8
COTAS
 62
     7
370
     5
100
AcDbVertex
100
AcDb2dVertex
 10
472.0390625
 20
522.56298828125
 30
0.0
  0
SEQEND
  5
2F7
330
2F4
100
AcDbEntity
  8
COTAS
370
     5
  0
ENDBLK
  5
2F3
330
2F0
100
AcDbEntity
  8
0
100
AcDbBlockEnd
  0
BLOCK
  5
2FA
330
2F8
100
AcDbEntity
  8
0
100
AcDbBlockBegin
  2
block 114
 70
     0
 71
     0
 10
0.0
 20
0.0
 30
0.0
  3
block 114
  1

  0
POLYLINE
  5
2FC
330
2F8
100
AcDbEntity
  8
COTAS
370
     0
100
AcDb2dPolyline
 66
     1
 10
0.0
 20
0.0
 30
0.0
  0
VERTEX
  5
2FD
330
2FC
100
AcDbEntity
  8
COTAS
370
     0
100
AcDbVertex
100
AcDb2dVertex
 10
478.103515625
 20
541.32763671875
 30
0.0
  0
VERTEX
  5
2FE
330
2FC
100
AcDbEntity
  8
COTAS
370
     0
100
AcDbVertex
100
AcDb2dVertex
 10
481.068359375
 20
540.0947265625
 30
0.0
  0
VERTEX
  5
2FF
330
2FC
100
AcDbEntity
  8
COTAS
370
     0
100
AcDbVertex
100
AcDb2dVertex
 10
475.8857421875
 20
531.8154296875
 30
0.0
  0
VERTEX
  5
300
330
2FC
100
AcDbEntity
  8
COTAS
370
     0
100
AcDbVertex
100
AcDb2dVertex
 10
478.103515625
 20
541.32763671875
 30
0.0
  0
SEQEND
  5
301
330
2FC
100
AcDbEntity
  8
COTAS
370
     0
  0
HATCH
  5
302
330
2F8
100
AcDbEntity
  8
COTAS
 62
     7
100
AcDbHatch
 10
0.0
 20
0.0
 30
0.0
210
0.0
220
0.0
230
1.0
  2
SOLID
 70
     1
 71
     0
 91
        1
 92
        1
 93
        3
 72
     1
 10
478.103515625
 20
541.32763671875
 11
481.068359375
 21
540.0947265625
 72
     1
 10
481.068359375
 20
540.0947265625
 11
475.8857421875
 21
531.8154296875
 72
     1
 10
475.8857421875
 20
531.8154296875
 11
478.103515625
 21
541.32763671875
 97
        0
 75
     2
 76
     1
 98
        0
  0
ENDBLK
  5
2FB
330
2F8
100
AcDbEntity
  8
0
100
AcDbBlockEnd
  0
BLOCK
  5
305
330
303
100
AcDbEntity
  8
0
100
AcDbBlockBegin
  2
block 115
 70
     0
 71
     0
 10
0.0
 20
0.0
 30
0.0
  3
block 115
  1

  0
POLYLINE
  5
307
330
303
100
AcDbEntity
  8
COTAS
370
     0
100
AcDb2dPolyline
 66
     1
 10
0.0
 20
0.0
 30
0.0
  0
VERTEX
  5
308
330
307
100
AcDbEntity
  8
COTAS
370
     0
100
AcDbVertex
100
AcDb2dVertex
 10
466.8564453125
 20
514.283203125
 30
0.0
  0
VERTEX
  5
309
330
307
100
AcDbEntity
  8
COTAS
370
     0
100
AcDbVertex
100
AcDb2dVertex
 10
469.822265625
 20
513.05029296875
 30
0.0
  0
VERTEX
  5
30A
330
307
100
AcDbEntity
  8
COTAS
370
     0
100
AcDbVertex
100
AcDb2dVertex
 10
472.0390625
 20
522.56298828125
 30
0.0
  0
VERTEX
  5
30B
330
307
100
AcDbEntity
  8
COTAS
370
     0
100
AcDbVertex
100
AcDb2dVertex
 10
466.8564453125
 20
514.283203125
 30
0.0
  0
SEQEND
  5
30C
330
307
100
AcDbEntity
  8
COTAS
370
     0
  0
HATCH
  5
30D
330
303
100
AcDbEntity
  8
COTAS
 62
     7
100
AcDbHatch
 10
0.0
 20
0.0
 30
0.0
210
0.0
220
0.0
230
1.0
  2
SOLID
 70
     1
 71
     0
 91
        1
 92
        1
 93
        3
 72
     1
 10
466.8564453125
 20
514.283203125
 11
469.822265625
 21
513.05029296875
 72
     1
 10
469.822265625
 20
513.05029296875
 11
472.0390625
 21
522.56298828125
 72
     1
 10
472.0390625
 20
522.56298828125
 11
466.8564453125
 21
514.283203125
 97
        0
 75
     2
 76
     1
 98
        0
  0
ENDBLK
  5
306
330
303
100
AcDbEntity
  8
0
100
AcDbBlockEnd
  0
BLOCK
  5
310
330
30E
100
AcDbEntity
  8
0
100
AcDbBlockBegin
  2
block 116
 70
     0
 71
     0
 10
0.0
 20
0.0
 30
0.0
  3
block 116
  1

  0
POLYLINE
  5
312
330
30E
100
AcDbEntity
  8
COTAS
370
     0
100
AcDb2dPolyline
 66
     1
 10
0.0
 20
0.0
 30
0.0
  0
VERTEX
  5
313
330
312
100
AcDbEntity
  8
COTAS
370
     0
100
AcDbVertex
100
AcDb2dVertex
 10
472.0390625
 20
522.56298828125
 30
0.0
  0
VERTEX
  5
314
330
312
100
AcDbEntity
  8
COTAS
370
     0
100
AcDbVertex
100
AcDb2dVertex
 10
472.0390625
 20
522.56298828125
 30
0.0
  0
SEQEND
  5
315
330
312
100
AcDbEntity
  8
COTAS
370
     0
  0
ENDBLK
  5
311
330
30E
100
AcDbEntity
  8
0
100
AcDbBlockEnd
  0
BLOCK
  5
318
330
316
100
AcDbEntity
  8
0
100
AcDbBlockBegin
  2
block 117
 70
     0
 71
     0
 10
0.0
 20
0.0
 30
0.0
  3
block 117
  1

  0
POLYLINE
  5
31A
330
316
100
AcDbEntity
  8
COTAS
370
     0
100
AcDb2dPolyline
 66
     1
 10
0.0
 20
0.0
 30
0.0
  0
VERTEX
  5
31B
330
31A
100
AcDbEntity
  8
COTAS
370
     0
100
AcDbVertex
100
AcDb2dVertex
 10
475.8857421875
 20
531.8154296875
 30
0.0
  0
VERTEX
  5
31C
330
31A
100
AcDbEntity
  8
COTAS
370
     0
100
AcDbVertex
100
AcDb2dVertex
 10
475.8857421875
 20
531.8154296875
 30
0.0
  0
SEQEND
  5
31D
330
31A
100
AcDbEntity
  8
COTAS
370
     0
  0
ENDBLK
  5
319
330
316
100
AcDbEntity
  8
0
100
AcDbBlockEnd
  0
BLOCK
  5
320
330
31E
100
AcDbEntity
  8
0
100
AcDbBlockBegin
  2
block 118
 70
     0
 71
     0
 10
0.0
 20
0.0
 30
0.0
  3
block 118
  1

  0
INSERT
  5
323
330
31E
100
AcDbEntity
  8
COTAS
100
AcDbBlockReference
  2
block 119
 10
0.0
 20
0.0
 30
0.0
  0
INSERT
  5
32B
330
31E
100
AcDbEntity
  8
COTAS
100
AcDbBlockReference
  2
block 120
 10
0.0
 20
0.0
 30
0.0
  0
INSERT
  5
333
330
31E
100
AcDbEntity
  8
COTAS
100
AcDbBlockReference
  2
block 121
 10
0.0
 20
0.0
 30
0.0
  0
INSERT
  5
33B
330
31E
100
AcDbEntity
  8
COTAS
100
AcDbBlockReference
  2
block 122
 10
0.0
 20
0.0
 30
0.0
  0
INSERT
  5
343
330
31E
100
AcDbEntity
  8
COTAS
100
AcDbBlockReference
  2
block 123
 10
0.0
 20
0.0
 30
0.0
  0
INSERT
  5
34B
330
31E
100
AcDbEntity
  8
COTAS
100
AcDbBlockReference
  2
block 124
 10
0.0
 20
0.0
 30
0.0
  0
INSERT
  5
356
330
31E
100
AcDbEntity
  8
COTAS
100
AcDbBlockReference
  2
block 125
 10
0.0
 20
0.0
 30
0.0
  0
INSERT
  5
361
330
31E
100
AcDbEntity
  8
COTAS
100
AcDbBlockReference
  2
block 126
 10
0.0
 20
0.0
 30
0.0
  0
INSERT
  5
366
330
31E
100
AcDbEntity
  8
COTAS
100
AcDbBlockReference
  2
block 127
 10
0.0
 20
0.0
 30
0.0
  0
INSERT
  5
36E
330
31E
100
AcDbEntity
  8
COTAS
100
AcDbBlockReference
  2
block 128
 10
0.0
 20
0.0
 30
0.0
  0
INSERT
  5
376
330
31E
100
AcDbEntity
  8
COTAS
100
AcDbBlockReference
  2
block 129
 10
0.0
 20
0.0
 30
0.0
  0
ENDBLK
  5
321
330
31E
100
AcDbEntity
  8
0
100
AcDbBlockEnd
  0
BLOCK
  5
324
330
322
100
AcDbEntity
  8
0
100
AcDbBlockBegin
  2
block 119
 70
     0
 71
     0
 10
0.0
 20
0.0
 30
0.0
  3
block 119
  1

  0
POLYLINE
  5
326
330
322
100
AcDbEntity
  8
COTAS
 62
     7
370
     5
100
AcDb2dPolyline
 66
     1
 10
0.0
 20
0.0
 30
0.0
  0
VERTEX
  5
327
330
326
100
AcDbEntity
  8
COTAS
 62
     7
370
     5
100
AcDbVertex
100
AcDb2dVertex
 10
541.4052734375
 20
538.076171875
 30
0.0
  0
VERTEX
  5
328
330
326
100
AcDbEntity
  8
COTAS
 62
     7
370
     5
100
AcDbVertex
100
AcDb2dVertex
 10
541.4052734375
 20
557.01025390625
 30
0.0
  0
SEQEND
  5
329
330
326
100
AcDbEntity
  8
COTAS
370
     5
  0
ENDBLK
  5
325
330
322
100
AcDbEntity
  8
0
100
AcDbBlockEnd
  0
BLOCK
  5
32C
330
32A
100
AcDbEntity
  8
0
100
AcDbBlockBegin
  2
block 120
 70
     0
 71
     0
 10
0.0
 20
0.0
 30
0.0
  3
block 120
  1

  0
POLYLINE
  5
32E
330
32A
100
AcDbEntity
  8
COTAS
 62
     7
370
     5
100
AcDb2dPolyline
 66
     1
 10
0.0
 20
0.0
 30
0.0
  0
VERTEX
  5
32F
330
32E
100
AcDbEntity
  8
COTAS
 62
     7
370
     5
100
AcDbVertex
100
AcDb2dVertex
 10
528.341796875
 20
538.07666015625
 30
0.0
  0
VERTEX
  5
330
330
32E
100
AcDbEntity
  8
COTAS
 62
     7
370
     5
100
AcDbVertex
100
AcDb2dVertex
 10
528.341796875
 20
557.01025390625
 30
0.0
  0
SEQEND
  5
331
330
32E
100
AcDbEntity
  8
COTAS
370
     5
  0
ENDBLK
  5
32D
330
32A
100
AcDbEntity
  8
0
100
AcDbBlockEnd
  0
BLOCK
  5
334
330
332
100
AcDbEntity
  8
0
100
AcDbBlockBegin
  2
block 121
 70
     0
 71
     0
 10
0.0
 20
0.0
 30
0.0
  3
block 121
  1

  0
POLYLINE
  5
336
330
332
100
AcDbEntity
  8
COTAS
 62
     7
370
     5
100
AcDb2dPolyline
 66
     1
 10
0.0
 20
0.0
 30
0.0
  0
VERTEX
  5
337
330
336
100
AcDbEntity
  8
COTAS
 62
     7
370
     5
100
AcDbVertex
100
AcDb2dVertex
 10
551.0400390625
 20
552.19287109375
 30
0.0
  0
VERTEX
  5
338
330
336
100
AcDbEntity
  8
COTAS
 62
     7
370
     5
100
AcDbVertex
100
AcDb2dVertex
 10
560.6748046875
 20
552.19287109375
 30
0.0
  0
SEQEND
  5
339
330
336
100
AcDbEntity
  8
COTAS
370
     5
  0
ENDBLK
  5
335
330
332
100
AcDbEntity
  8
0
100
AcDbBlockEnd
  0
BLOCK
  5
33C
330
33A
100
AcDbEntity
  8
0
100
AcDbBlockBegin
  2
block 122
 70
     0
 71
     0
 10
0.0
 20
0.0
 30
0.0
  3
block 122
  1

  0
POLYLINE
  5
33E
330
33A
100
AcDbEntity
  8
COTAS
 62
     7
370
     5
100
AcDb2dPolyline
 66
     1
 10
0.0
 20
0.0
 30
0.0
  0
VERTEX
  5
33F
330
33E
100
AcDbEntity
  8
COTAS
 62
     7
370
     5
100
AcDbVertex
100
AcDb2dVertex
 10
518.70703125
 20
552.19287109375
 30
0.0
  0
VERTEX
  5
340
330
33E
100
AcDbEntity
  8
COTAS
 62
     7
370
     5
100
AcDbVertex
100
AcDb2dVertex
 10
504.8017578125
 20
552.19287109375
 30
0.0
  0
SEQEND
  5
341
330
33E
100
AcDbEntity
  8
COTAS
370
     5
  0
ENDBLK
  5
33D
330
33A
100
AcDbEntity
  8
0
100
AcDbBlockEnd
  0
BLOCK
  5
344
330
342
100
AcDbEntity
  8
0
100
AcDbBlockBegin
  2
block 123
 70
     0
 71
     0
 10
0.0
 20
0.0
 30
0.0
  3
block 123
  1

  0
POLYLINE
  5
346
330
342
100
AcDbEntity
  8
COTAS
 62
     7
370
     5
100
AcDb2dPolyline
 66
     1
 10
0.0
 20
0.0
 30
0.0
  0
VERTEX
  5
347
330
346
100
AcDbEntity
  8
COTAS
 62
     7
370
     5
100
AcDbVertex
100
AcDb2dVertex
 10
541.4052734375
 20
552.19287109375
 30
0.0
  0
VERTEX
  5
348
330
346
100
AcDbEntity
  8
COTAS
 62
     7
370
     5
100
AcDbVertex
100
AcDb2dVertex
 10
528.341796875
 20
552.19287109375
 30
0.0
  0
SEQEND
  5
349
330
346
100
AcDbEntity
  8
COTAS
370
     5
  0
ENDBLK
  5
345
330
342
100
AcDbEntity
  8
0
100
AcDbBlockEnd
  0
BLOCK
  5
34C
330
34A
100
AcDbEntity
  8
0
100
AcDbBlockBegin
  2
block 124
 70
     0
 71
     0
 10
0.0
 20
0.0
 30
0.0
  3
block 124
  1

  0
POLYLINE
  5
34E
330
34A
100
AcDbEntity
  8
COTAS
370
     0
100
AcDb2dPolyline
 66
     1
 10
0.0
 20
0.0
 30
0.0
  0
VERTEX
  5
34F
330
34E
100
AcDbEntity
  8
COTAS
370
     0
100
AcDbVertex
100
AcDb2dVertex
 10
551.0400390625
 20
553.798828125
 30
0.0
  0
VERTEX
  5
350
330
34E
100
AcDbEntity
  8
COTAS
370
     0
100
AcDbVertex
100
AcDb2dVertex
 10
551.0400390625
 20
550.5869140625
 30
0.0
  0
VERTEX
  5
351
330
34E
100
AcDbEntity
  8
COTAS
370
     0
100
AcDbVertex
100
AcDb2dVertex
 10
541.4052734375
 20
552.19287109375
 30
0.0
  0
VERTEX
  5
352
330
34E
100
AcDbEntity
  8
COTAS
370
     0
100
AcDbVertex
100
AcDb2dVertex
 10
551.0400390625
 20
553.798828125
 30
0.0
  0
SEQEND
  5
353
330
34E
100
AcDbEntity
  8
COTAS
370
     0
  0
HATCH
  5
354
330
34A
100
AcDbEntity
  8
COTAS
 62
     7
100
AcDbHatch
 10
0.0
 20
0.0
 30
0.0
210
0.0
220
0.0
230
1.0
  2
SOLID
 70
     1
 71
     0
 91
        1
 92
        1
 93
        3
 72
     1
 10
551.0400390625
 20
553.798828125
 11
551.0400390625
 21
550.5869140625
 72
     1
 10
551.0400390625
 20
550.5869140625
 11
541.4052734375
 21
552.19287109375
 72
     1
 10
541.4052734375
 20
552.19287109375
 11
551.0400390625
 21
553.798828125
 97
        0
 75
     2
 76
     1
 98
        0
  0
ENDBLK
  5
34D
330
34A
100
AcDbEntity
  8
0
100
AcDbBlockEnd
  0
BLOCK
  5
357
330
355
100
AcDbEntity
  8
0
100
AcDbBlockBegin
  2
block 125
 70
     0
 71
     0
 10
0.0
 20
0.0
 30
0.0
  3
block 125
  1

  0
POLYLINE
  5
359
330
355
100
AcDbEntity
  8
COTAS
370
     0
100
AcDb2dPolyline
 66
     1
 10
0.0
 20
0.0
 30
0.0
  0
VERTEX
  5
35A
330
359
100
AcDbEntity
  8
COTAS
370
     0
100
AcDbVertex
100
AcDb2dVertex
 10
518.70703125
 20
553.798828125
 30
0.0
  0
VERTEX
  5
35B
330
359
100
AcDbEntity
  8
COTAS
370
     0
100
AcDbVertex
100
AcDb2dVertex
 10
518.70703125
 20
550.5869140625
 30
0.0
  0
VERTEX
  5
35C
330
359
100
AcDbEntity
  8
COTAS
370
     0
100
AcDbVertex
100
AcDb2dVertex
 10
528.341796875
 20
552.19287109375
 30
0.0
  0
VERTEX
  5
35D
330
359
100
AcDbEntity
  8
COTAS
370
     0
100
AcDbVertex
100
AcDb2dVertex
 10
518.70703125
 20
553.798828125
 30
0.0
  0
SEQEND
  5
35E
330
359
100
AcDbEntity
  8
COTAS
370
     0
  0
HATCH
  5
35F
330
355
100
AcDbEntity
  8
COTAS
 62
     7
100
AcDbHatch
 10
0.0
 20
0.0
 30
0.0
210
0.0
220
0.0
230
1.0
  2
SOLID
 70
     1
 71
     0
 91
        1
 92
        1
 93
        3
 72
     1
 10
518.70703125
 20
553.798828125
 11
518.70703125
 21
550.5869140625
 72
     1
 10
518.70703125
 20
550.5869140625
 11
528.341796875
 21
552.19287109375
 72
     1
 10
528.341796875
 20
552.19287109375
 11
518.70703125
 21
553.798828125
 97
        0
 75
     2
 76
     1
 98
        0
  0
ENDBLK
  5
358
330
355
100
AcDbEntity
  8
0
100
AcDbBlockEnd
  0
BLOCK
  5
362
330
360
100
AcDbEntity
  8
0
100
AcDbBlockBegin
  2
block 126
 70
     0
 71
     0
 10
0.0
 20
0.0
 30
0.0
  3
block 126
  1

  0
MTEXT
  5
364
330
360
100
AcDbEntity
  8
COTAS
 62
     7
100
AcDbMText
 10
487.97265625
 20
547.4375
 30
0.0
 40
6.800000000000001
 41
0.0
 71
     7
 72
     1
  1
\fArial|b1|i0|c0|p34;\W1;65
 73
     1
 44
1.0
  0
ENDBLK
  5
363
330
360
100
AcDbEntity
  8
0
100
AcDbBlockEnd
  0
BLOCK
  5
367
330
365
100
AcDbEntity
  8
0
100
AcDbBlockBegin
  2
block 127
 70
     0
 71
     0
 10
0.0
 20
0.0
 30
0.0
  3
block 127
  1

  0
POLYLINE
  5
369
330
365
100
AcDbEntity
  8
COTAS
370
     0
100
AcDb2dPolyline
 66
     1
 10
0.0
 20
0.0
 30
0.0
  0
VERTEX
  5
36A
330
369
100
AcDbEntity
  8
COTAS
370
     0
100
AcDbVertex
100
AcDb2dVertex
 10
541.4052734375
 20
535.66748046875
 30
0.0
  0
VERTEX
  5
36B
330
369
100
AcDbEntity
  8
COTAS
370
     0
100
AcDbVertex
100
AcDb2dVertex
 10
541.4052734375
 20
535.66748046875
 30
0.0
  0
SEQEND
  5
36C
330
369
100
AcDbEntity
  8
COTAS
370
     0
  0
ENDBLK
  5
368
330
365
100
AcDbEntity
  8
0
100
AcDbBlockEnd
  0
BLOCK
  5
36F
330
36D
100
AcDbEntity
  8
0
100
AcDbBlockBegin
  2
block 128
 70
     0
 71
     0
 10
0.0
 20
0.0
 30
0.0
  3
block 128
  1

  0
POLYLINE
  5
371
330
36D
100
AcDbEntity
  8
COTAS
370
     0
100
AcDb2dPolyline
 66
     1
 10
0.0
 20
0.0
 30
0.0
  0
VERTEX
  5
372
330
371
100
AcDbEntity
  8
COTAS
370
     0
100
AcDbVertex
100
AcDb2dVertex
 10
528.341796875
 20
535.66748046875
 30
0.0
  0
VERTEX
  5
373
330
371
100
AcDbEntity
  8
COTAS
370
     0
100
AcDbVertex
100
AcDb2dVertex
 10
528.341796875
 20
535.66748046875
 30
0.0
  0
SEQEND
  5
374
330
371
100
AcDbEntity
  8
COTAS
370
     0
  0
ENDBLK
  5
370
330
36D
100
AcDbEntity
  8
0
100
AcDbBlockEnd
  0
BLOCK
  5
377
330
375
100
AcDbEntity
  8
0
100
AcDbBlockBegin
  2
block 129
 70
     0
 71
     0
 10
0.0
 20
0.0
 30
0.0
  3
block 129
  1

  0
POLYLINE
  5
379
330
375
100
AcDbEntity
  8
COTAS
370
     0
100
AcDb2dPolyline
 66
     1
 10
0.0
 20
0.0
 30
0.0
  0
VERTEX
  5
37A
330
379
100
AcDbEntity
  8
COTAS
370
     0
100
AcDbVertex
100
AcDb2dVertex
 10
528.341796875
 20
552.19287109375
 30
0.0
  0
VERTEX
  5
37B
330
379
100
AcDbEntity
  8
COTAS
370
     0
100
AcDbVertex
100
AcDb2dVertex
 10
528.341796875
 20
552.19287109375
 30
0.0
  0
SEQEND
  5
37C
330
379
100
AcDbEntity
  8
COTAS
370
     0
  0
ENDBLK
  5
378
330
375
100
AcDbEntity
  8
0
100
AcDbBlockEnd
  0
BLOCK
  5
37F
330
37D
100
AcDbEntity
  8
0
100
AcDbBlockBegin
  2
block 130
 70
     0
 71
     0
 10
0.0
 20
0.0
 30
0.0
  3
block 130
  1

  0
INSERT
  5
382
330
37D
100
AcDbEntity
  8
COTAS
100
AcDbBlockReference
  2
block 131
 10
0.0
 20
0.0
 30
0.0
  0
INSERT
  5
38A
330
37D
100
AcDbEntity
  8
COTAS
100
AcDbBlockReference
  2
block 132
 10
0.0
 20
0.0
 30
0.0
  0
INSERT
  5
392
330
37D
100
AcDbEntity
  8
COTAS
100
AcDbBlockReference
  2
block 133
 10
0.0
 20
0.0
 30
0.0
  0
INSERT
  5
39A
330
37D
100
AcDbEntity
  8
COTAS
100
AcDbBlockReference
  2
block 134
 10
0.0
 20
0.0
 30
0.0
  0
INSERT
  5
3A2
330
37D
100
AcDbEntity
  8
COTAS
100
AcDbBlockReference
  2
block 135
 10
0.0
 20
0.0
 30
0.0
  0
INSERT
  5
3AD
330
37D
100
AcDbEntity
  8
COTAS
100
AcDbBlockReference
  2
block 136
 10
0.0
 20
0.0
 30
0.0
  0
INSERT
  5
3B8
330
37D
100
AcDbEntity
  8
COTAS
100
AcDbBlockReference
  2
block 137
 10
0.0
 20
0.0
 30
0.0
  0
INSERT
  5
3BD
330
37D
100
AcDbEntity
  8
COTAS
100
AcDbBlockReference
  2
block 138
 10
0.0
 20
0.0
 30
0.0
  0
INSERT
  5
3C5
330
37D
100
AcDbEntity
  8
COTAS
100
AcDbBlockReference
  2
block 139
 10
0.0
 20
0.0
 30
0.0
  0
INSERT
  5
3CD
330
37D
100
AcDbEntity
  8
COTAS
100
AcDbBlockReference
  2
block 140
 10
0.0
 20
0.0
 30
0.0
  0
ENDBLK
  5
380
330
37D
100
AcDbEntity
  8
0
100
AcDbBlockEnd
  0
BLOCK
  5
383
330
381
100
AcDbEntity
  8
0
100
AcDbBlockBegin
  2
block 131
 70
     0
 71
     0
 10
0.0
 20
0.0
 30
0.0
  3
block 131
  1

  0
POLYLINE
  5
385
330
381
100
AcDbEntity
  8
COTAS
 62
     7
370
     5
100
AcDb2dPolyline
 66
     1
 10
0.0
 20
0.0
 30
0.0
  0
VERTEX
  5
386
330
385
100
AcDbEntity
  8
COTAS
 62
     7
370
     5
100
AcDbVertex
100
AcDb2dVertex
 10
471.5546875
 20
464.17822265625
 30
0.0
  0
VERTEX
  5
387
330
385
100
AcDbEntity
  8
COTAS
 62
     7
370
     5
100
AcDbVertex
100
AcDb2dVertex
 10
590.4423828125
 20
464.17822265625
 30
0.0
  0
SEQEND
  5
388
330
385
100
AcDbEntity
  8
COTAS
370
     5
  0
ENDBLK
  5
384
330
381
100
AcDbEntity
  8
0
100
AcDbBlockEnd
  0
BLOCK
  5
38B
330
389
100
AcDbEntity
  8
0
100
AcDbBlockBegin
  2
block 132
 70
     0
 71
     0
 10
0.0
 20
0.0
 30
0.0
  3
block 132
  1

  0
POLYLINE
  5
38D
330
389
100
AcDbEntity
  8
COTAS
 62
     7
370
     5
100
AcDb2dPolyline
 66
     1
 10
0.0
 20
0.0
 30
0.0
  0
VERTEX
  5
38E
330
38D
100
AcDbEntity
  8
COTAS
 62
     7
370
     5
100
AcDbVertex
100
AcDb2dVertex
 10
571.275390625
 20
540.67724609375
 30
0.0
  0
VERTEX
  5
38F
330
38D
100
AcDbEntity
  8
COTAS
 62
     7
370
     5
100
AcDbVertex
100
AcDb2dVertex
 10
590.4423828125
 20
540.67724609375
 30
0.0
  0
SEQEND
  5
390
330
38D
100
AcDbEntity
  8
COTAS
370
     5
  0
ENDBLK
  5
38C
330
389
100
AcDbEntity
  8
0
100
AcDbBlockEnd
  0
BLOCK
  5
393
330
391
100
AcDbEntity
  8
0
100
AcDbBlockBegin
  2
block 133
 70
     0
 71
     0
 10
0.0
 20
0.0
 30
0.0
  3
block 133
  1

  0
POLYLINE
  5
395
330
391
100
AcDbEntity
  8
COTAS
 62
     7
370
     5
100
AcDb2dPolyline
 66
     1
 10
0.0
 20
0.0
 30
0.0
  0
VERTEX
  5
396
330
395
100
AcDbEntity
  8
COTAS
 62
     7
370
     5
100
AcDbVertex
100
AcDb2dVertex
 10
585.6259765625
 20
473.8134765625
 30
0.0
  0
VERTEX
  5
397
330
395
100
AcDbEntity
  8
COTAS
 62
     7
370
     5
100
AcDbVertex
100
AcDb2dVertex
 10
585.6259765625
 20
495.10009765625
 30
0.0
  0
SEQEND
  5
398
330
395
100
AcDbEntity
  8
COTAS
370
     5
  0
ENDBLK
  5
394
330
391
100
AcDbEntity
  8
0
100
AcDbBlockEnd
  0
BLOCK
  5
39B
330
399
100
AcDbEntity
  8
0
100
AcDbBlockBegin
  2
block 134
 70
     0
 71
     0
 10
0.0
 20
0.0
 30
0.0
  3
block 134
  1

  0
POLYLINE
  5
39D
330
399
100
AcDbEntity
  8
COTAS
 62
     7
370
     5
100
AcDb2dPolyline
 66
     1
 10
0.0
 20
0.0
 30
0.0
  0
VERTEX
  5
39E
330
39D
100
AcDbEntity
  8
COTAS
 62
     7
370
     5
100
AcDbVertex
100
AcDb2dVertex
 10
585.6259765625
 20
531.04296875
 30
0.0
  0
VERTEX
  5
39F
330
39D
100
AcDbEntity
  8
COTAS
 62
     7
370
     5
100
AcDbVertex
100
AcDb2dVertex
 10
585.6259765625
 20
509.755859375
 30
0.0
  0
SEQEND
  5
3A0
330
39D
100
AcDbEntity
  8
COTAS
370
     5
  0
ENDBLK
  5
39C
330
399
100
AcDbEntity
  8
0
100
AcDbBlockEnd
  0
BLOCK
  5
3A3
330
3A1
100
AcDbEntity
  8
0
100
AcDbBlockBegin
  2
block 135
 70
     0
 71
     0
 10
0.0
 20
0.0
 30
0.0
  3
block 135
  1

  0
POLYLINE
  5
3A5
330
3A1
100
AcDbEntity
  8
COTAS
370
     0
100
AcDb2dPolyline
 66
     1
 10
0.0
 20
0.0
 30
0.0
  0
VERTEX
  5
3A6
330
3A5
100
AcDbEntity
  8
COTAS
370
     0
100
AcDbVertex
100
AcDb2dVertex
 10
584.01953125
 20
473.8134765625
 30
0.0
  0
VERTEX
  5
3A7
330
3A5
100
AcDbEntity
  8
COTAS
370
     0
100
AcDbVertex
100
AcDb2dVertex
 10
587.23046875
 20
473.8134765625
 30
0.0
  0
VERTEX
  5
3A8
330
3A5
100
AcDbEntity
  8
COTAS
370
     0
100
AcDbVertex
100
AcDb2dVertex
 10
585.6259765625
 20
464.17822265625
 30
0.0
  0
VERTEX
  5
3A9
330
3A5
100
AcDbEntity
  8
COTAS
370
     0
100
AcDbVertex
100
AcDb2dVertex
 10
584.01953125
 20
473.8134765625
 30
0.0
  0
SEQEND
  5
3AA
330
3A5
100
AcDbEntity
  8
COTAS
370
     0
  0
HATCH
  5
3AB
330
3A1
100
AcDbEntity
  8
COTAS
 62
     7
100
AcDbHatch
 10
0.0
 20
0.0
 30
0.0
210
0.0
220
0.0
230
1.0
  2
SOLID
 70
     1
 71
     0
 91
        1
 92
        1
 93
        3
 72
     1
 10
584.01953125
 20
473.8134765625
 11
587.23046875
 21
473.8134765625
 72
     1
 10
587.23046875
 20
473.8134765625
 11
585.6259765625
 21
464.17822265625
 72
     1
 10
585.6259765625
 20
464.17822265625
 11
584.01953125
 21
473.8134765625
 97
        0
 75
     2
 76
     1
 98
        0
  0
ENDBLK
  5
3A4
330
3A1
100
AcDbEntity
  8
0
100
AcDbBlockEnd
  0
BLOCK
  5
3AE
330
3AC
100
AcDbEntity
  8
0
100
AcDbBlockBegin
  2
block 136
 70
     0
 71
     0
 10
0.0
 20
0.0
 30
0.0
  3
block 136
  1

  0
POLYLINE
  5
3B0
330
3AC
100
AcDbEntity
  8
COTAS
370
     0
100
AcDb2dPolyline
 66
     1
 10
0.0
 20
0.0
 30
0.0
  0
VERTEX
  5
3B1
330
3B0
100
AcDbEntity
  8
COTAS
370
     0
100
AcDbVertex
100
AcDb2dVertex
 10
584.01953125
 20
531.04296875
 30
0.0
  0
VERTEX
  5
3B2
330
3B0
100
AcDbEntity
  8
COTAS
370
     0
100
AcDbVertex
100
AcDb2dVertex
 10
587.23046875
 20
531.04296875
 30
0.0
  0
VERTEX
  5
3B3
330
3B0
100
AcDbEntity
  8
COTAS
370
     0
100
AcDbVertex
100
AcDb2dVertex
 10
585.6259765625
 20
540.67724609375
 30
0.0
  0
VERTEX
  5
3B4
330
3B0
100
AcDbEntity
  8
COTAS
370
     0
100
AcDbVertex
100
AcDb2dVertex
 10
584.01953125
 20
531.04296875
 30
0.0
  0
SEQEND
  5
3B5
330
3B0
100
AcDbEntity
  8
COTAS
370
     0
  0
HATCH
  5
3B6
330
3AC
100
AcDbEntity
  8
COTAS
 62
     7
100
AcDbHatch
 10
0.0
 20
0.0
 30
0.0
210
0.0
220
0.0
230
1.0
  2
SOLID
 70
     1
 71
     0
 91
        1
 92
        1
 93
        3
 72
     1
 10
584.01953125
 20
531.04296875
 11
587.23046875
 21
531.04296875
 72
     1
 10
587.23046875
 20
531.04296875
 11
585.6259765625
 21
540.67724609375
 72
     1
 10
585.6259765625
 20
540.67724609375
 11
584.01953125
 21
531.04296875
 97
        0
 75
     2
 76
     1
 98
        0
  0
ENDBLK
  5
3AF
330
3AC
100
AcDbEntity
  8
0
100
AcDbBlockEnd
  0
BLOCK
  5
3B9
330
3B7
100
AcDbEntity
  8
0
100
AcDbBlockBegin
  2
block 137
 70
     0
 71
     0
 10
0.0
 20
0.0
 30
0.0
  3
block 137
  1

  0
MTEXT
  5
3BB
330
3B7
100
AcDbEntity
  8
COTAS
 62
     7
100
AcDbMText
 10
574.646484375
 20
497.6728515625
 30
0.0
 40
6.800000000000001
 41
0.0
 71
     7
 72
     1
  1
\fArial|b1|i0|c0|p34;\W1;400
 73
     1
 44
1.0
  0
ENDBLK
  5
3BA
330
3B7
100
AcDbEntity
  8
0
100
AcDbBlockEnd
  0
BLOCK
  5
3BE
330
3BC
100
AcDbEntity
  8
0
100
AcDbBlockBegin
  2
block 138
 70
     0
 71
     0
 10
0.0
 20
0.0
 30
0.0
  3
block 138
  1

  0
POLYLINE
  5
3C0
330
3BC
100
AcDbEntity
  8
COTAS
370
     0
100
AcDb2dPolyline
 66
     1
 10
0.0
 20
0.0
 30
0.0
  0
VERTEX
  5
3C1
330
3C0
100
AcDbEntity
  8
COTAS
370
     0
100
AcDbVertex
100
AcDb2dVertex
 10
469.1455078125
 20
464.17822265625
 30
0.0
  0
VERTEX
  5
3C2
330
3C0
100
AcDbEntity
  8
COTAS
370
     0
100
AcDbVertex
100
AcDb2dVertex
 10
469.1455078125
 20
464.17822265625
 30
0.0
  0
SEQEND
  5
3C3
330
3C0
100
AcDbEntity
  8
COTAS
370
     0
  0
ENDBLK
  5
3BF
330
3BC
100
AcDbEntity
  8
0
100
AcDbBlockEnd
  0
BLOCK
  5
3C6
330
3C4
100
AcDbEntity
  8
0
100
AcDbBlockBegin
  2
block 139
 70
     0
 71
     0
 10
0.0
 20
0.0
 30
0.0
  3
block 139
  1

  0
POLYLINE
  5
3C8
330
3C4
100
AcDbEntity
  8
COTAS
370
     0
100
AcDb2dPolyline
 66
     1
 10
0.0
 20
0.0
 30
0.0
  0
VERTEX
  5
3C9
330
3C8
100
AcDbEntity
  8
COTAS
370
     0
100
AcDbVertex
100
AcDb2dVertex
 10
568.8662109375
 20
540.67724609375
 30
0.0
  0
VERTEX
  5
3CA
330
3C8
100
AcDbEntity
  8
COTAS
370
     0
100
AcDbVertex
100
AcDb2dVertex
 10
568.8662109375
 20
540.67724609375
 30
0.0
  0
SEQEND
  5
3CB
330
3C8
100
AcDbEntity
  8
COTAS
370
     0
  0
ENDBLK
  5
3C7
330
3C4
100
AcDbEntity
  8
0
100
AcDbBlockEnd
  0
BLOCK
  5
3CE
330
3CC
100
AcDbEntity
  8
0
100
AcDbBlockBegin
  2
block 140
 70
     0
 71
     0
 10
0.0
 20
0.0
 30
0.0
  3
block 140
  1

  0
POLYLINE
  5
3D0
330
3CC
100
AcDbEntity
  8
COTAS
370
     0
100
AcDb2dPolyline
 66
     1
 10
0.0
 20
0.0
 30
0.0
  0
VERTEX
  5
3D1
330
3D0
100
AcDbEntity
  8
COTAS
370
     0
100
AcDbVertex
100
AcDb2dVertex
 10
585.6259765625
 20
540.67724609375
 30
0.0
  0
VERTEX
  5
3D2
330
3D0
100
AcDbEntity
  8
COTAS
370
     0
100
AcDbVertex
100
AcDb2dVertex
 10
585.6259765625
 20
540.67724609375
 30
0.0
  0
SEQEND
  5
3D3
330
3D0
100
AcDbEntity
  8
COTAS
370
     0
  0
ENDBLK
  5
3CF
330
3CC
100
AcDbEntity
  8
0
100
AcDbBlockEnd
  0
BLOCK
  5
3D6
330
3D4
100
AcDbEntity
  8
0
100
AcDbBlockBegin
  2
block 141
 70
     0
 71
     0
 10
0.0
 20
0.0
 30
0.0
  3
block 141
  1

  0
INSERT
  5
3D9
330
3D4
100
AcDbEntity
  8
COTAS
100
AcDbBlockReference
  2
block 142
 10
0.0
 20
0.0
 30
0.0
  0
INSERT
  5
3E1
330
3D4
100
AcDbEntity
  8
COTAS
100
AcDbBlockReference
  2
block 143
 10
0.0
 20
0.0
 30
0.0
  0
INSERT
  5
3E9
330
3D4
100
AcDbEntity
  8
COTAS
100
AcDbBlockReference
  2
block 144
 10
0.0
 20
0.0
 30
0.0
  0
INSERT
  5
3F1
330
3D4
100
AcDbEntity
  8
COTAS
100
AcDbBlockReference
  2
block 145
 10
0.0
 20
0.0
 30
0.0
  0
INSERT
  5
3F9
330
3D4
100
AcDbEntity
  8
COTAS
100
AcDbBlockReference
  2
block 146
 10
0.0
 20
0.0
 30
0.0
  0
INSERT
  5
401
330
3D4
100
AcDbEntity
  8
COTAS
100
AcDbBlockReference
  2
block 147
 10
0.0
 20
0.0
 30
0.0
  0
INSERT
  5
40C
330
3D4
100
AcDbEntity
  8
COTAS
100
AcDbBlockReference
  2
block 148
 10
0.0
 20
0.0
 30
0.0
  0
INSERT
  5
417
330
3D4
100
AcDbEntity
  8
COTAS
100
AcDbBlockReference
  2
block 149
 10
0.0
 20
0.0
 30
0.0
  0
INSERT
  5
41C
330
3D4
100
AcDbEntity
  8
COTAS
100
AcDbBlockReference
  2
block 150
 10
0.0
 20
0.0
 30
0.0
  0
INSERT
  5
424
330
3D4
100
AcDbEntity
  8
COTAS
100
AcDbBlockReference
  2
block 151
 10
0.0
 20
0.0
 30
0.0
  0
INSERT
  5
42C
330
3D4
100
AcDbEntity
  8
COTAS
100
AcDbBlockReference
  2
block 152
 10
0.0
 20
0.0
 30
0.0
  0
ENDBLK
  5
3D7
330
3D4
100
AcDbEntity
  8
0
100
AcDbBlockEnd
  0
BLOCK
  5
3DA
330
3D8
100
AcDbEntity
  8
0
100
AcDbBlockBegin
  2
block 142
 70
     0
 71
     0
 10
0.0
 20
0.0
 30
0.0
  3
block 142
  1

  0
POLYLINE
  5
3DC
330
3D8
100
AcDbEntity
  8
COTAS
 62
     7
370
     5
100
AcDb2dPolyline
 66
     1
 10
0.0
 20
0.0
 30
0.0
  0
VERTEX
  5
3DD
330
3DC
100
AcDbEntity
  8
COTAS
 62
     7
370
     5
100
AcDbVertex
100
AcDb2dVertex
 10
468.953125
 20
461.77001953125
 30
0.0
  0
VERTEX
  5
3DE
330
3DC
100
AcDbEntity
  8
COTAS
 62
     7
370
     5
100
AcDbVertex
100
AcDb2dVertex
 10
468.953125
 20
447.79248046875
 30
0.0
  0
SEQEND
  5
3DF
330
3DC
100
AcDbEntity
  8
COTAS
370
     5
  0
ENDBLK
  5
3DB
330
3D8
100
AcDbEntity
  8
0
100
AcDbBlockEnd
  0
BLOCK
  5
3E2
330
3E0
100
AcDbEntity
  8
0
100
AcDbBlockBegin
  2
block 143
 70
     0
 71
     0
 10
0.0
 20
0.0
 30
0.0
  3
block 143
  1

  0
POLYLINE
  5
3E4
330
3E0
100
AcDbEntity
  8
COTAS
 62
     7
370
     5
100
AcDb2dPolyline
 66
     1
 10
0.0
 20
0.0
 30
0.0
  0
VERTEX
  5
3E5
330
3E4
100
AcDbEntity
  8
COTAS
 62
     7
370
     5
100
AcDbVertex
100
AcDb2dVertex
 10
478.97265625
 20
461.77001953125
 30
0.0
  0
VERTEX
  5
3E6
330
3E4
100
AcDbEntity
  8
COTAS
 62
     7
370
     5
100
AcDbVertex
100
AcDb2dVertex
 10
478.97265625
 20
447.79248046875
 30
0.0
  0
SEQEND
  5
3E7
330
3E4
100
AcDbEntity
  8
COTAS
370
     5
  0
ENDBLK
  5
3E3
330
3E0
100
AcDbEntity
  8
0
100
AcDbBlockEnd
  0
BLOCK
  5
3EA
330
3E8
100
AcDbEntity
  8
0
100
AcDbBlockBegin
  2
block 144
 70
     0
 71
     0
 10
0.0
 20
0.0
 30
0.0
  3
block 144
  1

  0
POLYLINE
  5
3EC
330
3E8
100
AcDbEntity
  8
COTAS
 62
     7
370
     5
100
AcDb2dPolyline
 66
     1
 10
0.0
 20
0.0
 30
0.0
  0
VERTEX
  5
3ED
330
3EC
100
AcDbEntity
  8
COTAS
 62
     7
370
     5
100
AcDbVertex
100
AcDb2dVertex
 10
488.607421875
 20
452.60986328125
 30
0.0
  0
VERTEX
  5
3EE
330
3EC
100
AcDbEntity
  8
COTAS
 62
     7
370
     5
100
AcDbVertex
100
AcDb2dVertex
 10
498.2412109375
 20
452.60986328125
 30
0.0
  0
SEQEND
  5
3EF
330
3EC
100
AcDbEntity
  8
COTAS
370
     5
  0
ENDBLK
  5
3EB
330
3E8
100
AcDbEntity
  8
0
100
AcDbBlockEnd
  0
BLOCK
  5
3F2
330
3F0
100
AcDbEntity
  8
0
100
AcDbBlockBegin
  2
block 145
 70
     0
 71
     0
 10
0.0
 20
0.0
 30
0.0
  3
block 145
  1

  0
POLYLINE
  5
3F4
330
3F0
100
AcDbEntity
  8
COTAS
 62
     7
370
     5
100
AcDb2dPolyline
 66
     1
 10
0.0
 20
0.0
 30
0.0
  0
VERTEX
  5
3F5
330
3F4
100
AcDbEntity
  8
COTAS
 62
     7
370
     5
100
AcDbVertex
100
AcDb2dVertex
 10
459.3173828125
 20
452.60986328125
 30
0.0
  0
VERTEX
  5
3F6
330
3F4
100
AcDbEntity
  8
COTAS
 62
     7
370
     5
100
AcDbVertex
100
AcDb2dVertex
 10
415.05859375
 20
452.60986328125
 30
0.0
  0
SEQEND
  5
3F7
330
3F4
100
AcDbEntity
  8
COTAS
370
     5
  0
ENDBLK
  5
3F3
330
3F0
100
AcDbEntity
  8
0
100
AcDbBlockEnd
  0
BLOCK
  5
3FA
330
3F8
100
AcDbEntity
  8
0
100
AcDbBlockBegin
  2
block 146
 70
     0
 71
     0
 10
0.0
 20
0.0
 30
0.0
  3
block 146
  1

  0
POLYLINE
  5
3FC
330
3F8
100
AcDbEntity
  8
COTAS
 62
     7
370
     5
100
AcDb2dPolyline
 66
     1
 10
0.0
 20
0.0
 30
0.0
  0
VERTEX
  5
3FD
330
3FC
100
AcDbEntity
  8
COTAS
 62
     7
370
     5
100
AcDbVertex
100
AcDb2dVertex
 10
478.97265625
 20
452.60986328125
 30
0.0
  0
VERTEX
  5
3FE
330
3FC
100
AcDbEntity
  8
COTAS
 62
     7
370
     5
100
AcDbVertex
100
AcDb2dVertex
 10
468.953125
 20
452.60986328125
 30
0.0
  0
SEQEND
  5
3FF
330
3FC
100
AcDbEntity
  8
COTAS
370
     5
  0
ENDBLK
  5
3FB
330
3F8
100
AcDbEntity
  8
0
100
AcDbBlockEnd
  0
BLOCK
  5
402
330
400
100
AcDbEntity
  8
0
100
AcDbBlockBegin
  2
block 147
 70
     0
 71
     0
 10
0.0
 20
0.0
 30
0.0
  3
block 147
  1

  0
POLYLINE
  5
404
330
400
100
AcDbEntity
  8
COTAS
370
     0
100
AcDb2dPolyline
 66
     1
 10
0.0
 20
0.0
 30
0.0
  0
VERTEX
  5
405
330
404
100
AcDbEntity
  8
COTAS
370
     0
100
AcDbVertex
100
AcDb2dVertex
 10
488.607421875
 20
454.2158203125
 30
0.0
  0
VERTEX
  5
406
330
404
100
AcDbEntity
  8
COTAS
370
     0
100
AcDbVertex
100
AcDb2dVertex
 10
488.607421875
 20
451.00390625
 30
0.0
  0
VERTEX
  5
407
330
404
100
AcDbEntity
  8
COTAS
370
     0
100
AcDbVertex
100
AcDb2dVertex
 10
478.97265625
 20
452.60986328125
 30
0.0
  0
VERTEX
  5
408
330
404
100
AcDbEntity
  8
COTAS
370
     0
100
AcDbVertex
100
AcDb2dVertex
 10
488.607421875
 20
454.2158203125
 30
0.0
  0
SEQEND
  5
409
330
404
100
AcDbEntity
  8
COTAS
370
     0
  0
HATCH
  5
40A
330
400
100
AcDbEntity
  8
COTAS
 62
     7
100
AcDbHatch
 10
0.0
 20
0.0
 30
0.0
210
0.0
220
0.0
230
1.0
  2
SOLID
 70
     1
 71
     0
 91
        1
 92
        1
 93
        3
 72
     1
 10
488.607421875
 20
454.2158203125
 11
488.607421875
 21
451.00390625
 72
     1
 10
488.607421875
 20
451.00390625
 11
478.97265625
 21
452.60986328125
 72
     1
 10
478.97265625
 20
452.60986328125
 11
488.607421875
 21
454.2158203125
 97
        0
 75
     2
 76
     1
 98
        0
  0
ENDBLK
  5
403
330
400
100
AcDbEntity
  8
0
100
AcDbBlockEnd
  0
BLOCK
  5
40D
330
40B
100
AcDbEntity
  8
0
100
AcDbBlockBegin
  2
block 148
 70
     0
 71
     0
 10
0.0
 20
0.0
 30
0.0
  3
block 148
  1

  0
POLYLINE
  5
40F
330
40B
100
AcDbEntity
  8
COTAS
370
     0
100
AcDb2dPolyline
 66
     1
 10
0.0
 20
0.0
 30
0.0
  0
VERTEX
  5
410
330
40F
100
AcDbEntity
  8
COTAS
370
     0
100
AcDbVertex
100
AcDb2dVertex
 10
459.3173828125
 20
454.2158203125
 30
0.0
  0
VERTEX
  5
411
330
40F
100
AcDbEntity
  8
COTAS
370
     0
100
AcDbVertex
100
AcDb2dVertex
 10
459.3173828125
 20
451.00390625
 30
0.0
  0
VERTEX
  5
412
330
40F
100
AcDbEntity
  8
COTAS
370
     0
100
AcDbVertex
100
AcDb2dVertex
 10
468.953125
 20
452.60986328125
 30
0.0
  0
VERTEX
  5
413
330
40F
100
AcDbEntity
  8
COTAS
370
     0
100
AcDbVertex
100
AcDb2dVertex
 10
459.3173828125
 20
454.2158203125
 30
0.0
  0
SEQEND
  5
414
330
40F
100
AcDbEntity
  8
COTAS
370
     0
  0
HATCH
  5
415
330
40B
100
AcDbEntity
  8
COTAS
 62
     7
100
AcDbHatch
 10
0.0
 20
0.0
 30
0.0
210
0.0
220
0.0
230
1.0
  2
SOLID
 70
     1
 71
     0
 91
        1
 92
        1
 93
        3
 72
     1
 10
459.3173828125
 20
454.2158203125
 11
459.3173828125
 21
451.00390625
 72
     1
 10
459.3173828125
 20
451.00390625
 11
468.953125
 21
452.60986328125
 72
     1
 10
468.953125
 20
452.60986328125
 11
459.3173828125
 21
454.2158203125
 97
        0
 75
     2
 76
     1
 98
        0
  0
ENDBLK
  5
40E
330
40B
100
AcDbEntity
  8
0
100
AcDbBlockEnd
  0
BLOCK
  5
418
330
416
100
AcDbEntity
  8
0
100
AcDbBlockBegin
  2
block 149
 70
     0
 71
     0
 10
0.0
 20
0.0
 30
0.0
  3
block 149
  1

  0
MTEXT
  5
41A
330
416
100
AcDbEntity
  8
COTAS
 62
     7
100
AcDbMText
 10
416.9384765625
 20
455.4091796875
 30
0.0
 40
6.800000000000001
 41
0.0
 71
     7
 72
     1
  1
\fArial|b1|i0|c0|p34;\W1;\U+00D852
 73
     1
 44
1.0
  0
ENDBLK
  5
419
330
416
100
AcDbEntity
  8
0
100
AcDbBlockEnd
  0
BLOCK
  5
41D
330
41B
100
AcDbEntity
  8
0
100
AcDbBlockBegin
  2
block 150
 70
     0
 71
     0
 10
0.0
 20
0.0
 30
0.0
  3
block 150
  1

  0
POLYLINE
  5
41F
330
41B
100
AcDbEntity
  8
COTAS
370
     0
100
AcDb2dPolyline
 66
     1
 10
0.0
 20
0.0
 30
0.0
  0
VERTEX
  5
420
330
41F
100
AcDbEntity
  8
COTAS
370
     0
100
AcDbVertex
100
AcDb2dVertex
 10
468.953125
 20
464.17822265625
 30
0.0
  0
VERTEX
  5
421
330
41F
100
AcDbEntity
  8
COTAS
370
     0
100
AcDbVertex
100
AcDb2dVertex
 10
468.953125
 20
464.17822265625
 30
0.0
  0
SEQEND
  5
422
330
41F
100
AcDbEntity
  8
COTAS
370
     0
  0
ENDBLK
  5
41E
330
41B
100
AcDbEntity
  8
0
100
AcDbBlockEnd
  0
BLOCK
  5
425
330
423
100
AcDbEntity
  8
0
100
AcDbBlockBegin
  2
block 151
 70
     0
 71
     0
 10
0.0
 20
0.0
 30
0.0
  3
block 151
  1

  0
POLYLINE
  5
427
330
423
100
AcDbEntity
  8
COTAS
370
     0
100
AcDb2dPolyline
 66
     1
 10
0.0
 20
0.0
 30
0.0
  0
VERTEX
  5
428
330
427
100
AcDbEntity
  8
COTAS
370
     0
100
AcDbVertex
100
AcDb2dVertex
 10
478.97265625
 20
464.17822265625
 30
0.0
  0
VERTEX
  5
429
330
427
100
AcDbEntity
  8
COTAS
370
     0
100
AcDbVertex
100
AcDb2dVertex
 10
478.97265625
 20
464.17822265625
 30
0.0
  0
SEQEND
  5
42A
330
427
100
AcDbEntity
  8
COTAS
370
     0
  0
ENDBLK
  5
426
330
423
100
AcDbEntity
  8
0
100
AcDbBlockEnd
  0
BLOCK
  5
42D
330
42B
100
AcDbEntity
  8
0
100
AcDbBlockBegin
  2
block 152
 70
     0
 71
     0
 10
0.0
 20
0.0
 30
0.0
  3
block 152
  1

  0
POLYLINE
  5
42F
330
42B
100
AcDbEntity
  8
COTAS
370
     0
100
AcDb2dPolyline
 66
     1
 10
0.0
 20
0.0
 30
0.0
  0
VERTEX
  5
430
330
42F
100
AcDbEntity
  8
COTAS
370
     0
100
AcDbVertex
100
AcDb2dVertex
 10
478.97265625
 20
452.60986328125
 30
0.0
  0
VERTEX
  5
431
330
42F
100
AcDbEntity
  8
COTAS
370
     0
100
AcDbVertex
100
AcDb2dVertex
 10
478.97265625
 20
452.60986328125
 30
0.0
  0
SEQEND
  5
432
330
42F
100
AcDbEntity
  8
COTAS
370
     0
  0
ENDBLK
  5
42E
330
42B
100
AcDbEntity
  8
0
100
AcDbBlockEnd
  0
BLOCK
  5
435
330
433
100
AcDbEntity
  8
0
100
AcDbBlockBegin
  2
block 153
 70
     0
 71
     0
 10
0.0
 20
0.0
 30
0.0
  3
block 153
  1

  0
INSERT
  5
438
330
433
100
AcDbEntity
  8
COTAS
100
AcDbBlockReference
  2
block 154
 10
0.0
 20
0.0
 30
0.0
  0
INSERT
  5
440
330
433
100
AcDbEntity
  8
COTAS
100
AcDbBlockReference
  2
block 155
 10
0.0
 20
0.0
 30
0.0
  0
INSERT
  5
448
330
433
100
AcDbEntity
  8
COTAS
100
AcDbBlockReference
  2
block 156
 10
0.0
 20
0.0
 30
0.0
  0
INSERT
  5
450
330
433
100
AcDbEntity
  8
COTAS
100
AcDbBlockReference
  2
block 157
 10
0.0
 20
0.0
 30
0.0
  0
INSERT
  5
458
330
433
100
AcDbEntity
  8
COTAS
100
AcDbBlockReference
  2
block 158
 10
0.0
 20
0.0
 30
0.0
  0
INSERT
  5
463
330
433
100
AcDbEntity
  8
COTAS
100
AcDbBlockReference
  2
block 159
 10
0.0
 20
0.0
 30
0.0
  0
INSERT
  5
46E
330
433
100
AcDbEntity
  8
COTAS
100
AcDbBlockReference
  2
block 160
 10
0.0
 20
0.0
 30
0.0
  0
INSERT
  5
473
330
433
100
AcDbEntity
  8
COTAS
100
AcDbBlockReference
  2
block 161
 10
0.0
 20
0.0
 30
0.0
  0
INSERT
  5
47B
330
433
100
AcDbEntity
  8
COTAS
100
AcDbBlockReference
  2
block 162
 10
0.0
 20
0.0
 30
0.0
  0
INSERT
  5
483
330
433
100
AcDbEntity
  8
COTAS
100
AcDbBlockReference
  2
block 163
 10
0.0
 20
0.0
 30
0.0
  0
ENDBLK
  5
436
330
433
100
AcDbEntity
  8
0
100
AcDbBlockEnd
  0
BLOCK
  5
439
330
437
100
AcDbEntity
  8
0
100
AcDbBlockBegin
  2
block 154
 70
     0
 71
     0
 10
0.0
 20
0.0
 30
0.0
  3
block 154
  1

  0
POLYLINE
  5
43B
330
437
100
AcDbEntity
  8
COTAS
 62
     7
370
     5
100
AcDb2dPolyline
 66
     1
 10
0.0
 20
0.0
 30
0.0
  0
VERTEX
  5
43C
330
43B
100
AcDbEntity
  8
COTAS
 62
     7
370
     5
100
AcDbVertex
100
AcDb2dVertex
 10
64.0634765625
 20
267.4716796875
 30
0.0
  0
VERTEX
  5
43D
330
43B
100
AcDbEntity
  8
COTAS
 62
     7
370
     5
100
AcDbVertex
100
AcDb2dVertex
 10
64.0634765625
 20
252.216796875
 30
0.0
  0
SEQEND
  5
43E
330
43B
100
AcDbEntity
  8
COTAS
370
     5
  0
ENDBLK
  5
43A
330
437
100
AcDbEntity
  8
0
100
AcDbBlockEnd
  0
BLOCK
  5
441
330
43F
100
AcDbEntity
  8
0
100
AcDbBlockBegin
  2
block 155
 70
     0
 71
     0
 10
0.0
 20
0.0
 30
0.0
  3
block 155
  1

  0
POLYLINE
  5
443
330
43F
100
AcDbEntity
  8
COTAS
 62
     7
370
     5
100
AcDb2dPolyline
 66
     1
 10
0.0
 20
0.0
 30
0.0
  0
VERTEX
  5
444
330
443
100
AcDbEntity
  8
COTAS
 62
     7
370
     5
100
AcDbVertex
100
AcDb2dVertex
 10
266.91162109375
 20
269.8798828125
 30
0.0
  0
VERTEX
  5
445
330
443
100
AcDbEntity
  8
COTAS
 62
     7
370
     5
100
AcDbVertex
100
AcDb2dVertex
 10
266.91162109375
 20
252.216796875
 30
0.0
  0
SEQEND
  5
446
330
443
100
AcDbEntity
  8
COTAS
370
     5
  0
ENDBLK
  5
442
330
43F
100
AcDbEntity
  8
0
100
AcDbBlockEnd
  0
BLOCK
  5
449
330
447
100
AcDbEntity
  8
0
100
AcDbBlockBegin
  2
block 156
 70
     0
 71
     0
 10
0.0
 20
0.0
 30
0.0
  3
block 156
  1

  0
POLYLINE
  5
44B
330
447
100
AcDbEntity
  8
COTAS
 62
     7
370
     5
100
AcDb2dPolyline
 66
     1
 10
0.0
 20
0.0
 30
0.0
  0
VERTEX
  5
44C
330
44B
100
AcDbEntity
  8
COTAS
 62
     7
370
     5
100
AcDbVertex
100
AcDb2dVertex
 10
73.6982421875
 20
257.0341796875
 30
0.0
  0
VERTEX
  5
44D
330
44B
100
AcDbEntity
  8
COTAS
 62
     7
370
     5
100
AcDbVertex
100
AcDb2dVertex
 10
158.5908203125
 20
257.0341796875
 30
0.0
  0
SEQEND
  5
44E
330
44B
100
AcDbEntity
  8
COTAS
370
     5
  0
ENDBLK
  5
44A
330
447
100
AcDbEntity
  8
0
100
AcDbBlockEnd
  0
BLOCK
  5
451
330
44F
100
AcDbEntity
  8
0
100
AcDbBlockBegin
  2
block 157
 70
     0
 71
     0
 10
0.0
 20
0.0
 30
0.0
  3
block 157
  1

  0
POLYLINE
  5
453
330
44F
100
AcDbEntity
  8
COTAS
 62
     7
370
     5
100
AcDb2dPolyline
 66
     1
 10
0.0
 20
0.0
 30
0.0
  0
VERTEX
  5
454
330
453
100
AcDbEntity
  8
COTAS
 62
     7
370
     5
100
AcDbVertex
100
AcDb2dVertex
 10
257.27685546875
 20
257.0341796875
 30
0.0
  0
VERTEX
  5
455
330
453
100
AcDbEntity
  8
COTAS
 62
     7
370
     5
100
AcDbVertex
100
AcDb2dVertex
 10
191.27392578125
 20
257.0341796875
 30
0.0
  0
SEQEND
  5
456
330
453
100
AcDbEntity
  8
COTAS
370
     5
  0
ENDBLK
  5
452
330
44F
100
AcDbEntity
  8
0
100
AcDbBlockEnd
  0
BLOCK
  5
459
330
457
100
AcDbEntity
  8
0
100
AcDbBlockBegin
  2
block 158
 70
     0
 71
     0
 10
0.0
 20
0.0
 30
0.0
  3
block 158
  1

  0
POLYLINE
  5
45B
330
457
100
AcDbEntity
  8
COTAS
370
     0
100
AcDb2dPolyline
 66
     1
 10
0.0
 20
0.0
 30
0.0
  0
VERTEX
  5
45C
330
45B
100
AcDbEntity
  8
COTAS
370
     0
100
AcDbVertex
100
AcDb2dVertex
 10
73.6982421875
 20
258.6396484375
 30
0.0
  0
VERTEX
  5
45D
330
45B
100
AcDbEntity
  8
COTAS
370
     0
100
AcDbVertex
100
AcDb2dVertex
 10
73.6982421875
 20
255.4287109375
 30
0.0
  0
VERTEX
  5
45E
330
45B
100
AcDbEntity
  8
COTAS
370
     0
100
AcDbVertex
100
AcDb2dVertex
 10
64.0634765625
 20
257.0341796875
 30
0.0
  0
VERTEX
  5
45F
330
45B
100
AcDbEntity
  8
COTAS
370
     0
100
AcDbVertex
100
AcDb2dVertex
 10
73.6982421875
 20
258.6396484375
 30
0.0
  0
SEQEND
  5
460
330
45B
100
AcDbEntity
  8
COTAS
370
     0
  0
HATCH
  5
461
330
457
100
AcDbEntity
  8
COTAS
 62
     7
100
AcDbHatch
 10
0.0
 20
0.0
 30
0.0
210
0.0
220
0.0
230
1.0
  2
SOLID
 70
     1
 71
     0
 91
        1
 92
        1
 93
        3
 72
     1
 10
73.6982421875
 20
258.6396484375
 11
73.6982421875
 21
255.4287109375
 72
     1
 10
73.6982421875
 20
255.4287109375
 11
64.0634765625
 21
257.0341796875
 72
     1
 10
64.0634765625
 20
257.0341796875
 11
73.6982421875
 21
258.6396484375
 97
        0
 75
     2
 76
     1
 98
        0
  0
ENDBLK
  5
45A
330
457
100
AcDbEntity
  8
0
100
AcDbBlockEnd
  0
BLOCK
  5
464
330
462
100
AcDbEntity
  8
0
100
AcDbBlockBegin
  2
block 159
 70
     0
 71
     0
 10
0.0
 20
0.0
 30
0.0
  3
block 159
  1

  0
POLYLINE
  5
466
330
462
100
AcDbEntity
  8
COTAS
370
     0
100
AcDb2dPolyline
 66
     1
 10
0.0
 20
0.0
 30
0.0
  0
VERTEX
  5
467
330
466
100
AcDbEntity
  8
COTAS
370
     0
100
AcDbVertex
100
AcDb2dVertex
 10
257.27685546875
 20
258.6396484375
 30
0.0
  0
VERTEX
  5
468
330
466
100
AcDbEntity
  8
COTAS
370
     0
100
AcDbVertex
100
AcDb2dVertex
 10
257.27685546875
 20
255.4287109375
 30
0.0
  0
VERTEX
  5
469
330
466
100
AcDbEntity
  8
COTAS
370
     0
100
AcDbVertex
100
AcDb2dVertex
 10
266.91162109375
 20
257.0341796875
 30
0.0
  0
VERTEX
  5
46A
330
466
100
AcDbEntity
  8
COTAS
370
     0
100
AcDbVertex
100
AcDb2dVertex
 10
257.27685546875
 20
258.6396484375
 30
0.0
  0
SEQEND
  5
46B
330
466
100
AcDbEntity
  8
COTAS
370
     0
  0
HATCH
  5
46C
330
462
100
AcDbEntity
  8
COTAS
 62
     7
100
AcDbHatch
 10
0.0
 20
0.0
 30
0.0
210
0.0
220
0.0
230
1.0
  2
SOLID
 70
     1
 71
     0
 91
        1
 92
        1
 93
        3
 72
     1
 10
257.27685546875
 20
258.6396484375
 11
257.27685546875
 21
255.4287109375
 72
     1
 10
257.27685546875
 20
255.4287109375
 11
266.91162109375
 21
257.0341796875
 72
     1
 10
266.91162109375
 20
257.0341796875
 11
257.27685546875
 21
258.6396484375
 97
        0
 75
     2
 76
     1
 98
        0
  0
ENDBLK
  5
465
330
462
100
AcDbEntity
  8
0
100
AcDbBlockEnd
  0
BLOCK
  5
46F
330
46D
100
AcDbEntity
  8
0
100
AcDbBlockBegin
  2
block 160
 70
     0
 71
     0
 10
0.0
 20
0.0
 30
0.0
  3
block 160
  1

  0
MTEXT
  5
471
330
46D
100
AcDbEntity
  8
COTAS
 62
     7
100
AcDbMText
 10
159.55517578125
 20
252.279296875
 30
0.0
 40
6.800000000000001
 41
0.0
 71
     7
 72
     1
  1
\fArial|b1|i0|c0|p34;\W1;1057
 73
     1
 44
1.0
  0
ENDBLK
  5
470
330
46D
100
AcDbEntity
  8
0
100
AcDbBlockEnd
  0
BLOCK
  5
474
330
472
100
AcDbEntity
  8
0
100
AcDbBlockBegin
  2
block 161
 70
     0
 71
     0
 10
0.0
 20
0.0
 30
0.0
  3
block 161
  1

  0
POLYLINE
  5
476
330
472
100
AcDbEntity
  8
COTAS
370
     0
100
AcDb2dPolyline
 66
     1
 10
0.0
 20
0.0
 30
0.0
  0
VERTEX
  5
477
330
476
100
AcDbEntity
  8
COTAS
370
     0
100
AcDbVertex
100
AcDb2dVertex
 10
64.0634765625
 20
269.8798828125
 30
0.0
  0
VERTEX
  5
478
330
476
100
AcDbEntity
  8
COTAS
370
     0
100
AcDbVertex
100
AcDb2dVertex
 10
64.0634765625
 20
269.8798828125
 30
0.0
  0
SEQEND
  5
479
330
476
100
AcDbEntity
  8
COTAS
370
     0
  0
ENDBLK
  5
475
330
472
100
AcDbEntity
  8
0
100
AcDbBlockEnd
  0
BLOCK
  5
47C
330
47A
100
AcDbEntity
  8
0
100
AcDbBlockBegin
  2
block 162
 70
     0
 71
     0
 10
0.0
 20
0.0
 30
0.0
  3
block 162
  1

  0
POLYLINE
  5
47E
330
47A
100
AcDbEntity
  8
COTAS
370
     0
100
AcDb2dPolyline
 66
     1
 10
0.0
 20
0.0
 30
0.0
  0
VERTEX
  5
47F
330
47E
100
AcDbEntity
  8
COTAS
370
     0
100
AcDbVertex
100
AcDb2dVertex
 10
266.91162109375
 20
272.2880859375
 30
0.0
  0
VERTEX
  5
480
330
47E
100
AcDbEntity
  8
COTAS
370
     0
100
AcDbVertex
100
AcDb2dVertex
 10
266.91162109375
 20
272.2880859375
 30
0.0
  0
SEQEND
  5
481
330
47E
100
AcDbEntity
  8
COTAS
370
     0
  0
ENDBLK
  5
47D
330
47A
100
AcDbEntity
  8
0
100
AcDbBlockEnd
  0
BLOCK
  5
484
330
482
100
AcDbEntity
  8
0
100
AcDbBlockBegin
  2
block 163
 70
     0
 71
     0
 10
0.0
 20
0.0
 30
0.0
  3
block 163
  1

  0
POLYLINE
  5
486
330
482
100
AcDbEntity
  8
COTAS
370
     0
100
AcDb2dPolyline
 66
     1
 10
0.0
 20
0.0
 30
0.0
  0
VERTEX
  5
487
330
486
100
AcDbEntity
  8
COTAS
370
     0
100
AcDbVertex
100
AcDb2dVertex
 10
266.91162109375
 20
257.0341796875
 30
0.0
  0
VERTEX
  5
488
330
486
100
AcDbEntity
  8
COTAS
370
     0
100
AcDbVertex
100
AcDb2dVertex
 10
266.91162109375
 20
257.0341796875
 30
0.0
  0
SEQEND
  5
489
330
486
100
AcDbEntity
  8
COTAS
370
     0
  0
ENDBLK
  5
485
330
482
100
AcDbEntity
  8
0
100
AcDbBlockEnd
  0
BLOCK
  5
48C
330
48A
100
AcDbEntity
  8
0
100
AcDbBlockBegin
  2
block 164
 70
     0
 71
     0
 10
0.0
 20
0.0
 30
0.0
  3
block 164
  1

  0
INSERT
  5
48F
330
48A
100
AcDbEntity
  8
COTAS
100
AcDbBlockReference
  2
block 165
 10
0.0
 20
0.0
 30
0.0
  0
INSERT
  5
497
330
48A
100
AcDbEntity
  8
COTAS
100
AcDbBlockReference
  2
block 166
 10
0.0
 20
0.0
 30
0.0
  0
INSERT
  5
49F
330
48A
100
AcDbEntity
  8
COTAS
100
AcDbBlockReference
  2
block 167
 10
0.0
 20
0.0
 30
0.0
  0
INSERT
  5
4A7
330
48A
100
AcDbEntity
  8
COTAS
100
AcDbBlockReference
  2
block 168
 10
0.0
 20
0.0
 30
0.0
  0
INSERT
  5
4AF
330
48A
100
AcDbEntity
  8
COTAS
100
AcDbBlockReference
  2
block 169
 10
0.0
 20
0.0
 30
0.0
  0
INSERT
  5
4BA
330
48A
100
AcDbEntity
  8
COTAS
100
AcDbBlockReference
  2
block 170
 10
0.0
 20
0.0
 30
0.0
  0
INSERT
  5
4C5
330
48A
100
AcDbEntity
  8
COTAS
100
AcDbBlockReference
  2
block 171
 10
0.0
 20
0.0
 30
0.0
  0
INSERT
  5
4CA
330
48A
100
AcDbEntity
  8
COTAS
100
AcDbBlockReference
  2
block 172
 10
0.0
 20
0.0
 30
0.0
  0
INSERT
  5
4D2
330
48A
100
AcDbEntity
  8
COTAS
100
AcDbBlockReference
  2
block 173
 10
0.0
 20
0.0
 30
0.0
  0
INSERT
  5
4DA
330
48A
100
AcDbEntity
  8
COTAS
100
AcDbBlockReference
  2
block 174
 10
0.0
 20
0.0
 30
0.0
  0
ENDBLK
  5
48D
330
48A
100
AcDbEntity
  8
0
100
AcDbBlockEnd
  0
BLOCK
  5
490
330
48E
100
AcDbEntity
  8
0
100
AcDbBlockBegin
  2
block 165
 70
     0
 71
     0
 10
0.0
 20
0.0
 30
0.0
  3
block 165
  1

  0
POLYLINE
  5
492
330
48E
100
AcDbEntity
  8
COTAS
 62
     7
370
     5
100
AcDb2dPolyline
 66
     1
 10
0.0
 20
0.0
 30
0.0
  0
VERTEX
  5
493
330
492
100
AcDbEntity
  8
COTAS
 62
     7
370
     5
100
AcDbVertex
100
AcDb2dVertex
 10
34.52392578125
 20
276.720703125
 30
0.0
  0
VERTEX
  5
494
330
492
100
AcDbEntity
  8
COTAS
 62
     7
370
     5
100
AcDbVertex
100
AcDb2dVertex
 10
34.52392578125
 20
230.7001953125
 30
0.0
  0
SEQEND
  5
495
330
492
100
AcDbEntity
  8
COTAS
370
     5
  0
ENDBLK
  5
491
330
48E
100
AcDbEntity
  8
0
100
AcDbBlockEnd
  0
BLOCK
  5
498
330
496
100
AcDbEntity
  8
0
100
AcDbBlockBegin
  2
block 166
 70
     0
 71
     0
 10
0.0
 20
0.0
 30
0.0
  3
block 166
  1

  0
POLYLINE
  5
49A
330
496
100
AcDbEntity
  8
COTAS
 62
     7
370
     5
100
AcDb2dPolyline
 66
     1
 10
0.0
 20
0.0
 30
0.0
  0
VERTEX
  5
49B
330
49A
100
AcDbEntity
  8
COTAS
 62
     7
370
     5
100
AcDbVertex
100
AcDb2dVertex
 10
323.5634765625
 20
276.720703125
 30
0.0
  0
VERTEX
  5
49C
330
49A
100
AcDbEntity
  8
COTAS
 62
     7
370
     5
100
AcDbVertex
100
AcDb2dVertex
 10
323.5634765625
 20
230.7001953125
 30
0.0
  0
SEQEND
  5
49D
330
49A
100
AcDbEntity
  8
COTAS
370
     5
  0
ENDBLK
  5
499
330
496
100
AcDbEntity
  8
0
100
AcDbBlockEnd
  0
BLOCK
  5
4A0
330
49E
100
AcDbEntity
  8
0
100
AcDbBlockBegin
  2
block 167
 70
     0
 71
     0
 10
0.0
 20
0.0
 30
0.0
  3
block 167
  1

  0
POLYLINE
  5
4A2
330
49E
100
AcDbEntity
  8
COTAS
 62
     7
370
     5
100
AcDb2dPolyline
 66
     1
 10
0.0
 20
0.0
 30
0.0
  0
VERTEX
  5
4A3
330
4A2
100
AcDbEntity
  8
COTAS
 62
     7
370
     5
100
AcDbVertex
100
AcDb2dVertex
 10
44.158203125
 20
235.5166015625
 30
0.0
  0
VERTEX
  5
4A4
330
4A2
100
AcDbEntity
  8
COTAS
 62
     7
370
     5
100
AcDbVertex
100
AcDb2dVertex
 10
158.39892578125
 20
235.5166015625
 30
0.0
  0
SEQEND
  5
4A5
330
4A2
100
AcDbEntity
  8
COTAS
370
     5
  0
ENDBLK
  5
4A1
330
49E
100
AcDbEntity
  8
0
100
AcDbBlockEnd
  0
BLOCK
  5
4A8
330
4A6
100
AcDbEntity
  8
0
100
AcDbBlockBegin
  2
block 168
 70
     0
 71
     0
 10
0.0
 20
0.0
 30
0.0
  3
block 168
  1

  0
POLYLINE
  5
4AA
330
4A6
100
AcDbEntity
  8
COTAS
 62
     7
370
     5
100
AcDb2dPolyline
 66
     1
 10
0.0
 20
0.0
 30
0.0
  0
VERTEX
  5
4AB
330
4AA
100
AcDbEntity
  8
COTAS
 62
     7
370
     5
100
AcDbVertex
100
AcDb2dVertex
 10
313.9287109375
 20
235.5166015625
 30
0.0
  0
VERTEX
  5
4AC
330
4AA
100
AcDbEntity
  8
COTAS
 62
     7
370
     5
100
AcDbVertex
100
AcDb2dVertex
 10
191.04931640625
 20
235.5166015625
 30
0.0
  0
SEQEND
  5
4AD
330
4AA
100
AcDbEntity
  8
COTAS
370
     5
  0
ENDBLK
  5
4A9
330
4A6
100
AcDbEntity
  8
0
100
AcDbBlockEnd
  0
BLOCK
  5
4B0
330
4AE
100
AcDbEntity
  8
0
100
AcDbBlockBegin
  2
block 169
 70
     0
 71
     0
 10
0.0
 20
0.0
 30
0.0
  3
block 169
  1

  0
POLYLINE
  5
4B2
330
4AE
100
AcDbEntity
  8
COTAS
370
     0
100
AcDb2dPolyline
 66
     1
 10
0.0
 20
0.0
 30
0.0
  0
VERTEX
  5
4B3
330
4B2
100
AcDbEntity
  8
COTAS
370
     0
100
AcDbVertex
100
AcDb2dVertex
 10
44.158203125
 20
237.123046875
 30
0.0
  0
VERTEX
  5
4B4
330
4B2
100
AcDbEntity
  8
COTAS
370
     0
100
AcDbVertex
100
AcDb2dVertex
 10
44.158203125
 20
233.912109375
 30
0.0
  0
VERTEX
  5
4B5
330
4B2
100
AcDbEntity
  8
COTAS
370
     0
100
AcDbVertex
100
AcDb2dVertex
 10
34.52392578125
 20
235.5166015625
 30
0.0
  0
VERTEX
  5
4B6
330
4B2
100
AcDbEntity
  8
COTAS
370
     0
100
AcDbVertex
100
AcDb2dVertex
 10
44.158203125
 20
237.123046875
 30
0.0
  0
SEQEND
  5
4B7
330
4B2
100
AcDbEntity
  8
COTAS
370
     0
  0
HATCH
  5
4B8
330
4AE
100
AcDbEntity
  8
COTAS
 62
     7
100
AcDbHatch
 10
0.0
 20
0.0
 30
0.0
210
0.0
220
0.0
230
1.0
  2
SOLID
 70
     1
 71
     0
 91
        1
 92
        1
 93
        3
 72
     1
 10
44.158203125
 20
237.123046875
 11
44.158203125
 21
233.912109375
 72
     1
 10
44.158203125
 20
233.912109375
 11
34.52392578125
 21
235.5166015625
 72
     1
 10
34.52392578125
 20
235.5166015625
 11
44.158203125
 21
237.123046875
 97
        0
 75
     2
 76
     1
 98
        0
  0
ENDBLK
  5
4B1
330
4AE
100
AcDbEntity
  8
0
100
AcDbBlockEnd
  0
BLOCK
  5
4BB
330
4B9
100
AcDbEntity
  8
0
100
AcDbBlockBegin
  2
block 170
 70
     0
 71
     0
 10
0.0
 20
0.0
 30
0.0
  3
block 170
  1

  0
POLYLINE
  5
4BD
330
4B9
100
AcDbEntity
  8
COTAS
370
     0
100
AcDb2dPolyline
 66
     1
 10
0.0
 20
0.0
 30
0.0
  0
VERTEX
  5
4BE
330
4BD
100
AcDbEntity
  8
COTAS
370
     0
100
AcDbVertex
100
AcDb2dVertex
 10
313.9287109375
 20
237.123046875
 30
0.0
  0
VERTEX
  5
4BF
330
4BD
100
AcDbEntity
  8
COTAS
370
     0
100
AcDbVertex
100
AcDb2dVertex
 10
313.9287109375
 20
233.912109375
 30
0.0
  0
VERTEX
  5
4C0
330
4BD
100
AcDbEntity
  8
COTAS
370
     0
100
AcDbVertex
100
AcDb2dVertex
 10
323.5634765625
 20
235.5166015625
 30
0.0
  0
VERTEX
  5
4C1
330
4BD
100
AcDbEntity
  8
COTAS
370
     0
100
AcDbVertex
100
AcDb2dVertex
 10
313.9287109375
 20
237.123046875
 30
0.0
  0
SEQEND
  5
4C2
330
4BD
100
AcDbEntity
  8
COTAS
370
     0
  0
HATCH
  5
4C3
330
4B9
100
AcDbEntity
  8
COTAS
 62
     7
100
AcDbHatch
 10
0.0
 20
0.0
 30
0.0
210
0.0
220
0.0
230
1.0
  2
SOLID
 70
     1
 71
     0
 91
        1
 92
        1
 93
        3
 72
     1
 10
313.9287109375
 20
237.123046875
 11
313.9287109375
 21
233.912109375
 72
     1
 10
313.9287109375
 20
233.912109375
 11
323.5634765625
 21
235.5166015625
 72
     1
 10
323.5634765625
 20
235.5166015625
 11
313.9287109375
 21
237.123046875
 97
        0
 75
     2
 76
     1
 98
        0
  0
ENDBLK
  5
4BC
330
4B9
100
AcDbEntity
  8
0
100
AcDbBlockEnd
  0
BLOCK
  5
4C6
330
4C4
100
AcDbEntity
  8
0
100
AcDbBlockBegin
  2
block 171
 70
     0
 71
     0
 10
0.0
 20
0.0
 30
0.0
  3
block 171
  1

  0
MTEXT
  5
4C8
330
4C4
100
AcDbEntity
  8
COTAS
 62
     7
100
AcDbMText
 10
159.36181640625
 20
230.76171875
 30
0.0
 40
6.800000000000001
 41
0.0
 71
     7
 72
     1
  1
\fArial|b1|i0|c0|p34;\W1;1500
 73
     1
 44
1.0
  0
ENDBLK
  5
4C7
330
4C4
100
AcDbEntity
  8
0
100
AcDbBlockEnd
  0
BLOCK
  5
4CB
330
4C9
100
AcDbEntity
  8
0
100
AcDbBlockBegin
  2
block 172
 70
     0
 71
     0
 10
0.0
 20
0.0
 30
0.0
  3
block 172
  1

  0
POLYLINE
  5
4CD
330
4C9
100
AcDbEntity
  8
COTAS
370
     0
100
AcDb2dPolyline
 66
     1
 10
0.0
 20
0.0
 30
0.0
  0
VERTEX
  5
4CE
330
4CD
100
AcDbEntity
  8
COTAS
370
     0
100
AcDbVertex
100
AcDb2dVertex
 10
34.52392578125
 20
279.1298828125
 30
0.0
  0
VERTEX
  5
4CF
330
4CD
100
AcDbEntity
  8
COTAS
370
     0
100
AcDbVertex
100
AcDb2dVertex
 10
34.52392578125
 20
279.1298828125
 30
0.0
  0
SEQEND
  5
4D0
330
4CD
100
AcDbEntity
  8
COTAS
370
     0
  0
ENDBLK
  5
4CC
330
4C9
100
AcDbEntity
  8
0
100
AcDbBlockEnd
  0
BLOCK
  5
4D3
330
4D1
100
AcDbEntity
  8
0
100
AcDbBlockBegin
  2
block 173
 70
     0
 71
     0
 10
0.0
 20
0.0
 30
0.0
  3
block 173
  1

  0
POLYLINE
  5
4D5
330
4D1
100
AcDbEntity
  8
COTAS
370
     0
100
AcDb2dPolyline
 66
     1
 10
0.0
 20
0.0
 30
0.0
  0
VERTEX
  5
4D6
330
4D5
100
AcDbEntity
  8
COTAS
370
     0
100
AcDbVertex
100
AcDb2dVertex
 10
323.5634765625
 20
279.1298828125
 30
0.0
  0
VERTEX
  5
4D7
330
4D5
100
AcDbEntity
  8
COTAS
370
     0
100
AcDbVertex
100
AcDb2dVertex
 10
323.5634765625
 20
279.1298828125
 30
0.0
  0
SEQEND
  5
4D8
330
4D5
100
AcDbEntity
  8
COTAS
370
     0
  0
ENDBLK
  5
4D4
330
4D1
100
AcDbEntity
  8
0
100
AcDbBlockEnd
  0
BLOCK
  5
4DB
330
4D9
100
AcDbEntity
  8
0
100
AcDbBlockBegin
  2
block 174
 70
     0
 71
     0
 10
0.0
 20
0.0
 30
0.0
  3
block 174
  1

  0
POLYLINE
  5
4DD
330
4D9
100
AcDbEntity
  8
COTAS
370
     0
100
AcDb2dPolyline
 66
     1
 10
0.0
 20
0.0
 30
0.0
  0
VERTEX
  5
4DE
330
4DD
100
AcDbEntity
  8
COTAS
370
     0
100
AcDbVertex
100
AcDb2dVertex
 10
323.5634765625
 20
235.5166015625
 30
0.0
  0
VERTEX
  5
4DF
330
4DD
100
AcDbEntity
  8
COTAS
370
     0
100
AcDbVertex
100
AcDb2dVertex
 10
323.5634765625
 20
235.5166015625
 30
0.0
  0
SEQEND
  5
4E0
330
4DD
100
AcDbEntity
  8
COTAS
370
     0
  0
ENDBLK
  5
4DC
330
4D9
100
AcDbEntity
  8
0
100
AcDbBlockEnd
  0
BLOCK
  5
4E3
330
4E1
100
AcDbEntity
  8
0
100
AcDbBlockBegin
  2
block 175
 70
     0
 71
     0
 10
0.0
 20
0.0
 30
0.0
  3
block 175
  1

  0
INSERT
  5
4E6
330
4E1
100
AcDbEntity
  8
COTAS
100
AcDbBlockReference
  2
block 176
 10
0.0
 20
0.0
 30
0.0
  0
INSERT
  5
4EE
330
4E1
100
AcDbEntity
  8
COTAS
100
AcDbBlockReference
  2
block 177
 10
0.0
 20
0.0
 30
0.0
  0
INSERT
  5
4F6
330
4E1
100
AcDbEntity
  8
COTAS
100
AcDbBlockReference
  2
block 178
 10
0.0
 20
0.0
 30
0.0
  0
INSERT
  5
4FE
330
4E1
100
AcDbEntity
  8
COTAS
100
AcDbBlockReference
  2
block 179
 10
0.0
 20
0.0
 30
0.0
  0
INSERT
  5
506
330
4E1
100
AcDbEntity
  8
COTAS
100
AcDbBlockReference
  2
block 180
 10
0.0
 20
0.0
 30
0.0
  0
INSERT
  5
511
330
4E1
100
AcDbEntity
  8
COTAS
100
AcDbBlockReference
  2
block 181
 10
0.0
 20
0.0
 30
0.0
  0
INSERT
  5
51C
330
4E1
100
AcDbEntity
  8
COTAS
100
AcDbBlockReference
  2
block 182
 10
0.0
 20
0.0
 30
0.0
  0
INSERT
  5
521
330
4E1
100
AcDbEntity
  8
COTAS
100
AcDbBlockReference
  2
block 183
 10
0.0
 20
0.0
 30
0.0
  0
INSERT
  5
529
330
4E1
100
AcDbEntity
  8
COTAS
100
AcDbBlockReference
  2
block 184
 10
0.0
 20
0.0
 30
0.0
  0
INSERT
  5
531
330
4E1
100
AcDbEntity
  8
COTAS
100
AcDbBlockReference
  2
block 185
 10
0.0
 20
0.0
 30
0.0
  0
ENDBLK
  5
4E4
330
4E1
100
AcDbEntity
  8
0
100
AcDbBlockEnd
  0
BLOCK
  5
4E7
330
4E5
100
AcDbEntity
  8
0
100
AcDbBlockBegin
  2
block 176
 70
     0
 71
     0
 10
0.0
 20
0.0
 30
0.0
  3
block 176
  1

  0
POLYLINE
  5
4E9
330
4E5
100
AcDbEntity
  8
COTAS
 62
     7
370
     5
100
AcDb2dPolyline
 66
     1
 10
0.0
 20
0.0
 30
0.0
  0
VERTEX
  5
4EA
330
4E9
100
AcDbEntity
  8
COTAS
 62
     7
370
     5
100
AcDbVertex
100
AcDb2dVertex
 10
94.25830078125
 20
416.80859375
 30
0.0
  0
VERTEX
  5
4EB
330
4E9
100
AcDbEntity
  8
COTAS
 62
     7
370
     5
100
AcDbVertex
100
AcDb2dVertex
 10
94.25830078125
 20
430.7998046875
 30
0.0
  0
SEQEND
  5
4EC
330
4E9
100
AcDbEntity
  8
COTAS
370
     5
  0
ENDBLK
  5
4E8
330
4E5
100
AcDbEntity
  8
0
100
AcDbBlockEnd
  0
BLOCK
  5
4EF
330
4ED
100
AcDbEntity
  8
0
100
AcDbBlockBegin
  2
block 177
 70
     0
 71
     0
 10
0.0
 20
0.0
 30
0.0
  3
block 177
  1

  0
POLYLINE
  5
4F1
330
4ED
100
AcDbEntity
  8
COTAS
 62
     7
370
     5
100
AcDb2dPolyline
 66
     1
 10
0.0
 20
0.0
 30
0.0
  0
VERTEX
  5
4F2
330
4F1
100
AcDbEntity
  8
COTAS
 62
     7
370
     5
100
AcDbVertex
100
AcDb2dVertex
 10
34.52392578125
 20
407.55908203125
 30
0.0
  0
VERTEX
  5
4F3
330
4F1
100
AcDbEntity
  8
COTAS
 62
     7
370
     5
100
AcDbVertex
100
AcDb2dVertex
 10
34.52392578125
 20
430.7998046875
 30
0.0
  0
SEQEND
  5
4F4
330
4F1
100
AcDbEntity
  8
COTAS
370
     5
  0
ENDBLK
  5
4F0
330
4ED
100
AcDbEntity
  8
0
100
AcDbBlockEnd
  0
BLOCK
  5
4F7
330
4F5
100
AcDbEntity
  8
0
100
AcDbBlockBegin
  2
block 178
 70
     0
 71
     0
 10
0.0
 20
0.0
 30
0.0
  3
block 178
  1

  0
POLYLINE
  5
4F9
330
4F5
100
AcDbEntity
  8
COTAS
 62
     7
370
     5
100
AcDb2dPolyline
 66
     1
 10
0.0
 20
0.0
 30
0.0
  0
VERTEX
  5
4FA
330
4F9
100
AcDbEntity
  8
COTAS
 62
     7
370
     5
100
AcDbVertex
100
AcDb2dVertex
 10
84.62353515625
 20
425.982421875
 30
0.0
  0
VERTEX
  5
4FB
330
4F9
100
AcDbEntity
  8
COTAS
 62
     7
370
     5
100
AcDbVertex
100
AcDb2dVertex
 10
73.97021484375
 20
425.982421875
 30
0.0
  0
SEQEND
  5
4FC
330
4F9
100
AcDbEntity
  8
COTAS
370
     5
  0
ENDBLK
  5
4F8
330
4F5
100
AcDbEntity
  8
0
100
AcDbBlockEnd
  0
BLOCK
  5
4FF
330
4FD
100
AcDbEntity
  8
0
100
AcDbBlockBegin
  2
block 179
 70
     0
 71
     0
 10
0.0
 20
0.0
 30
0.0
  3
block 179
  1

  0
POLYLINE
  5
501
330
4FD
100
AcDbEntity
  8
COTAS
 62
     7
370
     5
100
AcDb2dPolyline
 66
     1
 10
0.0
 20
0.0
 30
0.0
  0
VERTEX
  5
502
330
501
100
AcDbEntity
  8
COTAS
 62
     7
370
     5
100
AcDbVertex
100
AcDb2dVertex
 10
44.158203125
 20
425.982421875
 30
0.0
  0
VERTEX
  5
503
330
501
100
AcDbEntity
  8
COTAS
 62
     7
370
     5
100
AcDbVertex
100
AcDb2dVertex
 10
47.9052734375
 20
425.982421875
 30
0.0
  0
SEQEND
  5
504
330
501
100
AcDbEntity
  8
COTAS
370
     5
  0
ENDBLK
  5
500
330
4FD
100
AcDbEntity
  8
0
100
AcDbBlockEnd
  0
BLOCK
  5
507
330
505
100
AcDbEntity
  8
0
100
AcDbBlockBegin
  2
block 180
 70
     0
 71
     0
 10
0.0
 20
0.0
 30
0.0
  3
block 180
  1

  0
POLYLINE
  5
509
330
505
100
AcDbEntity
  8
COTAS
370
     0
100
AcDb2dPolyline
 66
     1
 10
0.0
 20
0.0
 30
0.0
  0
VERTEX
  5
50A
330
509
100
AcDbEntity
  8
COTAS
370
     0
100
AcDbVertex
100
AcDb2dVertex
 10
84.62353515625
 20
427.587890625
 30
0.0
  0
VERTEX
  5
50B
330
509
100
AcDbEntity
  8
COTAS
370
     0
100
AcDbVertex
100
AcDb2dVertex
 10
84.62353515625
 20
424.37646484375
 30
0.0
  0
VERTEX
  5
50C
330
509
100
AcDbEntity
  8
COTAS
370
     0
100
AcDbVertex
100
AcDb2dVertex
 10
94.25830078125
 20
425.982421875
 30
0.0
  0
VERTEX
  5
50D
330
509
100
AcDbEntity
  8
COTAS
370
     0
100
AcDbVertex
100
AcDb2dVertex
 10
84.62353515625
 20
427.587890625
 30
0.0
  0
SEQEND
  5
50E
330
509
100
AcDbEntity
  8
COTAS
370
     0
  0
HATCH
  5
50F
330
505
100
AcDbEntity
  8
COTAS
 62
     7
100
AcDbHatch
 10
0.0
 20
0.0
 30
0.0
210
0.0
220
0.0
230
1.0
  2
SOLID
 70
     1
 71
     0
 91
        1
 92
        1
 93
        3
 72
     1
 10
84.62353515625
 20
427.587890625
 11
84.62353515625
 21
424.37646484375
 72
     1
 10
84.62353515625
 20
424.37646484375
 11
94.25830078125
 21
425.982421875
 72
     1
 10
94.25830078125
 20
425.982421875
 11
84.62353515625
 21
427.587890625
 97
        0
 75
     2
 76
     1
 98
        0
  0
ENDBLK
  5
508
330
505
100
AcDbEntity
  8
0
100
AcDbBlockEnd
  0
BLOCK
  5
512
330
510
100
AcDbEntity
  8
0
100
AcDbBlockBegin
  2
block 181
 70
     0
 71
     0
 10
0.0
 20
0.0
 30
0.0
  3
block 181
  1

  0
POLYLINE
  5
514
330
510
100
AcDbEntity
  8
COTAS
370
     0
100
AcDb2dPolyline
 66
     1
 10
0.0
 20
0.0
 30
0.0
  0
VERTEX
  5
515
330
514
100
AcDbEntity
  8
COTAS
370
     0
100
AcDbVertex
100
AcDb2dVertex
 10
44.158203125
 20
427.587890625
 30
0.0
  0
VERTEX
  5
516
330
514
100
AcDbEntity
  8
COTAS
370
     0
100
AcDbVertex
100
AcDb2dVertex
 10
44.158203125
 20
424.37646484375
 30
0.0
  0
VERTEX
  5
517
330
514
100
AcDbEntity
  8
COTAS
370
     0
100
AcDbVertex
100
AcDb2dVertex
 10
34.52392578125
 20
425.982421875
 30
0.0
  0
VERTEX
  5
518
330
514
100
AcDbEntity
  8
COTAS
370
     0
100
AcDbVertex
100
AcDb2dVertex
 10
44.158203125
 20
427.587890625
 30
0.0
  0
SEQEND
  5
519
330
514
100
AcDbEntity
  8
COTAS
370
     0
  0
HATCH
  5
51A
330
510
100
AcDbEntity
  8
COTAS
 62
     7
100
AcDbHatch
 10
0.0
 20
0.0
 30
0.0
210
0.0
220
0.0
230
1.0
  2
SOLID
 70
     1
 71
     0
 91
        1
 92
        1
 93
        3
 72
     1
 10
44.158203125
 20
427.587890625
 11
44.158203125
 21
424.37646484375
 72
     1
 10
44.158203125
 20
424.37646484375
 11
34.52392578125
 21
425.982421875
 72
     1
 10
34.52392578125
 20
425.982421875
 11
44.158203125
 21
427.587890625
 97
        0
 75
     2
 76
     1
 98
        0
  0
ENDBLK
  5
513
330
510
100
AcDbEntity
  8
0
100
AcDbBlockEnd
  0
BLOCK
  5
51D
330
51B
100
AcDbEntity
  8
0
100
AcDbBlockBegin
  2
block 182
 70
     0
 71
     0
 10
0.0
 20
0.0
 30
0.0
  3
block 182
  1

  0
MTEXT
  5
51F
330
51B
100
AcDbEntity
  8
COTAS
 62
     7
100
AcDbMText
 10
49.76171875
 20
421.2275390625
 30
0.0
 40
6.800000000000001
 41
0.0
 71
     7
 72
     1
  1
\fArial|b1|i0|c0|p34;\W1;310
 73
     1
 44
1.0
  0
ENDBLK
  5
51E
330
51B
100
AcDbEntity
  8
0
100
AcDbBlockEnd
  0
BLOCK
  5
522
330
520
100
AcDbEntity
  8
0
100
AcDbBlockBegin
  2
block 183
 70
     0
 71
     0
 10
0.0
 20
0.0
 30
0.0
  3
block 183
  1

  0
POLYLINE
  5
524
330
520
100
AcDbEntity
  8
COTAS
370
     0
100
AcDb2dPolyline
 66
     1
 10
0.0
 20
0.0
 30
0.0
  0
VERTEX
  5
525
330
524
100
AcDbEntity
  8
COTAS
370
     0
100
AcDbVertex
100
AcDb2dVertex
 10
94.25830078125
 20
414.39990234375
 30
0.0
  0
VERTEX
  5
526
330
524
100
AcDbEntity
  8
COTAS
370
     0
100
AcDbVertex
100
AcDb2dVertex
 10
94.25830078125
 20
414.39990234375
 30
0.0
  0
SEQEND
  5
527
330
524
100
AcDbEntity
  8
COTAS
370
     0
  0
ENDBLK
  5
523
330
520
100
AcDbEntity
  8
0
100
AcDbBlockEnd
  0
BLOCK
  5
52A
330
528
100
AcDbEntity
  8
0
100
AcDbBlockBegin
  2
block 184
 70
     0
 71
     0
 10
0.0
 20
0.0
 30
0.0
  3
block 184
  1

  0
POLYLINE
  5
52C
330
528
100
AcDbEntity
  8
COTAS
370
     0
100
AcDb2dPolyline
 66
     1
 10
0.0
 20
0.0
 30
0.0
  0
VERTEX
  5
52D
330
52C
100
AcDbEntity
  8
COTAS
370
     0
100
AcDbVertex
100
AcDb2dVertex
 10
34.52392578125
 20
405.15087890625
 30
0.0
  0
VERTEX
  5
52E
330
52C
100
AcDbEntity
  8
COTAS
370
     0
100
AcDbVertex
100
AcDb2dVertex
 10
34.52392578125
 20
405.15087890625
 30
0.0
  0
SEQEND
  5
52F
330
52C
100
AcDbEntity
  8
COTAS
370
     0
  0
ENDBLK
  5
52B
330
528
100
AcDbEntity
  8
0
100
AcDbBlockEnd
  0
BLOCK
  5
532
330
530
100
AcDbEntity
  8
0
100
AcDbBlockBegin
  2
block 185
 70
     0
 71
     0
 10
0.0
 20
0.0
 30
0.0
  3
block 185
  1

  0
POLYLINE
  5
534
330
530
100
AcDbEntity
  8
COTAS
370
     0
100
AcDb2dPolyline
 66
     1
 10
0.0
 20
0.0
 30
0.0
  0
VERTEX
  5
535
330
534
100
AcDbEntity
  8
COTAS
370
     0
100
AcDbVertex
100
AcDb2dVertex
 10
34.52392578125
 20
425.982421875
 30
0.0
  0
VERTEX
  5
536
330
534
100
AcDbEntity
  8
COTAS
370
     0
100
AcDbVertex
100
AcDb2dVertex
 10
34.52392578125
 20
425.982421875
 30
0.0
  0
SEQEND
  5
537
330
534
100
AcDbEntity
  8
COTAS
370
     0
  0
ENDBLK
  5
533
330
530
100
AcDbEntity
  8
0
100
AcDbBlockEnd
  0
BLOCK
  5
53A
330
538
100
AcDbEntity
  8
0
100
AcDbBlockBegin
  2
block 186
 70
     0
 71
     0
 10
0.0
 20
0.0
 30
0.0
  3
block 186
  1

  0
INSERT
  5
53D
330
538
100
AcDbEntity
  8
COTAS
100
AcDbBlockReference
  2
block 187
 10
0.0
 20
0.0
 30
0.0
  0
INSERT
  5
545
330
538
100
AcDbEntity
  8
COTAS
100
AcDbBlockReference
  2
block 188
 10
0.0
 20
0.0
 30
0.0
  0
INSERT
  5
54D
330
538
100
AcDbEntity
  8
COTAS
100
AcDbBlockReference
  2
block 189
 10
0.0
 20
0.0
 30
0.0
  0
INSERT
  5
555
330
538
100
AcDbEntity
  8
COTAS
100
AcDbBlockReference
  2
block 190
 10
0.0
 20
0.0
 30
0.0
  0
INSERT
  5
55D
330
538
100
AcDbEntity
  8
COTAS
100
AcDbBlockReference
  2
block 191
 10
0.0
 20
0.0
 30
0.0
  0
INSERT
  5
568
330
538
100
AcDbEntity
  8
COTAS
100
AcDbBlockReference
  2
block 192
 10
0.0
 20
0.0
 30
0.0
  0
INSERT
  5
573
330
538
100
AcDbEntity
  8
COTAS
100
AcDbBlockReference
  2
block 193
 10
0.0
 20
0.0
 30
0.0
  0
INSERT
  5
578
330
538
100
AcDbEntity
  8
COTAS
100
AcDbBlockReference
  2
block 194
 10
0.0
 20
0.0
 30
0.0
  0
INSERT
  5
580
330
538
100
AcDbEntity
  8
COTAS
100
AcDbBlockReference
  2
block 195
 10
0.0
 20
0.0
 30
0.0
  0
INSERT
  5
588
330
538
100
AcDbEntity
  8
COTAS
100
AcDbBlockReference
  2
block 196
 10
0.0
 20
0.0
 30
0.0
  0
ENDBLK
  5
53B
330
538
100
AcDbEntity
  8
0
100
AcDbBlockEnd
  0
BLOCK
  5
53E
330
53C
100
AcDbEntity
  8
0
100
AcDbBlockBegin
  2
block 187
 70
     0
 71
     0
 10
0.0
 20
0.0
 30
0.0
  3
block 187
  1

  0
POLYLINE
  5
540
330
53C
100
AcDbEntity
  8
COTAS
 62
     7
370
     5
100
AcDb2dPolyline
 66
     1
 10
0.0
 20
0.0
 30
0.0
  0
VERTEX
  5
541
330
540
100
AcDbEntity
  8
COTAS
 62
     7
370
     5
100
AcDbVertex
100
AcDb2dVertex
 10
321.5400390625
 20
274.697265625
 30
0.0
  0
VERTEX
  5
542
330
540
100
AcDbEntity
  8
COTAS
 62
     7
370
     5
100
AcDbVertex
100
AcDb2dVertex
 10
376.5400390625
 20
274.697265625
 30
0.0
  0
SEQEND
  5
543
330
540
100
AcDbEntity
  8
COTAS
370
     5
  0
ENDBLK
  5
53F
330
53C
100
AcDbEntity
  8
0
100
AcDbBlockEnd
  0
BLOCK
  5
546
330
544
100
AcDbEntity
  8
0
100
AcDbBlockBegin
  2
block 188
 70
     0
 71
     0
 10
0.0
 20
0.0
 30
0.0
  3
block 188
  1

  0
POLYLINE
  5
548
330
544
100
AcDbEntity
  8
COTAS
 62
     7
370
     5
100
AcDb2dPolyline
 66
     1
 10
0.0
 20
0.0
 30
0.0
  0
VERTEX
  5
549
330
548
100
AcDbEntity
  8
COTAS
 62
     7
370
     5
100
AcDbVertex
100
AcDb2dVertex
 10
321.5400390625
 20
409.58251953125
 30
0.0
  0
VERTEX
  5
54A
330
548
100
AcDbEntity
  8
COTAS
 62
     7
370
     5
100
AcDbVertex
100
AcDb2dVertex
 10
376.5400390625
 20
409.58251953125
 30
0.0
  0
SEQEND
  5
54B
330
548
100
AcDbEntity
  8
COTAS
370
     5
  0
ENDBLK
  5
547
330
544
100
AcDbEntity
  8
0
100
AcDbBlockEnd
  0
BLOCK
  5
54E
330
54C
100
AcDbEntity
  8
0
100
AcDbBlockBegin
  2
block 189
 70
     0
 71
     0
 10
0.0
 20
0.0
 30
0.0
  3
block 189
  1

  0
POLYLINE
  5
550
330
54C
100
AcDbEntity
  8
COTAS
 62
     7
370
     5
100
AcDb2dPolyline
 66
     1
 10
0.0
 20
0.0
 30
0.0
  0
VERTEX
  5
551
330
550
100
AcDbEntity
  8
COTAS
 62
     7
370
     5
100
AcDbVertex
100
AcDb2dVertex
 10
371.7236328125
 20
284.33203125
 30
0.0
  0
VERTEX
  5
552
330
550
100
AcDbEntity
  8
COTAS
 62
     7
370
     5
100
AcDbVertex
100
AcDb2dVertex
 10
371.7236328125
 20
332.4833984375
 30
0.0
  0
SEQEND
  5
553
330
550
100
AcDbEntity
  8
COTAS
370
     5
  0
ENDBLK
  5
54F
330
54C
100
AcDbEntity
  8
0
100
AcDbBlockEnd
  0
BLOCK
  5
556
330
554
100
AcDbEntity
  8
0
100
AcDbBlockBegin
  2
block 190
 70
     0
 71
     0
 10
0.0
 20
0.0
 30
0.0
  3
block 190
  1

  0
POLYLINE
  5
558
330
554
100
AcDbEntity
  8
COTAS
 62
     7
370
     5
100
AcDb2dPolyline
 66
     1
 10
0.0
 20
0.0
 30
0.0
  0
VERTEX
  5
559
330
558
100
AcDbEntity
  8
COTAS
 62
     7
370
     5
100
AcDbVertex
100
AcDb2dVertex
 10
371.7236328125
 20
399.94775390625
 30
0.0
  0
VERTEX
  5
55A
330
558
100
AcDbEntity
  8
COTAS
 62
     7
370
     5
100
AcDbVertex
100
AcDb2dVertex
 10
371.7236328125
 20
347.1396484375
 30
0.0
  0
SEQEND
  5
55B
330
558
100
AcDbEntity
  8
COTAS
370
     5
  0
ENDBLK
  5
557
330
554
100
AcDbEntity
  8
0
100
AcDbBlockEnd
  0
BLOCK
  5
55E
330
55C
100
AcDbEntity
  8
0
100
AcDbBlockBegin
  2
block 191
 70
     0
 71
     0
 10
0.0
 20
0.0
 30
0.0
  3
block 191
  1

  0
POLYLINE
  5
560
330
55C
100
AcDbEntity
  8
COTAS
370
     0
100
AcDb2dPolyline
 66
     1
 10
0.0
 20
0.0
 30
0.0
  0
VERTEX
  5
561
330
560
100
AcDbEntity
  8
COTAS
370
     0
100
AcDbVertex
100
AcDb2dVertex
 10
370.1181640625
 20
284.33203125
 30
0.0
  0
VERTEX
  5
562
330
560
100
AcDbEntity
  8
COTAS
370
     0
100
AcDbVertex
100
AcDb2dVertex
 10
373.3291015625
 20
284.33203125
 30
0.0
  0
VERTEX
  5
563
330
560
100
AcDbEntity
  8
COTAS
370
     0
100
AcDbVertex
100
AcDb2dVertex
 10
371.7236328125
 20
274.697265625
 30
0.0
  0
VERTEX
  5
564
330
560
100
AcDbEntity
  8
COTAS
370
     0
100
AcDbVertex
100
AcDb2dVertex
 10
370.1181640625
 20
284.33203125
 30
0.0
  0
SEQEND
  5
565
330
560
100
AcDbEntity
  8
COTAS
370
     0
  0
HATCH
  5
566
330
55C
100
AcDbEntity
  8
COTAS
 62
     7
100
AcDbHatch
 10
0.0
 20
0.0
 30
0.0
210
0.0
220
0.0
230
1.0
  2
SOLID
 70
     1
 71
     0
 91
        1
 92
        1
 93
        3
 72
     1
 10
370.1181640625
 20
284.33203125
 11
373.3291015625
 21
284.33203125
 72
     1
 10
373.3291015625
 20
284.33203125
 11
371.7236328125
 21
274.697265625
 72
     1
 10
371.7236328125
 20
274.697265625
 11
370.1181640625
 21
284.33203125
 97
        0
 75
     2
 76
     1
 98
        0
  0
ENDBLK
  5
55F
330
55C
100
AcDbEntity
  8
0
100
AcDbBlockEnd
  0
BLOCK
  5
569
330
567
100
AcDbEntity
  8
0
100
AcDbBlockBegin
  2
block 192
 70
     0
 71
     0
 10
0.0
 20
0.0
 30
0.0
  3
block 192
  1

  0
POLYLINE
  5
56B
330
567
100
AcDbEntity
  8
COTAS
370
     0
100
AcDb2dPolyline
 66
     1
 10
0.0
 20
0.0
 30
0.0
  0
VERTEX
  5
56C
330
56B
100
AcDbEntity
  8
COTAS
370
     0
100
AcDbVertex
100
AcDb2dVertex
 10
370.1181640625
 20
399.94775390625
 30
0.0
  0
VERTEX
  5
56D
330
56B
100
AcDbEntity
  8
COTAS
370
     0
100
AcDbVertex
100
AcDb2dVertex
 10
373.3291015625
 20
399.94775390625
 30
0.0
  0
VERTEX
  5
56E
330
56B
100
AcDbEntity
  8
COTAS
370
     0
100
AcDbVertex
100
AcDb2dVertex
 10
371.7236328125
 20
409.58251953125
 30
0.0
  0
VERTEX
  5
56F
330
56B
100
AcDbEntity
  8
COTAS
370
     0
100
AcDbVertex
100
AcDb2dVertex
 10
370.1181640625
 20
399.94775390625
 30
0.0
  0
SEQEND
  5
570
330
56B
100
AcDbEntity
  8
COTAS
370
     0
  0
HATCH
  5
571
330
567
100
AcDbEntity
  8
COTAS
 62
     7
100
AcDbHatch
 10
0.0
 20
0.0
 30
0.0
210
0.0
220
0.0
230
1.0
  2
SOLID
 70
     1
 71
     0
 91
        1
 92
        1
 93
        3
 72
     1
 10
370.1181640625
 20
399.94775390625
 11
373.3291015625
 21
399.94775390625
 72
     1
 10
373.3291015625
 20
399.94775390625
 11
371.7236328125
 21
409.58251953125
 72
     1
 10
371.7236328125
 20
409.58251953125
 11
370.1181640625
 21
399.94775390625
 97
        0
 75
     2
 76
     1
 98
        0
  0
ENDBLK
  5
56A
330
567
100
AcDbEntity
  8
0
100
AcDbBlockEnd
  0
BLOCK
  5
574
330
572
100
AcDbEntity
  8
0
100
AcDbBlockBegin
  2
block 193
 70
     0
 71
     0
 10
0.0
 20
0.0
 30
0.0
  3
block 193
  1

  0
MTEXT
  5
576
330
572
100
AcDbEntity
  8
COTAS
 62
     7
100
AcDbMText
 10
360.513671875
 20
335.056640625
 30
0.0
 40
6.800000000000001
 41
0.0
 71
     7
 72
     1
  1
\fArial|b1|i0|c0|p34;\W1;700
 73
     1
 44
1.0
  0
ENDBLK
  5
575
330
572
100
AcDbEntity
  8
0
100
AcDbBlockEnd
  0
BLOCK
  5
579
330
577
100
AcDbEntity
  8
0
100
AcDbBlockBegin
  2
block 194
 70
     0
 71
     0
 10
0.0
 20
0.0
 30
0.0
  3
block 194
  1

  0
POLYLINE
  5
57B
330
577
100
AcDbEntity
  8
COTAS
370
     0
100
AcDb2dPolyline
 66
     1
 10
0.0
 20
0.0
 30
0.0
  0
VERTEX
  5
57C
330
57B
100
AcDbEntity
  8
COTAS
370
     0
100
AcDbVertex
100
AcDb2dVertex
 10
319.130859375
 20
274.697265625
 30
0.0
  0
VERTEX
  5
57D
330
57B
100
AcDbEntity
  8
COTAS
370
     0
100
AcDbVertex
100
AcDb2dVertex
 10
319.130859375
 20
274.697265625
 30
0.0
  0
SEQEND
  5
57E
330
57B
100
AcDbEntity
  8
COTAS
370
     0
  0
ENDBLK
  5
57A
330
577
100
AcDbEntity
  8
0
100
AcDbBlockEnd
  0
BLOCK
  5
581
330
57F
100
AcDbEntity
  8
0
100
AcDbBlockBegin
  2
block 195
 70
     0
 71
     0
 10
0.0
 20
0.0
 30
0.0
  3
block 195
  1

  0
POLYLINE
  5
583
330
57F
100
AcDbEntity
  8
COTAS
370
     0
100
AcDb2dPolyline
 66
     1
 10
0.0
 20
0.0
 30
0.0
  0
VERTEX
  5
584
330
583
100
AcDbEntity
  8
COTAS
370
     0
100
AcDbVertex
100
AcDb2dVertex
 10
319.130859375
 20
409.58251953125
 30
0.0
  0
VERTEX
  5
585
330
583
100
AcDbEntity
  8
COTAS
370
     0
100
AcDbVertex
100
AcDb2dVertex
 10
319.130859375
 20
409.58251953125
 30
0.0
  0
SEQEND
  5
586
330
583
100
AcDbEntity
  8
COTAS
370
     0
  0
ENDBLK
  5
582
330
57F
100
AcDbEntity
  8
0
100
AcDbBlockEnd
  0
BLOCK
  5
589
330
587
100
AcDbEntity
  8
0
100
AcDbBlockBegin
  2
block 196
 70
     0
 71
     0
 10
0.0
 20
0.0
 30
0.0
  3
block 196
  1

  0
POLYLINE
  5
58B
330
587
100
AcDbEntity
  8
COTAS
370
     0
100
AcDb2dPolyline
 66
     1
 10
0.0
 20
0.0
 30
0.0
  0
VERTEX
  5
58C
330
58B
100
AcDbEntity
  8
COTAS
370
     0
100
AcDbVertex
100
AcDb2dVertex
 10
371.7236328125
 20
409.58251953125
 30
0.0
  0
VERTEX
  5
58D
330
58B
100
AcDbEntity
  8
COTAS
370
     0
100
AcDbVertex
100
AcDb2dVertex
 10
371.7236328125
 20
409.58251953125
 30
0.0
  0
SEQEND
  5
58E
330
58B
100
AcDbEntity
  8
COTAS
370
     0
  0
ENDBLK
  5
58A
330
587
100
AcDbEntity
  8
0
100
AcDbBlockEnd
  0
BLOCK
  5
591
330
58F
100
AcDbEntity
  8
0
100
AcDbBlockBegin
  2
block 197
 70
     0
 71
     0
 10
0.0
 20
0.0
 30
0.0
  3
block 197
  1

  0
INSERT
  5
594
330
58F
100
AcDbEntity
  8
COTAS
100
AcDbBlockReference
  2
block 198
 10
0.0
 20
0.0
 30
0.0
  0
INSERT
  5
59C
330
58F
100
AcDbEntity
  8
COTAS
100
AcDbBlockReference
  2
block 199
 10
0.0
 20
0.0
 30
0.0
  0
INSERT
  5
5A4
330
58F
100
AcDbEntity
  8
COTAS
100
AcDbBlockReference
  2
block 200
 10
0.0
 20
0.0
 30
0.0
  0
INSERT
  5
5AC
330
58F
100
AcDbEntity
  8
COTAS
100
AcDbBlockReference
  2
block 201
 10
0.0
 20
0.0
 30
0.0
  0
INSERT
  5
5B4
330
58F
100
AcDbEntity
  8
COTAS
100
AcDbBlockReference
  2
block 202
 10
0.0
 20
0.0
 30
0.0
  0
INSERT
  5
5BF
330
58F
100
AcDbEntity
  8
COTAS
100
AcDbBlockReference
  2
block 203
 10
0.0
 20
0.0
 30
0.0
  0
INSERT
  5
5CA
330
58F
100
AcDbEntity
  8
COTAS
100
AcDbBlockReference
  2
block 204
 10
0.0
 20
0.0
 30
0.0
  0
INSERT
  5
5CF
330
58F
100
AcDbEntity
  8
COTAS
100
AcDbBlockReference
  2
block 205
 10
0.0
 20
0.0
 30
0.0
  0
INSERT
  5
5D7
330
58F
100
AcDbEntity
  8
COTAS
100
AcDbBlockReference
  2
block 206
 10
0.0
 20
0.0
 30
0.0
  0
INSERT
  5
5DF
330
58F
100
AcDbEntity
  8
COTAS
100
AcDbBlockReference
  2
block 207
 10
0.0
 20
0.0
 30
0.0
  0
ENDBLK
  5
592
330
58F
100
AcDbEntity
  8
0
100
AcDbBlockEnd
  0
BLOCK
  5
595
330
593
100
AcDbEntity
  8
0
100
AcDbBlockBegin
  2
block 198
 70
     0
 71
     0
 10
0.0
 20
0.0
 30
0.0
  3
block 198
  1

  0
POLYLINE
  5
597
330
593
100
AcDbEntity
  8
COTAS
 62
     7
370
     5
100
AcDb2dPolyline
 66
     1
 10
0.0
 20
0.0
 30
0.0
  0
VERTEX
  5
598
330
597
100
AcDbEntity
  8
COTAS
 62
     7
370
     5
100
AcDbVertex
100
AcDb2dVertex
 10
338.7333984375
 20
386.638671875
 30
0.0
  0
VERTEX
  5
599
330
597
100
AcDbEntity
  8
COTAS
 62
     7
370
     5
100
AcDbVertex
100
AcDb2dVertex
 10
344.85546875
 20
386.638671875
 30
0.0
  0
SEQEND
  5
59A
330
597
100
AcDbEntity
  8
COTAS
370
     5
  0
ENDBLK
  5
596
330
593
100
AcDbEntity
  8
0
100
AcDbBlockEnd
  0
BLOCK
  5
59D
330
59B
100
AcDbEntity
  8
0
100
AcDbBlockBegin
  2
block 199
 70
     0
 71
     0
 10
0.0
 20
0.0
 30
0.0
  3
block 199
  1

  0
POLYLINE
  5
59F
330
59B
100
AcDbEntity
  8
COTAS
 62
     7
370
     5
100
AcDb2dPolyline
 66
     1
 10
0.0
 20
0.0
 30
0.0
  0
VERTEX
  5
5A0
330
59F
100
AcDbEntity
  8
COTAS
 62
     7
370
     5
100
AcDbVertex
100
AcDb2dVertex
 10
338.7333984375
 20
297.640625
 30
0.0
  0
VERTEX
  5
5A1
330
59F
100
AcDbEntity
  8
COTAS
 62
     7
370
     5
100
AcDbVertex
100
AcDb2dVertex
 10
344.85546875
 20
297.640625
 30
0.0
  0
SEQEND
  5
5A2
330
59F
100
AcDbEntity
  8
COTAS
370
     5
  0
ENDBLK
  5
59E
330
59B
100
AcDbEntity
  8
0
100
AcDbBlockEnd
  0
BLOCK
  5
5A5
330
5A3
100
AcDbEntity
  8
0
100
AcDbBlockBegin
  2
block 200
 70
     0
 71
     0
 10
0.0
 20
0.0
 30
0.0
  3
block 200
  1

  0
POLYLINE
  5
5A7
330
5A3
100
AcDbEntity
  8
COTAS
 62
     7
370
     5
100
AcDb2dPolyline
 66
     1
 10
0.0
 20
0.0
 30
0.0
  0
VERTEX
  5
5A8
330
5A7
100
AcDbEntity
  8
COTAS
 62
     7
370
     5
100
AcDbVertex
100
AcDb2dVertex
 10
340.0390625
 20
377.0048828125
 30
0.0
  0
VERTEX
  5
5A9
330
5A7
100
AcDbEntity
  8
COTAS
 62
     7
370
     5
100
AcDbVertex
100
AcDb2dVertex
 10
340.0390625
 20
349.4677734375
 30
0.0
  0
SEQEND
  5
5AA
330
5A7
100
AcDbEntity
  8
COTAS
370
     5
  0
ENDBLK
  5
5A6
330
5A3
100
AcDbEntity
  8
0
100
AcDbBlockEnd
  0
BLOCK
  5
5AD
330
5AB
100
AcDbEntity
  8
0
100
AcDbBlockBegin
  2
block 201
 70
     0
 71
     0
 10
0.0
 20
0.0
 30
0.0
  3
block 201
  1

  0
POLYLINE
  5
5AF
330
5AB
100
AcDbEntity
  8
COTAS
 62
     7
370
     5
100
AcDb2dPolyline
 66
     1
 10
0.0
 20
0.0
 30
0.0
  0
VERTEX
  5
5B0
330
5AF
100
AcDbEntity
  8
COTAS
 62
     7
370
     5
100
AcDbVertex
100
AcDb2dVertex
 10
340.0390625
 20
307.275390625
 30
0.0
  0
VERTEX
  5
5B1
330
5AF
100
AcDbEntity
  8
COTAS
 62
     7
370
     5
100
AcDbVertex
100
AcDb2dVertex
 10
340.0390625
 20
334.8125
 30
0.0
  0
SEQEND
  5
5B2
330
5AF
100
AcDbEntity
  8
COTAS
370
     5
  0
ENDBLK
  5
5AE
330
5AB
100
AcDbEntity
  8
0
100
AcDbBlockEnd
  0
BLOCK
  5
5B5
330
5B3
100
AcDbEntity
  8
0
100
AcDbBlockBegin
  2
block 202
 70
     0
 71
     0
 10
0.0
 20
0.0
 30
0.0
  3
block 202
  1

  0
POLYLINE
  5
5B7
330
5B3
100
AcDbEntity
  8
COTAS
370
     0
100
AcDb2dPolyline
 66
     1
 10
0.0
 20
0.0
 30
0.0
  0
VERTEX
  5
5B8
330
5B7
100
AcDbEntity
  8
COTAS
370
     0
100
AcDbVertex
100
AcDb2dVertex
 10
338.4326171875
 20
377.0048828125
 30
0.0
  0
VERTEX
  5
5B9
330
5B7
100
AcDbEntity
  8
COTAS
370
     0
100
AcDbVertex
100
AcDb2dVertex
 10
341.64453125
 20
377.0048828125
 30
0.0
  0
VERTEX
  5
5BA
330
5B7
100
AcDbEntity
  8
COTAS
370
     0
100
AcDbVertex
100
AcDb2dVertex
 10
340.0390625
 20
386.638671875
 30
0.0
  0
VERTEX
  5
5BB
330
5B7
100
AcDbEntity
  8
COTAS
370
     0
100
AcDbVertex
100
AcDb2dVertex
 10
338.4326171875
 20
377.0048828125
 30
0.0
  0
SEQEND
  5
5BC
330
5B7
100
AcDbEntity
  8
COTAS
370
     0
  0
HATCH
  5
5BD
330
5B3
100
AcDbEntity
  8
COTAS
 62
     7
100
AcDbHatch
 10
0.0
 20
0.0
 30
0.0
210
0.0
220
0.0
230
1.0
  2
SOLID
 70
     1
 71
     0
 91
        1
 92
        1
 93
        3
 72
     1
 10
338.4326171875
 20
377.0048828125
 11
341.64453125
 21
377.0048828125
 72
     1
 10
341.64453125
 20
377.0048828125
 11
340.0390625
 21
386.638671875
 72
     1
 10
340.0390625
 20
386.638671875
 11
338.4326171875
 21
377.0048828125
 97
        0
 75
     2
 76
     1
 98
        0
  0
ENDBLK
  5
5B6
330
5B3
100
AcDbEntity
  8
0
100
AcDbBlockEnd
  0
BLOCK
  5
5C0
330
5BE
100
AcDbEntity
  8
0
100
AcDbBlockBegin
  2
block 203
 70
     0
 71
     0
 10
0.0
 20
0.0
 30
0.0
  3
block 203
  1

  0
POLYLINE
  5
5C2
330
5BE
100
AcDbEntity
  8
COTAS
370
     0
100
AcDb2dPolyline
 66
     1
 10
0.0
 20
0.0
 30
0.0
  0
VERTEX
  5
5C3
330
5C2
100
AcDbEntity
  8
COTAS
370
     0
100
AcDbVertex
100
AcDb2dVertex
 10
338.4326171875
 20
307.275390625
 30
0.0
  0
VERTEX
  5
5C4
330
5C2
100
AcDbEntity
  8
COTAS
370
     0
100
AcDbVertex
100
AcDb2dVertex
 10
341.64453125
 20
307.275390625
 30
0.0
  0
VERTEX
  5
5C5
330
5C2
100
AcDbEntity
  8
COTAS
370
     0
100
AcDbVertex
100
AcDb2dVertex
 10
340.0390625
 20
297.640625
 30
0.0
  0
VERTEX
  5
5C6
330
5C2
100
AcDbEntity
  8
COTAS
370
     0
100
AcDbVertex
100
AcDb2dVertex
 10
338.4326171875
 20
307.275390625
 30
0.0
  0
SEQEND
  5
5C7
330
5C2
100
AcDbEntity
  8
COTAS
370
     0
  0
HATCH
  5
5C8
330
5BE
100
AcDbEntity
  8
COTAS
 62
     7
100
AcDbHatch
 10
0.0
 20
0.0
 30
0.0
210
0.0
220
0.0
230
1.0
  2
SOLID
 70
     1
 71
     0
 91
        1
 92
        1
 93
        3
 72
     1
 10
338.4326171875
 20
307.275390625
 11
341.64453125
 21
307.275390625
 72
     1
 10
341.64453125
 20
307.275390625
 11
340.0390625
 21
297.640625
 72
     1
 10
340.0390625
 20
297.640625
 11
338.4326171875
 21
307.275390625
 97
        0
 75
     2
 76
     1
 98
        0
  0
ENDBLK
  5
5C1
330
5BE
100
AcDbEntity
  8
0
100
AcDbBlockEnd
  0
BLOCK
  5
5CB
330
5C9
100
AcDbEntity
  8
0
100
AcDbBlockBegin
  2
block 204
 70
     0
 71
     0
 10
0.0
 20
0.0
 30
0.0
  3
block 204
  1

  0
MTEXT
  5
5CD
330
5C9
100
AcDbEntity
  8
COTAS
 62
     7
100
AcDbMText
 10
329.060546875
 20
337.384765625
 30
0.0
 40
6.800000000000001
 41
0.0
 71
     7
 72
     1
  1
\fArial|b1|i0|c0|p34;\W1;460
 73
     1
 44
1.0
  0
ENDBLK
  5
5CC
330
5C9
100
AcDbEntity
  8
0
100
AcDbBlockEnd
  0
BLOCK
  5
5D0
330
5CE
100
AcDbEntity
  8
0
100
AcDbBlockBegin
  2
block 205
 70
     0
 71
     0
 10
0.0
 20
0.0
 30
0.0
  3
block 205
  1

  0
POLYLINE
  5
5D2
330
5CE
100
AcDbEntity
  8
COTAS
370
     0
100
AcDb2dPolyline
 66
     1
 10
0.0
 20
0.0
 30
0.0
  0
VERTEX
  5
5D3
330
5D2
100
AcDbEntity
  8
COTAS
370
     0
100
AcDbVertex
100
AcDb2dVertex
 10
336.3251953125
 20
386.638671875
 30
0.0
  0
VERTEX
  5
5D4
330
5D2
100
AcDbEntity
  8
COTAS
370
     0
100
AcDbVertex
100
AcDb2dVertex
 10
336.3251953125
 20
386.638671875
 30
0.0
  0
SEQEND
  5
5D5
330
5D2
100
AcDbEntity
  8
COTAS
370
     0
  0
ENDBLK
  5
5D1
330
5CE
100
AcDbEntity
  8
0
100
AcDbBlockEnd
  0
BLOCK
  5
5D8
330
5D6
100
AcDbEntity
  8
0
100
AcDbBlockBegin
  2
block 206
 70
     0
 71
     0
 10
0.0
 20
0.0
 30
0.0
  3
block 206
  1

  0
POLYLINE
  5
5DA
330
5D6
100
AcDbEntity
  8
COTAS
370
     0
100
AcDb2dPolyline
 66
     1
 10
0.0
 20
0.0
 30
0.0
  0
VERTEX
  5
5DB
330
5DA
100
AcDbEntity
  8
COTAS
370
     0
100
AcDbVertex
100
AcDb2dVertex
 10
336.3251953125
 20
297.640625
 30
0.0
  0
VERTEX
  5
5DC
330
5DA
100
AcDbEntity
  8
COTAS
370
     0
100
AcDbVertex
100
AcDb2dVertex
 10
336.3251953125
 20
297.640625
 30
0.0
  0
SEQEND
  5
5DD
330
5DA
100
AcDbEntity
  8
COTAS
370
     0
  0
ENDBLK
  5
5D9
330
5D6
100
AcDbEntity
  8
0
100
AcDbBlockEnd
  0
BLOCK
  5
5E0
330
5DE
100
AcDbEntity
  8
0
100
AcDbBlockBegin
  2
block 207
 70
     0
 71
     0
 10
0.0
 20
0.0
 30
0.0
  3
block 207
  1

  0
POLYLINE
  5
5E2
330
5DE
100
AcDbEntity
  8
COTAS
370
     0
100
AcDb2dPolyline
 66
     1
 10
0.0
 20
0.0
 30
0.0
  0
VERTEX
  5
5E3
330
5E2
100
AcDbEntity
  8
COTAS
370
     0
100
AcDbVertex
100
AcDb2dVertex
 10
340.0390625
 20
297.640625
 30
0.0
  0
VERTEX
  5
5E4
330
5E2
100
AcDbEntity
  8
COTAS
370
     0
100
AcDbVertex
100
AcDb2dVertex
 10
340.0390625
 20
297.640625
 30
0.0
  0
SEQEND
  5
5E5
330
5E2
100
AcDbEntity
  8
COTAS
370
     0
  0
ENDBLK
  5
5E1
330
5DE
100
AcDbEntity
  8
0
100
AcDbBlockEnd
  0
BLOCK
  5
5E8
330
5E6
100
AcDbEntity
  8
0
100
AcDbBlockBegin
  2
block 208
 70
     0
 71
     0
 10
0.0
 20
0.0
 30
0.0
  3
block 208
  1

  0
INSERT
  5
5EB
330
5E6
100
AcDbEntity
  8
COTAS
100
AcDbBlockReference
  2
block 209
 10
0.0
 20
0.0
 30
0.0
  0
INSERT
  5
5F3
330
5E6
100
AcDbEntity
  8
COTAS
100
AcDbBlockReference
  2
block 210
 10
0.0
 20
0.0
 30
0.0
  0
INSERT
  5
5FB
330
5E6
100
AcDbEntity
  8
COTAS
100
AcDbBlockReference
  2
block 211
 10
0.0
 20
0.0
 30
0.0
  0
INSERT
  5
603
330
5E6
100
AcDbEntity
  8
COTAS
100
AcDbBlockReference
  2
block 212
 10
0.0
 20
0.0
 30
0.0
  0
INSERT
  5
60B
330
5E6
100
AcDbEntity
  8
COTAS
100
AcDbBlockReference
  2
block 213
 10
0.0
 20
0.0
 30
0.0
  0
INSERT
  5
613
330
5E6
100
AcDbEntity
  8
COTAS
100
AcDbBlockReference
  2
block 214
 10
0.0
 20
0.0
 30
0.0
  0
INSERT
  5
61E
330
5E6
100
AcDbEntity
  8
COTAS
100
AcDbBlockReference
  2
block 215
 10
0.0
 20
0.0
 30
0.0
  0
INSERT
  5
629
330
5E6
100
AcDbEntity
  8
COTAS
100
AcDbBlockReference
  2
block 216
 10
0.0
 20
0.0
 30
0.0
  0
INSERT
  5
62E
330
5E6
100
AcDbEntity
  8
COTAS
100
AcDbBlockReference
  2
block 217
 10
0.0
 20
0.0
 30
0.0
  0
INSERT
  5
636
330
5E6
100
AcDbEntity
  8
COTAS
100
AcDbBlockReference
  2
block 218
 10
0.0
 20
0.0
 30
0.0
  0
INSERT
  5
63E
330
5E6
100
AcDbEntity
  8
COTAS
100
AcDbBlockReference
  2
block 219
 10
0.0
 20
0.0
 30
0.0
  0
ENDBLK
  5
5E9
330
5E6
100
AcDbEntity
  8
0
100
AcDbBlockEnd
  0
BLOCK
  5
5EC
330
5EA
100
AcDbEntity
  8
0
100
AcDbBlockBegin
  2
block 209
 70
     0
 71
     0
 10
0.0
 20
0.0
 30
0.0
  3
block 209
  1

  0
POLYLINE
  5
5EE
330
5EA
100
AcDbEntity
  8
COTAS
 62
     7
370
     5
100
AcDb2dPolyline
 66
     1
 10
0.0
 20
0.0
 30
0.0
  0
VERTEX
  5
5EF
330
5EE
100
AcDbEntity
  8
COTAS
 62
     7
370
     5
100
AcDbVertex
100
AcDb2dVertex
 10
34.52392578125
 20
540.0029296875
 30
0.0
  0
VERTEX
  5
5F0
330
5EE
100
AcDbEntity
  8
COTAS
 62
     7
370
     5
100
AcDbVertex
100
AcDb2dVertex
 10
34.52392578125
 20
561.28662109375
 30
0.0
  0
SEQEND
  5
5F1
330
5EE
100
AcDbEntity
  8
COTAS
370
     5
  0
ENDBLK
  5
5ED
330
5EA
100
AcDbEntity
  8
0
100
AcDbBlockEnd
  0
BLOCK
  5
5F4
330
5F2
100
AcDbEntity
  8
0
100
AcDbBlockBegin
  2
block 210
 70
     0
 71
     0
 10
0.0
 20
0.0
 30
0.0
  3
block 210
  1

  0
POLYLINE
  5
5F6
330
5F2
100
AcDbEntity
  8
COTAS
 62
     7
370
     5
100
AcDb2dPolyline
 66
     1
 10
0.0
 20
0.0
 30
0.0
  0
VERTEX
  5
5F7
330
5F6
100
AcDbEntity
  8
COTAS
 62
     7
370
     5
100
AcDbVertex
100
AcDb2dVertex
 10
56.02685546875
 20
536.36328125
 30
0.0
  0
VERTEX
  5
5F8
330
5F6
100
AcDbEntity
  8
COTAS
 62
     7
370
     5
100
AcDbVertex
100
AcDb2dVertex
 10
56.02685546875
 20
561.28662109375
 30
0.0
  0
SEQEND
  5
5F9
330
5F6
100
AcDbEntity
  8
COTAS
370
     5
  0
ENDBLK
  5
5F5
330
5F2
100
AcDbEntity
  8
0
100
AcDbBlockEnd
  0
BLOCK
  5
5FC
330
5FA
100
AcDbEntity
  8
0
100
AcDbBlockBegin
  2
block 211
 70
     0
 71
     0
 10
0.0
 20
0.0
 30
0.0
  3
block 211
  1

  0
POLYLINE
  5
5FE
330
5FA
100
AcDbEntity
  8
COTAS
 62
     7
370
     5
100
AcDb2dPolyline
 66
     1
 10
0.0
 20
0.0
 30
0.0
  0
VERTEX
  5
5FF
330
5FE
100
AcDbEntity
  8
COTAS
 62
     7
370
     5
100
AcDbVertex
100
AcDb2dVertex
 10
24.888671875
 20
556.46923828125
 30
0.0
  0
VERTEX
  5
600
330
5FE
100
AcDbEntity
  8
COTAS
 62
     7
370
     5
100
AcDbVertex
100
AcDb2dVertex
 10
15.25439453125
 20
556.46923828125
 30
0.0
  0
SEQEND
  5
601
330
5FE
100
AcDbEntity
  8
COTAS
370
     5
  0
ENDBLK
  5
5FD
330
5FA
100
AcDbEntity
  8
0
100
AcDbBlockEnd
  0
BLOCK
  5
604
330
602
100
AcDbEntity
  8
0
100
AcDbBlockBegin
  2
block 212
 70
     0
 71
     0
 10
0.0
 20
0.0
 30
0.0
  3
block 212
  1

  0
POLYLINE
  5
606
330
602
100
AcDbEntity
  8
COTAS
 62
     7
370
     5
100
AcDb2dPolyline
 66
     1
 10
0.0
 20
0.0
 30
0.0
  0
VERTEX
  5
607
330
606
100
AcDbEntity
  8
COTAS
 62
     7
370
     5
100
AcDbVertex
100
AcDb2dVertex
 10
65.6611328125
 20
556.46923828125
 30
0.0
  0
VERTEX
  5
608
330
606
100
AcDbEntity
  8
COTAS
 62
     7
370
     5
100
AcDbVertex
100
AcDb2dVertex
 10
75.29638671875
 20
556.46923828125
 30
0.0
  0
SEQEND
  5
609
330
606
100
AcDbEntity
  8
COTAS
370
     5
  0
ENDBLK
  5
605
330
602
100
AcDbEntity
  8
0
100
AcDbBlockEnd
  0
BLOCK
  5
60C
330
60A
100
AcDbEntity
  8
0
100
AcDbBlockBegin
  2
block 213
 70
     0
 71
     0
 10
0.0
 20
0.0
 30
0.0
  3
block 213
  1

  0
POLYLINE
  5
60E
330
60A
100
AcDbEntity
  8
COTAS
 62
     7
370
     5
100
AcDb2dPolyline
 66
     1
 10
0.0
 20
0.0
 30
0.0
  0
VERTEX
  5
60F
330
60E
100
AcDbEntity
  8
COTAS
 62
     7
370
     5
100
AcDbVertex
100
AcDb2dVertex
 10
34.52392578125
 20
556.46923828125
 30
0.0
  0
VERTEX
  5
610
330
60E
100
AcDbEntity
  8
COTAS
 62
     7
370
     5
100
AcDbVertex
100
AcDb2dVertex
 10
56.02685546875
 20
556.46923828125
 30
0.0
  0
SEQEND
  5
611
330
60E
100
AcDbEntity
  8
COTAS
370
     5
  0
ENDBLK
  5
60D
330
60A
100
AcDbEntity
  8
0
100
AcDbBlockEnd
  0
BLOCK
  5
614
330
612
100
AcDbEntity
  8
0
100
AcDbBlockBegin
  2
block 214
 70
     0
 71
     0
 10
0.0
 20
0.0
 30
0.0
  3
block 214
  1

  0
POLYLINE
  5
616
330
612
100
AcDbEntity
  8
COTAS
370
     0
100
AcDb2dPolyline
 66
     1
 10
0.0
 20
0.0
 30
0.0
  0
VERTEX
  5
617
330
616
100
AcDbEntity
  8
COTAS
370
     0
100
AcDbVertex
100
AcDb2dVertex
 10
24.888671875
 20
558.0751953125
 30
0.0
  0
VERTEX
  5
618
330
616
100
AcDbEntity
  8
COTAS
370
     0
100
AcDbVertex
100
AcDb2dVertex
 10
24.888671875
 20
554.86328125
 30
0.0
  0
VERTEX
  5
619
330
616
100
AcDbEntity
  8
COTAS
370
     0
100
AcDbVertex
100
AcDb2dVertex
 10
34.52392578125
 20
556.46923828125
 30
0.0
  0
VERTEX
  5
61A
330
616
100
AcDbEntity
  8
COTAS
370
     0
100
AcDbVertex
100
AcDb2dVertex
 10
24.888671875
 20
558.0751953125
 30
0.0
  0
SEQEND
  5
61B
330
616
100
AcDbEntity
  8
COTAS
370
     0
  0
HATCH
  5
61C
330
612
100
AcDbEntity
  8
COTAS
 62
     7
100
AcDbHatch
 10
0.0
 20
0.0
 30
0.0
210
0.0
220
0.0
230
1.0
  2
SOLID
 70
     1
 71
     0
 91
        1
 92
        1
 93
        3
 72
     1
 10
24.888671875
 20
558.0751953125
 11
24.888671875
 21
554.86328125
 72
     1
 10
24.888671875
 20
554.86328125
 11
34.52392578125
 21
556.46923828125
 72
     1
 10
34.52392578125
 20
556.46923828125
 11
24.888671875
 21
558.0751953125
 97
        0
 75
     2
 76
     1
 98
        0
  0
ENDBLK
  5
615
330
612
100
AcDbEntity
  8
0
100
AcDbBlockEnd
  0
BLOCK
  5
61F
330
61D
100
AcDbEntity
  8
0
100
AcDbBlockBegin
  2
block 215
 70
     0
 71
     0
 10
0.0
 20
0.0
 30
0.0
  3
block 215
  1

  0
POLYLINE
  5
621
330
61D
100
AcDbEntity
  8
COTAS
370
     0
100
AcDb2dPolyline
 66
     1
 10
0.0
 20
0.0
 30
0.0
  0
VERTEX
  5
622
330
621
100
AcDbEntity
  8
COTAS
370
     0
100
AcDbVertex
100
AcDb2dVertex
 10
65.6611328125
 20
558.0751953125
 30
0.0
  0
VERTEX
  5
623
330
621
100
AcDbEntity
  8
COTAS
370
     0
100
AcDbVertex
100
AcDb2dVertex
 10
65.6611328125
 20
554.86328125
 30
0.0
  0
VERTEX
  5
624
330
621
100
AcDbEntity
  8
COTAS
370
     0
100
AcDbVertex
100
AcDb2dVertex
 10
56.02685546875
 20
556.46923828125
 30
0.0
  0
VERTEX
  5
625
330
621
100
AcDbEntity
  8
COTAS
370
     0
100
AcDbVertex
100
AcDb2dVertex
 10
65.6611328125
 20
558.0751953125
 30
0.0
  0
SEQEND
  5
626
330
621
100
AcDbEntity
  8
COTAS
370
     0
  0
HATCH
  5
627
330
61D
100
AcDbEntity
  8
COTAS
 62
     7
100
AcDbHatch
 10
0.0
 20
0.0
 30
0.0
210
0.0
220
0.0
230
1.0
  2
SOLID
 70
     1
 71
     0
 91
        1
 92
        1
 93
        3
 72
     1
 10
65.6611328125
 20
558.0751953125
 11
65.6611328125
 21
554.86328125
 72
     1
 10
65.6611328125
 20
554.86328125
 11
56.02685546875
 21
556.46923828125
 72
     1
 10
56.02685546875
 20
556.46923828125
 11
65.6611328125
 21
558.0751953125
 97
        0
 75
     2
 76
     1
 98
        0
  0
ENDBLK
  5
620
330
61D
100
AcDbEntity
  8
0
100
AcDbBlockEnd
  0
BLOCK
  5
62A
330
628
100
AcDbEntity
  8
0
100
AcDbBlockBegin
  2
block 216
 70
     0
 71
     0
 10
0.0
 20
0.0
 30
0.0
  3
block 216
  1

  0
MTEXT
  5
62C
330
628
100
AcDbEntity
  8
COTAS
 62
     7
100
AcDbMText
 10
76.25439453125
 20
551.71435546875
 30
0.0
 40
6.800000000000001
 41
0.0
 71
     7
 72
     1
  1
\fArial|b1|i0|c0|p34;\W1;110
 73
     1
 44
1.0
  0
ENDBLK
  5
62B
330
628
100
AcDbEntity
  8
0
100
AcDbBlockEnd
  0
BLOCK
  5
62F
330
62D
100
AcDbEntity
  8
0
100
AcDbBlockBegin
  2
block 217
 70
     0
 71
     0
 10
0.0
 20
0.0
 30
0.0
  3
block 217
  1

  0
POLYLINE
  5
631
330
62D
100
AcDbEntity
  8
COTAS
370
     0
100
AcDb2dPolyline
 66
     1
 10
0.0
 20
0.0
 30
0.0
  0
VERTEX
  5
632
330
631
100
AcDbEntity
  8
COTAS
370
     0
100
AcDbVertex
100
AcDb2dVertex
 10
34.52392578125
 20
537.5947265625
 30
0.0
  0
VERTEX
  5
633
330
631
100
AcDbEntity
  8
COTAS
370
     0
100
AcDbVertex
100
AcDb2dVertex
 10
34.52392578125
 20
537.5947265625
 30
0.0
  0
SEQEND
  5
634
330
631
100
AcDbEntity
  8
COTAS
370
     0
  0
ENDBLK
  5
630
330
62D
100
AcDbEntity
  8
0
100
AcDbBlockEnd
  0
BLOCK
  5
637
330
635
100
AcDbEntity
  8
0
100
AcDbBlockBegin
  2
block 218
 70
     0
 71
     0
 10
0.0
 20
0.0
 30
0.0
  3
block 218
  1

  0
POLYLINE
  5
639
330
635
100
AcDbEntity
  8
COTAS
370
     0
100
AcDb2dPolyline
 66
     1
 10
0.0
 20
0.0
 30
0.0
  0
VERTEX
  5
63A
330
639
100
AcDbEntity
  8
COTAS
370
     0
100
AcDbVertex
100
AcDb2dVertex
 10
56.02685546875
 20
533.955078125
 30
0.0
  0
VERTEX
  5
63B
330
639
100
AcDbEntity
  8
COTAS
370
     0
100
AcDbVertex
100
AcDb2dVertex
 10
56.02685546875
 20
533.955078125
 30
0.0
  0
SEQEND
  5
63C
330
639
100
AcDbEntity
  8
COTAS
370
     0
  0
ENDBLK
  5
638
330
635
100
AcDbEntity
  8
0
100
AcDbBlockEnd
  0
BLOCK
  5
63F
330
63D
100
AcDbEntity
  8
0
100
AcDbBlockBegin
  2
block 219
 70
     0
 71
     0
 10
0.0
 20
0.0
 30
0.0
  3
block 219
  1

  0
POLYLINE
  5
641
330
63D
100
AcDbEntity
  8
COTAS
370
     0
100
AcDb2dPolyline
 66
     1
 10
0.0
 20
0.0
 30
0.0
  0
VERTEX
  5
642
330
641
100
AcDbEntity
  8
COTAS
370
     0
100
AcDbVertex
100
AcDb2dVertex
 10
56.02685546875
 20
556.46923828125
 30
0.0
  0
VERTEX
  5
643
330
641
100
AcDbEntity
  8
COTAS
370
     0
100
AcDbVertex
100
AcDb2dVertex
 10
56.02685546875
 20
556.46923828125
 30
0.0
  0
SEQEND
  5
644
330
641
100
AcDbEntity
  8
COTAS
370
     0
  0
ENDBLK
  5
640
330
63D
100
AcDbEntity
  8
0
100
AcDbBlockEnd
  0
BLOCK
  5
647
330
645
100
AcDbEntity
  8
0
100
AcDbBlockBegin
  2
block 220
 70
     0
 71
     0
 10
0.0
 20
0.0
 30
0.0
  3
block 220
  1

  0
INSERT
  5
64A
330
645
100
AcDbEntity
  8
COTAS
100
AcDbBlockReference
  2
block 221
 10
0.0
 20
0.0
 30
0.0
  0
INSERT
  5
652
330
645
100
AcDbEntity
  8
COTAS
100
AcDbBlockReference
  2
block 222
 10
0.0
 20
0.0
 30
0.0
  0
INSERT
  5
65A
330
645
100
AcDbEntity
  8
COTAS
100
AcDbBlockReference
  2
block 223
 10
0.0
 20
0.0
 30
0.0
  0
INSERT
  5
662
330
645
100
AcDbEntity
  8
COTAS
100
AcDbBlockReference
  2
block 224
 10
0.0
 20
0.0
 30
0.0
  0
INSERT
  5
66A
330
645
100
AcDbEntity
  8
COTAS
100
AcDbBlockReference
  2
block 225
 10
0.0
 20
0.0
 30
0.0
  0
INSERT
  5
672
330
645
100
AcDbEntity
  8
COTAS
100
AcDbBlockReference
  2
block 226
 10
0.0
 20
0.0
 30
0.0
  0
INSERT
  5
67D
330
645
100
AcDbEntity
  8
COTAS
100
AcDbBlockReference
  2
block 227
 10
0.0
 20
0.0
 30
0.0
  0
INSERT
  5
688
330
645
100
AcDbEntity
  8
COTAS
100
AcDbBlockReference
  2
block 228
 10
0.0
 20
0.0
 30
0.0
  0
INSERT
  5
68D
330
645
100
AcDbEntity
  8
COTAS
100
AcDbBlockReference
  2
block 229
 10
0.0
 20
0.0
 30
0.0
  0
INSERT
  5
695
330
645
100
AcDbEntity
  8
COTAS
100
AcDbBlockReference
  2
block 230
 10
0.0
 20
0.0
 30
0.0
  0
INSERT
  5
69D
330
645
100
AcDbEntity
  8
COTAS
100
AcDbBlockReference
  2
block 231
 10
0.0
 20
0.0
 30
0.0
  0
ENDBLK
  5
648
330
645
100
AcDbEntity
  8
0
100
AcDbBlockEnd
  0
BLOCK
  5
64B
330
649
100
AcDbEntity
  8
0
100
AcDbBlockBegin
  2
block 221
 70
     0
 71
     0
 10
0.0
 20
0.0
 30
0.0
  3
block 221
  1

  0
POLYLINE
  5
64D
330
649
100
AcDbEntity
  8
COTAS
 62
     7
370
     5
100
AcDb2dPolyline
 66
     1
 10
0.0
 20
0.0
 30
0.0
  0
VERTEX
  5
64E
330
64D
100
AcDbEntity
  8
COTAS
 62
     7
370
     5
100
AcDbVertex
100
AcDb2dVertex
 10
310.8154296875
 20
539.93701171875
 30
0.0
  0
VERTEX
  5
64F
330
64D
100
AcDbEntity
  8
COTAS
 62
     7
370
     5
100
AcDbVertex
100
AcDb2dVertex
 10
310.8154296875
 20
561.2998046875
 30
0.0
  0
SEQEND
  5
650
330
64D
100
AcDbEntity
  8
COTAS
370
     5
  0
ENDBLK
  5
64C
330
649
100
AcDbEntity
  8
0
100
AcDbBlockEnd
  0
BLOCK
  5
653
330
651
100
AcDbEntity
  8
0
100
AcDbBlockBegin
  2
block 222
 70
     0
 71
     0
 10
0.0
 20
0.0
 30
0.0
  3
block 222
  1

  0
POLYLINE
  5
655
330
651
100
AcDbEntity
  8
COTAS
 62
     7
370
     5
100
AcDb2dPolyline
 66
     1
 10
0.0
 20
0.0
 30
0.0
  0
VERTEX
  5
656
330
655
100
AcDbEntity
  8
COTAS
 62
     7
370
     5
100
AcDbVertex
100
AcDb2dVertex
 10
323.5634765625
 20
541.64111328125
 30
0.0
  0
VERTEX
  5
657
330
655
100
AcDbEntity
  8
COTAS
 62
     7
370
     5
100
AcDbVertex
100
AcDb2dVertex
 10
323.5634765625
 20
561.2998046875
 30
0.0
  0
SEQEND
  5
658
330
655
100
AcDbEntity
  8
COTAS
370
     5
  0
ENDBLK
  5
654
330
651
100
AcDbEntity
  8
0
100
AcDbBlockEnd
  0
BLOCK
  5
65B
330
659
100
AcDbEntity
  8
0
100
AcDbBlockBegin
  2
block 223
 70
     0
 71
     0
 10
0.0
 20
0.0
 30
0.0
  3
block 223
  1

  0
POLYLINE
  5
65D
330
659
100
AcDbEntity
  8
COTAS
 62
     7
370
     5
100
AcDb2dPolyline
 66
     1
 10
0.0
 20
0.0
 30
0.0
  0
VERTEX
  5
65E
330
65D
100
AcDbEntity
  8
COTAS
 62
     7
370
     5
100
AcDbVertex
100
AcDb2dVertex
 10
333.197265625
 20
556.48291015625
 30
0.0
  0
VERTEX
  5
65F
330
65D
100
AcDbEntity
  8
COTAS
 62
     7
370
     5
100
AcDbVertex
100
AcDb2dVertex
 10
342.83203125
 20
556.48291015625
 30
0.0
  0
SEQEND
  5
660
330
65D
100
AcDbEntity
  8
COTAS
370
     5
  0
ENDBLK
  5
65C
330
659
100
AcDbEntity
  8
0
100
AcDbBlockEnd
  0
BLOCK
  5
663
330
661
100
AcDbEntity
  8
0
100
AcDbBlockBegin
  2
block 224
 70
     0
 71
     0
 10
0.0
 20
0.0
 30
0.0
  3
block 224
  1

  0
POLYLINE
  5
665
330
661
100
AcDbEntity
  8
COTAS
 62
     7
370
     5
100
AcDb2dPolyline
 66
     1
 10
0.0
 20
0.0
 30
0.0
  0
VERTEX
  5
666
330
665
100
AcDbEntity
  8
COTAS
 62
     7
370
     5
100
AcDbVertex
100
AcDb2dVertex
 10
301.1806640625
 20
556.48291015625
 30
0.0
  0
VERTEX
  5
667
330
665
100
AcDbEntity
  8
COTAS
 62
     7
370
     5
100
AcDbVertex
100
AcDb2dVertex
 10
289.70458984375
 20
556.48291015625
 30
0.0
  0
SEQEND
  5
668
330
665
100
AcDbEntity
  8
COTAS
370
     5
  0
ENDBLK
  5
664
330
661
100
AcDbEntity
  8
0
100
AcDbBlockEnd
  0
BLOCK
  5
66B
330
669
100
AcDbEntity
  8
0
100
AcDbBlockBegin
  2
block 225
 70
     0
 71
     0
 10
0.0
 20
0.0
 30
0.0
  3
block 225
  1

  0
POLYLINE
  5
66D
330
669
100
AcDbEntity
  8
COTAS
 62
     7
370
     5
100
AcDb2dPolyline
 66
     1
 10
0.0
 20
0.0
 30
0.0
  0
VERTEX
  5
66E
330
66D
100
AcDbEntity
  8
COTAS
 62
     7
370
     5
100
AcDbVertex
100
AcDb2dVertex
 10
323.5634765625
 20
556.48291015625
 30
0.0
  0
VERTEX
  5
66F
330
66D
100
AcDbEntity
  8
COTAS
 62
     7
370
     5
100
AcDbVertex
100
AcDb2dVertex
 10
310.8154296875
 20
556.48291015625
 30
0.0
  0
SEQEND
  5
670
330
66D
100
AcDbEntity
  8
COTAS
370
     5
  0
ENDBLK
  5
66C
330
669
100
AcDbEntity
  8
0
100
AcDbBlockEnd
  0
BLOCK
  5
673
330
671
100
AcDbEntity
  8
0
100
AcDbBlockBegin
  2
block 226
 70
     0
 71
     0
 10
0.0
 20
0.0
 30
0.0
  3
block 226
  1

  0
POLYLINE
  5
675
330
671
100
AcDbEntity
  8
COTAS
370
     0
100
AcDb2dPolyline
 66
     1
 10
0.0
 20
0.0
 30
0.0
  0
VERTEX
  5
676
330
675
100
AcDbEntity
  8
COTAS
370
     0
100
AcDbVertex
100
AcDb2dVertex
 10
333.197265625
 20
558.0888671875
 30
0.0
  0
VERTEX
  5
677
330
675
100
AcDbEntity
  8
COTAS
370
     0
100
AcDbVertex
100
AcDb2dVertex
 10
333.197265625
 20
554.87744140625
 30
0.0
  0
VERTEX
  5
678
330
675
100
AcDbEntity
  8
COTAS
370
     0
100
AcDbVertex
100
AcDb2dVertex
 10
323.5634765625
 20
556.48291015625
 30
0.0
  0
VERTEX
  5
679
330
675
100
AcDbEntity
  8
COTAS
370
     0
100
AcDbVertex
100
AcDb2dVertex
 10
333.197265625
 20
558.0888671875
 30
0.0
  0
SEQEND
  5
67A
330
675
100
AcDbEntity
  8
COTAS
370
     0
  0
HATCH
  5
67B
330
671
100
AcDbEntity
  8
COTAS
 62
     7
100
AcDbHatch
 10
0.0
 20
0.0
 30
0.0
210
0.0
220
0.0
230
1.0
  2
SOLID
 70
     1
 71
     0
 91
        1
 92
        1
 93
        3
 72
     1
 10
333.197265625
 20
558.0888671875
 11
333.197265625
 21
554.87744140625
 72
     1
 10
333.197265625
 20
554.87744140625
 11
323.5634765625
 21
556.48291015625
 72
     1
 10
323.5634765625
 20
556.48291015625
 11
333.197265625
 21
558.0888671875
 97
        0
 75
     2
 76
     1
 98
        0
  0
ENDBLK
  5
674
330
671
100
AcDbEntity
  8
0
100
AcDbBlockEnd
  0
BLOCK
  5
67E
330
67C
100
AcDbEntity
  8
0
100
AcDbBlockBegin
  2
block 227
 70
     0
 71
     0
 10
0.0
 20
0.0
 30
0.0
  3
block 227
  1

  0
POLYLINE
  5
680
330
67C
100
AcDbEntity
  8
COTAS
370
     0
100
AcDb2dPolyline
 66
     1
 10
0.0
 20
0.0
 30
0.0
  0
VERTEX
  5
681
330
680
100
AcDbEntity
  8
COTAS
370
     0
100
AcDbVertex
100
AcDb2dVertex
 10
301.1806640625
 20
558.0888671875
 30
0.0
  0
VERTEX
  5
682
330
680
100
AcDbEntity
  8
COTAS
370
     0
100
AcDbVertex
100
AcDb2dVertex
 10
301.1806640625
 20
554.87744140625
 30
0.0
  0
VERTEX
  5
683
330
680
100
AcDbEntity
  8
COTAS
370
     0
100
AcDbVertex
100
AcDb2dVertex
 10
310.8154296875
 20
556.48291015625
 30
0.0
  0
VERTEX
  5
684
330
680
100
AcDbEntity
  8
COTAS
370
     0
100
AcDbVertex
100
AcDb2dVertex
 10
301.1806640625
 20
558.0888671875
 30
0.0
  0
SEQEND
  5
685
330
680
100
AcDbEntity
  8
COTAS
370
     0
  0
HATCH
  5
686
330
67C
100
AcDbEntity
  8
COTAS
 62
     7
100
AcDbHatch
 10
0.0
 20
0.0
 30
0.0
210
0.0
220
0.0
230
1.0
  2
SOLID
 70
     1
 71
     0
 91
        1
 92
        1
 93
        3
 72
     1
 10
301.1806640625
 20
558.0888671875
 11
301.1806640625
 21
554.87744140625
 72
     1
 10
301.1806640625
 20
554.87744140625
 11
310.8154296875
 21
556.48291015625
 72
     1
 10
310.8154296875
 20
556.48291015625
 11
301.1806640625
 21
558.0888671875
 97
        0
 75
     2
 76
     1
 98
        0
  0
ENDBLK
  5
67F
330
67C
100
AcDbEntity
  8
0
100
AcDbBlockEnd
  0
BLOCK
  5
689
330
687
100
AcDbEntity
  8
0
100
AcDbBlockBegin
  2
block 228
 70
     0
 71
     0
 10
0.0
 20
0.0
 30
0.0
  3
block 228
  1

  0
MTEXT
  5
68B
330
687
100
AcDbEntity
  8
COTAS
 62
     7
100
AcDbMText
 10
272.9794921875
 20
551.728515625
 30
0.0
 40
6.800000000000001
 41
0.0
 71
     7
 72
     1
  1
\fArial|b1|i0|c0|p34;\W1;70
 73
     1
 44
1.0
  0
ENDBLK
  5
68A
330
687
100
AcDbEntity
  8
0
100
AcDbBlockEnd
  0
BLOCK
  5
68E
330
68C
100
AcDbEntity
  8
0
100
AcDbBlockBegin
  2
block 229
 70
     0
 71
     0
 10
0.0
 20
0.0
 30
0.0
  3
block 229
  1

  0
POLYLINE
  5
690
330
68C
100
AcDbEntity
  8
COTAS
370
     0
100
AcDb2dPolyline
 66
     1
 10
0.0
 20
0.0
 30
0.0
  0
VERTEX
  5
691
330
690
100
AcDbEntity
  8
COTAS
370
     0
100
AcDbVertex
100
AcDb2dVertex
 10
310.8154296875
 20
537.52880859375
 30
0.0
  0
VERTEX
  5
692
330
690
100
AcDbEntity
  8
COTAS
370
     0
100
AcDbVertex
100
AcDb2dVertex
 10
310.8154296875
 20
537.52880859375
 30
0.0
  0
SEQEND
  5
693
330
690
100
AcDbEntity
  8
COTAS
370
     0
  0
ENDBLK
  5
68F
330
68C
100
AcDbEntity
  8
0
100
AcDbBlockEnd
  0
BLOCK
  5
696
330
694
100
AcDbEntity
  8
0
100
AcDbBlockBegin
  2
block 230
 70
     0
 71
     0
 10
0.0
 20
0.0
 30
0.0
  3
block 230
  1

  0
POLYLINE
  5
698
330
694
100
AcDbEntity
  8
COTAS
370
     0
100
AcDb2dPolyline
 66
     1
 10
0.0
 20
0.0
 30
0.0
  0
VERTEX
  5
699
330
698
100
AcDbEntity
  8
COTAS
370
     0
100
AcDbVertex
100
AcDb2dVertex
 10
323.5634765625
 20
539.232421875
 30
0.0
  0
VERTEX
  5
69A
330
698
100
AcDbEntity
  8
COTAS
370
     0
100
AcDbVertex
100
AcDb2dVertex
 10
323.5634765625
 20
539.232421875
 30
0.0
  0
SEQEND
  5
69B
330
698
100
AcDbEntity
  8
COTAS
370
     0
  0
ENDBLK
  5
697
330
694
100
AcDbEntity
  8
0
100
AcDbBlockEnd
  0
BLOCK
  5
69E
330
69C
100
AcDbEntity
  8
0
100
AcDbBlockBegin
  2
block 231
 70
     0
 71
     0
 10
0.0
 20
0.0
 30
0.0
  3
block 231
  1

  0
POLYLINE
  5
6A0
330
69C
100
AcDbEntity
  8
COTAS
370
     0
100
AcDb2dPolyline
 66
     1
 10
0.0
 20
0.0
 30
0.0
  0
VERTEX
  5
6A1
330
6A0
100
AcDbEntity
  8
COTAS
370
     0
100
AcDbVertex
100
AcDb2dVertex
 10
323.5634765625
 20
556.48291015625
 30
0.0
  0
VERTEX
  5
6A2
330
6A0
100
AcDbEntity
  8
COTAS
370
     0
100
AcDbVertex
100
AcDb2dVertex
 10
323.5634765625
 20
556.48291015625
 30
0.0
  0
SEQEND
  5
6A3
330
6A0
100
AcDbEntity
  8
COTAS
370
     0
  0
ENDBLK
  5
69F
330
69C
100
AcDbEntity
  8
0
100
AcDbBlockEnd
  0
BLOCK
  5
6A6
330
6A4
100
AcDbEntity
  8
0
100
AcDbBlockBegin
  2
block 232
 70
     0
 71
     0
 10
0.0
 20
0.0
 30
0.0
  3
block 232
  1

  0
INSERT
  5
6A9
330
6A4
100
AcDbEntity
  8
COTAS
100
AcDbBlockReference
  2
block 233
 10
0.0
 20
0.0
 30
0.0
  0
INSERT
  5
6BB
330
6A4
100
AcDbEntity
  8
COTAS
100
AcDbBlockReference
  2
block 234
 10
0.0
 20
0.0
 30
0.0
  0
INSERT
  5
6C1
330
6A4
100
AcDbEntity
  8
COTAS
100
AcDbBlockReference
  2
block 235
 10
0.0
 20
0.0
 30
0.0
  0
INSERT
  5
6D3
330
6A4
100
AcDbEntity
  8
COTAS
100
AcDbBlockReference
  2
block 236
 10
0.0
 20
0.0
 30
0.0
  0
INSERT
  5
6D8
330
6A4
100
AcDbEntity
  8
COTAS
100
AcDbBlockReference
  2
block 237
 10
0.0
 20
0.0
 30
0.0
  0
INSERT
  5
6DD
330
6A4
100
AcDbEntity
  8
COTAS
100
AcDbBlockReference
  2
block 238
 10
0.0
 20
0.0
 30
0.0
  0
INSERT
  5
6E2
330
6A4
100
AcDbEntity
  8
COTAS
100
AcDbBlockReference
  2
block 239
 10
0.0
 20
0.0
 30
0.0
  0
INSERT
  5
6EA
330
6A4
100
AcDbEntity
  8
COTAS
100
AcDbBlockReference
  2
block 240
 10
0.0
 20
0.0
 30
0.0
  0
INSERT
  5
6F2
330
6A4
100
AcDbEntity
  8
COTAS
100
AcDbBlockReference
  2
block 241
 10
0.0
 20
0.0
 30
0.0
  0
INSERT
  5
6FA
330
6A4
100
AcDbEntity
  8
COTAS
100
AcDbBlockReference
  2
block 242
 10
0.0
 20
0.0
 30
0.0
  0
INSERT
  5
702
330
6A4
100
AcDbEntity
  8
COTAS
100
AcDbBlockReference
  2
block 243
 10
0.0
 20
0.0
 30
0.0
  0
INSERT
  5
70A
330
6A4
100
AcDbEntity
  8
COTAS
100
AcDbBlockReference
  2
block 244
 10
0.0
 20
0.0
 30
0.0
  0
INSERT
  5
712
330
6A4
100
AcDbEntity
  8
COTAS
100
AcDbBlockReference
  2
block 245
 10
0.0
 20
0.0
 30
0.0
  0
INSERT
  5
71A
330
6A4
100
AcDbEntity
  8
COTAS
100
AcDbBlockReference
  2
block 246
 10
0.0
 20
0.0
 30
0.0
  0
INSERT
  5
722
330
6A4
100
AcDbEntity
  8
COTAS
100
AcDbBlockReference
  2
block 247
 10
0.0
 20
0.0
 30
0.0
  0
INSERT
  5
72A
330
6A4
100
AcDbEntity
  8
COTAS
100
AcDbBlockReference
  2
block 248
 10
0.0
 20
0.0
 30
0.0
  0
INSERT
  5
732
330
6A4
100
AcDbEntity
  8
COTAS
100
AcDbBlockReference
  2
block 249
 10
0.0
 20
0.0
 30
0.0
  0
INSERT
  5
73A
330
6A4
100
AcDbEntity
  8
COTAS
100
AcDbBlockReference
  2
block 250
 10
0.0
 20
0.0
 30
0.0
  0
ENDBLK
  5
6A7
330
6A4
100
AcDbEntity
  8
0
100
AcDbBlockEnd
  0
BLOCK
  5
6AA
330
6A8
100
AcDbEntity
  8
0
100
AcDbBlockBegin
  2
block 233
 70
     0
 71
     0
 10
0.0
 20
0.0
 30
0.0
  3
block 233
  1

  0
POLYLINE
  5
6AC
330
6A8
100
AcDbEntity
  8
COTAS
370
     0
100
AcDb2dPolyline
 66
     1
 10
0.0
 20
0.0
 30
0.0
  0
VERTEX
  5
6AD
330
6AC
100
AcDbEntity
  8
COTAS
370
     0
100
AcDbVertex
100
AcDb2dVertex
 10
421.5146484375
 20
409.58251953125
 30
0.0
  0
VERTEX
  5
6AE
330
6AC
100
AcDbEntity
  8
COTAS
370
     0
100
AcDbVertex
100
AcDb2dVertex
 10
421.5146484375
 20
391.791015625
 30
0.0
  0
VERTEX
  5
6AF
330
6AC
100
AcDbEntity
  8
COTAS
370
     0
100
AcDbVertex
100
AcDb2dVertex
 10
510.2744140625
 20
391.791015625
 30
0.0
  0
VERTEX
  5
6B0
330
6AC
100
AcDbEntity
  8
COTAS
370
     0
100
AcDbVertex
100
AcDb2dVertex
 10
421.5146484375
 20
409.58251953125
 30
0.0
  0
SEQEND
  5
6B1
330
6AC
100
AcDbEntity
  8
COTAS
370
     0
  0
HATCH
  5
6B2
330
6A8
100
AcDbEntity
  8
COTAS
 62
     7
100
AcDbHatch
 10
0.0
 20
0.0
 30
0.0
210
0.0
220
0.0
230
1.0
  2
SOLID
 70
     1
 71
     0
 91
        1
 92
        1
 93
        3
 72
     1
 10
421.5146484375
 20
409.58251953125
 11
421.5146484375
 21
391.791015625
 72
     1
 10
421.5146484375
 20
391.791015625
 11
510.2744140625
 21
391.791015625
 72
     1
 10
510.2744140625
 20
391.791015625
 11
421.5146484375
 21
409.58251953125
 97
        0
 75
     2
 76
     1
 98
        0
  0
POLYLINE
  5
6B3
330
6A8
100
AcDbEntity
  8
COTAS
370
     0
100
AcDb2dPolyline
 66
     1
 10
0.0
 20
0.0
 30
0.0
  0
VERTEX
  5
6B4
330
6B3
100
AcDbEntity
  8
COTAS
370
     0
100
AcDbVertex
100
AcDb2dVertex
 10
421.5146484375
 20
409.58251953125
 30
0.0
  0
VERTEX
  5
6B5
330
6B3
100
AcDbEntity
  8
COTAS
370
     0
100
AcDbVertex
100
AcDb2dVertex
 10
510.2744140625
 20
391.791015625
 30
0.0
  0
VERTEX
  5
6B6
330
6B3
100
AcDbEntity
  8
COTAS
370
     0
100
AcDbVertex
100
AcDb2dVertex
 10
510.2744140625
 20
409.58251953125
 30
0.0
  0
VERTEX
  5
6B7
330
6B3
100
AcDbEntity
  8
COTAS
370
     0
100
AcDbVertex
100
AcDb2dVertex
 10
421.5146484375
 20
409.58251953125
 30
0.0
  0
SEQEND
  5
6B8
330
6B3
100
AcDbEntity
  8
COTAS
370
     0
  0
HATCH
  5
6B9
330
6A8
100
AcDbEntity
  8
COTAS
 62
     7
100
AcDbHatch
 10
0.0
 20
0.0
 30
0.0
210
0.0
220
0.0
230
1.0
  2
SOLID
 70
     1
 71
     0
 91
        1
 92
        1
 93
        3
 72
     1
 10
421.5146484375
 20
409.58251953125
 11
510.2744140625
 21
391.791015625
 72
     1
 10
510.2744140625
 20
391.791015625
 11
510.2744140625
 21
409.58251953125
 72
     1
 10
510.2744140625
 20
409.58251953125
 11
421.5146484375
 21
409.58251953125
 97
        0
 75
     2
 76
     1
 98
        0
  0
ENDBLK
  5
6AB
330
6A8
100
AcDbEntity
  8
0
100
AcDbBlockEnd
  0
BLOCK
  5
6BC
330
6BA
100
AcDbEntity
  8
0
100
AcDbBlockBegin
  2
block 234
 70
     0
 71
     0
 10
0.0
 20
0.0
 30
0.0
  3
block 234
  1

  0
MTEXT
  5
6BE
330
6BA
100
AcDbEntity
  8
COTAS
 62
     7
100
AcDbMText
 10
453.3837890625
 20
395.8642578125
 30
0.0
 40
6.800000000000001
 41
0.0
 71
     7
 72
     1
  1
\fArial|b1|i0|c0|p34;\W1;Ref
 73
     1
 44
1.0
  0
MTEXT
  5
6BF
330
6BA
100
AcDbEntity
  8
COTAS
 62
     7
100
AcDbMText
 10
474.7724609375
 20
395.8642578125
 30
0.0
 40
6.800000000000001
 41
0.0
 71
     7
 72
     1
  1
\fArial|b1|i0|c0|p34;\W1;.
 73
     1
 44
1.0
  0
ENDBLK
  5
6BD
330
6BA
100
AcDbEntity
  8
0
100
AcDbBlockEnd
  0
BLOCK
  5
6C2
330
6C0
100
AcDbEntity
  8
0
100
AcDbBlockBegin
  2
block 235
 70
     0
 71
     0
 10
0.0
 20
0.0
 30
0.0
  3
block 235
  1

  0
POLYLINE
  5
6C4
330
6C0
100
AcDbEntity
  8
COTAS
370
     0
100
AcDb2dPolyline
 66
     1
 10
0.0
 20
0.0
 30
0.0
  0
VERTEX
  5
6C5
330
6C4
100
AcDbEntity
  8
COTAS
370
     0
100
AcDbVertex
100
AcDb2dVertex
 10
510.2744140625
 20
409.58251953125
 30
0.0
  0
VERTEX
  5
6C6
330
6C4
100
AcDbEntity
  8
COTAS
370
     0
100
AcDbVertex
100
AcDb2dVertex
 10
510.2744140625
 20
391.791015625
 30
0.0
  0
VERTEX
  5
6C7
330
6C4
100
AcDbEntity
  8
COTAS
370
     0
100
AcDbVertex
100
AcDb2dVertex
 10
547.9033203125
 20
391.791015625
 30
0.0
  0
VERTEX
  5
6C8
330
6C4
100
AcDbEntity
  8
COTAS
370
     0
100
AcDbVertex
100
AcDb2dVertex
 10
510.2744140625
 20
409.58251953125
 30
0.0
  0
SEQEND
  5
6C9
330
6C4
100
AcDbEntity
  8
COTAS
370
     0
  0
HATCH
  5
6CA
330
6C0
100
AcDbEntity
  8
COTAS
 62
     7
100
AcDbHatch
 10
0.0
 20
0.0
 30
0.0
210
0.0
220
0.0
230
1.0
  2
SOLID
 70
     1
 71
     0
 91
        1
 92
        1
 93
        3
 72
     1
 10
510.2744140625
 20
409.58251953125
 11
510.2744140625
 21
391.791015625
 72
     1
 10
510.2744140625
 20
391.791015625
 11
547.9033203125
 21
391.791015625
 72
     1
 10
547.9033203125
 20
391.791015625
 11
510.2744140625
 21
409.58251953125
 97
        0
 75
     2
 76
     1
 98
        0
  0
POLYLINE
  5
6CB
330
6C0
100
AcDbEntity
  8
COTAS
370
     0
100
AcDb2dPolyline
 66
     1
 10
0.0
 20
0.0
 30
0.0
  0
VERTEX
  5
6CC
330
6CB
100
AcDbEntity
  8
COTAS
370
     0
100
AcDbVertex
100
AcDb2dVertex
 10
510.2744140625
 20
409.58251953125
 30
0.0
  0
VERTEX
  5
6CD
330
6CB
100
AcDbEntity
  8
COTAS
370
     0
100
AcDbVertex
100
AcDb2dVertex
 10
547.9033203125
 20
391.791015625
 30
0.0
  0
VERTEX
  5
6CE
330
6CB
100
AcDbEntity
  8
COTAS
370
     0
100
AcDbVertex
100
AcDb2dVertex
 10
547.9033203125
 20
409.58251953125
 30
0.0
  0
VERTEX
  5
6CF
330
6CB
100
AcDbEntity
  8
COTAS
370
     0
100
AcDbVertex
100
AcDb2dVertex
 10
510.2744140625
 20
409.58251953125
 30
0.0
  0
SEQEND
  5
6D0
330
6CB
100
AcDbEntity
  8
COTAS
370
     0
  0
HATCH
  5
6D1
330
6C0
100
AcDbEntity
  8
COTAS
 62
     7
100
AcDbHatch
 10
0.0
 20
0.0
 30
0.0
210
0.0
220
0.0
230
1.0
  2
SOLID
 70
     1
 71
     0
 91
        1
 92
        1
 93
        3
 72
     1
 10
510.2744140625
 20
409.58251953125
 11
547.9033203125
 21
391.791015625
 72
     1
 10
547.9033203125
 20
391.791015625
 11
547.9033203125
 21
409.58251953125
 72
     1
 10
547.9033203125
 20
409.58251953125
 11
510.2744140625
 21
409.58251953125
 97
        0
 75
     2
 76
     1
 98
        0
  0
ENDBLK
  5
6C3
330
6C0
100
AcDbEntity
  8
0
100
AcDbBlockEnd
  0
BLOCK
  5
6D4
330
6D2
100
AcDbEntity
  8
0
100
AcDbBlockBegin
  2
block 236
 70
     0
 71
     0
 10
0.0
 20
0.0
 30
0.0
  3
block 236
  1

  0
MTEXT
  5
6D6
330
6D2
100
AcDbEntity
  8
COTAS
 62
     7
100
AcDbMText
 10
518.0576171875
 20
395.9462890625
 30
0.0
 40
6.800000000000001
 41
0.0
 71
     7
 72
     1
  1
\fArial|b1|i0|c0|p34;\W1;Vol.
 73
     1
 44
1.0
  0
ENDBLK
  5
6D5
330
6D2
100
AcDbEntity
  8
0
100
AcDbBlockEnd
  0
BLOCK
  5
6D9
330
6D7
100
AcDbEntity
  8
0
100
AcDbBlockBegin
  2
block 237
 70
     0
 71
     0
 10
0.0
 20
0.0
 30
0.0
  3
block 237
  1

  0
MTEXT
  5
6DB
330
6D7
100
AcDbEntity
  8
COTAS
 62
     7
100
AcDbMText
 10
425.7724609375
 20
381.224609375
 30
0.0
 40
6.800000000000001
 41
0.0
 71
     7
 72
     1
  1
\fArial|b1|i0|c0|p34;\W1;Fedra G6500001
 73
     1
 44
1.0
  0
ENDBLK
  5
6DA
330
6D7
100
AcDbEntity
  8
0
100
AcDbBlockEnd
  0
BLOCK
  5
6DE
330
6DC
100
AcDbEntity
  8
0
100
AcDbBlockBegin
  2
block 238
 70
     0
 71
     0
 10
0.0
 20
0.0
 30
0.0
  3
block 238
  1

  0
MTEXT
  5
6E0
330
6DC
100
AcDbEntity
  8
COTAS
 62
     7
100
AcDbMText
 10
514.28515625
 20
380.32421875
 30
0.0
 40
6.800000000000001
 41
0.0
 71
     7
 72
     1
  1
\fArial|b1|i0|c0|p34;\W1;\U+2248165
 73
     1
 44
1.0
  0
ENDBLK
  5
6DF
330
6DC
100
AcDbEntity
  8
0
100
AcDbBlockEnd
  0
BLOCK
  5
6E3
330
6E1
100
AcDbEntity
  8
0
100
AcDbBlockBegin
  2
block 239
 70
     0
 71
     0
 10
0.0
 20
0.0
 30
0.0
  3
block 239
  1

  0
POLYLINE
  5
6E5
330
6E1
100
AcDbEntity
  8
COTAS
 62
     7
370
     5
100
AcDb2dPolyline
 66
     1
 10
0.0
 20
0.0
 30
0.0
  0
VERTEX
  5
6E6
330
6E5
100
AcDbEntity
  8
COTAS
 62
     7
370
     5
100
AcDbVertex
100
AcDb2dVertex
 10
421.5146484375
 20
409.58251953125
 30
0.0
  0
VERTEX
  5
6E7
330
6E5
100
AcDbEntity
  8
COTAS
 62
     7
370
     5
100
AcDbVertex
100
AcDb2dVertex
 10
510.2744140625
 20
409.58251953125
 30
0.0
  0
SEQEND
  5
6E8
330
6E5
100
AcDbEntity
  8
COTAS
370
     5
  0
ENDBLK
  5
6E4
330
6E1
100
AcDbEntity
  8
0
100
AcDbBlockEnd
  0
BLOCK
  5
6EB
330
6E9
100
AcDbEntity
  8
0
100
AcDbBlockBegin
  2
block 240
 70
     0
 71
     0
 10
0.0
 20
0.0
 30
0.0
  3
block 240
  1

  0
POLYLINE
  5
6ED
330
6E9
100
AcDbEntity
  8
COTAS
 62
     7
370
     5
100
AcDb2dPolyline
 66
     1
 10
0.0
 20
0.0
 30
0.0
  0
VERTEX
  5
6EE
330
6ED
100
AcDbEntity
  8
COTAS
 62
     7
370
     5
100
AcDbVertex
100
AcDb2dVertex
 10
421.5146484375
 20
409.58251953125
 30
0.0
  0
VERTEX
  5
6EF
330
6ED
100
AcDbEntity
  8
COTAS
 62
     7
370
     5
100
AcDbVertex
100
AcDb2dVertex
 10
421.5146484375
 20
391.791015625
 30
0.0
  0
SEQEND
  5
6F0
330
6ED
100
AcDbEntity
  8
COTAS
370
     5
  0
ENDBLK
  5
6EC
330
6E9
100
AcDbEntity
  8
0
100
AcDbBlockEnd
  0
BLOCK
  5
6F3
330
6F1
100
AcDbEntity
  8
0
100
AcDbBlockBegin
  2
block 241
 70
     0
 71
     0
 10
0.0
 20
0.0
 30
0.0
  3
block 241
  1

  0
POLYLINE
  5
6F5
330
6F1
100
AcDbEntity
  8
COTAS
 62
     7
370
     5
100
AcDb2dPolyline
 66
     1
 10
0.0
 20
0.0
 30
0.0
  0
VERTEX
  5
6F6
330
6F5
100
AcDbEntity
  8
COTAS
 62
     7
370
     5
100
AcDbVertex
100
AcDb2dVertex
 10
510.2744140625
 20
409.58251953125
 30
0.0
  0
VERTEX
  5
6F7
330
6F5
100
AcDbEntity
  8
COTAS
 62
     7
370
     5
100
AcDbVertex
100
AcDb2dVertex
 10
547.9033203125
 20
409.58251953125
 30
0.0
  0
SEQEND
  5
6F8
330
6F5
100
AcDbEntity
  8
COTAS
370
     5
  0
ENDBLK
  5
6F4
330
6F1
100
AcDbEntity
  8
0
100
AcDbBlockEnd
  0
BLOCK
  5
6FB
330
6F9
100
AcDbEntity
  8
0
100
AcDbBlockBegin
  2
block 242
 70
     0
 71
     0
 10
0.0
 20
0.0
 30
0.0
  3
block 242
  1

  0
POLYLINE
  5
6FD
330
6F9
100
AcDbEntity
  8
COTAS
 62
     7
370
     5
100
AcDb2dPolyline
 66
     1
 10
0.0
 20
0.0
 30
0.0
  0
VERTEX
  5
6FE
330
6FD
100
AcDbEntity
  8
COTAS
 62
     7
370
     5
100
AcDbVertex
100
AcDb2dVertex
 10
510.2744140625
 20
409.58251953125
 30
0.0
  0
VERTEX
  5
6FF
330
6FD
100
AcDbEntity
  8
COTAS
 62
     7
370
     5
100
AcDbVertex
100
AcDb2dVertex
 10
510.2744140625
 20
391.791015625
 30
0.0
  0
SEQEND
  5
700
330
6FD
100
AcDbEntity
  8
COTAS
370
     5
  0
ENDBLK
  5
6FC
330
6F9
100
AcDbEntity
  8
0
100
AcDbBlockEnd
  0
BLOCK
  5
703
330
701
100
AcDbEntity
  8
0
100
AcDbBlockBegin
  2
block 243
 70
     0
 71
     0
 10
0.0
 20
0.0
 30
0.0
  3
block 243
  1

  0
POLYLINE
  5
705
330
701
100
AcDbEntity
  8
COTAS
 62
     7
370
     5
100
AcDb2dPolyline
 66
     1
 10
0.0
 20
0.0
 30
0.0
  0
VERTEX
  5
706
330
705
100
AcDbEntity
  8
COTAS
 62
     7
370
     5
100
AcDbVertex
100
AcDb2dVertex
 10
547.9033203125
 20
409.58251953125
 30
0.0
  0
VERTEX
  5
707
330
705
100
AcDbEntity
  8
COTAS
 62
     7
370
     5
100
AcDbVertex
100
AcDb2dVertex
 10
547.9033203125
 20
391.791015625
 30
0.0
  0
SEQEND
  5
708
330
705
100
AcDbEntity
  8
COTAS
370
     5
  0
ENDBLK
  5
704
330
701
100
AcDbEntity
  8
0
100
AcDbBlockEnd
  0
BLOCK
  5
70B
330
709
100
AcDbEntity
  8
0
100
AcDbBlockBegin
  2
block 244
 70
     0
 71
     0
 10
0.0
 20
0.0
 30
0.0
  3
block 244
  1

  0
POLYLINE
  5
70D
330
709
100
AcDbEntity
  8
COTAS
 62
     7
370
     5
100
AcDb2dPolyline
 66
     1
 10
0.0
 20
0.0
 30
0.0
  0
VERTEX
  5
70E
330
70D
100
AcDbEntity
  8
COTAS
 62
     7
370
     5
100
AcDbVertex
100
AcDb2dVertex
 10
421.5146484375
 20
391.791015625
 30
0.0
  0
VERTEX
  5
70F
330
70D
100
AcDbEntity
  8
COTAS
 62
     7
370
     5
100
AcDbVertex
100
AcDb2dVertex
 10
510.2744140625
 20
391.791015625
 30
0.0
  0
SEQEND
  5
710
330
70D
100
AcDbEntity
  8
COTAS
370
     5
  0
ENDBLK
  5
70C
330
709
100
AcDbEntity
  8
0
100
AcDbBlockEnd
  0
BLOCK
  5
713
330
711
100
AcDbEntity
  8
0
100
AcDbBlockBegin
  2
block 245
 70
     0
 71
     0
 10
0.0
 20
0.0
 30
0.0
  3
block 245
  1

  0
POLYLINE
  5
715
330
711
100
AcDbEntity
  8
COTAS
 62
     7
370
     5
100
AcDb2dPolyline
 66
     1
 10
0.0
 20
0.0
 30
0.0
  0
VERTEX
  5
716
330
715
100
AcDbEntity
  8
COTAS
 62
     7
370
     5
100
AcDbVertex
100
AcDb2dVertex
 10
421.5146484375
 20
378.3662109375
 30
0.0
  0
VERTEX
  5
717
330
715
100
AcDbEntity
  8
COTAS
 62
     7
370
     5
100
AcDbVertex
100
AcDb2dVertex
 10
510.2744140625
 20
378.3662109375
 30
0.0
  0
SEQEND
  5
718
330
715
100
AcDbEntity
  8
COTAS
370
     5
  0
ENDBLK
  5
714
330
711
100
AcDbEntity
  8
0
100
AcDbBlockEnd
  0
BLOCK
  5
71B
330
719
100
AcDbEntity
  8
0
100
AcDbBlockBegin
  2
block 246
 70
     0
 71
     0
 10
0.0
 20
0.0
 30
0.0
  3
block 246
  1

  0
POLYLINE
  5
71D
330
719
100
AcDbEntity
  8
COTAS
 62
     7
370
     5
100
AcDb2dPolyline
 66
     1
 10
0.0
 20
0.0
 30
0.0
  0
VERTEX
  5
71E
330
71D
100
AcDbEntity
  8
COTAS
 62
     7
370
     5
100
AcDbVertex
100
AcDb2dVertex
 10
421.5146484375
 20
391.791015625
 30
0.0
  0
VERTEX
  5
71F
330
71D
100
AcDbEntity
  8
COTAS
 62
     7
370
     5
100
AcDbVertex
100
AcDb2dVertex
 10
421.5146484375
 20
378.3662109375
 30
0.0
  0
SEQEND
  5
720
330
71D
100
AcDbEntity
  8
COTAS
370
     5
  0
ENDBLK
  5
71C
330
719
100
AcDbEntity
  8
0
100
AcDbBlockEnd
  0
BLOCK
  5
723
330
721
100
AcDbEntity
  8
0
100
AcDbBlockBegin
  2
block 247
 70
     0
 71
     0
 10
0.0
 20
0.0
 30
0.0
  3
block 247
  1

  0
POLYLINE
  5
725
330
721
100
AcDbEntity
  8
COTAS
 62
     7
370
     5
100
AcDb2dPolyline
 66
     1
 10
0.0
 20
0.0
 30
0.0
  0
VERTEX
  5
726
330
725
100
AcDbEntity
  8
COTAS
 62
     7
370
     5
100
AcDbVertex
100
AcDb2dVertex
 10
510.2744140625
 20
391.791015625
 30
0.0
  0
VERTEX
  5
727
330
725
100
AcDbEntity
  8
COTAS
 62
     7
370
     5
100
AcDbVertex
100
AcDb2dVertex
 10
547.9033203125
 20
391.791015625
 30
0.0
  0
SEQEND
  5
728
330
725
100
AcDbEntity
  8
COTAS
370
     5
  0
ENDBLK
  5
724
330
721
100
AcDbEntity
  8
0
100
AcDbBlockEnd
  0
BLOCK
  5
72B
330
729
100
AcDbEntity
  8
0
100
AcDbBlockBegin
  2
block 248
 70
     0
 71
     0
 10
0.0
 20
0.0
 30
0.0
  3
block 248
  1

  0
POLYLINE
  5
72D
330
729
100
AcDbEntity
  8
COTAS
 62
     7
370
     5
100
AcDb2dPolyline
 66
     1
 10
0.0
 20
0.0
 30
0.0
  0
VERTEX
  5
72E
330
72D
100
AcDbEntity
  8
COTAS
 62
     7
370
     5
100
AcDbVertex
100
AcDb2dVertex
 10
510.2744140625
 20
378.3662109375
 30
0.0
  0
VERTEX
  5
72F
330
72D
100
AcDbEntity
  8
COTAS
 62
     7
370
     5
100
AcDbVertex
100
AcDb2dVertex
 10
547.9033203125
 20
378.3662109375
 30
0.0
  0
SEQEND
  5
730
330
72D
100
AcDbEntity
  8
COTAS
370
     5
  0
ENDBLK
  5
72C
330
729
100
AcDbEntity
  8
0
100
AcDbBlockEnd
  0
BLOCK
  5
733
330
731
100
AcDbEntity
  8
0
100
AcDbBlockBegin
  2
block 249
 70
     0
 71
     0
 10
0.0
 20
0.0
 30
0.0
  3
block 249
  1

  0
POLYLINE
  5
735
330
731
100
AcDbEntity
  8
COTAS
 62
     7
370
     5
100
AcDb2dPolyline
 66
     1
 10
0.0
 20
0.0
 30
0.0
  0
VERTEX
  5
736
330
735
100
AcDbEntity
  8
COTAS
 62
     7
370
     5
100
AcDbVertex
100
AcDb2dVertex
 10
510.2744140625
 20
391.791015625
 30
0.0
  0
VERTEX
  5
737
330
735
100
AcDbEntity
  8
COTAS
 62
     7
370
     5
100
AcDbVertex
100
AcDb2dVertex
 10
510.2744140625
 20
378.3662109375
 30
0.0
  0
SEQEND
  5
738
330
735
100
AcDbEntity
  8
COTAS
370
     5
  0
ENDBLK
  5
734
330
731
100
AcDbEntity
  8
0
100
AcDbBlockEnd
  0
BLOCK
  5
73B
330
739
100
AcDbEntity
  8
0
100
AcDbBlockBegin
  2
block 250
 70
     0
 71
     0
 10
0.0
 20
0.0
 30
0.0
  3
block 250
  1

  0
POLYLINE
  5
73D
330
739
100
AcDbEntity
  8
COTAS
 62
     7
370
     5
100
AcDb2dPolyline
 66
     1
 10
0.0
 20
0.0
 30
0.0
  0
VERTEX
  5
73E
330
73D
100
AcDbEntity
  8
COTAS
 62
     7
370
     5
100
AcDbVertex
100
AcDb2dVertex
 10
547.9033203125
 20
391.791015625
 30
0.0
  0
VERTEX
  5
73F
330
73D
100
AcDbEntity
  8
COTAS
 62
     7
370
     5
100
AcDbVertex
100
AcDb2dVertex
 10
547.9033203125
 20
378.3662109375
 30
0.0
  0
SEQEND
  5
740
330
73D
100
AcDbEntity
  8
COTAS
370
     5
  0
ENDBLK
  5
73C
330
739
100
AcDbEntity
  8
0
100
AcDbBlockEnd
  0
BLOCK
  5
744
330
742
100
AcDbEntity
  8
0
100
AcDbBlockBegin
  2
block 251
 70
     0
 71
     0
 10
0.0
 20
0.0
 30
0.0
  3
block 251
  1

  0
POLYLINE
  5
746
330
742
100
AcDbEntity
  8
LINHAEXT
 62
     7
370
     5
100
AcDb2dPolyline
 66
     1
 10
0.0
 20
0.0
 30
0.0
  0
VERTEX
  5
747
330
746
100
AcDbEntity
  8
LINHAEXT
 62
     7
370
     5
100
AcDbVertex
100
AcDb2dVertex
 10
473.962890625
 20
540.67724609375
 30
0.0
  0
VERTEX
  5
748
330
746
100
AcDbEntity
  8
LINHAEXT
 62
     7
370
     5
100
AcDbVertex
100
AcDb2dVertex
 10
540.2490234375
 20
540.67724609375
 30
0.0
  0
SEQEND
  5
749
330
746
100
AcDbEntity
  8
LINHAEXT
370
     5
  0
ENDBLK
  5
745
330
742
100
AcDbEntity
  8
0
100
AcDbBlockEnd
  0
BLOCK
  5
74C
330
74A
100
AcDbEntity
  8
0
100
AcDbBlockBegin
  2
block 252
 70
     0
 71
     0
 10
0.0
 20
0.0
 30
0.0
  3
block 252
  1

  0
POLYLINE
  5
74E
330
74A
100
AcDbEntity
  8
LINHAEXT
 62
     7
370
     5
100
AcDb2dPolyline
 66
     1
 10
0.0
 20
0.0
 30
0.0
  0
VERTEX
  5
74F
330
74E
100
AcDbEntity
  8
LINHAEXT
 62
     7
370
     5
100
AcDbVertex
100
AcDb2dVertex
 10
407.291015625
 20
534.896484375
 30
0.0
  0
VERTEX
  5
750
330
74E
100
AcDbEntity
  8
LINHAEXT
 62
     7
370
     5
100
AcDbVertex
100
AcDb2dVertex
 10
408.0615234375
 20
534.896484375
 30
0.0
  0
SEQEND
  5
751
330
74E
100
AcDbEntity
  8
LINHAEXT
370
     5
  0
ENDBLK
  5
74D
330
74A
100
AcDbEntity
  8
0
100
AcDbBlockEnd
  0
BLOCK
  5
754
330
752
100
AcDbEntity
  8
0
100
AcDbBlockBegin
  2
block 253
 70
     0
 71
     0
 10
0.0
 20
0.0
 30
0.0
  3
block 253
  1

  0
POLYLINE
  5
756
330
752
100
AcDbEntity
  8
LINHAEXT
 62
     7
370
     5
100
AcDb2dPolyline
 66
     1
 10
0.0
 20
0.0
 30
0.0
  0
VERTEX
  5
757
330
756
100
AcDbEntity
  8
LINHAEXT
 62
     7
370
     5
100
AcDbVertex
100
AcDb2dVertex
 10
407.291015625
 20
535.474609375
 30
0.0
  0
VERTEX
  5
758
330
756
100
AcDbEntity
  8
LINHAEXT
 62
     7
370
     5
100
AcDbVertex
100
AcDb2dVertex
 10
408.0615234375
 20
535.474609375
 30
0.0
  0
SEQEND
  5
759
330
756
100
AcDbEntity
  8
LINHAEXT
370
     5
  0
ENDBLK
  5
755
330
752
100
AcDbEntity
  8
0
100
AcDbBlockEnd
  0
BLOCK
  5
75C
330
75A
100
AcDbEntity
  8
0
100
AcDbBlockBegin
  2
block 254
 70
     0
 71
     0
 10
0.0
 20
0.0
 30
0.0
  3
block 254
  1

  0
POLYLINE
  5
75E
330
75A
100
AcDbEntity
  8
LINHAEXT
 62
     7
370
     5
100
AcDb2dPolyline
 66
     1
 10
0.0
 20
0.0
 30
0.0
  0
VERTEX
  5
75F
330
75E
100
AcDbEntity
  8
LINHAEXT
 62
     7
370
     5
100
AcDbVertex
100
AcDb2dVertex
 10
406.5205078125
 20
539.521484375
 30
0.0
  0
VERTEX
  5
760
330
75E
100
AcDbEntity
  8
LINHAEXT
 62
     7
370
     5
100
AcDbVertex
100
AcDb2dVertex
 10
406.5205078125
 20
535.66748046875
 30
0.0
  0
SEQEND
  5
761
330
75E
100
AcDbEntity
  8
LINHAEXT
370
     5
  0
ENDBLK
  5
75D
330
75A
100
AcDbEntity
  8
0
100
AcDbBlockEnd
  0
BLOCK
  5
764
330
762
100
AcDbEntity
  8
0
100
AcDbBlockBegin
  2
block 255
 70
     0
 71
     0
 10
0.0
 20
0.0
 30
0.0
  3
block 255
  1

  0
POLYLINE
  5
766
330
762
100
AcDbEntity
  8
LINHAEXT
 62
     7
370
     5
100
AcDb2dPolyline
 66
     1
 10
0.0
 20
0.0
 30
0.0
  0
VERTEX
  5
767
330
766
100
AcDbEntity
  8
LINHAEXT
 62
     7
370
     5
100
AcDbVertex
100
AcDb2dVertex
 10
407.0986328125
 20
539.521484375
 30
0.0
  0
VERTEX
  5
768
330
766
100
AcDbEntity
  8
LINHAEXT
 62
     7
370
     5
100
AcDbVertex
100
AcDb2dVertex
 10
407.0986328125
 20
535.66748046875
 30
0.0
  0
SEQEND
  5
769
330
766
100
AcDbEntity
  8
LINHAEXT
370
     5
  0
ENDBLK
  5
765
330
762
100
AcDbEntity
  8
0
100
AcDbBlockEnd
  0
BLOCK
  5
76C
330
76A
100
AcDbEntity
  8
0
100
AcDbBlockBegin
  2
block 256
 70
     0
 71
     0
 10
0.0
 20
0.0
 30
0.0
  3
block 256
  1

  0
SPLINE
  5
76E
330
76A
100
AcDbEntity
  8
LINHAEXT
 62
     7
370
     5
100
AcDbSpline
210
0.0
220
0.0
230
1.0
 70
     8
 71
     3
 72
    11
 73
     7
 74
     0
 42
0.0000000001
 43
0.0000000001
 40
0.0
 40
0.0
 40
0.0
 40
0.0
 40
1.0
 40
1.0
 40
1.0
 40
2.0
 40
2.0
 40
2.0
 40
2.0
 10
406.5205078125
 20
535.66748046875
 30
0.0
 10
406.5205078125
 20
535.24169921875
 30
0.0
 10
406.865234375
 20
534.896484375
 30
0.0
 10
407.291015625
 20
534.896484375
 30
0.0
 10
407.291015625
 20
534.896484375
 30
0.0
 10
407.291015625
 20
534.896484375
 30
0.0
 10
407.291015625
 20
534.896484375
 30
0.0
  0
ENDBLK
  5
76D
330
76A
100
AcDbEntity
  8
0
100
AcDbBlockEnd
  0
BLOCK
  5
771
330
76F
100
AcDbEntity
  8
0
100
AcDbBlockBegin
  2
block 257
 70
     0
 71
     0
 10
0.0
 20
0.0
 30
0.0
  3
block 257
  1

  0
SPLINE
  5
773
330
76F
100
AcDbEntity
  8
LINHAEXT
 62
     7
370
     5
100
AcDbSpline
210
0.0
220
0.0
230
1.0
 70
     8
 71
     3
 72
    11
 73
     7
 74
     0
 42
0.0000000001
 43
0.0000000001
 40
0.0
 40
0.0
 40
0.0
 40
0.0
 40
1.0
 40
1.0
 40
1.0
 40
2.0
 40
2.0
 40
2.0
 40
2.0
 10
407.0986328125
 20
535.66748046875
 30
0.0
 10
407.0986328125
 20
535.56103515625
 30
0.0
 10
407.1845703125
 20
535.474609375
 30
0.0
 10
407.291015625
 20
535.474609375
 30
0.0
 10
407.291015625
 20
535.474609375
 30
0.0
 10
407.291015625
 20
535.474609375
 30
0.0
 10
407.291015625
 20
535.474609375
 30
0.0
  0
ENDBLK
  5
772
330
76F
100
AcDbEntity
  8
0
100
AcDbBlockEnd
  0
BLOCK
  5
776
330
774
100
AcDbEntity
  8
0
100
AcDbBlockBegin
  2
block 258
 70
     0
 71
     0
 10
0.0
 20
0.0
 30
0.0
  3
block 258
  1

  0
SPLINE
  5
778
330
774
100
AcDbEntity
  8
LINHAEXT
 62
     7
370
     5
100
AcDbSpline
210
0.0
220
0.0
230
1.0
 70
     8
 71
     3
 72
    11
 73
     7
 74
     0
 42
0.0000000001
 43
0.0000000001
 40
0.0
 40
0.0
 40
0.0
 40
0.0
 40
1.0
 40
1.0
 40
1.0
 40
2.0
 40
2.0
 40
2.0
 40
2.0
 10
407.67578125
 20
540.67724609375
 30
0.0
 10
407.0380859375
 20
540.67724609375
 30
0.0
 10
406.5205078125
 20
540.15966796875
 30
0.0
 10
406.5205078125
 20
539.521484375
 30
0.0
 10
406.5205078125
 20
539.521484375
 30
0.0
 10
406.5205078125
 20
539.521484375
 30
0.0
 10
406.5205078125
 20
539.521484375
 30
0.0
  0
ENDBLK
  5
777
330
774
100
AcDbEntity
  8
0
100
AcDbBlockEnd
  0
BLOCK
  5
77B
330
779
100
AcDbEntity
  8
0
100
AcDbBlockBegin
  2
block 259
 70
     0
 71
     0
 10
0.0
 20
0.0
 30
0.0
  3
block 259
  1

  0
SPLINE
  5
77D
330
779
100
AcDbEntity
  8
LINHAEXT
 62
     7
370
     5
100
AcDbSpline
210
0.0
220
0.0
230
1.0
 70
     8
 71
     3
 72
    11
 73
     7
 74
     0
 42
0.0000000001
 43
0.0000000001
 40
0.0
 40
0.0
 40
0.0
 40
0.0
 40
1.0
 40
1.0
 40
1.0
 40
2.0
 40
2.0
 40
2.0
 40
2.0
 10
407.67578125
 20
540.099609375
 30
0.0
 10
407.357421875
 20
540.099609375
 30
0.0
 10
407.0986328125
 20
539.84033203125
 30
0.0
 10
407.0986328125
 20
539.521484375
 30
0.0
 10
407.0986328125
 20
539.521484375
 30
0.0
 10
407.0986328125
 20
539.521484375
 30
0.0
 10
407.0986328125
 20
539.521484375
 30
0.0
  0
ENDBLK
  5
77C
330
779
100
AcDbEntity
  8
0
100
AcDbBlockEnd
  0
BLOCK
  5
780
330
77E
100
AcDbEntity
  8
0
100
AcDbBlockBegin
  2
block 260
 70
     0
 71
     0
 10
0.0
 20
0.0
 30
0.0
  3
block 260
  1

  0
POLYLINE
  5
782
330
77E
100
AcDbEntity
  8
LINHAEXT
 62
     7
370
     5
100
AcDb2dPolyline
 66
     1
 10
0.0
 20
0.0
 30
0.0
  0
VERTEX
  5
783
330
782
100
AcDbEntity
  8
LINHAEXT
 62
     7
370
     5
100
AcDbVertex
100
AcDb2dVertex
 10
473.962890625
 20
540.67724609375
 30
0.0
  0
VERTEX
  5
784
330
782
100
AcDbEntity
  8
LINHAEXT
 62
     7
370
     5
100
AcDbVertex
100
AcDb2dVertex
 10
407.67578125
 20
540.67724609375
 30
0.0
  0
SEQEND
  5
785
330
782
100
AcDbEntity
  8
LINHAEXT
370
     5
  0
ENDBLK
  5
781
330
77E
100
AcDbEntity
  8
0
100
AcDbBlockEnd
  0
BLOCK
  5
788
330
786
100
AcDbEntity
  8
0
100
AcDbBlockBegin
  2
block 261
 70
     0
 71
     0
 10
0.0
 20
0.0
 30
0.0
  3
block 261
  1

  0
POLYLINE
  5
78A
330
786
100
AcDbEntity
  8
LINHAEXT
 62
     7
370
     5
100
AcDb2dPolyline
 66
     1
 10
0.0
 20
0.0
 30
0.0
  0
VERTEX
  5
78B
330
78A
100
AcDbEntity
  8
LINHAEXT
 62
     7
370
     5
100
AcDbVertex
100
AcDb2dVertex
 10
407.67578125
 20
540.67724609375
 30
0.0
  0
VERTEX
  5
78C
330
78A
100
AcDbEntity
  8
LINHAEXT
 62
     7
370
     5
100
AcDbVertex
100
AcDb2dVertex
 10
414.0576171875
 20
540.28564453125
 30
0.0
  0
SEQEND
  5
78D
330
78A
100
AcDbEntity
  8
LINHAEXT
370
     5
  0
ENDBLK
  5
789
330
786
100
AcDbEntity
  8
0
100
AcDbBlockEnd
  0
BLOCK
  5
790
330
78E
100
AcDbEntity
  8
0
100
AcDbBlockBegin
  2
block 262
 70
     0
 71
     0
 10
0.0
 20
0.0
 30
0.0
  3
block 262
  1

  0
POLYLINE
  5
792
330
78E
100
AcDbEntity
  8
LINHAEXT
 62
     7
370
     5
100
AcDb2dPolyline
 66
     1
 10
0.0
 20
0.0
 30
0.0
  0
VERTEX
  5
793
330
792
100
AcDbEntity
  8
LINHAEXT
 62
     7
370
     5
100
AcDbVertex
100
AcDb2dVertex
 10
407.640625
 20
540.10009765625
 30
0.0
  0
VERTEX
  5
794
330
792
100
AcDbEntity
  8
LINHAEXT
 62
     7
370
     5
100
AcDbVertex
100
AcDb2dVertex
 10
414.0224609375
 20
539.70947265625
 30
0.0
  0
SEQEND
  5
795
330
792
100
AcDbEntity
  8
LINHAEXT
370
     5
  0
ENDBLK
  5
791
330
78E
100
AcDbEntity
  8
0
100
AcDbBlockEnd
  0
BLOCK
  5
798
330
796
100
AcDbEntity
  8
0
100
AcDbBlockBegin
  2
block 263
 70
     0
 71
     0
 10
0.0
 20
0.0
 30
0.0
  3
block 263
  1

  0
SPLINE
  5
79A
330
796
100
AcDbEntity
  8
LINHAEXT
 62
     7
370
     5
100
AcDbSpline
210
0.0
220
0.0
230
1.0
 70
     8
 71
     3
 72
     8
 73
     4
 74
     0
 42
0.0000000001
 43
0.0000000001
 40
0.0
 40
0.0
 40
0.0
 40
0.0
 40
1.0
 40
1.0
 40
1.0
 40
1.0
 10
419.7158203125
 20
534.93115234375
 30
0.0
 10
419.44140625
 20
537.787109375
 30
0.0
 10
416.9248046875
 20
540.16943359375
 30
0.0
 10
414.0576171875
 20
540.28564453125
 30
0.0
  0
ENDBLK
  5
799
330
796
100
AcDbEntity
  8
0
100
AcDbBlockEnd
  0
BLOCK
  5
79D
330
79B
100
AcDbEntity
  8
0
100
AcDbBlockBegin
  2
block 264
 70
     0
 71
     0
 10
0.0
 20
0.0
 30
0.0
  3
block 264
  1

  0
SPLINE
  5
79F
330
79B
100
AcDbEntity
  8
LINHAEXT
 62
     7
370
     5
100
AcDbSpline
210
0.0
220
0.0
230
1.0
 70
     8
 71
     3
 72
     8
 73
     4
 74
     0
 42
0.0000000001
 43
0.0000000001
 40
0.0
 40
0.0
 40
0.0
 40
0.0
 40
1.0
 40
1.0
 40
1.0
 40
1.0
 10
419.140625
 20
534.8642578125
 30
0.0
 10
418.8935546875
 20
537.44775390625
 30
0.0
 10
416.6171875
 20
539.603515625
 30
0.0
 10
414.0224609375
 20
539.70947265625
 30
0.0
  0
ENDBLK
  5
79E
330
79B
100
AcDbEntity
  8
0
100
AcDbBlockEnd
  0
BLOCK
  5
7A2
330
7A0
100
AcDbEntity
  8
0
100
AcDbBlockBegin
  2
block 265
 70
     0
 71
     0
 10
0.0
 20
0.0
 30
0.0
  3
block 265
  1

  0
SPLINE
  5
7A4
330
7A0
100
AcDbEntity
  8
LINHAEXT
 62
     7
370
     5
100
AcDbSpline
210
0.0
220
0.0
230
1.0
 70
     8
 71
     3
 72
     8
 73
     4
 74
     0
 42
0.0000000001
 43
0.0000000001
 40
0.0
 40
0.0
 40
0.0
 40
0.0
 40
1.0
 40
1.0
 40
1.0
 40
1.0
 10
419.7158203125
 20
534.93115234375
 30
0.0
 10
421.0
 20
522.849609375
 30
0.0
 10
424.3779296875
 20
499.23779296875
 30
0.0
 10
426.533203125
 20
487.28125
 30
0.0
  0
ENDBLK
  5
7A3
330
7A0
100
AcDbEntity
  8
0
100
AcDbBlockEnd
  0
BLOCK
  5
7A7
330
7A5
100
AcDbEntity
  8
0
100
AcDbBlockBegin
  2
block 266
 70
     0
 71
     0
 10
0.0
 20
0.0
 30
0.0
  3
block 266
  1

  0
SPLINE
  5
7A9
330
7A5
100
AcDbEntity
  8
LINHAEXT
 62
     7
370
     5
100
AcDbSpline
210
0.0
220
0.0
230
1.0
 70
     8
 71
     3
 72
     8
 73
     4
 74
     0
 42
0.0000000001
 43
0.0000000001
 40
0.0
 40
0.0
 40
0.0
 40
0.0
 40
1.0
 40
1.0
 40
1.0
 40
1.0
 10
419.140625
 20
534.86474609375
 30
0.0
 10
420.4267578125
 20
522.775390625
 30
0.0
 10
423.806640625
 20
499.1484375
 30
0.0
 10
425.9638671875
 20
487.18359375
 30
0.0
  0
ENDBLK
  5
7A8
330
7A5
100
AcDbEntity
  8
0
100
AcDbBlockEnd
  0
BLOCK
  5
7AC
330
7AA
100
AcDbEntity
  8
0
100
AcDbBlockBegin
  2
block 267
 70
     0
 71
     0
 10
0.0
 20
0.0
 30
0.0
  3
block 267
  1

  0
POLYLINE
  5
7AE
330
7AA
100
AcDbEntity
  8
LINHAEXT
 62
     7
370
     5
100
AcDb2dPolyline
 66
     1
 10
0.0
 20
0.0
 30
0.0
  0
VERTEX
  5
7AF
330
7AE
100
AcDbEntity
  8
LINHAEXT
 62
     7
370
     5
100
AcDbVertex
100
AcDb2dVertex
 10
467.701171875
 20
465.19482421875
 30
0.0
  0
VERTEX
  5
7B0
330
7AE
100
AcDbEntity
  8
LINHAEXT
 62
     7
370
     5
100
AcDbVertex
100
AcDb2dVertex
 10
467.4189453125
 20
465.630859375
 30
0.0
  0
SEQEND
  5
7B1
330
7AE
100
AcDbEntity
  8
LINHAEXT
370
     5
  0
ENDBLK
  5
7AD
330
7AA
100
AcDbEntity
  8
0
100
AcDbBlockEnd
  0
BLOCK
  5
7B4
330
7B2
100
AcDbEntity
  8
0
100
AcDbBlockBegin
  2
block 268
 70
     0
 71
     0
 10
0.0
 20
0.0
 30
0.0
  3
block 268
  1

  0
POLYLINE
  5
7B6
330
7B2
100
AcDbEntity
  8
LINHAEXT
 62
     7
370
     5
100
AcDb2dPolyline
 66
     1
 10
0.0
 20
0.0
 30
0.0
  0
VERTEX
  5
7B7
330
7B6
100
AcDbEntity
  8
LINHAEXT
 62
     7
370
     5
100
AcDbVertex
100
AcDb2dVertex
 10
467.2158203125
 20
464.88037109375
 30
0.0
  0
VERTEX
  5
7B8
330
7B6
100
AcDbEntity
  8
LINHAEXT
 62
     7
370
     5
100
AcDbVertex
100
AcDb2dVertex
 10
466.9345703125
 20
465.3154296875
 30
0.0
  0
SEQEND
  5
7B9
330
7B6
100
AcDbEntity
  8
LINHAEXT
370
     5
  0
ENDBLK
  5
7B5
330
7B2
100
AcDbEntity
  8
0
100
AcDbBlockEnd
  0
BLOCK
  5
7BC
330
7BA
100
AcDbEntity
  8
0
100
AcDbBlockBegin
  2
block 269
 70
     0
 71
     0
 10
0.0
 20
0.0
 30
0.0
  3
block 269
  1

  0
SPLINE
  5
7BE
330
7BA
100
AcDbEntity
  8
LINHAEXT
 62
     7
370
     5
100
AcDbSpline
210
0.0
220
0.0
230
1.0
 70
     8
 71
     3
 72
     8
 73
     4
 74
     0
 42
0.0000000001
 43
0.0000000001
 40
0.0
 40
0.0
 40
0.0
 40
0.0
 40
1.0
 40
1.0
 40
1.0
 40
1.0
 10
467.701171875
 20
465.19482421875
 30
0.0
 10
467.849609375
 20
464.93701171875
 30
0.0
 10
468.2119140625
 20
464.74072265625
 30
0.0
 10
468.509765625
 20
464.75634765625
 30
0.0
  0
ENDBLK
  5
7BD
330
7BA
100
AcDbEntity
  8
0
100
AcDbBlockEnd
  0
BLOCK
  5
7C1
330
7BF
100
AcDbEntity
  8
0
100
AcDbBlockBegin
  2
block 270
 70
     0
 71
     0
 10
0.0
 20
0.0
 30
0.0
  3
block 270
  1

  0
SPLINE
  5
7C3
330
7BF
100
AcDbEntity
  8
LINHAEXT
 62
     7
370
     5
100
AcDbSpline
210
0.0
220
0.0
230
1.0
 70
     8
 71
     3
 72
     8
 73
     4
 74
     0
 42
0.0000000001
 43
0.0000000001
 40
0.0
 40
0.0
 40
0.0
 40
0.0
 40
1.0
 40
1.0
 40
1.0
 40
1.0
 10
467.2158203125
 20
464.88037109375
 30
0.0
 10
467.455078125
 20
464.4677734375
 30
0.0
 10
468.033203125
 20
464.1533203125
 30
0.0
 10
468.509765625
 20
464.17822265625
 30
0.0
  0
ENDBLK
  5
7C2
330
7BF
100
AcDbEntity
  8
0
100
AcDbBlockEnd
  0
BLOCK
  5
7C6
330
7C4
100
AcDbEntity
  8
0
100
AcDbBlockBegin
  2
block 271
 70
     0
 71
     0
 10
0.0
 20
0.0
 30
0.0
  3
block 271
  1

  0
POLYLINE
  5
7C8
330
7C4
100
AcDbEntity
  8
LINHAEXT
 62
     7
370
     5
100
AcDb2dPolyline
 66
     1
 10
0.0
 20
0.0
 30
0.0
  0
VERTEX
  5
7C9
330
7C8
100
AcDbEntity
  8
LINHAEXT
 62
     7
370
     5
100
AcDbVertex
100
AcDb2dVertex
 10
468.953125
 20
464.75634765625
 30
0.0
  0
VERTEX
  5
7CA
330
7C8
100
AcDbEntity
  8
LINHAEXT
 62
     7
370
     5
100
AcDbVertex
100
AcDb2dVertex
 10
468.509765625
 20
464.75634765625
 30
0.0
  0
SEQEND
  5
7CB
330
7C8
100
AcDbEntity
  8
LINHAEXT
370
     5
  0
ENDBLK
  5
7C7
330
7C4
100
AcDbEntity
  8
0
100
AcDbBlockEnd
  0
BLOCK
  5
7CE
330
7CC
100
AcDbEntity
  8
0
100
AcDbBlockBegin
  2
block 272
 70
     0
 71
     0
 10
0.0
 20
0.0
 30
0.0
  3
block 272
  1

  0
POLYLINE
  5
7D0
330
7CC
100
AcDbEntity
  8
LINHAEXT
 62
     7
370
     5
100
AcDb2dPolyline
 66
     1
 10
0.0
 20
0.0
 30
0.0
  0
VERTEX
  5
7D1
330
7D0
100
AcDbEntity
  8
LINHAEXT
 62
     7
370
     5
100
AcDbVertex
100
AcDb2dVertex
 10
468.953125
 20
464.17822265625
 30
0.0
  0
VERTEX
  5
7D2
330
7D0
100
AcDbEntity
  8
LINHAEXT
 62
     7
370
     5
100
AcDbVertex
100
AcDb2dVertex
 10
468.509765625
 20
464.17822265625
 30
0.0
  0
SEQEND
  5
7D3
330
7D0
100
AcDbEntity
  8
LINHAEXT
370
     5
  0
ENDBLK
  5
7CF
330
7CC
100
AcDbEntity
  8
0
100
AcDbBlockEnd
  0
BLOCK
  5
7D6
330
7D4
100
AcDbEntity
  8
0
100
AcDbBlockBegin
  2
block 273
 70
     0
 71
     0
 10
0.0
 20
0.0
 30
0.0
  3
block 273
  1

  0
SPLINE
  5
7D8
330
7D4
100
AcDbEntity
  8
LINHAEXT
 62
     7
370
     5
100
AcDbSpline
210
0.0
220
0.0
230
1.0
 70
     8
 71
     3
 72
     8
 73
     4
 74
     0
 42
0.0000000001
 43
0.0000000001
 40
0.0
 40
0.0
 40
0.0
 40
0.0
 40
1.0
 40
1.0
 40
1.0
 40
1.0
 10
467.4189453125
 20
465.630859375
 30
0.0
 10
467.0849609375
 20
466.212890625
 30
0.0
 10
466.2666015625
 20
466.68359375
 30
0.0
 10
465.5947265625
 20
466.68017578125
 30
0.0
  0
ENDBLK
  5
7D7
330
7D4
100
AcDbEntity
  8
0
100
AcDbBlockEnd
  0
BLOCK
  5
7DB
330
7D9
100
AcDbEntity
  8
0
100
AcDbBlockBegin
  2
block 274
 70
     0
 71
     0
 10
0.0
 20
0.0
 30
0.0
  3
block 274
  1

  0
SPLINE
  5
7DD
330
7D9
100
AcDbEntity
  8
LINHAEXT
 62
     7
370
     5
100
AcDbSpline
210
0.0
220
0.0
230
1.0
 70
     8
 71
     3
 72
     8
 73
     4
 74
     0
 42
0.0000000001
 43
0.0000000001
 40
0.0
 40
0.0
 40
0.0
 40
0.0
 40
1.0
 40
1.0
 40
1.0
 40
1.0
 10
466.9345703125
 20
465.3154296875
 30
0.0
 10
466.6826171875
 20
465.751953125
 30
0.0
 10
466.0693359375
 20
466.10546875
 30
0.0
 10
465.5654296875
 20
466.103515625
 30
0.0
  0
ENDBLK
  5
7DC
330
7D9
100
AcDbEntity
  8
0
100
AcDbBlockEnd
  0
BLOCK
  5
7E0
330
7DE
100
AcDbEntity
  8
0
100
AcDbBlockBegin
  2
block 275
 70
     0
 71
     0
 10
0.0
 20
0.0
 30
0.0
  3
block 275
  1

  0
POLYLINE
  5
7E2
330
7DE
100
AcDbEntity
  8
LINHAEXT
 62
     7
370
     5
100
AcDb2dPolyline
 66
     1
 10
0.0
 20
0.0
 30
0.0
  0
VERTEX
  5
7E3
330
7E2
100
AcDbEntity
  8
LINHAEXT
 62
     7
370
     5
100
AcDbVertex
100
AcDb2dVertex
 10
480.2236328125
 20
465.19482421875
 30
0.0
  0
VERTEX
  5
7E4
330
7E2
100
AcDbEntity
  8
LINHAEXT
 62
     7
370
     5
100
AcDbVertex
100
AcDb2dVertex
 10
480.5068359375
 20
465.630859375
 30
0.0
  0
SEQEND
  5
7E5
330
7E2
100
AcDbEntity
  8
LINHAEXT
370
     5
  0
ENDBLK
  5
7E1
330
7DE
100
AcDbEntity
  8
0
100
AcDbBlockEnd
  0
BLOCK
  5
7E8
330
7E6
100
AcDbEntity
  8
0
100
AcDbBlockBegin
  2
block 276
 70
     0
 71
     0
 10
0.0
 20
0.0
 30
0.0
  3
block 276
  1

  0
POLYLINE
  5
7EA
330
7E6
100
AcDbEntity
  8
LINHAEXT
 62
     7
370
     5
100
AcDb2dPolyline
 66
     1
 10
0.0
 20
0.0
 30
0.0
  0
VERTEX
  5
7EB
330
7EA
100
AcDbEntity
  8
LINHAEXT
 62
     7
370
     5
100
AcDbVertex
100
AcDb2dVertex
 10
480.7080078125
 20
464.88037109375
 30
0.0
  0
VERTEX
  5
7EC
330
7EA
100
AcDbEntity
  8
LINHAEXT
 62
     7
370
     5
100
AcDbVertex
100
AcDb2dVertex
 10
480.9912109375
 20
465.3154296875
 30
0.0
  0
SEQEND
  5
7ED
330
7EA
100
AcDbEntity
  8
LINHAEXT
370
     5
  0
ENDBLK
  5
7E9
330
7E6
100
AcDbEntity
  8
0
100
AcDbBlockEnd
  0
BLOCK
  5
7F0
330
7EE
100
AcDbEntity
  8
0
100
AcDbBlockBegin
  2
block 277
 70
     0
 71
     0
 10
0.0
 20
0.0
 30
0.0
  3
block 277
  1

  0
SPLINE
  5
7F2
330
7EE
100
AcDbEntity
  8
LINHAEXT
 62
     7
370
     5
100
AcDbSpline
210
0.0
220
0.0
230
1.0
 70
     8
 71
     3
 72
     8
 73
     4
 74
     0
 42
0.0000000001
 43
0.0000000001
 40
0.0
 40
0.0
 40
0.0
 40
0.0
 40
1.0
 40
1.0
 40
1.0
 40
1.0
 10
479.416015625
 20
464.75634765625
 30
0.0
 10
479.712890625
 20
464.74072265625
 30
0.0
 10
480.07421875
 20
464.93701171875
 30
0.0
 10
480.2236328125
 20
465.19482421875
 30
0.0
  0
ENDBLK
  5
7F1
330
7EE
100
AcDbEntity
  8
0
100
AcDbBlockEnd
  0
BLOCK
  5
7F5
330
7F3
100
AcDbEntity
  8
0
100
AcDbBlockBegin
  2
block 278
 70
     0
 71
     0
 10
0.0
 20
0.0
 30
0.0
  3
block 278
  1

  0
SPLINE
  5
7F7
330
7F3
100
AcDbEntity
  8
LINHAEXT
 62
     7
370
     5
100
AcDbSpline
210
0.0
220
0.0
230
1.0
 70
     8
 71
     3
 72
     8
 73
     4
 74
     0
 42
0.0000000001
 43
0.0000000001
 40
0.0
 40
0.0
 40
0.0
 40
0.0
 40
1.0
 40
1.0
 40
1.0
 40
1.0
 10
479.416015625
 20
464.17822265625
 30
0.0
 10
479.8916015625
 20
464.1533203125
 30
0.0
 10
480.470703125
 20
464.4677734375
 30
0.0
 10
480.7080078125
 20
464.88037109375
 30
0.0
  0
ENDBLK
  5
7F6
330
7F3
100
AcDbEntity
  8
0
100
AcDbBlockEnd
  0
BLOCK
  5
7FA
330
7F8
100
AcDbEntity
  8
0
100
AcDbBlockBegin
  2
block 279
 70
     0
 71
     0
 10
0.0
 20
0.0
 30
0.0
  3
block 279
  1

  0
POLYLINE
  5
7FC
330
7F8
100
AcDbEntity
  8
LINHAEXT
 62
     7
370
     5
100
AcDb2dPolyline
 66
     1
 10
0.0
 20
0.0
 30
0.0
  0
VERTEX
  5
7FD
330
7FC
100
AcDbEntity
  8
LINHAEXT
 62
     7
370
     5
100
AcDbVertex
100
AcDb2dVertex
 10
478.97265625
 20
464.75634765625
 30
0.0
  0
VERTEX
  5
7FE
330
7FC
100
AcDbEntity
  8
LINHAEXT
 62
     7
370
     5
100
AcDbVertex
100
AcDb2dVertex
 10
479.416015625
 20
464.75634765625
 30
0.0
  0
SEQEND
  5
7FF
330
7FC
100
AcDbEntity
  8
LINHAEXT
370
     5
  0
ENDBLK
  5
7FB
330
7F8
100
AcDbEntity
  8
0
100
AcDbBlockEnd
  0
BLOCK
  5
802
330
800
100
AcDbEntity
  8
0
100
AcDbBlockBegin
  2
block 280
 70
     0
 71
     0
 10
0.0
 20
0.0
 30
0.0
  3
block 280
  1

  0
POLYLINE
  5
804
330
800
100
AcDbEntity
  8
LINHAEXT
 62
     7
370
     5
100
AcDb2dPolyline
 66
     1
 10
0.0
 20
0.0
 30
0.0
  0
VERTEX
  5
805
330
804
100
AcDbEntity
  8
LINHAEXT
 62
     7
370
     5
100
AcDbVertex
100
AcDb2dVertex
 10
478.97265625
 20
464.17822265625
 30
0.0
  0
VERTEX
  5
806
330
804
100
AcDbEntity
  8
LINHAEXT
 62
     7
370
     5
100
AcDbVertex
100
AcDb2dVertex
 10
479.416015625
 20
464.17822265625
 30
0.0
  0
SEQEND
  5
807
330
804
100
AcDbEntity
  8
LINHAEXT
370
     5
  0
ENDBLK
  5
803
330
800
100
AcDbEntity
  8
0
100
AcDbBlockEnd
  0
BLOCK
  5
80A
330
808
100
AcDbEntity
  8
0
100
AcDbBlockBegin
  2
block 281
 70
     0
 71
     0
 10
0.0
 20
0.0
 30
0.0
  3
block 281
  1

  0
SPLINE
  5
80C
330
808
100
AcDbEntity
  8
LINHAEXT
 62
     7
370
     5
100
AcDbSpline
210
0.0
220
0.0
230
1.0
 70
     8
 71
     3
 72
     8
 73
     4
 74
     0
 42
0.0000000001
 43
0.0000000001
 40
0.0
 40
0.0
 40
0.0
 40
0.0
 40
1.0
 40
1.0
 40
1.0
 40
1.0
 10
482.330078125
 20
466.68017578125
 30
0.0
 10
481.6591796875
 20
466.68359375
 30
0.0
 10
480.8408203125
 20
466.212890625
 30
0.0
 10
480.5068359375
 20
465.630859375
 30
0.0
  0
ENDBLK
  5
80B
330
808
100
AcDbEntity
  8
0
100
AcDbBlockEnd
  0
BLOCK
  5
80F
330
80D
100
AcDbEntity
  8
0
100
AcDbBlockBegin
  2
block 282
 70
     0
 71
     0
 10
0.0
 20
0.0
 30
0.0
  3
block 282
  1

  0
SPLINE
  5
811
330
80D
100
AcDbEntity
  8
LINHAEXT
 62
     7
370
     5
100
AcDbSpline
210
0.0
220
0.0
230
1.0
 70
     8
 71
     3
 72
     8
 73
     4
 74
     0
 42
0.0000000001
 43
0.0000000001
 40
0.0
 40
0.0
 40
0.0
 40
0.0
 40
1.0
 40
1.0
 40
1.0
 40
1.0
 10
482.359375
 20
466.103515625
 30
0.0
 10
481.85546875
 20
466.10546875
 30
0.0
 10
481.2421875
 20
465.751953125
 30
0.0
 10
480.9912109375
 20
465.3154296875
 30
0.0
  0
ENDBLK
  5
810
330
80D
100
AcDbEntity
  8
0
100
AcDbBlockEnd
  0
BLOCK
  5
814
330
812
100
AcDbEntity
  8
0
100
AcDbBlockBegin
  2
block 283
 70
     0
 71
     0
 10
0.0
 20
0.0
 30
0.0
  3
block 283
  1

  0
SPLINE
  5
816
330
812
100
AcDbEntity
  8
LINHAEXT
 62
     7
370
     5
100
AcDbSpline
210
0.0
220
0.0
230
1.0
 70
     8
 71
     3
 72
     8
 73
     4
 74
     0
 42
0.0000000001
 43
0.0000000001
 40
0.0
 40
0.0
 40
0.0
 40
0.0
 40
1.0
 40
1.0
 40
1.0
 40
1.0
 10
446.7568359375
 20
468.2021484375
 30
0.0
 10
451.498046875
 20
467.62548828125
 30
0.0
 10
460.8232421875
 20
466.8720703125
 30
0.0
 10
465.5947265625
 20
466.68017578125
 30
0.0
  0
ENDBLK
  5
815
330
812
100
AcDbEntity
  8
0
100
AcDbBlockEnd
  0
BLOCK
  5
819
330
817
100
AcDbEntity
  8
0
100
AcDbBlockBegin
  2
block 284
 70
     0
 71
     0
 10
0.0
 20
0.0
 30
0.0
  3
block 284
  1

  0
SPLINE
  5
81B
330
817
100
AcDbEntity
  8
LINHAEXT
 62
     7
370
     5
100
AcDbSpline
210
0.0
220
0.0
230
1.0
 70
     8
 71
     3
 72
     8
 73
     4
 74
     0
 42
0.0000000001
 43
0.0000000001
 40
0.0
 40
0.0
 40
0.0
 40
0.0
 40
1.0
 40
1.0
 40
1.0
 40
1.0
 10
446.693359375
 20
467.62744140625
 30
0.0
 10
451.443359375
 20
467.0498046875
 30
0.0
 10
460.78515625
 20
466.29541015625
 30
0.0
 10
465.5654296875
 20
466.103515625
 30
0.0
  0
ENDBLK
  5
81A
330
817
100
AcDbEntity
  8
0
100
AcDbBlockEnd
  0
BLOCK
  5
81E
330
81C
100
AcDbEntity
  8
0
100
AcDbBlockBegin
  2
block 285
 70
     0
 71
     0
 10
0.0
 20
0.0
 30
0.0
  3
block 285
  1

  0
POLYLINE
  5
820
330
81C
100
AcDbEntity
  8
LINHAEXT
 62
     7
370
     5
100
AcDb2dPolyline
 66
     1
 10
0.0
 20
0.0
 30
0.0
  0
VERTEX
  5
821
330
820
100
AcDbEntity
  8
LINHAEXT
 62
     7
370
     5
100
AcDbVertex
100
AcDb2dVertex
 10
408.0615234375
 20
534.896484375
 30
0.0
  0
VERTEX
  5
822
330
820
100
AcDbEntity
  8
LINHAEXT
 62
     7
370
     5
100
AcDbVertex
100
AcDb2dVertex
 10
408.0615234375
 20
535.474609375
 30
0.0
  0
SEQEND
  5
823
330
820
100
AcDbEntity
  8
LINHAEXT
370
     5
  0
ENDBLK
  5
81F
330
81C
100
AcDbEntity
  8
0
100
AcDbBlockEnd
  0
BLOCK
  5
826
330
824
100
AcDbEntity
  8
0
100
AcDbBlockBegin
  2
block 286
 70
     0
 71
     0
 10
0.0
 20
0.0
 30
0.0
  3
block 286
  1

  0
POLYLINE
  5
828
330
824
100
AcDbEntity
  8
LINHAEXT
 62
     7
370
     5
100
AcDb2dPolyline
 66
     1
 10
0.0
 20
0.0
 30
0.0
  0
VERTEX
  5
829
330
828
100
AcDbEntity
  8
LINHAEXT
 62
     7
370
     5
100
AcDbVertex
100
AcDb2dVertex
 10
540.634765625
 20
534.896484375
 30
0.0
  0
VERTEX
  5
82A
330
828
100
AcDbEntity
  8
LINHAEXT
 62
     7
370
     5
100
AcDbVertex
100
AcDb2dVertex
 10
539.86328125
 20
534.896484375
 30
0.0
  0
SEQEND
  5
82B
330
828
100
AcDbEntity
  8
LINHAEXT
370
     5
  0
ENDBLK
  5
827
330
824
100
AcDbEntity
  8
0
100
AcDbBlockEnd
  0
BLOCK
  5
82E
330
82C
100
AcDbEntity
  8
0
100
AcDbBlockBegin
  2
block 287
 70
     0
 71
     0
 10
0.0
 20
0.0
 30
0.0
  3
block 287
  1

  0
POLYLINE
  5
830
330
82C
100
AcDbEntity
  8
LINHAEXT
 62
     7
370
     5
100
AcDb2dPolyline
 66
     1
 10
0.0
 20
0.0
 30
0.0
  0
VERTEX
  5
831
330
830
100
AcDbEntity
  8
LINHAEXT
 62
     7
370
     5
100
AcDbVertex
100
AcDb2dVertex
 10
540.634765625
 20
535.474609375
 30
0.0
  0
VERTEX
  5
832
330
830
100
AcDbEntity
  8
LINHAEXT
 62
     7
370
     5
100
AcDbVertex
100
AcDb2dVertex
 10
539.86328125
 20
535.474609375
 30
0.0
  0
SEQEND
  5
833
330
830
100
AcDbEntity
  8
LINHAEXT
370
     5
  0
ENDBLK
  5
82F
330
82C
100
AcDbEntity
  8
0
100
AcDbBlockEnd
  0
BLOCK
  5
836
330
834
100
AcDbEntity
  8
0
100
AcDbBlockBegin
  2
block 288
 70
     0
 71
     0
 10
0.0
 20
0.0
 30
0.0
  3
block 288
  1

  0
POLYLINE
  5
838
330
834
100
AcDbEntity
  8
LINHAEXT
 62
     7
370
     5
100
AcDb2dPolyline
 66
     1
 10
0.0
 20
0.0
 30
0.0
  0
VERTEX
  5
839
330
838
100
AcDbEntity
  8
LINHAEXT
 62
     7
370
     5
100
AcDbVertex
100
AcDb2dVertex
 10
541.4052734375
 20
539.521484375
 30
0.0
  0
VERTEX
  5
83A
330
838
100
AcDbEntity
  8
LINHAEXT
 62
     7
370
     5
100
AcDbVertex
100
AcDb2dVertex
 10
541.4052734375
 20
535.66748046875
 30
0.0
  0
SEQEND
  5
83B
330
838
100
AcDbEntity
  8
LINHAEXT
370
     5
  0
ENDBLK
  5
837
330
834
100
AcDbEntity
  8
0
100
AcDbBlockEnd
  0
BLOCK
  5
83E
330
83C
100
AcDbEntity
  8
0
100
AcDbBlockBegin
  2
block 289
 70
     0
 71
     0
 10
0.0
 20
0.0
 30
0.0
  3
block 289
  1

  0
POLYLINE
  5
840
330
83C
100
AcDbEntity
  8
LINHAEXT
 62
     7
370
     5
100
AcDb2dPolyline
 66
     1
 10
0.0
 20
0.0
 30
0.0
  0
VERTEX
  5
841
330
840
100
AcDbEntity
  8
LINHAEXT
 62
     7
370
     5
100
AcDbVertex
100
AcDb2dVertex
 10
540.8271484375
 20
539.521484375
 30
0.0
  0
VERTEX
  5
842
330
840
100
AcDbEntity
  8
LINHAEXT
 62
     7
370
     5
100
AcDbVertex
100
AcDb2dVertex
 10
540.8271484375
 20
535.66748046875
 30
0.0
  0
SEQEND
  5
843
330
840
100
AcDbEntity
  8
LINHAEXT
370
     5
  0
ENDBLK
  5
83F
330
83C
100
AcDbEntity
  8
0
100
AcDbBlockEnd
  0
BLOCK
  5
846
330
844
100
AcDbEntity
  8
0
100
AcDbBlockBegin
  2
block 290
 70
     0
 71
     0
 10
0.0
 20
0.0
 30
0.0
  3
block 290
  1

  0
SPLINE
  5
848
330
844
100
AcDbEntity
  8
LINHAEXT
 62
     7
370
     5
100
AcDbSpline
210
0.0
220
0.0
230
1.0
 70
     8
 71
     3
 72
    11
 73
     7
 74
     0
 42
0.0000000001
 43
0.0000000001
 40
0.0
 40
0.0
 40
0.0
 40
0.0
 40
1.0
 40
1.0
 40
1.0
 40
2.0
 40
2.0
 40
2.0
 40
2.0
 10
540.634765625
 20
534.896484375
 30
0.0
 10
541.060546875
 20
534.896484375
 30
0.0
 10
541.4052734375
 20
535.24169921875
 30
0.0
 10
541.4052734375
 20
535.66748046875
 30
0.0
 10
541.4052734375
 20
535.66748046875
 30
0.0
 10
541.4052734375
 20
535.66748046875
 30
0.0
 10
541.4052734375
 20
535.66748046875
 30
0.0
  0
ENDBLK
  5
847
330
844
100
AcDbEntity
  8
0
100
AcDbBlockEnd
  0
BLOCK
  5
84B
330
849
100
AcDbEntity
  8
0
100
AcDbBlockBegin
  2
block 291
 70
     0
 71
     0
 10
0.0
 20
0.0
 30
0.0
  3
block 291
  1

  0
SPLINE
  5
84D
330
849
100
AcDbEntity
  8
LINHAEXT
 62
     7
370
     5
100
AcDbSpline
210
0.0
220
0.0
230
1.0
 70
     8
 71
     3
 72
    11
 73
     7
 74
     0
 42
0.0000000001
 43
0.0000000001
 40
0.0
 40
0.0
 40
0.0
 40
0.0
 40
1.0
 40
1.0
 40
1.0
 40
2.0
 40
2.0
 40
2.0
 40
2.0
 10
540.634765625
 20
535.474609375
 30
0.0
 10
540.7412109375
 20
535.474609375
 30
0.0
 10
540.8271484375
 20
535.56103515625
 30
0.0
 10
540.8271484375
 20
535.66748046875
 30
0.0
 10
540.8271484375
 20
535.66748046875
 30
0.0
 10
540.8271484375
 20
535.66748046875
 30
0.0
 10
540.8271484375
 20
535.66748046875
 30
0.0
  0
ENDBLK
  5
84C
330
849
100
AcDbEntity
  8
0
100
AcDbBlockEnd
  0
BLOCK
  5
850
330
84E
100
AcDbEntity
  8
0
100
AcDbBlockBegin
  2
block 292
 70
     0
 71
     0
 10
0.0
 20
0.0
 30
0.0
  3
block 292
  1

  0
SPLINE
  5
852
330
84E
100
AcDbEntity
  8
LINHAEXT
 62
     7
370
     5
100
AcDbSpline
210
0.0
220
0.0
230
1.0
 70
     8
 71
     3
 72
    11
 73
     7
 74
     0
 42
0.0000000001
 43
0.0000000001
 40
0.0
 40
0.0
 40
0.0
 40
0.0
 40
1.0
 40
1.0
 40
1.0
 40
2.0
 40
2.0
 40
2.0
 40
2.0
 10
541.4052734375
 20
539.521484375
 30
0.0
 10
541.4052734375
 20
540.15966796875
 30
0.0
 10
540.8876953125
 20
540.67724609375
 30
0.0
 10
540.2490234375
 20
540.67724609375
 30
0.0
 10
540.2490234375
 20
540.67724609375
 30
0.0
 10
540.2490234375
 20
540.67724609375
 30
0.0
 10
540.2490234375
 20
540.67724609375
 30
0.0
  0
ENDBLK
  5
851
330
84E
100
AcDbEntity
  8
0
100
AcDbBlockEnd
  0
BLOCK
  5
855
330
853
100
AcDbEntity
  8
0
100
AcDbBlockBegin
  2
block 293
 70
     0
 71
     0
 10
0.0
 20
0.0
 30
0.0
  3
block 293
  1

  0
SPLINE
  5
857
330
853
100
AcDbEntity
  8
LINHAEXT
 62
     7
370
     5
100
AcDbSpline
210
0.0
220
0.0
230
1.0
 70
     8
 71
     3
 72
    11
 73
     7
 74
     0
 42
0.0000000001
 43
0.0000000001
 40
0.0
 40
0.0
 40
0.0
 40
0.0
 40
1.0
 40
1.0
 40
1.0
 40
2.0
 40
2.0
 40
2.0
 40
2.0
 10
540.8271484375
 20
539.521484375
 30
0.0
 10
540.8271484375
 20
539.84033203125
 30
0.0
 10
540.568359375
 20
540.099609375
 30
0.0
 10
540.2490234375
 20
540.099609375
 30
0.0
 10
540.2490234375
 20
540.099609375
 30
0.0
 10
540.2490234375
 20
540.099609375
 30
0.0
 10
540.2490234375
 20
540.099609375
 30
0.0
  0
ENDBLK
  5
856
330
853
100
AcDbEntity
  8
0
100
AcDbBlockEnd
  0
BLOCK
  5
85A
330
858
100
AcDbEntity
  8
0
100
AcDbBlockBegin
  2
block 294
 70
     0
 71
     0
 10
0.0
 20
0.0
 30
0.0
  3
block 294
  1

  0
POLYLINE
  5
85C
330
858
100
AcDbEntity
  8
LINHAEXT
 62
     7
370
     5
100
AcDb2dPolyline
 66
     1
 10
0.0
 20
0.0
 30
0.0
  0
VERTEX
  5
85D
330
85C
100
AcDbEntity
  8
LINHAEXT
 62
     7
370
     5
100
AcDbVertex
100
AcDb2dVertex
 10
540.2490234375
 20
540.67724609375
 30
0.0
  0
VERTEX
  5
85E
330
85C
100
AcDbEntity
  8
LINHAEXT
 62
     7
370
     5
100
AcDbVertex
100
AcDb2dVertex
 10
533.8662109375
 20
540.28564453125
 30
0.0
  0
SEQEND
  5
85F
330
85C
100
AcDbEntity
  8
LINHAEXT
370
     5
  0
ENDBLK
  5
85B
330
858
100
AcDbEntity
  8
0
100
AcDbBlockEnd
  0
BLOCK
  5
862
330
860
100
AcDbEntity
  8
0
100
AcDbBlockBegin
  2
block 295
 70
     0
 71
     0
 10
0.0
 20
0.0
 30
0.0
  3
block 295
  1

  0
POLYLINE
  5
864
330
860
100
AcDbEntity
  8
LINHAEXT
 62
     7
370
     5
100
AcDb2dPolyline
 66
     1
 10
0.0
 20
0.0
 30
0.0
  0
VERTEX
  5
865
330
864
100
AcDbEntity
  8
LINHAEXT
 62
     7
370
     5
100
AcDbVertex
100
AcDb2dVertex
 10
540.2841796875
 20
540.10009765625
 30
0.0
  0
VERTEX
  5
866
330
864
100
AcDbEntity
  8
LINHAEXT
 62
     7
370
     5
100
AcDbVertex
100
AcDb2dVertex
 10
533.90234375
 20
539.70947265625
 30
0.0
  0
SEQEND
  5
867
330
864
100
AcDbEntity
  8
LINHAEXT
370
     5
  0
ENDBLK
  5
863
330
860
100
AcDbEntity
  8
0
100
AcDbBlockEnd
  0
BLOCK
  5
86A
330
868
100
AcDbEntity
  8
0
100
AcDbBlockBegin
  2
block 296
 70
     0
 71
     0
 10
0.0
 20
0.0
 30
0.0
  3
block 296
  1

  0
SPLINE
  5
86C
330
868
100
AcDbEntity
  8
LINHAEXT
 62
     7
370
     5
100
AcDbSpline
210
0.0
220
0.0
230
1.0
 70
     8
 71
     3
 72
     8
 73
     4
 74
     0
 42
0.0000000001
 43
0.0000000001
 40
0.0
 40
0.0
 40
0.0
 40
0.0
 40
1.0
 40
1.0
 40
1.0
 40
1.0
 10
533.8662109375
 20
540.28564453125
 30
0.0
 10
531.0
 20
540.16943359375
 30
0.0
 10
528.4833984375
 20
537.787109375
 30
0.0
 10
528.208984375
 20
534.93115234375
 30
0.0
  0
ENDBLK
  5
86B
330
868
100
AcDbEntity
  8
0
100
AcDbBlockEnd
  0
BLOCK
  5
86F
330
86D
100
AcDbEntity
  8
0
100
AcDbBlockBegin
  2
block 297
 70
     0
 71
     0
 10
0.0
 20
0.0
 30
0.0
  3
block 297
  1

  0
SPLINE
  5
871
330
86D
100
AcDbEntity
  8
LINHAEXT
 62
     7
370
     5
100
AcDbSpline
210
0.0
220
0.0
230
1.0
 70
     8
 71
     3
 72
     8
 73
     4
 74
     0
 42
0.0000000001
 43
0.0000000001
 40
0.0
 40
0.0
 40
0.0
 40
0.0
 40
1.0
 40
1.0
 40
1.0
 40
1.0
 10
533.90234375
 20
539.70947265625
 30
0.0
 10
531.30859375
 20
539.603515625
 30
0.0
 10
529.03125
 20
537.44775390625
 30
0.0
 10
528.783203125
 20
534.8642578125
 30
0.0
  0
ENDBLK
  5
870
330
86D
100
AcDbEntity
  8
0
100
AcDbBlockEnd
  0
BLOCK
  5
874
330
872
100
AcDbEntity
  8
0
100
AcDbBlockBegin
  2
block 298
 70
     0
 71
     0
 10
0.0
 20
0.0
 30
0.0
  3
block 298
  1

  0
POLYLINE
  5
876
330
872
100
AcDbEntity
  8
LINHAEXT
 62
     7
370
     5
100
AcDb2dPolyline
 66
     1
 10
0.0
 20
0.0
 30
0.0
  0
VERTEX
  5
877
330
876
100
AcDbEntity
  8
LINHAEXT
 62
     7
370
     5
100
AcDbVertex
100
AcDb2dVertex
 10
539.86328125
 20
534.896484375
 30
0.0
  0
VERTEX
  5
878
330
876
100
AcDbEntity
  8
LINHAEXT
 62
     7
370
     5
100
AcDbVertex
100
AcDb2dVertex
 10
539.86328125
 20
535.474609375
 30
0.0
  0
SEQEND
  5
879
330
876
100
AcDbEntity
  8
LINHAEXT
370
     5
  0
ENDBLK
  5
875
330
872
100
AcDbEntity
  8
0
100
AcDbBlockEnd
  0
BLOCK
  5
87C
330
87A
100
AcDbEntity
  8
0
100
AcDbBlockBegin
  2
block 299
 70
     0
 71
     0
 10
0.0
 20
0.0
 30
0.0
  3
block 299
  1

  0
SPLINE
  5
87E
330
87A
100
AcDbEntity
  8
LINHAEXT
 62
     7
370
     5
100
AcDbSpline
210
0.0
220
0.0
230
1.0
 70
    11
 71
     3
 72
    23
 73
    19
 74
     0
 42
0.0000000001
 43
0.0000000001
 40
0.0
 40
0.0
 40
0.0
 40
0.0
 40
1.0
 40
1.0
 40
1.0
 40
2.0
 40
2.0
 40
2.0
 40
3.0
 40
3.0
 40
3.0
 40
4.0
 40
4.0
 40
4.0
 40
5.0
 40
5.0
 40
5.0
 40
6.0
 40
6.0
 40
6.0
 40
6.0
 10
478.97265625
 20
527.18896484375
 30
0.0
 10
478.97265625
 20
529.9560546875
 30
0.0
 10
476.7294921875
 20
532.19873046875
 30
0.0
 10
473.962890625
 20
532.19873046875
 30
0.0
 10
471.1953125
 20
532.19873046875
 30
0.0
 10
468.953125
 20
529.9560546875
 30
0.0
 10
468.953125
 20
527.18896484375
 30
0.0
 10
468.953125
 20
524.421875
 30
0.0
 10
471.1953125
 20
522.17919921875
 30
0.0
 10
473.962890625
 20
522.17919921875
 30
0.0
 10
476.7294921875
 20
522.17919921875
 30
0.0
 10
478.97265625
 20
524.421875
 30
0.0
 10
478.97265625
 20
527.18896484375
 30
0.0
 10
478.97265625
 20
527.18896484375
 30
0.0
 10
478.97265625
 20
527.18896484375
 30
0.0
 10
478.97265625
 20
527.18896484375
 30
0.0
 10
478.97265625
 20
527.18896484375
 30
0.0
 10
478.97265625
 20
527.18896484375
 30
0.0
 10
478.97265625
 20
527.18896484375
 30
0.0
  0
ENDBLK
  5
87D
330
87A
100
AcDbEntity
  8
0
100
AcDbBlockEnd
  0
BLOCK
  5
881
330
87F
100
AcDbEntity
  8
0
100
AcDbBlockBegin
  2
block 300
 70
     0
 71
     0
 10
0.0
 20
0.0
 30
0.0
  3
block 300
  1

  0
SPLINE
  5
883
330
87F
100
AcDbEntity
  8
LINHAEXT
 62
     7
370
     5
100
AcDbSpline
210
0.0
220
0.0
230
1.0
 70
     8
 71
     3
 72
     8
 73
     4
 74
     0
 42
0.0000000001
 43
0.0000000001
 40
0.0
 40
0.0
 40
0.0
 40
0.0
 40
1.0
 40
1.0
 40
1.0
 40
1.0
 10
426.533203125
 20
487.28125
 30
0.0
 10
427.900390625
 20
477.4765625
 30
0.0
 10
436.888671875
 20
468.99658203125
 30
0.0
 10
446.7568359375
 20
468.2021484375
 30
0.0
  0
ENDBLK
  5
882
330
87F
100
AcDbEntity
  8
0
100
AcDbBlockEnd
  0
BLOCK
  5
886
330
884
100
AcDbEntity
  8
0
100
AcDbBlockBegin
  2
block 301
 70
     0
 71
     0
 10
0.0
 20
0.0
 30
0.0
  3
block 301
  1

  0
SPLINE
  5
888
330
884
100
AcDbEntity
  8
LINHAEXT
 62
     7
370
     5
100
AcDbSpline
210
0.0
220
0.0
230
1.0
 70
     8
 71
     3
 72
     8
 73
     4
 74
     0
 42
0.0000000001
 43
0.0000000001
 40
0.0
 40
0.0
 40
0.0
 40
0.0
 40
1.0
 40
1.0
 40
1.0
 40
1.0
 10
425.9638671875
 20
487.18359375
 30
0.0
 10
427.3642578125
 20
477.1337890625
 30
0.0
 10
436.578125
 20
468.44189453125
 30
0.0
 10
446.693359375
 20
467.62744140625
 30
0.0
  0
ENDBLK
  5
887
330
884
100
AcDbEntity
  8
0
100
AcDbBlockEnd
  0
BLOCK
  5
88B
330
889
100
AcDbEntity
  8
0
100
AcDbBlockBegin
  2
block 302
 70
     0
 71
     0
 10
0.0
 20
0.0
 30
0.0
  3
block 302
  1

  0
SPLINE
  5
88D
330
889
100
AcDbEntity
  8
LINHAEXT
 62
     7
370
     5
100
AcDbSpline
210
0.0
220
0.0
230
1.0
 70
     8
 71
     3
 72
     8
 73
     4
 74
     0
 42
0.0000000001
 43
0.0000000001
 40
0.0
 40
0.0
 40
0.0
 40
0.0
 40
1.0
 40
1.0
 40
1.0
 40
1.0
 10
521.392578125
 20
487.28125
 30
0.0
 10
523.5478515625
 20
499.23779296875
 30
0.0
 10
526.9248046875
 20
522.849609375
 30
0.0
 10
528.208984375
 20
534.93115234375
 30
0.0
  0
ENDBLK
  5
88C
330
889
100
AcDbEntity
  8
0
100
AcDbBlockEnd
  0
BLOCK
  5
890
330
88E
100
AcDbEntity
  8
0
100
AcDbBlockBegin
  2
block 303
 70
     0
 71
     0
 10
0.0
 20
0.0
 30
0.0
  3
block 303
  1

  0
SPLINE
  5
892
330
88E
100
AcDbEntity
  8
LINHAEXT
 62
     7
370
     5
100
AcDbSpline
210
0.0
220
0.0
230
1.0
 70
     8
 71
     3
 72
     8
 73
     4
 74
     0
 42
0.0000000001
 43
0.0000000001
 40
0.0
 40
0.0
 40
0.0
 40
0.0
 40
1.0
 40
1.0
 40
1.0
 40
1.0
 10
521.9619140625
 20
487.18359375
 30
0.0
 10
524.1181640625
 20
499.1484375
 30
0.0
 10
527.4990234375
 20
522.775390625
 30
0.0
 10
528.783203125
 20
534.86474609375
 30
0.0
  0
ENDBLK
  5
891
330
88E
100
AcDbEntity
  8
0
100
AcDbBlockEnd
  0
BLOCK
  5
895
330
893
100
AcDbEntity
  8
0
100
AcDbBlockBegin
  2
block 304
 70
     0
 71
     0
 10
0.0
 20
0.0
 30
0.0
  3
block 304
  1

  0
SPLINE
  5
897
330
893
100
AcDbEntity
  8
LINHAEXT
 62
     7
370
     5
100
AcDbSpline
210
0.0
220
0.0
230
1.0
 70
     8
 71
     3
 72
     8
 73
     4
 74
     0
 42
0.0000000001
 43
0.0000000001
 40
0.0
 40
0.0
 40
0.0
 40
0.0
 40
1.0
 40
1.0
 40
1.0
 40
1.0
 10
482.330078125
 20
466.68017578125
 30
0.0
 10
487.1025390625
 20
466.8720703125
 30
0.0
 10
496.4267578125
 20
467.62548828125
 30
0.0
 10
501.1689453125
 20
468.2021484375
 30
0.0
  0
ENDBLK
  5
896
330
893
100
AcDbEntity
  8
0
100
AcDbBlockEnd
  0
BLOCK
  5
89A
330
898
100
AcDbEntity
  8
0
100
AcDbBlockBegin
  2
block 305
 70
     0
 71
     0
 10
0.0
 20
0.0
 30
0.0
  3
block 305
  1

  0
SPLINE
  5
89C
330
898
100
AcDbEntity
  8
LINHAEXT
 62
     7
370
     5
100
AcDbSpline
210
0.0
220
0.0
230
1.0
 70
     8
 71
     3
 72
     8
 73
     4
 74
     0
 42
0.0000000001
 43
0.0000000001
 40
0.0
 40
0.0
 40
0.0
 40
0.0
 40
1.0
 40
1.0
 40
1.0
 40
1.0
 10
482.359375
 20
466.103515625
 30
0.0
 10
487.140625
 20
466.29541015625
 30
0.0
 10
496.482421875
 20
467.0498046875
 30
0.0
 10
501.232421875
 20
467.62744140625
 30
0.0
  0
ENDBLK
  5
89B
330
898
100
AcDbEntity
  8
0
100
AcDbBlockEnd
  0
BLOCK
  5
89F
330
89D
100
AcDbEntity
  8
0
100
AcDbBlockBegin
  2
block 306
 70
     0
 71
     0
 10
0.0
 20
0.0
 30
0.0
  3
block 306
  1

  0
SPLINE
  5
8A1
330
89D
100
AcDbEntity
  8
LINHAEXT
 62
     7
370
     5
100
AcDbSpline
210
0.0
220
0.0
230
1.0
 70
     8
 71
     3
 72
     8
 73
     4
 74
     0
 42
0.0000000001
 43
0.0000000001
 40
0.0
 40
0.0
 40
0.0
 40
0.0
 40
1.0
 40
1.0
 40
1.0
 40
1.0
 10
501.1689453125
 20
468.2021484375
 30
0.0
 10
511.0361328125
 20
468.99658203125
 30
0.0
 10
520.0244140625
 20
477.4765625
 30
0.0
 10
521.392578125
 20
487.28125
 30
0.0
  0
ENDBLK
  5
8A0
330
89D
100
AcDbEntity
  8
0
100
AcDbBlockEnd
  0
BLOCK
  5
8A4
330
8A2
100
AcDbEntity
  8
0
100
AcDbBlockBegin
  2
block 307
 70
     0
 71
     0
 10
0.0
 20
0.0
 30
0.0
  3
block 307
  1

  0
SPLINE
  5
8A6
330
8A2
100
AcDbEntity
  8
LINHAEXT
 62
     7
370
     5
100
AcDbSpline
210
0.0
220
0.0
230
1.0
 70
     8
 71
     3
 72
     8
 73
     4
 74
     0
 42
0.0000000001
 43
0.0000000001
 40
0.0
 40
0.0
 40
0.0
 40
0.0
 40
1.0
 40
1.0
 40
1.0
 40
1.0
 10
501.232421875
 20
467.62744140625
 30
0.0
 10
511.34765625
 20
468.44189453125
 30
0.0
 10
520.560546875
 20
477.1337890625
 30
0.0
 10
521.9619140625
 20
487.18359375
 30
0.0
  0
ENDBLK
  5
8A5
330
8A2
100
AcDbEntity
  8
0
100
AcDbBlockEnd
  0
BLOCK
  5
8AA
330
8A8
100
AcDbEntity
  8
0
100
AcDbBlockBegin
  2
block 308
 70
     0
 71
     0
 10
0.0
 20
0.0
 30
0.0
  3
block 308
  1

  0
POLYLINE
  5
8AC
330
8A8
100
AcDbEntity
  8
INVIS\U+00CDVEIS
 62
     7
370
     9
100
AcDb2dPolyline
 66
     1
 10
0.0
 20
0.0
 30
0.0
  0
VERTEX
  5
8AD
330
8AC
100
AcDbEntity
  8
INVIS\U+00CDVEIS
 62
     7
370
     9
100
AcDbVertex
100
AcDb2dVertex
 10
408.0615234375
 20
534.896484375
 30
0.0
  0
VERTEX
  5
8AE
330
8AC
100
AcDbEntity
  8
INVIS\U+00CDVEIS
 62
     7
370
     9
100
AcDbVertex
100
AcDb2dVertex
 10
419.1376953125
 20
534.896484375
 30
0.0
  0
SEQEND
  5
8AF
330
8AC
100
AcDbEntity
  8
INVIS\U+00CDVEIS
370
     9
  0
ENDBLK
  5
8AB
330
8A8
100
AcDbEntity
  8
0
100
AcDbBlockEnd
  0
BLOCK
  5
8B2
330
8B0
100
AcDbEntity
  8
0
100
AcDbBlockBegin
  2
block 309
 70
     0
 71
     0
 10
0.0
 20
0.0
 30
0.0
  3
block 309
  1

  0
POLYLINE
  5
8B4
330
8B0
100
AcDbEntity
  8
INVIS\U+00CDVEIS
 62
     7
370
     9
100
AcDb2dPolyline
 66
     1
 10
0.0
 20
0.0
 30
0.0
  0
VERTEX
  5
8B5
330
8B4
100
AcDbEntity
  8
INVIS\U+00CDVEIS
 62
     7
370
     9
100
AcDbVertex
100
AcDb2dVertex
 10
539.86328125
 20
534.896484375
 30
0.0
  0
VERTEX
  5
8B6
330
8B4
100
AcDbEntity
  8
INVIS\U+00CDVEIS
 62
     7
370
     9
100
AcDbVertex
100
AcDb2dVertex
 10
528.7880859375
 20
534.896484375
 30
0.0
  0
SEQEND
  5
8B7
330
8B4
100
AcDbEntity
  8
INVIS\U+00CDVEIS
370
     9
  0
ENDBLK
  5
8B3
330
8B0
100
AcDbEntity
  8
0
100
AcDbBlockEnd
  0
BLOCK
  5
8BB
330
8B9
100
AcDbEntity
  8
0
100
AcDbBlockBegin
  2
block 310
 70
     0
 71
     0
 10
0.0
 20
0.0
 30
0.0
  3
block 310
  1

  0
POLYLINE
  5
8BD
330
8B9
100
AcDbEntity
  8
ESPECIAL
 62
     7
370
     9
100
AcDb2dPolyline
 66
     1
 10
0.0
 20
0.0
 30
0.0
  0
VERTEX
  5
8BE
330
8BD
100
AcDbEntity
  8
ESPECIAL
 62
     7
370
     9
100
AcDbVertex
100
AcDb2dVertex
 10
468.953125
 20
464.75634765625
 30
0.0
  0
VERTEX
  5
8BF
330
8BD
100
AcDbEntity
  8
ESPECIAL
 62
     7
370
     9
100
AcDbVertex
100
AcDb2dVertex
 10
473.962890625
 20
464.75634765625
 30
0.0
  0
SEQEND
  5
8C0
330
8BD
100
AcDbEntity
  8
ESPECIAL
370
     9
  0
ENDBLK
  5
8BC
330
8B9
100
AcDbEntity
  8
0
100
AcDbBlockEnd
  0
BLOCK
  5
8C3
330
8C1
100
AcDbEntity
  8
0
100
AcDbBlockBegin
  2
block 311
 70
     0
 71
     0
 10
0.0
 20
0.0
 30
0.0
  3
block 311
  1

  0
POLYLINE
  5
8C5
330
8C1
100
AcDbEntity
  8
ESPECIAL
 62
     7
370
     9
100
AcDb2dPolyline
 66
     1
 10
0.0
 20
0.0
 30
0.0
  0
VERTEX
  5
8C6
330
8C5
100
AcDbEntity
  8
ESPECIAL
 62
     7
370
     9
100
AcDbVertex
100
AcDb2dVertex
 10
468.953125
 20
464.17822265625
 30
0.0
  0
VERTEX
  5
8C7
330
8C5
100
AcDbEntity
  8
ESPECIAL
 62
     7
370
     9
100
AcDbVertex
100
AcDb2dVertex
 10
473.962890625
 20
464.17822265625
 30
0.0
  0
SEQEND
  5
8C8
330
8C5
100
AcDbEntity
  8
ESPECIAL
370
     9
  0
ENDBLK
  5
8C4
330
8C1
100
AcDbEntity
  8
0
100
AcDbBlockEnd
  0
BLOCK
  5
8CB
330
8C9
100
AcDbEntity
  8
0
100
AcDbBlockBegin
  2
block 312
 70
     0
 71
     0
 10
0.0
 20
0.0
 30
0.0
  3
block 312
  1

  0
POLYLINE
  5
8CD
330
8C9
100
AcDbEntity
  8
ESPECIAL
 62
     7
370
     9
100
AcDb2dPolyline
 66
     1
 10
0.0
 20
0.0
 30
0.0
  0
VERTEX
  5
8CE
330
8CD
100
AcDbEntity
  8
ESPECIAL
 62
     7
370
     9
100
AcDbVertex
100
AcDb2dVertex
 10
478.97265625
 20
464.75634765625
 30
0.0
  0
VERTEX
  5
8CF
330
8CD
100
AcDbEntity
  8
ESPECIAL
 62
     7
370
     9
100
AcDbVertex
100
AcDb2dVertex
 10
473.962890625
 20
464.75634765625
 30
0.0
  0
SEQEND
  5
8D0
330
8CD
100
AcDbEntity
  8
ESPECIAL
370
     9
  0
ENDBLK
  5
8CC
330
8C9
100
AcDbEntity
  8
0
100
AcDbBlockEnd
  0
BLOCK
  5
8D3
330
8D1
100
AcDbEntity
  8
0
100
AcDbBlockBegin
  2
block 313
 70
     0
 71
     0
 10
0.0
 20
0.0
 30
0.0
  3
block 313
  1

  0
POLYLINE
  5
8D5
330
8D1
100
AcDbEntity
  8
ESPECIAL
 62
     7
370
     9
100
AcDb2dPolyline
 66
     1
 10
0.0
 20
0.0
 30
0.0
  0
VERTEX
  5
8D6
330
8D5
100
AcDbEntity
  8
ESPECIAL
 62
     7
370
     9
100
AcDbVertex
100
AcDb2dVertex
 10
478.97265625
 20
464.17822265625
 30
0.0
  0
VERTEX
  5
8D7
330
8D5
100
AcDbEntity
  8
ESPECIAL
 62
     7
370
     9
100
AcDbVertex
100
AcDb2dVertex
 10
473.962890625
 20
464.17822265625
 30
0.0
  0
SEQEND
  5
8D8
330
8D5
100
AcDbEntity
  8
ESPECIAL
370
     9
  0
ENDBLK
  5
8D4
330
8D1
100
AcDbEntity
  8
0
100
AcDbBlockEnd
  0
BLOCK
  5
8DC
330
8DA
100
AcDbEntity
  8
0
100
AcDbBlockBegin
  2
block 314
 70
     0
 71
     0
 10
0.0
 20
0.0
 30
0.0
  3
block 314
  1

  0
POLYLINE
  5
8DE
330
8DA
100
AcDbEntity
  8
COERTES
  6
AI-Linetype-1
 62
     7
370
     9
100
AcDb2dPolyline
 66
     1
 10
0.0
 20
0.0
 30
0.0
  0
VERTEX
  5
8DF
330
8DE
100
AcDbEntity
  8
COERTES
  6
AI-Linetype-1
 62
     7
370
     9
100
AcDbVertex
100
AcDb2dVertex
 10
473.962890625
 20
527.18896484375
 30
0.0
  0
VERTEX
  5
8E0
330
8DE
100
AcDbEntity
  8
COERTES
  6
AI-Linetype-1
 62
     7
370
     9
100
AcDbVertex
100
AcDb2dVertex
 10
535.0908203125
 20
527.18896484375
 30
0.0
  0
SEQEND
  5
8E1
330
8DE
100
AcDbEntity
  8
COERTES
  6
AI-Linetype-1
370
     9
  0
ENDBLK
  5
8DD
330
8DA
100
AcDbEntity
  8
0
100
AcDbBlockEnd
  0
BLOCK
  5
8E5
330
8E3
100
AcDbEntity
  8
0
100
AcDbBlockBegin
  2
block 315
 70
     0
 71
     0
 10
0.0
 20
0.0
 30
0.0
  3
block 315
  1

  0
POLYLINE
  5
8E7
330
8E3
100
AcDbEntity
  8
COERTES
  6
AI-Linetype-2
 62
     7
370
     9
100
AcDb2dPolyline
 66
     1
 10
0.0
 20
0.0
 30
0.0
  0
VERTEX
  5
8E8
330
8E7
100
AcDbEntity
  8
COERTES
  6
AI-Linetype-2
 62
     7
370
     9
100
AcDbVertex
100
AcDb2dVertex
 10
64.0634765625
 20
342.1396484375
 30
0.0
  0
VERTEX
  5
8E9
330
8E7
100
AcDbEntity
  8
COERTES
  6
AI-Linetype-2
 62
     7
370
     9
100
AcDbVertex
100
AcDb2dVertex
 10
64.0634765625
 20
269.8798828125
 30
0.0
  0
SEQEND
  5
8EA
330
8E7
100
AcDbEntity
  8
COERTES
  6
AI-Linetype-2
370
     9
  0
ENDBLK
  5
8E6
330
8E3
100
AcDbEntity
  8
0
100
AcDbBlockEnd
  0
BLOCK
  5
8EE
330
8EC
100
AcDbEntity
  8
0
100
AcDbBlockBegin
  2
block 316
 70
     0
 71
     0
 10
0.0
 20
0.0
 30
0.0
  3
block 316
  1

  0
POLYLINE
  5
8F0
330
8EC
100
AcDbEntity
  8
COERTES
  6
AI-Linetype-3
 62
     7
370
     9
100
AcDb2dPolyline
 66
     1
 10
0.0
 20
0.0
 30
0.0
  0
VERTEX
  5
8F1
330
8F0
100
AcDbEntity
  8
COERTES
  6
AI-Linetype-3
 62
     7
370
     9
100
AcDbVertex
100
AcDb2dVertex
 10
266.81298828125
 20
346.90625
 30
0.0
  0
VERTEX
  5
8F2
330
8F0
100
AcDbEntity
  8
COERTES
  6
AI-Linetype-3
 62
     7
370
     9
100
AcDbVertex
100
AcDb2dVertex
 10
266.81298828125
 20
277.0546875
 30
0.0
  0
SEQEND
  5
8F3
330
8F0
100
AcDbEntity
  8
COERTES
  6
AI-Linetype-3
370
     9
  0
ENDBLK
  5
8EF
330
8EC
100
AcDbEntity
  8
0
100
AcDbBlockEnd
  0
BLOCK
  5
8F7
330
8F5
100
AcDbEntity
  8
0
100
AcDbBlockBegin
  2
block 317
 70
     0
 71
     0
 10
0.0
 20
0.0
 30
0.0
  3
block 317
  1

  0
POLYLINE
  5
8F9
330
8F5
100
AcDbEntity
  8
COERTES
  6
AI-Linetype-4
 62
     7
370
     9
100
AcDb2dPolyline
 66
     1
 10
0.0
 20
0.0
 30
0.0
  0
VERTEX
  5
8FA
330
8F9
100
AcDbEntity
  8
COERTES
  6
AI-Linetype-4
 62
     7
370
     9
100
AcDbVertex
100
AcDb2dVertex
 10
179.04345703125
 20
386.638671875
 30
0.0
  0
VERTEX
  5
8FB
330
8F9
100
AcDbEntity
  8
COERTES
  6
AI-Linetype-4
 62
     7
370
     9
100
AcDbVertex
100
AcDb2dVertex
 10
336.3251953125
 20
386.638671875
 30
0.0
  0
SEQEND
  5
8FC
330
8F9
100
AcDbEntity
  8
COERTES
  6
AI-Linetype-4
370
     9
  0
ENDBLK
  5
8F8
330
8F5
100
AcDbEntity
  8
0
100
AcDbBlockEnd
  0
BLOCK
  5
900
330
8FE
100
AcDbEntity
  8
0
100
AcDbBlockBegin
  2
block 318
 70
     0
 71
     0
 10
0.0
 20
0.0
 30
0.0
  3
block 318
  1

  0
POLYLINE
  5
902
330
8FE
100
AcDbEntity
  8
COERTES
  6
AI-Linetype-5
 62
     7
370
     9
100
AcDb2dPolyline
 66
     1
 10
0.0
 20
0.0
 30
0.0
  0
VERTEX
  5
903
330
902
100
AcDbEntity
  8
COERTES
  6
AI-Linetype-5
 62
     7
370
     9
100
AcDbVertex
100
AcDb2dVertex
 10
179.04345703125
 20
297.640625
 30
0.0
  0
VERTEX
  5
904
330
902
100
AcDbEntity
  8
COERTES
  6
AI-Linetype-5
 62
     7
370
     9
100
AcDbVertex
100
AcDb2dVertex
 10
336.3251953125
 20
297.640625
 30
0.0
  0
SEQEND
  5
905
330
902
100
AcDbEntity
  8
COERTES
  6
AI-Linetype-5
370
     9
  0
ENDBLK
  5
901
330
8FE
100
AcDbEntity
  8
0
100
AcDbBlockEnd
  0
BLOCK
  5
909
330
907
100
AcDbEntity
  8
0
100
AcDbBlockBegin
  2
block 319
 70
     0
 71
     0
 10
0.0
 20
0.0
 30
0.0
  3
block 319
  1

  0
POLYLINE
  5
90B
330
907
100
AcDbEntity
  8
COERTES
  6
AI-Linetype-6
 62
     7
370
     9
100
AcDb2dPolyline
 66
     1
 10
0.0
 20
0.0
 30
0.0
  0
VERTEX
  5
90C
330
90B
100
AcDbEntity
  8
COERTES
  6
AI-Linetype-6
 62
     7
370
     9
100
AcDbVertex
100
AcDb2dVertex
 10
94.25830078125
 20
414.39990234375
 30
0.0
  0
VERTEX
  5
90D
330
90B
100
AcDbEntity
  8
COERTES
  6
AI-Linetype-6
 62
     7
370
     9
100
AcDbVertex
100
AcDb2dVertex
 10
94.25830078125
 20
344.548828125
 30
0.0
  0
SEQEND
  5
90E
330
90B
100
AcDbEntity
  8
COERTES
  6
AI-Linetype-6
370
     9
  0
ENDBLK
  5
90A
330
907
100
AcDbEntity
  8
0
100
AcDbBlockEnd
  0
ENDSEC
  0
SECTION
  2
ENTITIES
  0
INSERT
  5
3D
330
1F
100
AcDbEntity
  8
COTAS
100
AcDbBlockReference
  2
block 2
 10
0.0
 20
0.0
 30
0.0
  0
INSERT
  5
111
330
1F
100
AcDbEntity
  8
COTAS
100
AcDbBlockReference
  2
block 41
 10
0.0
 20
0.0
 30
0.0
  0
INSERT
  5
269
330
1F
100
AcDbEntity
  8
COTAS
100
AcDbBlockReference
  2
block 95
 10
0.0
 20
0.0
 30
0.0
  0
INSERT
  5
2D0
330
1F
100
AcDbEntity
  8
COTAS
100
AcDbBlockReference
  2
block 108
 10
0.0
 20
0.0
 30
0.0
  0
INSERT
  5
31F
330
1F
100
AcDbEntity
  8
COTAS
100
AcDbBlockReference
  2
block 118
 10
0.0
 20
0.0
 30
0.0
  0
INSERT
  5
37E
330
1F
100
AcDbEntity
  8
COTAS
100
AcDbBlockReference
  2
block 130
 10
0.0
 20
0.0
 30
0.0
  0
INSERT
  5
3D5
330
1F
100
AcDbEntity
  8
COTAS
100
AcDbBlockReference
  2
block 141
 10
0.0
 20
0.0
 30
0.0
  0
INSERT
  5
434
330
1F
100
AcDbEntity
  8
COTAS
100
AcDbBlockReference
  2
block 153
 10
0.0
 20
0.0
 30
0.0
  0
INSERT
  5
48B
330
1F
100
AcDbEntity
  8
COTAS
100
AcDbBlockReference
  2
block 164
 10
0.0
 20
0.0
 30
0.0
  0
INSERT
  5
4E2
330
1F
100
AcDbEntity
  8
COTAS
100
AcDbBlockReference
  2
block 175
 10
0.0
 20
0.0
 30
0.0
  0
INSERT
  5
539
330
1F
100
AcDbEntity
  8
COTAS
100
AcDbBlockReference
  2
block 186
 10
0.0
 20
0.0
 30
0.0
  0
INSERT
  5
590
330
1F
100
AcDbEntity
  8
COTAS
100
AcDbBlockReference
  2
block 197
 10
0.0
 20
0.0
 30
0.0
  0
INSERT
  5
5E7
330
1F
100
AcDbEntity
  8
COTAS
100
AcDbBlockReference
  2
block 208
 10
0.0
 20
0.0
 30
0.0
  0
INSERT
  5
646
330
1F
100
AcDbEntity
  8
COTAS
100
AcDbBlockReference
  2
block 220
 10
0.0
 20
0.0
 30
0.0
  0
INSERT
  5
6A5
330
1F
100
AcDbEntity
  8
COTAS
100
AcDbBlockReference
  2
block 232
 10
0.0
 20
0.0
 30
0.0
  0
INSERT
  5
743
330
1F
100
AcDbEntity
  8
LINHAEXT
100
AcDbBlockReference
  2
block 251
 10
0.0
 20
0.0
 30
0.0
  0
INSERT
  5
74B
330
1F
100
AcDbEntity
  8
LINHAEXT
100
AcDbBlockReference
  2
block 252
 10
0.0
 20
0.0
 30
0.0
  0
INSERT
  5
753
330
1F
100
AcDbEntity
  8
LINHAEXT
100
AcDbBlockReference
  2
block 253
 10
0.0
 20
0.0
 30
0.0
  0
INSERT
  5
75B
330
1F
100
AcDbEntity
  8
LINHAEXT
100
AcDbBlockReference
  2
block 254
 10
0.0
 20
0.0
 30
0.0
  0
INSERT
  5
763
330
1F
100
AcDbEntity
  8
LINHAEXT
100
AcDbBlockReference
  2
block 255
 10
0.0
 20
0.0
 30
0.0
  0
INSERT
  5
76B
330
1F
100
AcDbEntity
  8
LINHAEXT
100
AcDbBlockReference
  2
block 256
 10
0.0
 20
0.0
 30
0.0
  0
INSERT
  5
770
330
1F
100
AcDbEntity
  8
LINHAEXT
100
AcDbBlockReference
  2
block 257
 10
0.0
 20
0.0
 30
0.0
  0
INSERT
  5
775
330
1F
100
AcDbEntity
  8
LINHAEXT
100
AcDbBlockReference
  2
block 258
 10
0.0
 20
0.0
 30
0.0
  0
INSERT
  5
77A
330
1F
100
AcDbEntity
  8
LINHAEXT
100
AcDbBlockReference
  2
block 259
 10
0.0
 20
0.0
 30
0.0
  0
INSERT
  5
77F
330
1F
100
AcDbEntity
  8
LINHAEXT
100
AcDbBlockReference
  2
block 260
 10
0.0
 20
0.0
 30
0.0
  0
INSERT
  5
787
330
1F
100
AcDbEntity
  8
LINHAEXT
100
AcDbBlockReference
  2
block 261
 10
0.0
 20
0.0
 30
0.0
  0
INSERT
  5
78F
330
1F
100
AcDbEntity
  8
LINHAEXT
100
AcDbBlockReference
  2
block 262
 10
0.0
 20
0.0
 30
0.0
  0
INSERT
  5
797
330
1F
100
AcDbEntity
  8
LINHAEXT
100
AcDbBlockReference
  2
block 263
 10
0.0
 20
0.0
 30
0.0
  0
INSERT
  5
79C
330
1F
100
AcDbEntity
  8
LINHAEXT
100
AcDbBlockReference
  2
block 264
 10
0.0
 20
0.0
 30
0.0
  0
INSERT
  5
7A1
330
1F
100
AcDbEntity
  8
LINHAEXT
100
AcDbBlockReference
  2
block 265
 10
0.0
 20
0.0
 30
0.0
  0
INSERT
  5
7A6
330
1F
100
AcDbEntity
  8
LINHAEXT
100
AcDbBlockReference
  2
block 266
 10
0.0
 20
0.0
 30
0.0
  0
INSERT
  5
7AB
330
1F
100
AcDbEntity
  8
LINHAEXT
100
AcDbBlockReference
  2
block 267
 10
0.0
 20
0.0
 30
0.0
  0
INSERT
  5
7B3
330
1F
100
AcDbEntity
  8
LINHAEXT
100
AcDbBlockReference
  2
block 268
 10
0.0
 20
0.0
 30
0.0
  0
INSERT
  5
7BB
330
1F
100
AcDbEntity
  8
LINHAEXT
100
AcDbBlockReference
  2
block 269
 10
0.0
 20
0.0
 30
0.0
  0
INSERT
  5
7C0
330
1F
100
AcDbEntity
  8
LINHAEXT
100
AcDbBlockReference
  2
block 270
 10
0.0
 20
0.0
 30
0.0
  0
INSERT
  5
7C5
330
1F
100
AcDbEntity
  8
LINHAEXT
100
AcDbBlockReference
  2
block 271
 10
0.0
 20
0.0
 30
0.0
  0
INSERT
  5
7CD
330
1F
100
AcDbEntity
  8
LINHAEXT
100
AcDbBlockReference
  2
block 272
 10
0.0
 20
0.0
 30
0.0
  0
INSERT
  5
7D5
330
1F
100
AcDbEntity
  8
LINHAEXT
100
AcDbBlockReference
  2
block 273
 10
0.0
 20
0.0
 30
0.0
  0
INSERT
  5
7DA
330
1F
100
AcDbEntity
  8
LINHAEXT
100
AcDbBlockReference
  2
block 274
 10
0.0
 20
0.0
 30
0.0
  0
INSERT
  5
7DF
330
1F
100
AcDbEntity
  8
LINHAEXT
100
AcDbBlockReference
  2
block 275
 10
0.0
 20
0.0
 30
0.0
  0
INSERT
  5
7E7
330
1F
100
AcDbEntity
  8
LINHAEXT
100
AcDbBlockReference
  2
block 276
 10
0.0
 20
0.0
 30
0.0
  0
INSERT
  5
7EF
330
1F
100
AcDbEntity
  8
LINHAEXT
100
AcDbBlockReference
  2
block 277
 10
0.0
 20
0.0
 30
0.0
  0
INSERT
  5
7F4
330
1F
100
AcDbEntity
  8
LINHAEXT
100
AcDbBlockReference
  2
block 278
 10
0.0
 20
0.0
 30
0.0
  0
INSERT
  5
7F9
330
1F
100
AcDbEntity
  8
LINHAEXT
100
AcDbBlockReference
  2
block 279
 10
0.0
 20
0.0
 30
0.0
  0
INSERT
  5
801
330
1F
100
AcDbEntity
  8
LINHAEXT
100
AcDbBlockReference
  2
block 280
 10
0.0
 20
0.0
 30
0.0
  0
INSERT
  5
809
330
1F
100
AcDbEntity
  8
LINHAEXT
100
AcDbBlockReference
  2
block 281
 10
0.0
 20
0.0
 30
0.0
  0
INSERT
  5
80E
330
1F
100
AcDbEntity
  8
LINHAEXT
100
AcDbBlockReference
  2
block 282
 10
0.0
 20
0.0
 30
0.0
  0
INSERT
  5
813
330
1F
100
AcDbEntity
  8
LINHAEXT
100
AcDbBlockReference
  2
block 283
 10
0.0
 20
0.0
 30
0.0
  0
INSERT
  5
818
330
1F
100
AcDbEntity
  8
LINHAEXT
100
AcDbBlockReference
  2
block 284
 10
0.0
 20
0.0
 30
0.0
  0
INSERT
  5
81D
330
1F
100
AcDbEntity
  8
LINHAEXT
100
AcDbBlockReference
  2
block 285
 10
0.0
 20
0.0
 30
0.0
  0
INSERT
  5
825
330
1F
100
AcDbEntity
  8
LINHAEXT
100
AcDbBlockReference
  2
block 286
 10
0.0
 20
0.0
 30
0.0
  0
INSERT
  5
82D
330
1F
100
AcDbEntity
  8
LINHAEXT
100
AcDbBlockReference
  2
block 287
 10
0.0
 20
0.0
 30
0.0
  0
INSERT
  5
835
330
1F
100
AcDbEntity
  8
LINHAEXT
100
AcDbBlockReference
  2
block 288
 10
0.0
 20
0.0
 30
0.0
  0
INSERT
  5
83D
330
1F
100
AcDbEntity
  8
LINHAEXT
100
AcDbBlockReference
  2
block 289
 10
0.0
 20
0.0
 30
0.0
  0
INSERT
  5
845
330
1F
100
AcDbEntity
  8
LINHAEXT
100
AcDbBlockReference
  2
block 290
 10
0.0
 20
0.0
 30
0.0
  0
INSERT
  5
84A
330
1F
100
AcDbEntity
  8
LINHAEXT
100
AcDbBlockReference
  2
block 291
 10
0.0
 20
0.0
 30
0.0
  0
INSERT
  5
84F
330
1F
100
AcDbEntity
  8
LINHAEXT
100
AcDbBlockReference
  2
block 292
 10
0.0
 20
0.0
 30
0.0
  0
INSERT
  5
854
330
1F
100
AcDbEntity
  8
LINHAEXT
100
AcDbBlockReference
  2
block 293
 10
0.0
 20
0.0
 30
0.0
  0
INSERT
  5
859
330
1F
100
AcDbEntity
  8
LINHAEXT
100
AcDbBlockReference
  2
block 294
 10
0.0
 20
0.0
 30
0.0
  0
INSERT
  5
861
330
1F
100
AcDbEntity
  8
LINHAEXT
100
AcDbBlockReference
  2
block 295
 10
0.0
 20
0.0
 30
0.0
  0
INSERT
  5
869
330
1F
100
AcDbEntity
  8
LINHAEXT
100
AcDbBlockReference
  2
block 296
 10
0.0
 20
0.0
 30
0.0
  0
INSERT
  5
86E
330
1F
100
AcDbEntity
  8
LINHAEXT
100
AcDbBlockReference
  2
block 297
 10
0.0
 20
0.0
 30
0.0
  0
INSERT
  5
873
330
1F
100
AcDbEntity
  8
LINHAEXT
100
AcDbBlockReference
  2
block 298
 10
0.0
 20
0.0
 30
0.0
  0
INSERT
  5
87B
330
1F
100
AcDbEntity
  8
LINHAEXT
100
AcDbBlockReference
  2
block 299
 10
0.0
 20
0.0
 30
0.0
  0
INSERT
  5
880
330
1F
100
AcDbEntity
  8
LINHAEXT
100
AcDbBlockReference
  2
block 300
 10
0.0
 20
0.0
 30
0.0
  0
INSERT
  5
885
330
1F
100
AcDbEntity
  8
LINHAEXT
100
AcDbBlockReference
  2
block 301
 10
0.0
 20
0.0
 30
0.0
  0
INSERT
  5
88A
330
1F
100
AcDbEntity
  8
LINHAEXT
100
AcDbBlockReference
  2
block 302
 10
0.0
 20
0.0
 30
0.0
  0
INSERT
  5
88F
330
1F
100
AcDbEntity
  8
LINHAEXT
100
AcDbBlockReference
  2
block 303
 10
0.0
 20
0.0
 30
0.0
  0
INSERT
  5
894
330
1F
100
AcDbEntity
  8
LINHAEXT
100
AcDbBlockReference
  2
block 304
 10
0.0
 20
0.0
 30
0.0
  0
INSERT
  5
899
330
1F
100
AcDbEntity
  8
LINHAEXT
100
AcDbBlockReference
  2
block 305
 10
0.0
 20
0.0
 30
0.0
  0
INSERT
  5
89E
330
1F
100
AcDbEntity
  8
LINHAEXT
100
AcDbBlockReference
  2
block 306
 10
0.0
 20
0.0
 30
0.0
  0
INSERT
  5
8A3
330
1F
100
AcDbEntity
  8
LINHAEXT
100
AcDbBlockReference
  2
block 307
 10
0.0
 20
0.0
 30
0.0
  0
INSERT
  5
8A9
330
1F
100
AcDbEntity
  8
INVIS\U+00CDVEIS
100
AcDbBlockReference
  2
block 308
 10
0.0
 20
0.0
 30
0.0
  0
INSERT
  5
8B1
330
1F
100
AcDbEntity
  8
INVIS\U+00CDVEIS
100
AcDbBlockReference
  2
block 309
 10
0.0
 20
0.0
 30
0.0
  0
INSERT
  5
8BA
330
1F
100
AcDbEntity
  8
ESPECIAL
100
AcDbBlockReference
  2
block 310
 10
0.0
 20
0.0
 30
0.0
  0
INSERT
  5
8C2
330
1F
100
AcDbEntity
  8
ESPECIAL
100
AcDbBlockReference
  2
block 311
 10
0.0
 20
0.0
 30
0.0
  0
INSERT
  5
8CA
330
1F
100
AcDbEntity
  8
ESPECIAL
100
AcDbBlockReference
  2
block 312
 10
0.0
 20
0.0
 30
0.0
  0
INSERT
  5
8D2
330
1F
100
AcDbEntity
  8
ESPECIAL
100
AcDbBlockReference
  2
block 313
 10
0.0
 20
0.0
 30
0.0
  0
INSERT
  5
8DB
330
1F
100
AcDbEntity
  8
COERTES
100
AcDbBlockReference
  2
block 314
 10
0.0
 20
0.0
 30
0.0
  0
INSERT
  5
8E4
330
1F
100
AcDbEntity
  8
COERTES
100
AcDbBlockReference
  2
block 315
 10
0.0
 20
0.0
 30
0.0
  0
INSERT
  5
8ED
330
1F
100
AcDbEntity
  8
COERTES
100
AcDbBlockReference
  2
block 316
 10
0.0
 20
0.0
 30
0.0
  0
INSERT
  5
8F6
330
1F
100
AcDbEntity
  8
COERTES
100
AcDbBlockReference
  2
block 317
 10
0.0
 20
0.0
 30
0.0
  0
INSERT
  5
8FF
330
1F
100
AcDbEntity
  8
COERTES
100
AcDbBlockReference
  2
block 318
 10
0.0
 20
0.0
 30
0.0
  0
INSERT
  5
908
330
1F
100
AcDbEntity
  8
COERTES
100
AcDbBlockReference
  2
block 319
 10
0.0
 20
0.0
 30
0.0
  0
ENDSEC
  0
SECTION
  2
OBJECTS
  0
DICTIONARY
  5
C
330
0
100
AcDbDictionary
281
     1
  3
ACAD_GROUP
350
D
  3
ACAD_LAYOUT
350
1A
  3
ACAD_MLINESTYLE
350
17
  3
ACAD_PLOTSETTINGS
350
19
  3
ACAD_PLOTSTYLENAME
350
E
  3
ACAD_TABLESTYLE
350
910
  3
ACAD_VISUALSTYLE
350
2A
  0
DICTIONARY
  5
D
102
{ACAD_REACTORS
330
C
102
}
330
C
100
AcDbDictionary
281
     1
  0
DICTIONARY
  5
1A
102
{ACAD_REACTORS
330
C
102
}
330
C
100
AcDbDictionary
281
     1
  3
Layout1
350
1E
  3
Layout2
350
26
  3
Model
350
22
  0
DICTIONARY
  5
17
102
{ACAD_REACTORS
330
C
102
}
330
C
100
AcDbDictionary
281
     1
  3
Standard
350
18
  0
DICTIONARY
  5
19
102
{ACAD_REACTORS
330
C
102
}
330
C
100
AcDbDictionary
281
     1
  0
ACDBDICTIONARYWDFLT
  5
E
102
{ACAD_REACTORS
330
C
102
}
330
C
100
AcDbDictionary
281
     1
  3
Normal
350
F
100
AcDbDictionaryWithDefault
340
F
  0
DICTIONARY
  5
910
102
{ACAD_REACTORS
330
C
102
}
330
C
100
AcDbDictionary
281
     1
  0
DICTIONARY
  5
2A
102
{ACAD_REACTORS
330
C
102
}
330
C
100
AcDbDictionary
281
     1
  3
2dWireframe
350
2F
  3
3D Hidden
350
31
  3
3dWireframe
350
30
  3
Basic
350
32
  3
Brighten
350
36
  3
ColorChange
350
3A
  3
Conceptual
350
34
  3
Dim
350
35
  3
Facepattern
350
39
  3
Flat
350
2B
  3
FlatWithEdges
350
2C
  3
Gouraud
350
2D
  3
GouraudWithEdges
350
2E
  3
Linepattern
350
38
  3
Realistic
350
33
  3
Thicken
350
37
  0
LAYOUT
  5
1E
102
{ACAD_REACTORS
330
1A
102
}
330
1A
100
AcDbPlotSettings
  1

  2
none_device
  4

  6

 40
0.0
 41
0.0
 42
0.0
 43
0.0
 44
0.0
 45
0.0
 46
0.0
 47
0.0
 48
0.0
 49
0.0
140
0.0
141
0.0
142
1.0
143
1.0
 70
   688
 72
     0
 73
     0
 74
     5
  7

 75
    16
 76
     0
 77
     2
 78
   300
147
1.0
148
0.0
149
0.0
100
AcDbLayout
  1
Layout1
 70
     1
 71
     1
 10
0.0
 20
0.0
 11
12.0
 21
9.0
 12
0.0
 22
0.0
 32
0.0
 14
1.000000000000000E+20
 24
1.000000000000000E+20
 34
1.000000000000000E+20
 15
-1.000000000000000E+20
 25
-1.000000000000000E+20
 35
-1.000000000000000E+20
146
0.0
 13
0.0
 23
0.0
 33
0.0
 16
1.0
 26
0.0
 36
0.0
 17
0.0
 27
1.0
 37
0.0
 76
     0
330
1B
  0
LAYOUT
  5
26
102
{ACAD_REACTORS
330
1A
102
}
330
1A
100
AcDbPlotSettings
  1

  2
none_device
  4

  6

 40
0.0
 41
0.0
 42
0.0
 43
0.0
 44
0.0
 45
0.0
 46
0.0
 47
0.0
 48
0.0
 49
0.0
140
0.0
141
0.0
142
1.0
143
1.0
 70
   688
 72
     0
 73
     0
 74
     5
  7

 75
    16
 76
     0
 77
     2
 78
   300
147
1.0
148
0.0
149
0.0
100
AcDbLayout
  1
Layout2
 70
     1
 71
     2
 10
0.0
 20
0.0
 11
0.0
 21
0.0
 12
0.0
 22
0.0
 32
0.0
 14
0.0
 24
0.0
 34
0.0
 15
0.0
 25
0.0
 35
0.0
146
0.0
 13
0.0
 23
0.0
 33
0.0
 16
1.0
 26
0.0
 36
0.0
 17
0.0
 27
1.0
 37
0.0
 76
     0
330
23
  0
LAYOUT
  5
22
102
{ACAD_REACTORS
330
1A
102
}
330
1A
100
AcDbPlotSettings
  1

  2
none_device
  4

  6

 40
0.0
 41
0.0
 42
0.0
 43
0.0
 44
0.0
 45
0.0
 46
0.0
 47
0.0
 48
0.0
 49
0.0
140
0.0
141
0.0
142
1.0
143
1.0
 70
  1712
 72
     0
 73
     0
 74
     0
  7

 75
     0
 76
     0
 77
     2
 78
   300
147
1.0
148
0.0
149
0.0
100
AcDbLayout
  1
Model
 70
     1
 71
     0
 10
0.0
 20
0.0
 11
12.0
 21
9.0
 12
0.0
 22
0.0
 32
0.0
 14
1.000000000000000E+20
 24
1.000000000000000E+20
 34
1.000000000000000E+20
 15
-1.000000000000000E+20
 25
-1.000000000000000E+20
 35
-1.000000000000000E+20
146
0.0
 13
0.0
 23
0.0
 33
0.0
 16
1.0
 26
0.0
 36
0.0
 17
0.0
 27
1.0
 37
0.0
 76
     0
330
1F
331
29
  0
MLINESTYLE
  5
18
102
{ACAD_REACTORS
330
17
102
}
330
17
100
AcDbMlineStyle
  2
Standard
 70
     0
  3

 62
   256
 51
90.0
 52
90.0
 71
     2
 49
0.5
 62
   256
  6
BYLAYER
 49
-0.5
 62
   256
  6
BYLAYER
  0
ACDBPLACEHOLDER
  5
F
102
{ACAD_REACTORS
330
E
102
}
330
E
  0
VISUALSTYLE
  5
2F
102
{ACAD_REACTORS
330
2A
102
}
330
2A
100
AcDbVisualStyle
  2
2dWireframe
 70
     4
 71
     0
 72
     2
 73
     0
 90
        0
 40
-0.6
 41
-30.0
 62
     5
 63
     7
421
 16777215
 74
     1
 91
        4
 64
     7
 65
   257
 75
     1
175
     1
 42
1.0
 92
        0
 66
   257
 43
1.0
 76
     1
 77
     6
 78
     2
 67
     7
 79
     5
170
     0
171
     0
290
     0
174
     0
 93
        1
 44
0.0
173
     0
291
     0
 45
0.0
1001
ACAD
1000
AcDbSavedByObjectVersion
1070
     0
  0
VISUALSTYLE
  5
31
102
{ACAD_REACTORS
330
2A
102
}
330
2A
100
AcDbVisualStyle
  2
3D Hidden
 70
     6
 71
     1
 72
     2
 73
     2
 90
        0
 40
-0.6
 41
-30.0
 62
     5
 63
     7
421
 16777215
 74
     2
 91
        2
 64
     7
 65
   257
 75
     2
175
     1
 42
40.0
 92
        0
 66
   257
 43
1.0
 76
     1
 77
     6
 78
     2
 67
     7
 79
     3
170
     0
171
     0
290
     0
174
     0
 93
        1
 44
0.0
173
     0
291
     0
 45
0.0
1001
ACAD
1000
AcDbSavedByObjectVersion
1070
     0
  0
VISUALSTYLE
  5
30
102
{ACAD_REACTORS
330
2A
102
}
330
2A
100
AcDbVisualStyle
  2
3dWireframe
 70
     5
 71
     0
 72
     2
 73
     0
 90
        0
 40
-0.6
 41
-30.0
 62
     5
 63
     7
421
 16777215
 74
     1
 91
        4
 64
     7
 65
   257
 75
     1
175
     1
 42
1.0
 92
        0
 66
   257
 43
1.0
 76
     1
 77
     6
 78
     2
 67
     7
 79
     5
170
     0
171
     0
290
     0
174
     0
 93
        1
 44
0.0
173
     0
291
     0
 45
0.0
1001
ACAD
1000
AcDbSavedByObjectVersion
1070
     0
  0
VISUALSTYLE
  5
32
102
{ACAD_REACTORS
330
2A
102
}
330
2A
100
AcDbVisualStyle
  2
Basic
 70
     7
 71
     1
 72
     0
 73
     1
 90
        0
 40
-0.6
 41
-30.0
 62
     5
 63
     7
421
 16777215
 74
     0
 91
        4
 64
     7
 65
   257
 75
     1
175
     1
 42
1.0
 92
        8
 66
     7
 43
1.0
 76
     1
 77
     6
 78
     2
 67
     7
 79
     5
170
     0
171
     0
290
     0
174
     0
 93
        1
 44
0.0
173
     0
291
     1
 45
0.0
1001
ACAD
1000
AcDbSavedByObjectVersion
1070
     0
  0
VISUALSTYLE
  5
36
102
{ACAD_REACTORS
330
2A
102
}
330
2A
100
AcDbVisualStyle
  2
Brighten
 70
    12
 71
     2
 72
     2
 73
     0
 90
        0
 40
-0.6
 41
-30.0
 62
     5
 63
     7
421
 16777215
 74
     1
 91
        4
 64
     7
 65
   257
 75
     1
175
     1
 42
1.0
 92
        8
 66
     7
 43
1.0
 76
     1
 77
     6
 78
     2
 67
     7
 79
     5
170
     0
171
     0
290
     0
174
     0
 93
        1
 44
50.0
173
     0
291
     1
 45
0.0
1001
ACAD
1000
AcDbSavedByObjectVersion
1070
     0
  0
VISUALSTYLE
  5
3A
102
{ACAD_REACTORS
330
2A
102
}
330
2A
100
AcDbVisualStyle
  2
ColorChange
 70
    16
 71
     2
 72
     2
 73
     3
 90
        0
 40
-0.6
 41
-30.0
 62
     5
 63
     8
421
  8421504
 74
     1
 91
        4
 64
     7
 65
   257
 75
     1
175
     1
 42
1.0
 92
        8
 66
     8
424
  8421504
 43
1.0
 76
     1
 77
     6
 78
     2
 67
     7
 79
     5
170
     0
171
     0
290
     0
174
     0
 93
        1
 44
0.0
173
     0
291
     1
 45
0.0
1001
ACAD
1000
AcDbSavedByObjectVersion
1070
     0
  0
VISUALSTYLE
  5
34
102
{ACAD_REACTORS
330
2A
102
}
330
2A
100
AcDbVisualStyle
  2
Conceptual
 70
     9
 71
     3
 72
     2
 73
     0
 90
        0
 40
-0.6
 41
-30.0
 62
     5
 63
     7
421
 16777215
 74
     2
 91
        2
 64
     7
 65
   257
 75
     1
175
     1
 42
40.0
 92
        8
 66
     7
 43
1.0
 76
     1
 77
     6
 78
     2
 67
     7
 79
     3
170
     0
171
     0
290
     0
174
     0
 93
        1
 44
0.0
173
     0
291
     0
 45
0.0
1001
ACAD
1000
AcDbSavedByObjectVersion
1070
     0
  0
VISUALSTYLE
  5
35
102
{ACAD_REACTORS
330
2A
102
}
330
2A
100
AcDbVisualStyle
  2
Dim
 70
    11
 71
     2
 72
     2
 73
     0
 90
        0
 40
-0.6
 41
-30.0
 62
     5
 63
     7
421
 16777215
 74
     1
 91
        4
 64
     7
 65
   257
 75
     1
175
     1
 42
1.0
 92
        8
 66
     7
 43
1.0
 76
     1
 77
     6
 78
     2
 67
     7
 79
     5
170
     0
171
     0
290
     0
174
     0
 93
        1
 44
-50.0
173
     0
291
     1
 45
0.0
1001
ACAD
1000
AcDbSavedByObjectVersion
1070
     0
  0
VISUALSTYLE
  5
39
102
{ACAD_REACTORS
330
2A
102
}
330
2A
100
AcDbVisualStyle
  2
Facepattern
 70
    15
 71
     2
 72
     2
 73
     0
 90
        0
 40
-0.6
 41
-30.0
 62
     5
 63
     7
421
 16777215
 74
     1
 91
        4
 64
     7
 65
   257
 75
     1
175
     1
 42
1.0
 92
        8
 66
     7
 43
1.0
 76
     1
 77
     6
 78
     2
 67
     7
 79
     5
170
     0
171
     0
290
     0
174
     0
 93
        1
 44
0.0
173
     0
291
     1
 45
0.0
1001
ACAD
1000
AcDbSavedByObjectVersion
1070
     0
  0
VISUALSTYLE
  5
2B
102
{ACAD_REACTORS
330
2A
102
}
330
2A
100
AcDbVisualStyle
  2
Flat
 70
     0
 71
     2
 72
     1
 73
     1
 90
        2
 40
-0.6
 41
30.0
 62
     5
 63
     7
421
 16777215
 74
     0
 91
        4
 64
     7
 65
   257
 75
     1
175
     1
 42
1.0
 92
        8
 66
     7
 43
1.0
 76
     1
 77
     6
 78
     2
 67
     7
 79
     5
170
     0
171
     0
290
     0
174
     0
 93
       13
 44
0.0
173
     0
291
     1
 45
0.0
1001
ACAD
1000
AcDbSavedByObjectVersion
1070
     0
  0
VISUALSTYLE
  5
2C
102
{ACAD_REACTORS
330
2A
102
}
330
2A
100
AcDbVisualStyle
  2
FlatWithEdges
 70
     1
 71
     2
 72
     1
 73
     1
 90
        2
 40
-0.6
 41
30.0
 62
     5
 63
     7
421
 16777215
 74
     1
 91
        4
 64
     7
 65
   257
 75
     1
175
     1
 42
1.0
 92
        0
 66
   257
 43
1.0
 76
     1
 77
     6
 78
     2
 67
     7
 79
     5
170
     0
171
     0
290
     0
174
     0
 93
       13
 44
0.0
173
     0
291
     1
 45
0.0
1001
ACAD
1000
AcDbSavedByObjectVersion
1070
     0
  0
VISUALSTYLE
  5
2D
102
{ACAD_REACTORS
330
2A
102
}
330
2A
100
AcDbVisualStyle
  2
Gouraud
 70
     2
 71
     2
 72
     2
 73
     1
 90
        2
 40
-0.6
 41
30.0
 62
     5
 63
     7
421
 16777215
 74
     0
 91
        4
 64
     7
 65
   257
 75
     1
175
     1
 42
1.0
 92
        0
 66
     7
 43
1.0
 76
     1
 77
     6
 78
     2
 67
     7
 79
     5
170
     0
171
     0
290
     0
174
     0
 93
       13
 44
0.0
173
     0
291
     1
 45
0.0
1001
ACAD
1000
AcDbSavedByObjectVersion
1070
     0
  0
VISUALSTYLE
  5
2E
102
{ACAD_REACTORS
330
2A
102
}
330
2A
100
AcDbVisualStyle
  2
GouraudWithEdges
 70
     3
 71
     2
 72
     2
 73
     1
 90
        2
 40
-0.6
 41
30.0
 62
     5
 63
     7
421
 16777215
 74
     1
 91
        4
 64
     7
 65
   257
 75
     1
175
     1
 42
1.0
 92
        0
 66
   257
 43
1.0
 76
     1
 77
     6
 78
     2
 67
     7
 79
     5
170
     0
171
     0
290
     0
174
     0
 93
       13
 44
0.0
173
     0
291
     1
 45
0.0
1001
ACAD
1000
AcDbSavedByObjectVersion
1070
     0
  0
VISUALSTYLE
  5
38
102
{ACAD_REACTORS
330
2A
102
}
330
2A
100
AcDbVisualStyle
  2
Linepattern
 70
    14
 71
     2
 72
     2
 73
     0
 90
        0
 40
-0.6
 41
-30.0
 62
     5
 63
     7
421
 16777215
 74
     1
 91
        4
 64
     7
 65
   257
 75
     7
175
     7
 42
1.0
 92
        8
 66
     7
 43
1.0
 76
     1
 77
     6
 78
     2
 67
     7
 79
     5
170
     0
171
     0
290
     0
174
     0
 93
        1
 44
0.0
173
     0
291
     1
 45
0.0
1001
ACAD
1000
AcDbSavedByObjectVersion
1070
     0
  0
VISUALSTYLE
  5
33
102
{ACAD_REACTORS
330
2A
102
}
330
2A
100
AcDbVisualStyle
  2
Realistic
 70
     8
 71
     2
 72
     2
 73
     0
 90
        0
 40
-0.6
 41
-30.0
 62
     5
 63
     7
421
 16777215
 74
     1
 91
        0
 64
     7
 65
   257
 75
     1
175
     1
 42
1.0
 92
        8
 66
     8
424
  7895160
 43
1.0
 76
     1
 77
     6
 78
     2
 67
     7
 79
     5
170
     0
171
     0
290
     0
174
     0
 93
       13
 44
0.0
173
     0
291
     0
 45
0.0
1001
ACAD
1000
AcDbSavedByObjectVersion
1070
     0
  0
VISUALSTYLE
  5
37
102
{ACAD_REACTORS
330
2A
102
}
330
2A
100
AcDbVisualStyle
  2
Thicken
 70
    13
 71
     2
 72
     2
 73
     0
 90
        0
 40
-0.6
 41
-30.0
 62
     5
 63
     7
421
 16777215
 74
     1
 91
        4
 64
     7
 65
   257
 75
     1
175
     1
 42
1.0
 92
       12
 66
     7
 43
1.0
 76
     1
 77
     6
 78
     2
 67
     7
 79
     5
170
     0
171
     0
290
     0
174
     0
 93
        1
 44
0.0
173
     0
291
     1
 45
0.0
1001
ACAD
1000
AcDbSavedByObjectVersion
1070
     0
  0
ENDSEC
  0
EOF
