  0
SECTION
  2
HEADER
  9
$ACADVER
  1
AC1018
  9
$ACADMAINTVER
 70
     0
  9
$DWGCODEPAGE
  3
ASCII
  9
$INSBASE
 10
0.0
 20
0.0
 30
0.0
  9
$EXTMIN
 10
1.000000000000000E+20
 20
1.000000000000000E+20
 30
1.000000000000000E+20
  9
$EXTMAX
 10
-1.000000000000000E+20
 20
-1.000000000000000E+20
 30
-1.000000000000000E+20
  9
$LIMMIN
 10
0.0
 20
0.0
  9
$LIMMAX
 10
12.0
 20
9.0
  9
$ORTHOMODE
 70
     0
  9
$REGENMODE
 70
     1
  9
$FILLMODE
 70
     1
  9
$QTEXTMODE
 70
     0
  9
$MIRRTEXT
 70
     1
  9
$LTSCALE
 40
1.0
  9
$ATTMODE
 70
     1
  9
$TEXTSIZE
 40
0.2
  9
$TRACEWID
 40
0.05
  9
$TEXTSTYLE
  7
Standard
  9
$CLAYER
  8
0
  9
$CELTYPE
  6
ByLayer
  9
$CECOLOR
 62
   256
  9
$CELTSCALE
 40
1.0
  9
$DISPSILH
 70
     0
  9
$DIMSCALE
 40
1.0
  9
$DIMASZ
 40
0.18
  9
$DIMEXO
 40
0.0625
  9
$DIMDLI
 40
0.38
  9
$DIMRND
 40
0.0
  9
$DIMDLE
 40
0.0
  9
$DIMEXE
 40
0.18
  9
$DIMTP
 40
0.0
  9
$DIMTM
 40
0.0
  9
$DIMTXT
 40
0.18
  9
$DIMCEN
 40
0.09
  9
$DIMTSZ
 40
0.0
  9
$DIMTOL
 70
     0
  9
$DIMLIM
 70
     0
  9
$DIMTIH
 70
     1
  9
$DIMTOH
 70
     1
  9
$DIMSE1
 70
     0
  9
$DIMSE2
 70
     0
  9
$DIMTAD
 70
     0
  9
$DIMZIN
 70
     0
  9
$DIMBLK
  1

  9
$DIMASO
 70
     1
  9
$DIMSHO
 70
     1
  9
$DIMPOST
  1

  9
$DIMAPOST
  1

  9
$DIMALT
 70
     0
  9
$DIMALTD
 70
     2
  9
$DIMALTF
 40
25.4
  9
$DIMLFAC
 40
1.0
  9
$DIMTOFL
 70
     0
  9
$DIMTVP
 40
0.0
  9
$DIMTIX
 70
     0
  9
$DIMSOXD
 70
     0
  9
$DIMSAH
 70
     0
  9
$DIMBLK1
  1

  9
$DIMBLK2
  1

  9
$DIMSTYLE
  2
Standard
  9
$DIMCLRD
 70
     0
  9
$DIMCLRE
 70
     0
  9
$DIMCLRT
 70
     0
  9
$DIMTFAC
 40
1.0
  9
$DIMGAP
 40
0.09
  9
$DIMJUST
 70
     0
  9
$DIMSD1
 70
     0
  9
$DIMSD2
 70
     0
  9
$DIMTOLJ
 70
     1
  9
$DIMTZIN
 70
     0
  9
$DIMALTZ
 70
     0
  9
$DIMALTTZ
 70
     0
  9
$DIMUPT
 70
     0
  9
$DIMDEC
 70
     4
  9
$DIMTDEC
 70
     4
  9
$DIMALTU
 70
     2
  9
$DIMALTTD
 70
     2
  9
$DIMTXSTY
  7
Standard
  9
$DIMAUNIT
 70
     0
  9
$DIMADEC
 70
     0
  9
$DIMALTRND
 40
0.0
  9
$DIMAZIN
 70
     0
  9
$DIMDSEP
 70
    46
  9
$DIMATFIT
 70
     3
  9
$DIMFRAC
 70
     0
  9
$DIMLDRBLK
  1

  9
$DIMLUNIT
 70
     2
  9
$DIMLWD
 70
    -2
  9
$DIMLWE
 70
    -2
  9
$DIMTMOVE
 70
     0
  9
$LUNITS
 70
     2
  9
$LUPREC
 70
     4
  9
$SKETCHINC
 40
0.1
  9
$FILLETRAD
 40
0.5
  9
$AUNITS
 70
     0
  9
$AUPREC
 70
     0
  9
$MENU
  1
.
  9
$ELEVATION
 40
0.0
  9
$PELEVATION
 40
0.0
  9
$THICKNESS
 40
0.0
  9
$LIMCHECK
 70
     0
  9
$CHAMFERA
 40
0.5
  9
$CHAMFERB
 40
0.5
  9
$CHAMFERC
 40
1.0
  9
$CHAMFERD
 40
0.0
  9
$SKPOLY
 70
     0
  9
$TDCREATE
 40
2456961.980122604
  9
$TDUCREATE
 40
2456961.938455937
  9
$TDUPDATE
 40
2456961.980122616
  9
$TDUUPDATE
 40
2456961.938455949
  9
$TDINDWG
 40
0.0000000116
  9
$TDUSRTIMER
 40
0.0000000116
  9
$USRTIMER
 70
     1
  9
$ANGBASE
 50
0.0
  9
$ANGDIR
 70
     0
  9
$PDMODE
 70
     0
  9
$PDSIZE
 40
0.0
  9
$PLINEWID
 40
0.0
  9
$SPLFRAME
 70
     0
  9
$SPLINETYPE
 70
     6
  9
$SPLINESEGS
 70
     8
  9
$HANDSEED
  5
6F0
  9
$SURFTAB1
 70
     6
  9
$SURFTAB2
 70
     6
  9
$SURFTYPE
 70
     6
  9
$SURFU
 70
     6
  9
$SURFV
 70
     6
  9
$UCSBASE
  2

  9
$UCSNAME
  2

  9
$UCSORG
 10
0.0
 20
0.0
 30
0.0
  9
$UCSXDIR
 10
1.0
 20
0.0
 30
0.0
  9
$UCSYDIR
 10
0.0
 20
1.0
 30
0.0
  9
$UCSORTHOREF
  2

  9
$UCSORTHOVIEW
 70
     0
  9
$UCSORGTOP
 10
0.0
 20
0.0
 30
0.0
  9
$UCSORGBOTTOM
 10
0.0
 20
0.0
 30
0.0
  9
$UCSORGLEFT
 10
0.0
 20
0.0
 30
0.0
  9
$UCSORGRIGHT
 10
0.0
 20
0.0
 30
0.0
  9
$UCSORGFRONT
 10
0.0
 20
0.0
 30
0.0
  9
$UCSORGBACK
 10
0.0
 20
0.0
 30
0.0
  9
$PUCSBASE
  2

  9
$PUCSNAME
  2

  9
$PUCSORG
 10
0.0
 20
0.0
 30
0.0
  9
$PUCSXDIR
 10
1.0
 20
0.0
 30
0.0
  9
$PUCSYDIR
 10
0.0
 20
1.0
 30
0.0
  9
$PUCSORTHOREF
  2

  9
$PUCSORTHOVIEW
 70
     0
  9
$PUCSORGTOP
 10
0.0
 20
0.0
 30
0.0
  9
$PUCSORGBOTTOM
 10
0.0
 20
0.0
 30
0.0
  9
$PUCSORGLEFT
 10
0.0
 20
0.0
 30
0.0
  9
$PUCSORGRIGHT
 10
0.0
 20
0.0
 30
0.0
  9
$PUCSORGFRONT
 10
0.0
 20
0.0
 30
0.0
  9
$PUCSORGBACK
 10
0.0
 20
0.0
 30
0.0
  9
$USERI1
 70
     0
  9
$USERI2
 70
     0
  9
$USERI3
 70
     0
  9
$USERI4
 70
     0
  9
$USERI5
 70
     0
  9
$USERR1
 40
0.0
  9
$USERR2
 40
0.0
  9
$USERR3
 40
0.0
  9
$USERR4
 40
0.0
  9
$USERR5
 40
0.0
  9
$WORLDVIEW
 70
     1
  9
$SHADEDGE
 70
     3
  9
$SHADEDIF
 70
    70
  9
$TILEMODE
 70
     1
  9
$MAXACTVP
 70
    64
  9
$PINSBASE
 10
0.0
 20
0.0
 30
0.0
  9
$PLIMCHECK
 70
     0
  9
$PEXTMIN
 10
1.000000000000000E+20
 20
1.000000000000000E+20
 30
1.000000000000000E+20
  9
$PEXTMAX
 10
-1.000000000000000E+20
 20
-1.000000000000000E+20
 30
-1.000000000000000E+20
  9
$PLIMMIN
 10
0.0
 20
0.0
  9
$PLIMMAX
 10
12.0
 20
9.0
  9
$UNITMODE
 70
     0
  9
$VISRETAIN
 70
     1
  9
$PLINEGEN
 70
     0
  9
$PSLTSCALE
 70
     1
  9
$TREEDEPTH
 70
  3020
  9
$CMLSTYLE
  2
Standard
  9
$CMLJUST
 70
     0
  9
$CMLSCALE
 40
1.0
  9
$PROXYGRAPHICS
 70
     1
  9
$MEASUREMENT
 70
     0
  9
$CELWEIGHT
370
    -1
  9
$ENDCAPS
280
     0
  9
$JOINSTYLE
280
     0
  9
$LWDISPLAY
290
     1
  9
$INSUNITS
 70
     1
  9
$HYPERLINKBASE
  1

  9
$STYLESHEET
  1

  9
$XEDIT
290
     1
  9
$CEPSNTYPE
380
     0
  9
$PSTYLEMODE
290
     1
  9
$FINGERPRINTGUID
  2
{13562CF0-B073-4F4C-8ADD-E4C9AC34A9E0}
  9
$VERSIONGUID
  2
{FAEB1C32-E019-11D5-929B-00C0DF256EC4}
  9
$EXTNAMES
290
     1
  9
$PSVPSCALE
 40
0.0
  9
$OLESTARTUP
290
     0
  9
$SORTENTS
280
   127
  9
$INDEXCTL
280
     0
  9
$HIDETEXT
280
     1
  9
$XCLIPFRAME
290
     0
  9
$HALOGAP
280
     0
  9
$OBSCOLOR
 70
   257
  9
$OBSLTYPE
280
     0
  9
$INTERSECTIONDISPLAY
280
     0
  9
$INTERSECTIONCOLOR
 70
   257
  9
$DIMASSOC
280
     2
  9
$PROJECTNAME
  1

  0
ENDSEC
  0
SECTION
  2
CLASSES
  0
CLASS
  1
ACDBDICTIONARYWDFLT
  2
AcDbDictionaryWithDefault
  3
ObjectDBX Classes
 90
        0
 91
        3
280
     0
281
     0
  0
CLASS
  1
VISUALSTYLE
  2
AcDbVisualStyle
  3
ObjectDBX Classes
 90
     4095
 91
        3
280
     0
281
     0
  0
ENDSEC
  0
SECTION
  2
TABLES
  0
TABLE
  2
VPORT
  5
8
330
0
100
AcDbSymbolTable
 70
     1
  0
VPORT
  5
29
330
8
100
AcDbSymbolTableRecord
100
AcDbViewportTableRecord
  2
*Active
 70
     0
 10
0.0
 20
0.0
 11
1.0
 21
1.0
 12
0.0
 22
0.0
 13
0.0
 23
0.0
 14
0.5
 24
0.5
 15
0.5
 25
0.5
 16
0.0
 26
0.0
 36
1.0
 17
105.0008091239277
 27
148.5001637099431
 37
0.0
 40
297.0003274198861
 41
0.7070753762199199
 42
50.0
 43
0.0
 44
0.0
 50
0.0
 51
0.0
 71
     0
 72
   100
 73
     1
 74
     3
 75
     0
 76
     0
 77
     0
 78
     0
281
     0
 65
     1
110
0.0
120
0.0
130
0.0
111
1.0
121
0.0
131
0.0
112
0.0
122
1.0
132
0.0
 79
     0
146
0.0
  0
ENDTAB
  0
TABLE
  2
LTYPE
  5
5
330
0
100
AcDbSymbolTable
 70
     1
  0
LTYPE
  5
14
330
5
100
AcDbSymbolTableRecord
100
AcDbLinetypeTableRecord
  2
ByBlock
 70
     0
  3

 72
    65
 73
     0
 40
0.0
  0
LTYPE
  5
15
330
5
100
AcDbSymbolTableRecord
100
AcDbLinetypeTableRecord
  2
ByLayer
 70
     0
  3

 72
    65
 73
     0
 40
0.0
  0
LTYPE
  5
16
330
5
100
AcDbSymbolTableRecord
100
AcDbLinetypeTableRecord
  2
Continuous
 70
     0
  3
Solid line
 72
    65
 73
     0
 40
0.0
  0
ENDTAB
  0
TABLE
  2
LAYER
  5
2
330
0
100
AcDbSymbolTable
 70
     1
  0
LAYER
  5
10
330
2
100
AcDbSymbolTableRecord
100
AcDbLayerTableRecord
  2
0
 70
     0
 62
     7
  6
Continuous
370
    -3
390
F
  0
ENDTAB
  0
TABLE
  2
STYLE
  5
3
330
0
100
AcDbSymbolTable
 70
     1
  0
STYLE
  5
11
330
3
100
AcDbSymbolTableRecord
100
AcDbTextStyleTableRecord
  2
Standard
 70
     0
 40
0.0
 41
1.0
 50
0.0
 71
     0
 42
0.2
  3
txt
  4

  0
ENDTAB
  0
TABLE
  2
VIEW
  5
6
330
0
100
AcDbSymbolTable
 70
     0
  0
ENDTAB
  0
TABLE
  2
UCS
  5
7
330
0
100
AcDbSymbolTable
 70
     0
  0
ENDTAB
  0
TABLE
  2
APPID
  5
9
330
0
100
AcDbSymbolTable
 70
     1
  0
APPID
  5
12
330
9
100
AcDbSymbolTableRecord
100
AcDbRegAppTableRecord
  2
ACAD
 70
     0
  0
ENDTAB
  0
TABLE
  2
DIMSTYLE
  5
A
330
0
100
AcDbSymbolTable
 70
     1
100
AcDbDimStyleTable
  0
DIMSTYLE
105
27
330
A
100
AcDbSymbolTableRecord
100
AcDbDimStyleTableRecord
  2
Standard
 70
     0
340
11
  0
ENDTAB
  0
TABLE
  2
BLOCK_RECORD
  5
1
330
0
100
AcDbSymbolTable
 70
   213
  0
BLOCK_RECORD
  5
1F
330
1
100
AcDbSymbolTableRecord
100
AcDbBlockTableRecord
  2
*Model_Space
340
22
  0
BLOCK_RECORD
  5
1B
330
1
100
AcDbSymbolTableRecord
100
AcDbBlockTableRecord
  2
*Paper_Space
340
1E
  0
BLOCK_RECORD
  5
23
330
1
100
AcDbSymbolTableRecord
100
AcDbBlockTableRecord
  2
*Paper_Space0
340
26
  0
BLOCK_RECORD
  5
3B
330
1
100
AcDbSymbolTableRecord
100
AcDbBlockTableRecord
  2
block 2
340
0
102
{BLKREFS
331
3C
102
}
  0
BLOCK_RECORD
  5
40
330
1
100
AcDbSymbolTableRecord
100
AcDbBlockTableRecord
  2
block 3
340
0
102
{BLKREFS
331
41
102
}
  0
BLOCK_RECORD
  5
45
330
1
100
AcDbSymbolTableRecord
100
AcDbBlockTableRecord
  2
block 4
340
0
102
{BLKREFS
331
46
102
}
  0
BLOCK_RECORD
  5
4D
330
1
100
AcDbSymbolTableRecord
100
AcDbBlockTableRecord
  2
block 5
340
0
102
{BLKREFS
331
4E
102
}
  0
BLOCK_RECORD
  5
55
330
1
100
AcDbSymbolTableRecord
100
AcDbBlockTableRecord
  2
block 6
340
0
102
{BLKREFS
331
56
102
}
  0
BLOCK_RECORD
  5
5D
330
1
100
AcDbSymbolTableRecord
100
AcDbBlockTableRecord
  2
block 7
340
0
102
{BLKREFS
331
5E
102
}
  0
BLOCK_RECORD
  5
65
330
1
100
AcDbSymbolTableRecord
100
AcDbBlockTableRecord
  2
block 8
340
0
102
{BLKREFS
331
66
102
}
  0
BLOCK_RECORD
  5
6D
330
1
100
AcDbSymbolTableRecord
100
AcDbBlockTableRecord
  2
block 9
340
0
102
{BLKREFS
331
6E
102
}
  0
BLOCK_RECORD
  5
75
330
1
100
AcDbSymbolTableRecord
100
AcDbBlockTableRecord
  2
block 10
340
0
102
{BLKREFS
331
76
102
}
  0
BLOCK_RECORD
  5
7D
330
1
100
AcDbSymbolTableRecord
100
AcDbBlockTableRecord
  2
block 11
340
0
102
{BLKREFS
331
7E
102
}
  0
BLOCK_RECORD
  5
85
330
1
100
AcDbSymbolTableRecord
100
AcDbBlockTableRecord
  2
block 12
340
0
102
{BLKREFS
331
86
102
}
  0
BLOCK_RECORD
  5
8D
330
1
100
AcDbSymbolTableRecord
100
AcDbBlockTableRecord
  2
block 13
340
0
102
{BLKREFS
331
8E
102
}
  0
BLOCK_RECORD
  5
95
330
1
100
AcDbSymbolTableRecord
100
AcDbBlockTableRecord
  2
block 14
340
0
102
{BLKREFS
331
96
102
}
  0
BLOCK_RECORD
  5
9D
330
1
100
AcDbSymbolTableRecord
100
AcDbBlockTableRecord
  2
block 15
340
0
102
{BLKREFS
331
9E
102
}
  0
BLOCK_RECORD
  5
A5
330
1
100
AcDbSymbolTableRecord
100
AcDbBlockTableRecord
  2
block 16
340
0
102
{BLKREFS
331
A6
102
}
  0
BLOCK_RECORD
  5
AD
330
1
100
AcDbSymbolTableRecord
100
AcDbBlockTableRecord
  2
block 17
340
0
102
{BLKREFS
331
AE
102
}
  0
BLOCK_RECORD
  5
B5
330
1
100
AcDbSymbolTableRecord
100
AcDbBlockTableRecord
  2
block 18
340
0
102
{BLKREFS
331
B6
102
}
  0
BLOCK_RECORD
  5
BD
330
1
100
AcDbSymbolTableRecord
100
AcDbBlockTableRecord
  2
block 19
340
0
102
{BLKREFS
331
BE
102
}
  0
BLOCK_RECORD
  5
C5
330
1
100
AcDbSymbolTableRecord
100
AcDbBlockTableRecord
  2
block 20
340
0
102
{BLKREFS
331
C6
102
}
  0
BLOCK_RECORD
  5
CA
330
1
100
AcDbSymbolTableRecord
100
AcDbBlockTableRecord
  2
block 21
340
0
102
{BLKREFS
331
CB
102
}
  0
BLOCK_RECORD
  5
D3
330
1
100
AcDbSymbolTableRecord
100
AcDbBlockTableRecord
  2
block 22
340
0
102
{BLKREFS
331
D4
102
}
  0
BLOCK_RECORD
  5
D8
330
1
100
AcDbSymbolTableRecord
100
AcDbBlockTableRecord
  2
block 23
340
0
102
{BLKREFS
331
D9
102
}
  0
BLOCK_RECORD
  5
DD
330
1
100
AcDbSymbolTableRecord
100
AcDbBlockTableRecord
  2
block 24
340
0
102
{BLKREFS
331
DE
102
}
  0
BLOCK_RECORD
  5
E2
330
1
100
AcDbSymbolTableRecord
100
AcDbBlockTableRecord
  2
block 25
340
0
102
{BLKREFS
331
E3
102
}
  0
BLOCK_RECORD
  5
EA
330
1
100
AcDbSymbolTableRecord
100
AcDbBlockTableRecord
  2
block 26
340
0
102
{BLKREFS
331
EB
102
}
  0
BLOCK_RECORD
  5
F2
330
1
100
AcDbSymbolTableRecord
100
AcDbBlockTableRecord
  2
block 27
340
0
102
{BLKREFS
331
F3
102
}
  0
BLOCK_RECORD
  5
F7
330
1
100
AcDbSymbolTableRecord
100
AcDbBlockTableRecord
  2
block 28
340
0
102
{BLKREFS
331
F8
102
}
  0
BLOCK_RECORD
  5
100
330
1
100
AcDbSymbolTableRecord
100
AcDbBlockTableRecord
  2
block 29
340
0
102
{BLKREFS
331
101
102
}
  0
BLOCK_RECORD
  5
105
330
1
100
AcDbSymbolTableRecord
100
AcDbBlockTableRecord
  2
block 30
340
0
102
{BLKREFS
331
106
102
}
  0
BLOCK_RECORD
  5
10A
330
1
100
AcDbSymbolTableRecord
100
AcDbBlockTableRecord
  2
block 31
340
0
102
{BLKREFS
331
10B
102
}
  0
BLOCK_RECORD
  5
10F
330
1
100
AcDbSymbolTableRecord
100
AcDbBlockTableRecord
  2
block 32
340
0
102
{BLKREFS
331
110
102
}
  0
BLOCK_RECORD
  5
117
330
1
100
AcDbSymbolTableRecord
100
AcDbBlockTableRecord
  2
block 33
340
0
102
{BLKREFS
331
118
102
}
  0
BLOCK_RECORD
  5
11F
330
1
100
AcDbSymbolTableRecord
100
AcDbBlockTableRecord
  2
block 34
340
0
102
{BLKREFS
331
120
102
}
  0
BLOCK_RECORD
  5
127
330
1
100
AcDbSymbolTableRecord
100
AcDbBlockTableRecord
  2
block 35
340
0
102
{BLKREFS
331
128
102
}
  0
BLOCK_RECORD
  5
12F
330
1
100
AcDbSymbolTableRecord
100
AcDbBlockTableRecord
  2
block 36
340
0
102
{BLKREFS
331
130
102
}
  0
BLOCK_RECORD
  5
134
330
1
100
AcDbSymbolTableRecord
100
AcDbBlockTableRecord
  2
block 37
340
0
102
{BLKREFS
331
135
102
}
  0
BLOCK_RECORD
  5
139
330
1
100
AcDbSymbolTableRecord
100
AcDbBlockTableRecord
  2
block 38
340
0
102
{BLKREFS
331
13A
102
}
  0
BLOCK_RECORD
  5
13E
330
1
100
AcDbSymbolTableRecord
100
AcDbBlockTableRecord
  2
block 39
340
0
102
{BLKREFS
331
13F
102
}
  0
BLOCK_RECORD
  5
147
330
1
100
AcDbSymbolTableRecord
100
AcDbBlockTableRecord
  2
block 40
340
0
102
{BLKREFS
331
148
102
}
  0
BLOCK_RECORD
  5
14F
330
1
100
AcDbSymbolTableRecord
100
AcDbBlockTableRecord
  2
block 41
340
0
102
{BLKREFS
331
150
102
}
  0
BLOCK_RECORD
  5
157
330
1
100
AcDbSymbolTableRecord
100
AcDbBlockTableRecord
  2
block 42
340
0
102
{BLKREFS
331
158
102
}
  0
BLOCK_RECORD
  5
15C
330
1
100
AcDbSymbolTableRecord
100
AcDbBlockTableRecord
  2
block 43
340
0
102
{BLKREFS
331
15D
102
}
  0
BLOCK_RECORD
  5
161
330
1
100
AcDbSymbolTableRecord
100
AcDbBlockTableRecord
  2
block 44
340
0
102
{BLKREFS
331
162
102
}
  0
BLOCK_RECORD
  5
16A
330
1
100
AcDbSymbolTableRecord
100
AcDbBlockTableRecord
  2
block 45
340
0
102
{BLKREFS
331
16B
102
}
  0
BLOCK_RECORD
  5
16F
330
1
100
AcDbSymbolTableRecord
100
AcDbBlockTableRecord
  2
block 46
340
0
102
{BLKREFS
331
170
102
}
  0
BLOCK_RECORD
  5
173
330
1
100
AcDbSymbolTableRecord
100
AcDbBlockTableRecord
  2
block 47
340
0
102
{BLKREFS
331
174
102
}
  0
BLOCK_RECORD
  5
17B
330
1
100
AcDbSymbolTableRecord
100
AcDbBlockTableRecord
  2
block 48
340
0
102
{BLKREFS
331
17C
102
}
  0
BLOCK_RECORD
  5
183
330
1
100
AcDbSymbolTableRecord
100
AcDbBlockTableRecord
  2
block 49
340
0
102
{BLKREFS
331
184
102
}
  0
BLOCK_RECORD
  5
18B
330
1
100
AcDbSymbolTableRecord
100
AcDbBlockTableRecord
  2
block 50
340
0
102
{BLKREFS
331
18C
102
}
  0
BLOCK_RECORD
  5
196
330
1
100
AcDbSymbolTableRecord
100
AcDbBlockTableRecord
  2
block 51
340
0
102
{BLKREFS
331
197
102
}
  0
BLOCK_RECORD
  5
1A1
330
1
100
AcDbSymbolTableRecord
100
AcDbBlockTableRecord
  2
block 52
340
0
102
{BLKREFS
331
1A2
102
}
  0
BLOCK_RECORD
  5
1A6
330
1
100
AcDbSymbolTableRecord
100
AcDbBlockTableRecord
  2
block 53
340
0
102
{BLKREFS
331
1A7
102
}
  0
BLOCK_RECORD
  5
1AE
330
1
100
AcDbSymbolTableRecord
100
AcDbBlockTableRecord
  2
block 54
340
0
102
{BLKREFS
331
1AF
102
}
  0
BLOCK_RECORD
  5
1B6
330
1
100
AcDbSymbolTableRecord
100
AcDbBlockTableRecord
  2
block 55
340
0
102
{BLKREFS
331
1B7
102
}
  0
BLOCK_RECORD
  5
1BE
330
1
100
AcDbSymbolTableRecord
100
AcDbBlockTableRecord
  2
block 56
340
0
102
{BLKREFS
331
1BF
102
}
  0
BLOCK_RECORD
  5
1C6
330
1
100
AcDbSymbolTableRecord
100
AcDbBlockTableRecord
  2
block 57
340
0
102
{BLKREFS
331
1C7
102
}
  0
BLOCK_RECORD
  5
1CE
330
1
100
AcDbSymbolTableRecord
100
AcDbBlockTableRecord
  2
block 58
340
0
102
{BLKREFS
331
1CF
102
}
  0
BLOCK_RECORD
  5
1D6
330
1
100
AcDbSymbolTableRecord
100
AcDbBlockTableRecord
  2
block 59
340
0
102
{BLKREFS
331
1D7
102
}
  0
BLOCK_RECORD
  5
1DE
330
1
100
AcDbSymbolTableRecord
100
AcDbBlockTableRecord
  2
block 60
340
0
102
{BLKREFS
331
1DF
102
}
  0
BLOCK_RECORD
  5
1E6
330
1
100
AcDbSymbolTableRecord
100
AcDbBlockTableRecord
  2
block 61
340
0
102
{BLKREFS
331
1E7
102
}
  0
BLOCK_RECORD
  5
1EE
330
1
100
AcDbSymbolTableRecord
100
AcDbBlockTableRecord
  2
block 62
340
0
102
{BLKREFS
331
1EF
102
}
  0
BLOCK_RECORD
  5
1F6
330
1
100
AcDbSymbolTableRecord
100
AcDbBlockTableRecord
  2
block 63
340
0
102
{BLKREFS
331
1F7
102
}
  0
BLOCK_RECORD
  5
1FB
330
1
100
AcDbSymbolTableRecord
100
AcDbBlockTableRecord
  2
block 64
340
0
102
{BLKREFS
331
1FC
102
}
  0
BLOCK_RECORD
  5
200
330
1
100
AcDbSymbolTableRecord
100
AcDbBlockTableRecord
  2
block 65
340
0
102
{BLKREFS
331
201
102
}
  0
BLOCK_RECORD
  5
208
330
1
100
AcDbSymbolTableRecord
100
AcDbBlockTableRecord
  2
block 66
340
0
102
{BLKREFS
331
209
102
}
  0
BLOCK_RECORD
  5
210
330
1
100
AcDbSymbolTableRecord
100
AcDbBlockTableRecord
  2
block 67
340
0
102
{BLKREFS
331
211
102
}
  0
BLOCK_RECORD
  5
218
330
1
100
AcDbSymbolTableRecord
100
AcDbBlockTableRecord
  2
block 68
340
0
102
{BLKREFS
331
219
102
}
  0
BLOCK_RECORD
  5
220
330
1
100
AcDbSymbolTableRecord
100
AcDbBlockTableRecord
  2
block 69
340
0
102
{BLKREFS
331
221
102
}
  0
BLOCK_RECORD
  5
225
330
1
100
AcDbSymbolTableRecord
100
AcDbBlockTableRecord
  2
block 70
340
0
102
{BLKREFS
331
226
102
}
  0
BLOCK_RECORD
  5
22A
330
1
100
AcDbSymbolTableRecord
100
AcDbBlockTableRecord
  2
block 71
340
0
102
{BLKREFS
331
22B
102
}
  0
BLOCK_RECORD
  5
233
330
1
100
AcDbSymbolTableRecord
100
AcDbBlockTableRecord
  2
block 72
340
0
102
{BLKREFS
331
234
102
}
  0
BLOCK_RECORD
  5
23C
330
1
100
AcDbSymbolTableRecord
100
AcDbBlockTableRecord
  2
block 73
340
0
102
{BLKREFS
331
23D
102
}
  0
BLOCK_RECORD
  5
244
330
1
100
AcDbSymbolTableRecord
100
AcDbBlockTableRecord
  2
block 74
340
0
102
{BLKREFS
331
245
102
}
  0
BLOCK_RECORD
  5
24C
330
1
100
AcDbSymbolTableRecord
100
AcDbBlockTableRecord
  2
block 75
340
0
102
{BLKREFS
331
24D
102
}
  0
BLOCK_RECORD
  5
251
330
1
100
AcDbSymbolTableRecord
100
AcDbBlockTableRecord
  2
block 76
340
0
102
{BLKREFS
331
252
102
}
  0
BLOCK_RECORD
  5
256
330
1
100
AcDbSymbolTableRecord
100
AcDbBlockTableRecord
  2
block 77
340
0
102
{BLKREFS
331
257
102
}
  0
BLOCK_RECORD
  5
25E
330
1
100
AcDbSymbolTableRecord
100
AcDbBlockTableRecord
  2
block 78
340
0
102
{BLKREFS
331
25F
102
}
  0
BLOCK_RECORD
  5
266
330
1
100
AcDbSymbolTableRecord
100
AcDbBlockTableRecord
  2
block 79
340
0
102
{BLKREFS
331
267
102
}
  0
BLOCK_RECORD
  5
26E
330
1
100
AcDbSymbolTableRecord
100
AcDbBlockTableRecord
  2
block 80
340
0
102
{BLKREFS
331
26F
102
}
  0
BLOCK_RECORD
  5
276
330
1
100
AcDbSymbolTableRecord
100
AcDbBlockTableRecord
  2
block 81
340
0
102
{BLKREFS
331
277
102
}
  0
BLOCK_RECORD
  5
27E
330
1
100
AcDbSymbolTableRecord
100
AcDbBlockTableRecord
  2
block 82
340
0
102
{BLKREFS
331
27F
102
}
  0
BLOCK_RECORD
  5
286
330
1
100
AcDbSymbolTableRecord
100
AcDbBlockTableRecord
  2
block 83
340
0
102
{BLKREFS
331
287
102
}
  0
BLOCK_RECORD
  5
28E
330
1
100
AcDbSymbolTableRecord
100
AcDbBlockTableRecord
  2
block 84
340
0
102
{BLKREFS
331
28F
102
}
  0
BLOCK_RECORD
  5
296
330
1
100
AcDbSymbolTableRecord
100
AcDbBlockTableRecord
  2
block 85
340
0
102
{BLKREFS
331
297
102
}
  0
BLOCK_RECORD
  5
29E
330
1
100
AcDbSymbolTableRecord
100
AcDbBlockTableRecord
  2
block 86
340
0
102
{BLKREFS
331
29F
102
}
  0
BLOCK_RECORD
  5
2A6
330
1
100
AcDbSymbolTableRecord
100
AcDbBlockTableRecord
  2
block 87
340
0
102
{BLKREFS
331
2A7
102
}
  0
BLOCK_RECORD
  5
2AB
330
1
100
AcDbSymbolTableRecord
100
AcDbBlockTableRecord
  2
block 88
340
0
102
{BLKREFS
331
2AC
102
}
  0
BLOCK_RECORD
  5
2B0
330
1
100
AcDbSymbolTableRecord
100
AcDbBlockTableRecord
  2
block 89
340
0
102
{BLKREFS
331
2B1
102
}
  0
BLOCK_RECORD
  5
2B5
330
1
100
AcDbSymbolTableRecord
100
AcDbBlockTableRecord
  2
block 90
340
0
102
{BLKREFS
331
2B6
102
}
  0
BLOCK_RECORD
  5
2BA
330
1
100
AcDbSymbolTableRecord
100
AcDbBlockTableRecord
  2
block 91
340
0
102
{BLKREFS
331
2BB
102
}
  0
BLOCK_RECORD
  5
2C2
330
1
100
AcDbSymbolTableRecord
100
AcDbBlockTableRecord
  2
block 92
340
0
102
{BLKREFS
331
2C3
102
}
  0
BLOCK_RECORD
  5
2C7
330
1
100
AcDbSymbolTableRecord
100
AcDbBlockTableRecord
  2
block 93
340
0
102
{BLKREFS
331
2C8
102
}
  0
BLOCK_RECORD
  5
2CF
330
1
100
AcDbSymbolTableRecord
100
AcDbBlockTableRecord
  2
block 94
340
0
102
{BLKREFS
331
2D0
102
}
  0
BLOCK_RECORD
  5
2D4
330
1
100
AcDbSymbolTableRecord
100
AcDbBlockTableRecord
  2
block 95
340
0
102
{BLKREFS
331
2D5
102
}
  0
BLOCK_RECORD
  5
2F0
330
1
100
AcDbSymbolTableRecord
100
AcDbBlockTableRecord
  2
block 96
340
0
102
{BLKREFS
331
2F1
102
}
  0
BLOCK_RECORD
  5
2F5
330
1
100
AcDbSymbolTableRecord
100
AcDbBlockTableRecord
  2
block 97
340
0
102
{BLKREFS
331
2F6
102
}
  0
BLOCK_RECORD
  5
2FD
330
1
100
AcDbSymbolTableRecord
100
AcDbBlockTableRecord
  2
block 98
340
0
102
{BLKREFS
331
2FE
102
}
  0
BLOCK_RECORD
  5
305
330
1
100
AcDbSymbolTableRecord
100
AcDbBlockTableRecord
  2
block 99
340
0
102
{BLKREFS
331
306
102
}
  0
BLOCK_RECORD
  5
30D
330
1
100
AcDbSymbolTableRecord
100
AcDbBlockTableRecord
  2
block 100
340
0
102
{BLKREFS
331
30E
102
}
  0
BLOCK_RECORD
  5
315
330
1
100
AcDbSymbolTableRecord
100
AcDbBlockTableRecord
  2
block 101
340
0
102
{BLKREFS
331
316
102
}
  0
BLOCK_RECORD
  5
32E
330
1
100
AcDbSymbolTableRecord
100
AcDbBlockTableRecord
  2
block 102
340
0
102
{BLKREFS
331
32F
102
}
  0
BLOCK_RECORD
  5
336
330
1
100
AcDbSymbolTableRecord
100
AcDbBlockTableRecord
  2
block 103
340
0
102
{BLKREFS
331
337
102
}
  0
BLOCK_RECORD
  5
33E
330
1
100
AcDbSymbolTableRecord
100
AcDbBlockTableRecord
  2
block 104
340
0
102
{BLKREFS
331
33F
102
}
  0
BLOCK_RECORD
  5
346
330
1
100
AcDbSymbolTableRecord
100
AcDbBlockTableRecord
  2
block 105
340
0
102
{BLKREFS
331
347
102
}
  0
BLOCK_RECORD
  5
34E
330
1
100
AcDbSymbolTableRecord
100
AcDbBlockTableRecord
  2
block 106
340
0
102
{BLKREFS
331
34F
102
}
  0
BLOCK_RECORD
  5
356
330
1
100
AcDbSymbolTableRecord
100
AcDbBlockTableRecord
  2
block 107
340
0
102
{BLKREFS
331
357
102
}
  0
BLOCK_RECORD
  5
35E
330
1
100
AcDbSymbolTableRecord
100
AcDbBlockTableRecord
  2
block 108
340
0
102
{BLKREFS
331
35F
102
}
  0
BLOCK_RECORD
  5
377
330
1
100
AcDbSymbolTableRecord
100
AcDbBlockTableRecord
  2
block 109
340
0
102
{BLKREFS
331
378
102
}
  0
BLOCK_RECORD
  5
37F
330
1
100
AcDbSymbolTableRecord
100
AcDbBlockTableRecord
  2
block 110
340
0
102
{BLKREFS
331
380
102
}
  0
BLOCK_RECORD
  5
387
330
1
100
AcDbSymbolTableRecord
100
AcDbBlockTableRecord
  2
block 111
340
0
102
{BLKREFS
331
388
102
}
  0
BLOCK_RECORD
  5
38F
330
1
100
AcDbSymbolTableRecord
100
AcDbBlockTableRecord
  2
block 112
340
0
102
{BLKREFS
331
390
102
}
  0
BLOCK_RECORD
  5
3A8
330
1
100
AcDbSymbolTableRecord
100
AcDbBlockTableRecord
  2
block 113
340
0
102
{BLKREFS
331
3A9
102
}
  0
BLOCK_RECORD
  5
3B0
330
1
100
AcDbSymbolTableRecord
100
AcDbBlockTableRecord
  2
block 114
340
0
102
{BLKREFS
331
3B1
102
}
  0
BLOCK_RECORD
  5
3B8
330
1
100
AcDbSymbolTableRecord
100
AcDbBlockTableRecord
  2
block 115
340
0
102
{BLKREFS
331
3B9
102
}
  0
BLOCK_RECORD
  5
3C0
330
1
100
AcDbSymbolTableRecord
100
AcDbBlockTableRecord
  2
block 116
340
0
102
{BLKREFS
331
3C1
102
}
  0
BLOCK_RECORD
  5
3C8
330
1
100
AcDbSymbolTableRecord
100
AcDbBlockTableRecord
  2
block 117
340
0
102
{BLKREFS
331
3C9
102
}
  0
BLOCK_RECORD
  5
3D0
330
1
100
AcDbSymbolTableRecord
100
AcDbBlockTableRecord
  2
block 118
340
0
102
{BLKREFS
331
3D1
102
}
  0
BLOCK_RECORD
  5
3D8
330
1
100
AcDbSymbolTableRecord
100
AcDbBlockTableRecord
  2
block 119
340
0
102
{BLKREFS
331
3D9
102
}
  0
BLOCK_RECORD
  5
3DC
330
1
100
AcDbSymbolTableRecord
100
AcDbBlockTableRecord
  2
block 120
340
0
102
{BLKREFS
331
3DD
102
}
  0
BLOCK_RECORD
  5
3E4
330
1
100
AcDbSymbolTableRecord
100
AcDbBlockTableRecord
  2
block 121
340
0
102
{BLKREFS
331
3E5
102
}
  0
BLOCK_RECORD
  5
3EC
330
1
100
AcDbSymbolTableRecord
100
AcDbBlockTableRecord
  2
block 122
340
0
102
{BLKREFS
331
3ED
102
}
  0
BLOCK_RECORD
  5
3F4
330
1
100
AcDbSymbolTableRecord
100
AcDbBlockTableRecord
  2
block 123
340
0
102
{BLKREFS
331
3F5
102
}
  0
BLOCK_RECORD
  5
3FF
330
1
100
AcDbSymbolTableRecord
100
AcDbBlockTableRecord
  2
block 124
340
0
102
{BLKREFS
331
400
102
}
  0
BLOCK_RECORD
  5
40A
330
1
100
AcDbSymbolTableRecord
100
AcDbBlockTableRecord
  2
block 125
340
0
102
{BLKREFS
331
40B
102
}
  0
BLOCK_RECORD
  5
40F
330
1
100
AcDbSymbolTableRecord
100
AcDbBlockTableRecord
  2
block 126
340
0
102
{BLKREFS
331
410
102
}
  0
BLOCK_RECORD
  5
417
330
1
100
AcDbSymbolTableRecord
100
AcDbBlockTableRecord
  2
block 127
340
0
102
{BLKREFS
331
418
102
}
  0
BLOCK_RECORD
  5
41F
330
1
100
AcDbSymbolTableRecord
100
AcDbBlockTableRecord
  2
block 128
340
0
102
{BLKREFS
331
420
102
}
  0
BLOCK_RECORD
  5
427
330
1
100
AcDbSymbolTableRecord
100
AcDbBlockTableRecord
  2
block 129
340
0
102
{BLKREFS
331
428
102
}
  0
BLOCK_RECORD
  5
42F
330
1
100
AcDbSymbolTableRecord
100
AcDbBlockTableRecord
  2
block 130
340
0
102
{BLKREFS
331
430
102
}
  0
BLOCK_RECORD
  5
437
330
1
100
AcDbSymbolTableRecord
100
AcDbBlockTableRecord
  2
block 131
340
0
102
{BLKREFS
331
438
102
}
  0
BLOCK_RECORD
  5
43F
330
1
100
AcDbSymbolTableRecord
100
AcDbBlockTableRecord
  2
block 132
340
0
102
{BLKREFS
331
440
102
}
  0
BLOCK_RECORD
  5
447
330
1
100
AcDbSymbolTableRecord
100
AcDbBlockTableRecord
  2
block 133
340
0
102
{BLKREFS
331
448
102
}
  0
BLOCK_RECORD
  5
44F
330
1
100
AcDbSymbolTableRecord
100
AcDbBlockTableRecord
  2
block 134
340
0
102
{BLKREFS
331
450
102
}
  0
BLOCK_RECORD
  5
457
330
1
100
AcDbSymbolTableRecord
100
AcDbBlockTableRecord
  2
block 135
340
0
102
{BLKREFS
331
458
102
}
  0
BLOCK_RECORD
  5
45F
330
1
100
AcDbSymbolTableRecord
100
AcDbBlockTableRecord
  2
block 136
340
0
102
{BLKREFS
331
460
102
}
  0
BLOCK_RECORD
  5
467
330
1
100
AcDbSymbolTableRecord
100
AcDbBlockTableRecord
  2
block 137
340
0
102
{BLKREFS
331
468
102
}
  0
BLOCK_RECORD
  5
46F
330
1
100
AcDbSymbolTableRecord
100
AcDbBlockTableRecord
  2
block 138
340
0
102
{BLKREFS
331
470
102
}
  0
BLOCK_RECORD
  5
474
330
1
100
AcDbSymbolTableRecord
100
AcDbBlockTableRecord
  2
block 139
340
0
102
{BLKREFS
331
475
102
}
  0
BLOCK_RECORD
  5
479
330
1
100
AcDbSymbolTableRecord
100
AcDbBlockTableRecord
  2
block 140
340
0
102
{BLKREFS
331
47A
102
}
  0
BLOCK_RECORD
  5
481
330
1
100
AcDbSymbolTableRecord
100
AcDbBlockTableRecord
  2
block 141
340
0
102
{BLKREFS
331
482
102
}
  0
BLOCK_RECORD
  5
489
330
1
100
AcDbSymbolTableRecord
100
AcDbBlockTableRecord
  2
block 142
340
0
102
{BLKREFS
331
48A
102
}
  0
BLOCK_RECORD
  5
491
330
1
100
AcDbSymbolTableRecord
100
AcDbBlockTableRecord
  2
block 143
340
0
102
{BLKREFS
331
492
102
}
  0
BLOCK_RECORD
  5
499
330
1
100
AcDbSymbolTableRecord
100
AcDbBlockTableRecord
  2
block 144
340
0
102
{BLKREFS
331
49A
102
}
  0
BLOCK_RECORD
  5
49E
330
1
100
AcDbSymbolTableRecord
100
AcDbBlockTableRecord
  2
block 145
340
0
102
{BLKREFS
331
49F
102
}
  0
BLOCK_RECORD
  5
4A3
330
1
100
AcDbSymbolTableRecord
100
AcDbBlockTableRecord
  2
block 146
340
0
102
{BLKREFS
331
4A4
102
}
  0
BLOCK_RECORD
  5
4AC
330
1
100
AcDbSymbolTableRecord
100
AcDbBlockTableRecord
  2
block 147
340
0
102
{BLKREFS
331
4AD
102
}
  0
BLOCK_RECORD
  5
4B5
330
1
100
AcDbSymbolTableRecord
100
AcDbBlockTableRecord
  2
block 148
340
0
102
{BLKREFS
331
4B6
102
}
  0
BLOCK_RECORD
  5
4BE
330
1
100
AcDbSymbolTableRecord
100
AcDbBlockTableRecord
  2
block 149
340
0
102
{BLKREFS
331
4BF
102
}
  0
BLOCK_RECORD
  5
4C6
330
1
100
AcDbSymbolTableRecord
100
AcDbBlockTableRecord
  2
block 150
340
0
102
{BLKREFS
331
4C7
102
}
  0
BLOCK_RECORD
  5
4CE
330
1
100
AcDbSymbolTableRecord
100
AcDbBlockTableRecord
  2
block 151
340
0
102
{BLKREFS
331
4CF
102
}
  0
BLOCK_RECORD
  5
4D3
330
1
100
AcDbSymbolTableRecord
100
AcDbBlockTableRecord
  2
block 152
340
0
102
{BLKREFS
331
4D4
102
}
  0
BLOCK_RECORD
  5
4D8
330
1
100
AcDbSymbolTableRecord
100
AcDbBlockTableRecord
  2
block 153
340
0
102
{BLKREFS
331
4D9
102
}
  0
BLOCK_RECORD
  5
4E0
330
1
100
AcDbSymbolTableRecord
100
AcDbBlockTableRecord
  2
block 154
340
0
102
{BLKREFS
331
4E1
102
}
  0
BLOCK_RECORD
  5
4E8
330
1
100
AcDbSymbolTableRecord
100
AcDbBlockTableRecord
  2
block 155
340
0
102
{BLKREFS
331
4E9
102
}
  0
BLOCK_RECORD
  5
4F0
330
1
100
AcDbSymbolTableRecord
100
AcDbBlockTableRecord
  2
block 156
340
0
102
{BLKREFS
331
4F1
102
}
  0
BLOCK_RECORD
  5
4F8
330
1
100
AcDbSymbolTableRecord
100
AcDbBlockTableRecord
  2
block 157
340
0
102
{BLKREFS
331
4F9
102
}
  0
BLOCK_RECORD
  5
4FD
330
1
100
AcDbSymbolTableRecord
100
AcDbBlockTableRecord
  2
block 158
340
0
102
{BLKREFS
331
4FE
102
}
  0
BLOCK_RECORD
  5
502
330
1
100
AcDbSymbolTableRecord
100
AcDbBlockTableRecord
  2
block 159
340
0
102
{BLKREFS
331
503
102
}
  0
BLOCK_RECORD
  5
50A
330
1
100
AcDbSymbolTableRecord
100
AcDbBlockTableRecord
  2
block 160
340
0
102
{BLKREFS
331
50B
102
}
  0
BLOCK_RECORD
  5
512
330
1
100
AcDbSymbolTableRecord
100
AcDbBlockTableRecord
  2
block 161
340
0
102
{BLKREFS
331
513
102
}
  0
BLOCK_RECORD
  5
51A
330
1
100
AcDbSymbolTableRecord
100
AcDbBlockTableRecord
  2
block 162
340
0
102
{BLKREFS
331
51B
102
}
  0
BLOCK_RECORD
  5
522
330
1
100
AcDbSymbolTableRecord
100
AcDbBlockTableRecord
  2
block 163
340
0
102
{BLKREFS
331
523
102
}
  0
BLOCK_RECORD
  5
52A
330
1
100
AcDbSymbolTableRecord
100
AcDbBlockTableRecord
  2
block 164
340
0
102
{BLKREFS
331
52B
102
}
  0
BLOCK_RECORD
  5
532
330
1
100
AcDbSymbolTableRecord
100
AcDbBlockTableRecord
  2
block 165
340
0
102
{BLKREFS
331
533
102
}
  0
BLOCK_RECORD
  5
537
330
1
100
AcDbSymbolTableRecord
100
AcDbBlockTableRecord
  2
block 166
340
0
102
{BLKREFS
331
538
102
}
  0
BLOCK_RECORD
  5
53C
330
1
100
AcDbSymbolTableRecord
100
AcDbBlockTableRecord
  2
block 167
340
0
102
{BLKREFS
331
53D
102
}
  0
BLOCK_RECORD
  5
541
330
1
100
AcDbSymbolTableRecord
100
AcDbBlockTableRecord
  2
block 168
340
0
102
{BLKREFS
331
542
102
}
  0
BLOCK_RECORD
  5
546
330
1
100
AcDbSymbolTableRecord
100
AcDbBlockTableRecord
  2
block 169
340
0
102
{BLKREFS
331
547
102
}
  0
BLOCK_RECORD
  5
54B
330
1
100
AcDbSymbolTableRecord
100
AcDbBlockTableRecord
  2
block 170
340
0
102
{BLKREFS
331
54C
102
}
  0
BLOCK_RECORD
  5
553
330
1
100
AcDbSymbolTableRecord
100
AcDbBlockTableRecord
  2
block 171
340
0
102
{BLKREFS
331
554
102
}
  0
BLOCK_RECORD
  5
56C
330
1
100
AcDbSymbolTableRecord
100
AcDbBlockTableRecord
  2
block 172
340
0
102
{BLKREFS
331
56D
102
}
  0
BLOCK_RECORD
  5
574
330
1
100
AcDbSymbolTableRecord
100
AcDbBlockTableRecord
  2
block 173
340
0
102
{BLKREFS
331
575
102
}
  0
BLOCK_RECORD
  5
57C
330
1
100
AcDbSymbolTableRecord
100
AcDbBlockTableRecord
  2
block 174
340
0
102
{BLKREFS
331
57D
102
}
  0
BLOCK_RECORD
  5
584
330
1
100
AcDbSymbolTableRecord
100
AcDbBlockTableRecord
  2
block 175
340
0
102
{BLKREFS
331
585
102
}
  0
BLOCK_RECORD
  5
58C
330
1
100
AcDbSymbolTableRecord
100
AcDbBlockTableRecord
  2
block 176
340
0
102
{BLKREFS
331
58D
102
}
  0
BLOCK_RECORD
  5
594
330
1
100
AcDbSymbolTableRecord
100
AcDbBlockTableRecord
  2
block 177
340
0
102
{BLKREFS
331
595
102
}
  0
BLOCK_RECORD
  5
59C
330
1
100
AcDbSymbolTableRecord
100
AcDbBlockTableRecord
  2
block 178
340
0
102
{BLKREFS
331
59D
102
}
  0
BLOCK_RECORD
  5
5A4
330
1
100
AcDbSymbolTableRecord
100
AcDbBlockTableRecord
  2
block 179
340
0
102
{BLKREFS
331
5A5
102
}
  0
BLOCK_RECORD
  5
5AC
330
1
100
AcDbSymbolTableRecord
100
AcDbBlockTableRecord
  2
block 180
340
0
102
{BLKREFS
331
5AD
102
}
  0
BLOCK_RECORD
  5
5B4
330
1
100
AcDbSymbolTableRecord
100
AcDbBlockTableRecord
  2
block 181
340
0
102
{BLKREFS
331
5B5
102
}
  0
BLOCK_RECORD
  5
5BC
330
1
100
AcDbSymbolTableRecord
100
AcDbBlockTableRecord
  2
block 182
340
0
102
{BLKREFS
331
5BD
102
}
  0
BLOCK_RECORD
  5
5D5
330
1
100
AcDbSymbolTableRecord
100
AcDbBlockTableRecord
  2
block 183
340
0
102
{BLKREFS
331
5D6
102
}
  0
BLOCK_RECORD
  5
5DD
330
1
100
AcDbSymbolTableRecord
100
AcDbBlockTableRecord
  2
block 184
340
0
102
{BLKREFS
331
5DE
102
}
  0
BLOCK_RECORD
  5
5E5
330
1
100
AcDbSymbolTableRecord
100
AcDbBlockTableRecord
  2
block 185
340
0
102
{BLKREFS
331
5E6
102
}
  0
BLOCK_RECORD
  5
5ED
330
1
100
AcDbSymbolTableRecord
100
AcDbBlockTableRecord
  2
block 186
340
0
102
{BLKREFS
331
5EE
102
}
  0
BLOCK_RECORD
  5
5F5
330
1
100
AcDbSymbolTableRecord
100
AcDbBlockTableRecord
  2
block 187
340
0
102
{BLKREFS
331
5F6
102
}
  0
BLOCK_RECORD
  5
5FD
330
1
100
AcDbSymbolTableRecord
100
AcDbBlockTableRecord
  2
block 188
340
0
102
{BLKREFS
331
5FE
102
}
  0
BLOCK_RECORD
  5
605
330
1
100
AcDbSymbolTableRecord
100
AcDbBlockTableRecord
  2
block 189
340
0
102
{BLKREFS
331
606
102
}
  0
BLOCK_RECORD
  5
60D
330
1
100
AcDbSymbolTableRecord
100
AcDbBlockTableRecord
  2
block 190
340
0
102
{BLKREFS
331
60E
102
}
  0
BLOCK_RECORD
  5
626
330
1
100
AcDbSymbolTableRecord
100
AcDbBlockTableRecord
  2
block 191
340
0
102
{BLKREFS
331
627
102
}
  0
BLOCK_RECORD
  5
62E
330
1
100
AcDbSymbolTableRecord
100
AcDbBlockTableRecord
  2
block 192
340
0
102
{BLKREFS
331
62F
102
}
  0
BLOCK_RECORD
  5
636
330
1
100
AcDbSymbolTableRecord
100
AcDbBlockTableRecord
  2
block 193
340
0
102
{BLKREFS
331
637
102
}
  0
BLOCK_RECORD
  5
63E
330
1
100
AcDbSymbolTableRecord
100
AcDbBlockTableRecord
  2
block 194
340
0
102
{BLKREFS
331
63F
102
}
  0
BLOCK_RECORD
  5
646
330
1
100
AcDbSymbolTableRecord
100
AcDbBlockTableRecord
  2
block 195
340
0
102
{BLKREFS
331
647
102
}
  0
BLOCK_RECORD
  5
64E
330
1
100
AcDbSymbolTableRecord
100
AcDbBlockTableRecord
  2
block 196
340
0
102
{BLKREFS
331
64F
102
}
  0
BLOCK_RECORD
  5
656
330
1
100
AcDbSymbolTableRecord
100
AcDbBlockTableRecord
  2
block 197
340
0
102
{BLKREFS
331
657
102
}
  0
BLOCK_RECORD
  5
66F
330
1
100
AcDbSymbolTableRecord
100
AcDbBlockTableRecord
  2
block 198
340
0
102
{BLKREFS
331
670
102
}
  0
BLOCK_RECORD
  5
677
330
1
100
AcDbSymbolTableRecord
100
AcDbBlockTableRecord
  2
block 199
340
0
102
{BLKREFS
331
678
102
}
  0
BLOCK_RECORD
  5
67F
330
1
100
AcDbSymbolTableRecord
100
AcDbBlockTableRecord
  2
block 200
340
0
102
{BLKREFS
331
680
102
}
  0
BLOCK_RECORD
  5
687
330
1
100
AcDbSymbolTableRecord
100
AcDbBlockTableRecord
  2
block 201
340
0
102
{BLKREFS
331
688
102
}
  0
BLOCK_RECORD
  5
68F
330
1
100
AcDbSymbolTableRecord
100
AcDbBlockTableRecord
  2
block 202
340
0
102
{BLKREFS
331
690
102
}
  0
BLOCK_RECORD
  5
697
330
1
100
AcDbSymbolTableRecord
100
AcDbBlockTableRecord
  2
block 203
340
0
102
{BLKREFS
331
698
102
}
  0
BLOCK_RECORD
  5
69F
330
1
100
AcDbSymbolTableRecord
100
AcDbBlockTableRecord
  2
block 204
340
0
102
{BLKREFS
331
6A0
102
}
  0
BLOCK_RECORD
  5
6A3
330
1
100
AcDbSymbolTableRecord
100
AcDbBlockTableRecord
  2
block 205
340
0
102
{BLKREFS
331
6A4
102
}
  0
BLOCK_RECORD
  5
6AB
330
1
100
AcDbSymbolTableRecord
100
AcDbBlockTableRecord
  2
block 206
340
0
102
{BLKREFS
331
6AC
102
}
  0
BLOCK_RECORD
  5
6B3
330
1
100
AcDbSymbolTableRecord
100
AcDbBlockTableRecord
  2
block 207
340
0
102
{BLKREFS
331
6B4
102
}
  0
BLOCK_RECORD
  5
6BB
330
1
100
AcDbSymbolTableRecord
100
AcDbBlockTableRecord
  2
block 208
340
0
102
{BLKREFS
331
6BC
102
}
  0
BLOCK_RECORD
  5
6C6
330
1
100
AcDbSymbolTableRecord
100
AcDbBlockTableRecord
  2
block 209
340
0
102
{BLKREFS
331
6C7
102
}
  0
BLOCK_RECORD
  5
6D1
330
1
100
AcDbSymbolTableRecord
100
AcDbBlockTableRecord
  2
block 210
340
0
102
{BLKREFS
331
6D2
102
}
  0
BLOCK_RECORD
  5
6D6
330
1
100
AcDbSymbolTableRecord
100
AcDbBlockTableRecord
  2
block 211
340
0
102
{BLKREFS
331
6D7
102
}
  0
BLOCK_RECORD
  5
6DE
330
1
100
AcDbSymbolTableRecord
100
AcDbBlockTableRecord
  2
block 212
340
0
102
{BLKREFS
331
6DF
102
}
  0
BLOCK_RECORD
  5
6E6
330
1
100
AcDbSymbolTableRecord
100
AcDbBlockTableRecord
  2
block 213
340
0
102
{BLKREFS
331
6E7
102
}
  0
ENDTAB
  0
ENDSEC
  0
SECTION
  2
BLOCKS
  0
BLOCK
  5
20
330
1F
100
AcDbEntity
  8
0
100
AcDbBlockBegin
  2
*Model_Space
 70
     0
 71
     0
 10
0.0
 20
0.0
 30
0.0
  3
*Model_Space
  1

  0
ENDBLK
  5
21
330
1F
100
AcDbEntity
  8
0
100
AcDbBlockEnd
  0
BLOCK
  5
1C
330
1B
100
AcDbEntity
 67
     1
  8
0
100
AcDbBlockBegin
  2
*Paper_Space
 70
     0
 71
     0
 10
0.0
 20
0.0
 30
0.0
  3
*Paper_Space
  1

  0
ENDBLK
  5
1D
330
1B
100
AcDbEntity
 67
     1
  8
0
100
AcDbBlockEnd
  0
BLOCK
  5
24
330
23
100
AcDbEntity
  8
0
100
AcDbBlockBegin
  2
*Paper_Space0
 70
     0
 71
     0
 10
0.0
 20
0.0
 30
0.0
  3
*Paper_Space0
  1

  0
ENDBLK
  5
25
330
23
100
AcDbEntity
  8
0
100
AcDbBlockEnd
  0
BLOCK
  5
3D
330
3B
100
AcDbEntity
  8
0
100
AcDbBlockBegin
  2
block 2
 70
     0
 71
     0
 10
0.0
 20
0.0
 30
0.0
  3
block 2
  1

  0
SPLINE
  5
3F
330
3B
100
AcDbEntity
  8
0
 62
     7
420
 16777215
370
     9
100
AcDbSpline
210
0.0
220
0.0
230
1.0
 70
     8
 71
     3
 72
     8
 73
     4
 74
     0
 42
0.0000000001
 43
0.0000000001
 40
0.0
 40
0.0
 40
0.0
 40
0.0
 40
1.0
 40
1.0
 40
1.0
 40
1.0
 10
52.81765500175014
 20
166.1560313371648
 30
0.0
 10
53.71251914438069
 20
165.1486847527368
 30
0.0
 10
55.57080487502522
 20
164.3788776587203
 30
0.0
 10
56.91594329462136
 20
164.4584594169292
 30
0.0
  0
ENDBLK
  5
3E
330
3B
100
AcDbEntity
  8
0
100
AcDbBlockEnd
  0
BLOCK
  5
42
330
40
100
AcDbEntity
  8
0
100
AcDbBlockBegin
  2
block 3
 70
     0
 71
     0
 10
0.0
 20
0.0
 30
0.0
  3
block 3
  1

  0
SPLINE
  5
44
330
40
100
AcDbEntity
  8
0
 62
     7
420
 16777215
370
     9
100
AcDbSpline
210
0.0
220
0.0
230
1.0
 70
     8
 71
     3
 72
     8
 73
     4
 74
     0
 42
0.0000000001
 43
0.0000000001
 40
0.0
 40
0.0
 40
0.0
 40
0.0
 40
1.0
 40
1.0
 40
1.0
 40
1.0
 10
49.59769438227124
 20
162.936070717686
 30
0.0
 10
51.19570297730177
 20
161.1372129233663
 30
0.0
 10
54.51419339265837
 20
159.7627911728274
 30
0.0
 10
56.91594329462136
 20
159.9047292004555
 30
0.0
  0
ENDBLK
  5
43
330
40
100
AcDbEntity
  8
0
100
AcDbBlockEnd
  0
BLOCK
  5
47
330
45
100
AcDbEntity
  8
0
100
AcDbBlockBegin
  2
block 4
 70
     0
 71
     0
 10
0.0
 20
0.0
 30
0.0
  3
block 4
  1

  0
POLYLINE
  5
49
330
45
100
AcDbEntity
  8
0
 62
     7
420
 16777215
370
     9
100
AcDb2dPolyline
 66
     1
 10
0.0
 20
0.0
 30
0.0
  0
VERTEX
  5
4A
330
49
100
AcDbEntity
  8
0
 62
     7
420
 16777215
370
     9
100
AcDbVertex
100
AcDb2dVertex
 10
101.3857819190545
 20
164.4584594169292
 30
0.0
  0
VERTEX
  5
4B
330
49
100
AcDbEntity
  8
0
 62
     7
420
 16777215
370
     9
100
AcDbVertex
100
AcDb2dVertex
 10
56.91594329462136
 20
164.4584594169292
 30
0.0
  0
SEQEND
  5
4C
330
49
100
AcDbEntity
  8
0
370
     9
  0
ENDBLK
  5
48
330
45
100
AcDbEntity
  8
0
100
AcDbBlockEnd
  0
BLOCK
  5
4F
330
4D
100
AcDbEntity
  8
0
100
AcDbBlockBegin
  2
block 5
 70
     0
 71
     0
 10
0.0
 20
0.0
 30
0.0
  3
block 5
  1

  0
POLYLINE
  5
51
330
4D
100
AcDbEntity
  8
0
 62
     7
420
 16777215
370
     9
100
AcDb2dPolyline
 66
     1
 10
0.0
 20
0.0
 30
0.0
  0
VERTEX
  5
52
330
51
100
AcDbEntity
  8
0
 62
     7
420
 16777215
370
     9
100
AcDbVertex
100
AcDb2dVertex
 10
56.91594329462136
 20
159.9047292004555
 30
0.0
  0
VERTEX
  5
53
330
51
100
AcDbEntity
  8
0
 62
     7
420
 16777215
370
     9
100
AcDbVertex
100
AcDb2dVertex
 10
101.3857819190545
 20
159.9047292004555
 30
0.0
  0
SEQEND
  5
54
330
51
100
AcDbEntity
  8
0
370
     9
  0
ENDBLK
  5
50
330
4D
100
AcDbEntity
  8
0
100
AcDbBlockEnd
  0
BLOCK
  5
57
330
55
100
AcDbEntity
  8
0
100
AcDbBlockBegin
  2
block 6
 70
     0
 71
     0
 10
0.0
 20
0.0
 30
0.0
  3
block 6
  1

  0
POLYLINE
  5
59
330
55
100
AcDbEntity
  8
0
 62
     7
420
 16777215
370
     9
100
AcDb2dPolyline
 66
     1
 10
0.0
 20
0.0
 30
0.0
  0
VERTEX
  5
5A
330
59
100
AcDbEntity
  8
0
 62
     7
420
 16777215
370
     9
100
AcDbVertex
100
AcDb2dVertex
 10
18.15273685136383
 20
194.3812005034813
 30
0.0
  0
VERTEX
  5
5B
330
59
100
AcDbEntity
  8
0
 62
     7
420
 16777215
370
     9
100
AcDbVertex
100
AcDb2dVertex
 10
49.59769438227124
 20
162.936070717686
 30
0.0
  0
SEQEND
  5
5C
330
59
100
AcDbEntity
  8
0
370
     9
  0
ENDBLK
  5
58
330
55
100
AcDbEntity
  8
0
100
AcDbBlockEnd
  0
BLOCK
  5
5F
330
5D
100
AcDbEntity
  8
0
100
AcDbBlockBegin
  2
block 7
 70
     0
 71
     0
 10
0.0
 20
0.0
 30
0.0
  3
block 7
  1

  0
POLYLINE
  5
61
330
5D
100
AcDbEntity
  8
0
 62
     7
420
 16777215
370
     9
100
AcDb2dPolyline
 66
     1
 10
0.0
 20
0.0
 30
0.0
  0
VERTEX
  5
62
330
61
100
AcDbEntity
  8
0
 62
     7
420
 16777215
370
     9
100
AcDbVertex
100
AcDb2dVertex
 10
52.81765500175014
 20
166.1560313371648
 30
0.0
  0
VERTEX
  5
63
330
61
100
AcDbEntity
  8
0
 62
     7
420
 16777215
370
     9
100
AcDbVertex
100
AcDb2dVertex
 10
21.37269747084272
 20
197.6011611229601
 30
0.0
  0
SEQEND
  5
64
330
61
100
AcDbEntity
  8
0
370
     9
  0
ENDBLK
  5
60
330
5D
100
AcDbEntity
  8
0
100
AcDbBlockEnd
  0
BLOCK
  5
67
330
65
100
AcDbEntity
  8
0
100
AcDbBlockBegin
  2
block 8
 70
     0
 71
     0
 10
0.0
 20
0.0
 30
0.0
  3
block 8
  1

  0
POLYLINE
  5
69
330
65
100
AcDbEntity
  8
0
 62
     7
420
 16777215
370
     9
100
AcDb2dPolyline
 66
     1
 10
0.0
 20
0.0
 30
0.0
  0
VERTEX
  5
6A
330
69
100
AcDbEntity
  8
0
 62
     7
420
 16777215
370
     9
100
AcDbVertex
100
AcDb2dVertex
 10
15.07919288659831
 20
197.4545722133589
 30
0.0
  0
VERTEX
  5
6B
330
69
100
AcDbEntity
  8
0
 62
     7
420
 16777215
370
     9
100
AcDbVertex
100
AcDb2dVertex
 10
17.85990354193709
 20
194.6738615580201
 30
0.0
  0
SEQEND
  5
6C
330
69
100
AcDbEntity
  8
0
370
     9
  0
ENDBLK
  5
68
330
65
100
AcDbEntity
  8
0
100
AcDbBlockEnd
  0
BLOCK
  5
6F
330
6D
100
AcDbEntity
  8
0
100
AcDbBlockBegin
  2
block 9
 70
     0
 71
     0
 10
0.0
 20
0.0
 30
0.0
  3
block 9
  1

  0
POLYLINE
  5
71
330
6D
100
AcDbEntity
  8
0
 62
     7
420
 16777215
370
     9
100
AcDb2dPolyline
 66
     1
 10
0.0
 20
0.0
 30
0.0
  0
VERTEX
  5
72
330
71
100
AcDbEntity
  8
0
 62
     7
420
 16777215
370
     9
100
AcDbVertex
100
AcDb2dVertex
 10
21.07986416141598
 20
197.893822177499
 30
0.0
  0
VERTEX
  5
73
330
71
100
AcDbEntity
  8
0
 62
     7
420
 16777215
370
     9
100
AcDbVertex
100
AcDb2dVertex
 10
18.2991535060772
 20
200.6745328328378
 30
0.0
  0
SEQEND
  5
74
330
71
100
AcDbEntity
  8
0
370
     9
  0
ENDBLK
  5
70
330
6D
100
AcDbEntity
  8
0
100
AcDbBlockEnd
  0
BLOCK
  5
77
330
75
100
AcDbEntity
  8
0
100
AcDbBlockBegin
  2
block 10
 70
     0
 71
     0
 10
0.0
 20
0.0
 30
0.0
  3
block 10
  1

  0
POLYLINE
  5
79
330
75
100
AcDbEntity
  8
0
 62
     7
420
 16777215
370
     9
100
AcDb2dPolyline
 66
     1
 10
0.0
 20
0.0
 30
0.0
  0
VERTEX
  5
7A
330
79
100
AcDbEntity
  8
0
 62
     7
420
 16777215
370
     9
100
AcDbVertex
100
AcDb2dVertex
 10
17.85990354193709
 20
194.6738615580201
 30
0.0
  0
VERTEX
  5
7B
330
79
100
AcDbEntity
  8
0
 62
     7
420
 16777215
370
     9
100
AcDbVertex
100
AcDb2dVertex
 10
18.15273685136383
 20
194.3812005034813
 30
0.0
  0
SEQEND
  5
7C
330
79
100
AcDbEntity
  8
0
370
     9
  0
ENDBLK
  5
78
330
75
100
AcDbEntity
  8
0
100
AcDbBlockEnd
  0
BLOCK
  5
7F
330
7D
100
AcDbEntity
  8
0
100
AcDbBlockBegin
  2
block 11
 70
     0
 71
     0
 10
0.0
 20
0.0
 30
0.0
  3
block 11
  1

  0
POLYLINE
  5
81
330
7D
100
AcDbEntity
  8
0
 62
     7
420
 16777215
370
     9
100
AcDb2dPolyline
 66
     1
 10
0.0
 20
0.0
 30
0.0
  0
VERTEX
  5
82
330
81
100
AcDbEntity
  8
0
 62
     7
420
 16777215
370
     9
100
AcDbVertex
100
AcDb2dVertex
 10
21.37269747084272
 20
197.6011611229601
 30
0.0
  0
VERTEX
  5
83
330
81
100
AcDbEntity
  8
0
 62
     7
420
 16777215
370
     9
100
AcDbVertex
100
AcDb2dVertex
 10
21.07986416141598
 20
197.893822177499
 30
0.0
  0
SEQEND
  5
84
330
81
100
AcDbEntity
  8
0
370
     9
  0
ENDBLK
  5
80
330
7D
100
AcDbEntity
  8
0
100
AcDbBlockEnd
  0
BLOCK
  5
87
330
85
100
AcDbEntity
  8
0
100
AcDbBlockBegin
  2
block 12
 70
     0
 71
     0
 10
0.0
 20
0.0
 30
0.0
  3
block 12
  1

  0
POLYLINE
  5
89
330
85
100
AcDbEntity
  8
0
 62
     7
420
 16777215
370
     9
100
AcDb2dPolyline
 66
     1
 10
0.0
 20
0.0
 30
0.0
  0
VERTEX
  5
8A
330
89
100
AcDbEntity
  8
0
 62
     7
420
 16777215
370
     9
100
AcDbVertex
100
AcDb2dVertex
 10
101.7998826695615
 20
164.4584594169292
 30
0.0
  0
VERTEX
  5
8B
330
89
100
AcDbEntity
  8
0
 62
     7
420
 16777215
370
     9
100
AcDbVertex
100
AcDb2dVertex
 10
101.3857819190545
 20
164.4584594169292
 30
0.0
  0
SEQEND
  5
8C
330
89
100
AcDbEntity
  8
0
370
     9
  0
ENDBLK
  5
88
330
85
100
AcDbEntity
  8
0
100
AcDbBlockEnd
  0
BLOCK
  5
8F
330
8D
100
AcDbEntity
  8
0
100
AcDbBlockBegin
  2
block 13
 70
     0
 71
     0
 10
0.0
 20
0.0
 30
0.0
  3
block 13
  1

  0
POLYLINE
  5
91
330
8D
100
AcDbEntity
  8
0
 62
     7
420
 16777215
370
     9
100
AcDb2dPolyline
 66
     1
 10
0.0
 20
0.0
 30
0.0
  0
VERTEX
  5
92
330
91
100
AcDbEntity
  8
0
 62
     7
420
 16777215
370
     9
100
AcDbVertex
100
AcDb2dVertex
 10
101.3857819190545
 20
159.9047292004555
 30
0.0
  0
VERTEX
  5
93
330
91
100
AcDbEntity
  8
0
 62
     7
420
 16777215
370
     9
100
AcDbVertex
100
AcDb2dVertex
 10
101.7998826695615
 20
159.9047292004555
 30
0.0
  0
SEQEND
  5
94
330
91
100
AcDbEntity
  8
0
370
     9
  0
ENDBLK
  5
90
330
8D
100
AcDbEntity
  8
0
100
AcDbBlockEnd
  0
BLOCK
  5
97
330
95
100
AcDbEntity
  8
0
100
AcDbBlockBegin
  2
block 14
 70
     0
 71
     0
 10
0.0
 20
0.0
 30
0.0
  3
block 14
  1

  0
POLYLINE
  5
99
330
95
100
AcDbEntity
  8
0
 62
     7
420
 16777215
370
     9
100
AcDb2dPolyline
 66
     1
 10
0.0
 20
0.0
 30
0.0
  0
VERTEX
  5
9A
330
99
100
AcDbEntity
  8
0
 62
     7
420
 16777215
370
     9
100
AcDbVertex
100
AcDb2dVertex
 10
105.7326340151627
 20
164.4584594169292
 30
0.0
  0
VERTEX
  5
9B
330
99
100
AcDbEntity
  8
0
 62
     7
420
 16777215
370
     9
100
AcDbVertex
100
AcDb2dVertex
 10
101.7998826695615
 20
164.4584594169292
 30
0.0
  0
SEQEND
  5
9C
330
99
100
AcDbEntity
  8
0
370
     9
  0
ENDBLK
  5
98
330
95
100
AcDbEntity
  8
0
100
AcDbBlockEnd
  0
BLOCK
  5
9F
330
9D
100
AcDbEntity
  8
0
100
AcDbBlockBegin
  2
block 15
 70
     0
 71
     0
 10
0.0
 20
0.0
 30
0.0
  3
block 15
  1

  0
POLYLINE
  5
A1
330
9D
100
AcDbEntity
  8
0
 62
     7
420
 16777215
370
     9
100
AcDb2dPolyline
 66
     1
 10
0.0
 20
0.0
 30
0.0
  0
VERTEX
  5
A2
330
A1
100
AcDbEntity
  8
0
 62
     7
420
 16777215
370
     9
100
AcDbVertex
100
AcDb2dVertex
 10
101.7998826695615
 20
159.9047292004555
 30
0.0
  0
VERTEX
  5
A3
330
A1
100
AcDbEntity
  8
0
 62
     7
420
 16777215
370
     9
100
AcDbVertex
100
AcDb2dVertex
 10
105.7326340151627
 20
159.9047292004555
 30
0.0
  0
SEQEND
  5
A4
330
A1
100
AcDbEntity
  8
0
370
     9
  0
ENDBLK
  5
A0
330
9D
100
AcDbEntity
  8
0
100
AcDbBlockEnd
  0
BLOCK
  5
A7
330
A5
100
AcDbEntity
  8
0
100
AcDbBlockBegin
  2
block 16
 70
     0
 71
     0
 10
0.0
 20
0.0
 30
0.0
  3
block 16
  1

  0
POLYLINE
  5
A9
330
A5
100
AcDbEntity
  8
0
 62
     7
420
 16777215
370
     9
100
AcDb2dPolyline
 66
     1
 10
0.0
 20
0.0
 30
0.0
  0
VERTEX
  5
AA
330
A9
100
AcDbEntity
  8
0
 62
     7
420
 16777215
370
     9
100
AcDbVertex
100
AcDb2dVertex
 10
101.3857819190545
 20
162.1815943086924
 30
0.0
  0
VERTEX
  5
AB
330
A9
100
AcDbEntity
  8
0
 62
     7
420
 16777215
370
     9
100
AcDbVertex
100
AcDb2dVertex
 10
101.3857819190545
 20
164.4584594169292
 30
0.0
  0
SEQEND
  5
AC
330
A9
100
AcDbEntity
  8
0
370
     9
  0
ENDBLK
  5
A8
330
A5
100
AcDbEntity
  8
0
100
AcDbBlockEnd
  0
BLOCK
  5
AF
330
AD
100
AcDbEntity
  8
0
100
AcDbBlockBegin
  2
block 17
 70
     0
 71
     0
 10
0.0
 20
0.0
 30
0.0
  3
block 17
  1

  0
POLYLINE
  5
B1
330
AD
100
AcDbEntity
  8
0
 62
     7
420
 16777215
370
     9
100
AcDb2dPolyline
 66
     1
 10
0.0
 20
0.0
 30
0.0
  0
VERTEX
  5
B2
330
B1
100
AcDbEntity
  8
0
 62
     7
420
 16777215
370
     9
100
AcDbVertex
100
AcDb2dVertex
 10
101.3857819190545
 20
159.9047292004555
 30
0.0
  0
VERTEX
  5
B3
330
B1
100
AcDbEntity
  8
0
 62
     7
420
 16777215
370
     9
100
AcDbVertex
100
AcDb2dVertex
 10
101.3857819190545
 20
162.1815943086924
 30
0.0
  0
SEQEND
  5
B4
330
B1
100
AcDbEntity
  8
0
370
     9
  0
ENDBLK
  5
B0
330
AD
100
AcDbEntity
  8
0
100
AcDbBlockEnd
  0
BLOCK
  5
B7
330
B5
100
AcDbEntity
  8
0
100
AcDbBlockBegin
  2
block 18
 70
     0
 71
     0
 10
0.0
 20
0.0
 30
0.0
  3
block 18
  1

  0
POLYLINE
  5
B9
330
B5
100
AcDbEntity
  8
0
 62
     7
420
 16777215
370
     9
100
AcDb2dPolyline
 66
     1
 10
0.0
 20
0.0
 30
0.0
  0
VERTEX
  5
BA
330
B9
100
AcDbEntity
  8
0
 62
     7
420
 16777215
370
     9
100
AcDbVertex
100
AcDb2dVertex
 10
19.76280328854723
 20
195.9910946857768
 30
0.0
  0
VERTEX
  5
BB
330
B9
100
AcDbEntity
  8
0
 62
     7
420
 16777215
370
     9
100
AcDbVertex
100
AcDb2dVertex
 10
21.37269747084272
 20
197.6011611229601
 30
0.0
  0
SEQEND
  5
BC
330
B9
100
AcDbEntity
  8
0
370
     9
  0
ENDBLK
  5
B8
330
B5
100
AcDbEntity
  8
0
100
AcDbBlockEnd
  0
BLOCK
  5
BF
330
BD
100
AcDbEntity
  8
0
100
AcDbBlockBegin
  2
block 19
 70
     0
 71
     0
 10
0.0
 20
0.0
 30
0.0
  3
block 19
  1

  0
POLYLINE
  5
C1
330
BD
100
AcDbEntity
  8
0
 62
     7
420
 16777215
370
     9
100
AcDb2dPolyline
 66
     1
 10
0.0
 20
0.0
 30
0.0
  0
VERTEX
  5
C2
330
C1
100
AcDbEntity
  8
0
 62
     7
420
 16777215
370
     9
100
AcDbVertex
100
AcDb2dVertex
 10
18.15273685136383
 20
194.3812005034813
 30
0.0
  0
VERTEX
  5
C3
330
C1
100
AcDbEntity
  8
0
 62
     7
420
 16777215
370
     9
100
AcDbVertex
100
AcDb2dVertex
 10
19.76280328854723
 20
195.9910946857768
 30
0.0
  0
SEQEND
  5
C4
330
C1
100
AcDbEntity
  8
0
370
     9
  0
ENDBLK
  5
C0
330
BD
100
AcDbEntity
  8
0
100
AcDbBlockEnd
  0
BLOCK
  5
C7
330
C5
100
AcDbEntity
  8
0
100
AcDbBlockBegin
  2
block 20
 70
     0
 71
     0
 10
0.0
 20
0.0
 30
0.0
  3
block 20
  1

  0
SPLINE
  5
C9
330
C5
100
AcDbEntity
  8
0
 62
     7
420
 16777215
370
     9
100
AcDbSpline
210
0.0
220
0.0
230
1.0
 70
     8
 71
     3
 72
    14
 73
    10
 74
     0
 42
0.0000000001
 43
0.0000000001
 40
0.0
 40
0.0
 40
0.0
 40
0.0
 40
1.0
 40
1.0
 40
1.0
 40
2.0
 40
2.0
 40
2.0
 40
3.0
 40
3.0
 40
3.0
 40
3.0
 10
18.32843683701988
 20
200.7038161637805
 30
0.0
 10
17.42306514622755
 20
201.6091878545728
 30
0.0
 10
15.95528124644797
 20
201.6091878545728
 30
0.0
 10
15.04990955565564
 20
200.7038161637805
 30
0.0
 10
14.1445378648633
 20
199.798616727876
 30
0.0
 10
14.1445378648633
 20
198.3306605732085
 30
0.0
 10
15.04990955565564
 20
197.4254611373041
 30
0.0
 10
15.12811327476137
 20
197.3429510460009
 30
0.0
 10
15.29192767315245
 20
197.2073864492251
 30
0.0
 10
15.38752913593588
 20
197.1462359640213
 30
0.0
  0
ENDBLK
  5
C8
330
C5
100
AcDbEntity
  8
0
100
AcDbBlockEnd
  0
BLOCK
  5
CC
330
CA
100
AcDbEntity
  8
0
100
AcDbBlockBegin
  2
block 21
 70
     0
 71
     0
 10
0.0
 20
0.0
 30
0.0
  3
block 21
  1

  0
POLYLINE
  5
CE
330
CA
100
AcDbEntity
  8
0
 62
     7
420
 16777215
370
     9
100
AcDb2dPolyline
 66
     1
 10
0.0
 20
0.0
 30
0.0
  0
VERTEX
  5
CF
330
CE
100
AcDbEntity
  8
0
 62
     7
420
 16777215
370
     9
100
AcDbVertex
100
AcDb2dVertex
 10
18.60748975541478
 20
200.3661965835002
 30
0.0
  0
VERTEX
  5
D0
330
CE
100
AcDbEntity
  8
0
 62
     7
420
 16777215
370
     9
100
AcDbVertex
100
AcDb2dVertex
 10
18.59474289371031
 20
200.3848001113932
 30
0.0
  0
VERTEX
  5
D1
330
CE
100
AcDbEntity
  8
0
 62
     7
420
 16777215
370
     9
100
AcDbVertex
100
AcDb2dVertex
 10
18.32843683701988
 20
200.7038161637805
 30
0.0
  0
SEQEND
  5
D2
330
CE
100
AcDbEntity
  8
0
370
     9
  0
ENDBLK
  5
CD
330
CA
100
AcDbEntity
  8
0
100
AcDbBlockEnd
  0
BLOCK
  5
D5
330
D3
100
AcDbEntity
  8
0
100
AcDbBlockBegin
  2
block 22
 70
     0
 71
     0
 10
0.0
 20
0.0
 30
0.0
  3
block 22
  1

  0
SPLINE
  5
D7
330
D3
100
AcDbEntity
  8
0
 62
     7
420
 16777215
370
     9
100
AcDbSpline
210
0.0
220
0.0
230
1.0
 70
     8
 71
     3
 72
    14
 73
    10
 74
     0
 42
0.0000000001
 43
0.0000000001
 40
0.0
 40
0.0
 40
0.0
 40
0.0
 40
1.0
 40
1.0
 40
1.0
 40
2.0
 40
2.0
 40
2.0
 40
3.0
 40
3.0
 40
3.0
 40
3.0
 10
21.07986416141598
 20
203.4554157430645
 30
0.0
 10
18.65503210447465
 20
205.8804200548937
 30
0.0
 10
14.72331428820087
 20
205.8804200548937
 30
0.0
 10
12.29830997637164
 20
203.4554157430645
 30
0.0
 10
9.873305664542404
 20
201.0304114312352
 30
0.0
 10
9.873305664542404
 20
197.0988658698493
 30
0.0
 10
12.29830997637164
 20
194.6738615580201
 30
0.0
 10
13.93662621517032
 20
192.9017032713246
 30
0.0
 10
16.99018861293966
 20
192.3215488088839
 30
0.0
 10
19.16421755310138
 20
193.3695475468558
 30
0.0
  0
ENDBLK
  5
D6
330
D3
100
AcDbEntity
  8
0
100
AcDbBlockEnd
  0
BLOCK
  5
DA
330
D8
100
AcDbEntity
  8
0
100
AcDbBlockBegin
  2
block 23
 70
     0
 71
     0
 10
0.0
 20
0.0
 30
0.0
  3
block 23
  1

  0
SPLINE
  5
DC
330
D8
100
AcDbEntity
  8
0
 62
     7
420
 16777215
370
     9
100
AcDbSpline
210
0.0
220
0.0
230
1.0
 70
     8
 71
     3
 72
     8
 73
     4
 74
     0
 42
0.0000000001
 43
0.0000000001
 40
0.0
 40
0.0
 40
0.0
 40
0.0
 40
1.0
 40
1.0
 40
1.0
 40
1.0
 10
22.38417817258027
 20
196.5895081663347
 30
0.0
 10
23.43217691055222
 20
198.7635371064964
 30
0.0
 10
22.85219470299937
 20
201.8172717591537
 30
0.0
 10
21.07986416141598
 20
203.4554157430645
 30
0.0
  0
ENDBLK
  5
DB
330
D8
100
AcDbEntity
  8
0
100
AcDbBlockEnd
  0
BLOCK
  5
DF
330
DD
100
AcDbEntity
  8
0
100
AcDbBlockBegin
  2
block 24
 70
     0
 71
     0
 10
0.0
 20
0.0
 30
0.0
  3
block 24
  1

  0
SPLINE
  5
E1
330
DD
100
AcDbEntity
  8
0
 62
     7
420
 16777215
370
     9
100
AcDbSpline
210
0.0
220
0.0
230
1.0
 70
     8
 71
     3
 72
    14
 73
    10
 74
     0
 42
0.0000000001
 43
0.0000000001
 40
0.0
 40
0.0
 40
0.0
 40
0.0
 40
1.0
 40
1.0
 40
1.0
 40
2.0
 40
2.0
 40
2.0
 40
3.0
 40
3.0
 40
3.0
 40
3.0
 10
18.2991535060772
 20
200.6745328328378
 30
0.0
 10
17.40997377474729
 20
201.5637125641677
 30
0.0
 10
15.96837261792822
 20
201.5637125641677
 30
0.0
 10
15.07919288659831
 20
200.6745328328378
 30
0.0
 10
14.1900131552684
 20
199.7855253563958
 30
0.0
 10
14.1900131552684
 20
198.3437519446888
 30
0.0
 10
15.07919288659831
 20
197.4545722133589
 30
0.0
 10
15.07919288659831
 20
197.4545722133589
 30
0.0
 10
15.07919288659831
 20
197.4545722133589
 30
0.0
 10
15.07919288659831
 20
197.4545722133589
 30
0.0
  0
ENDBLK
  5
E0
330
DD
100
AcDbEntity
  8
0
100
AcDbBlockEnd
  0
BLOCK
  5
E4
330
E2
100
AcDbEntity
  8
0
100
AcDbBlockBegin
  2
block 25
 70
     0
 71
     0
 10
0.0
 20
0.0
 30
0.0
  3
block 25
  1

  0
POLYLINE
  5
E6
330
E2
100
AcDbEntity
  8
0
 62
     7
420
 16777215
370
     9
100
AcDb2dPolyline
 66
     1
 10
0.0
 20
0.0
 30
0.0
  0
VERTEX
  5
E7
330
E6
100
AcDbEntity
  8
0
 62
     7
420
 16777215
370
     9
100
AcDbVertex
100
AcDb2dVertex
 10
21.37269747084272
 20
197.6011611229601
 30
0.0
  0
VERTEX
  5
E8
330
E6
100
AcDbEntity
  8
0
 62
     7
420
 16777215
370
     9
100
AcDbVertex
100
AcDb2dVertex
 10
18.15273685136383
 20
194.3812005034813
 30
0.0
  0
SEQEND
  5
E9
330
E6
100
AcDbEntity
  8
0
370
     9
  0
ENDBLK
  5
E5
330
E2
100
AcDbEntity
  8
0
100
AcDbBlockEnd
  0
BLOCK
  5
EC
330
EA
100
AcDbEntity
  8
0
100
AcDbBlockBegin
  2
block 26
 70
     0
 71
     0
 10
0.0
 20
0.0
 30
0.0
  3
block 26
  1

  0
POLYLINE
  5
EE
330
EA
100
AcDbEntity
  8
0
 62
     7
420
 16777215
370
     9
100
AcDb2dPolyline
 66
     1
 10
0.0
 20
0.0
 30
0.0
  0
VERTEX
  5
EF
330
EE
100
AcDbEntity
  8
0
 62
     7
420
 16777215
370
     9
100
AcDbVertex
100
AcDb2dVertex
 10
101.3857819190545
 20
159.9047292004555
 30
0.0
  0
VERTEX
  5
F0
330
EE
100
AcDbEntity
  8
0
 62
     7
420
 16777215
370
     9
100
AcDbVertex
100
AcDb2dVertex
 10
101.3857819190545
 20
164.4584594169292
 30
0.0
  0
SEQEND
  5
F1
330
EE
100
AcDbEntity
  8
0
370
     9
  0
ENDBLK
  5
ED
330
EA
100
AcDbEntity
  8
0
100
AcDbBlockEnd
  0
BLOCK
  5
F4
330
F2
100
AcDbEntity
  8
0
100
AcDbBlockBegin
  2
block 27
 70
     0
 71
     0
 10
0.0
 20
0.0
 30
0.0
  3
block 27
  1

  0
SPLINE
  5
F6
330
F2
100
AcDbEntity
  8
0
 62
     7
420
 16777215
370
     9
100
AcDbSpline
210
0.0
220
0.0
230
1.0
 70
     8
 71
     3
 72
    14
 73
    10
 74
     0
 42
0.0000000001
 43
0.0000000001
 40
0.0
 40
0.0
 40
0.0
 40
0.0
 40
1.0
 40
1.0
 40
1.0
 40
2.0
 40
2.0
 40
2.0
 40
3.0
 40
3.0
 40
3.0
 40
3.0
 10
105.7326340151627
 20
159.9047292004555
 30
0.0
 10
106.9900946968187
 20
159.9047292004555
 30
0.0
 10
108.0094991233996
 20
160.9243058819242
 30
0.0
 10
108.0094991233996
 20
162.1815943086924
 30
0.0
 10
108.0094991233996
 20
163.4390549903484
 30
0.0
 10
106.9900946968187
 20
164.4584594169292
 30
0.0
 10
105.7326340151627
 20
164.4584594169292
 30
0.0
 10
105.7326340151627
 20
164.4584594169292
 30
0.0
 10
105.7326340151627
 20
164.4584594169292
 30
0.0
 10
105.7326340151627
 20
164.4584594169292
 30
0.0
  0
ENDBLK
  5
F5
330
F2
100
AcDbEntity
  8
0
100
AcDbBlockEnd
  0
BLOCK
  5
F9
330
F7
100
AcDbEntity
  8
0
100
AcDbBlockBegin
  2
block 28
 70
     0
 71
     0
 10
0.0
 20
0.0
 30
0.0
  3
block 28
  1

  0
POLYLINE
  5
FB
330
F7
100
AcDbEntity
  8
0
 62
     7
420
 16777215
370
     9
100
AcDb2dPolyline
 66
     1
 10
0.0
 20
0.0
 30
0.0
  0
VERTEX
  5
FC
330
FB
100
AcDbEntity
  8
0
 62
     7
420
 16777215
370
     9
100
AcDbVertex
100
AcDb2dVertex
 10
105.7326340151627
 20
164.4998005900248
 30
0.0
  0
VERTEX
  5
FD
330
FB
100
AcDbEntity
  8
0
 62
     7
420
 16777215
370
     9
100
AcDbVertex
100
AcDb2dVertex
 10
105.3188777744315
 20
164.4625935342388
 30
0.0
  0
VERTEX
  5
FE
330
FB
100
AcDbEntity
  8
0
 62
     7
420
 16777215
370
     9
100
AcDbVertex
100
AcDb2dVertex
 10
105.2964846390047
 20
164.4584594169292
 30
0.0
  0
SEQEND
  5
FF
330
FB
100
AcDbEntity
  8
0
370
     9
  0
ENDBLK
  5
FA
330
F7
100
AcDbEntity
  8
0
100
AcDbBlockEnd
  0
BLOCK
  5
102
330
100
100
AcDbEntity
  8
0
100
AcDbBlockBegin
  2
block 29
 70
     0
 71
     0
 10
0.0
 20
0.0
 30
0.0
  3
block 29
  1

  0
SPLINE
  5
104
330
100
100
AcDbEntity
  8
0
 62
     7
420
 16777215
370
     9
100
AcDbSpline
210
0.0
220
0.0
230
1.0
 70
     8
 71
     3
 72
    14
 73
    10
 74
     0
 42
0.0000000001
 43
0.0000000001
 40
0.0
 40
0.0
 40
0.0
 40
0.0
 40
1.0
 40
1.0
 40
1.0
 40
2.0
 40
2.0
 40
2.0
 40
3.0
 40
3.0
 40
3.0
 40
3.0
 10
105.2964846390047
 20
159.9047292004555
 30
0.0
 10
106.5539453206608
 20
159.663916867174
 30
0.0
 10
107.7683422803423
 20
160.4879842508784
 30
0.0
 10
108.0094991233996
 20
161.7456171874223
 30
0.0
 10
108.2503114566811
 20
163.0030778690783
 30
0.0
 10
107.4262440729767
 20
164.2176470836477
 30
0.0
 10
106.1684388815448
 20
164.4584594169292
 30
0.0
 10
106.0578512435143
 20
164.4829196110107
 30
0.0
 10
105.8459777313996
 20
164.5030734328948
 30
0.0
 10
105.7326340151627
 20
164.4998005900248
 30
0.0
  0
ENDBLK
  5
103
330
100
100
AcDbEntity
  8
0
100
AcDbBlockEnd
  0
BLOCK
  5
107
330
105
100
AcDbEntity
  8
0
100
AcDbBlockBegin
  2
block 30
 70
     0
 71
     0
 10
0.0
 20
0.0
 30
0.0
  3
block 30
  1

  0
SPLINE
  5
109
330
105
100
AcDbEntity
  8
0
 62
     7
420
 16777215
370
     9
100
AcDbSpline
210
0.0
220
0.0
230
1.0
 70
     8
 71
     3
 72
     8
 73
     4
 74
     0
 42
0.0000000001
 43
0.0000000001
 40
0.0
 40
0.0
 40
0.0
 40
0.0
 40
1.0
 40
1.0
 40
1.0
 40
1.0
 10
105.7326340151627
 20
168.3912107625304
 30
0.0
 10
103.3210655845895
 20
168.4859509508743
 30
0.0
 10
100.7515394218138
 20
166.7367025642693
 30
0.0
 10
99.95554958483673
 20
164.4584594169292
 30
0.0
  0
ENDBLK
  5
108
330
105
100
AcDbEntity
  8
0
100
AcDbBlockEnd
  0
BLOCK
  5
10C
330
10A
100
AcDbEntity
  8
0
100
AcDbBlockBegin
  2
block 31
 70
     0
 71
     0
 10
0.0
 20
0.0
 30
0.0
  3
block 31
  1

  0
SPLINE
  5
10E
330
10A
100
AcDbEntity
  8
0
 62
     7
420
 16777215
370
     9
100
AcDbSpline
210
0.0
220
0.0
230
1.0
 70
     8
 71
     3
 72
    14
 73
    10
 74
     0
 42
0.0000000001
 43
0.0000000001
 40
0.0
 40
0.0
 40
0.0
 40
0.0
 40
1.0
 40
1.0
 40
1.0
 40
2.0
 40
2.0
 40
2.0
 40
3.0
 40
3.0
 40
3.0
 40
3.0
 10
99.95554958483673
 20
159.9047292004555
 30
0.0
 10
101.2128380116049
 20
156.7142241668072
 30
0.0
 10
104.8188218348634
 20
155.1470491967104
 30
0.0
 10
108.0094991233996
 20
156.4045098783664
 30
0.0
 10
111.2000041570479
 20
157.6619705600224
 30
0.0
 10
112.7671791271447
 20
161.2679543832809
 30
0.0
 10
111.5097184454886
 20
164.4584594169292
 30
0.0
 10
110.7135563536237
 20
166.7367025642693
 30
0.0
 10
108.1438579359601
 20
168.4859509508743
 30
0.0
 10
105.7326340151627
 20
168.3912107625304
 30
0.0
  0
ENDBLK
  5
10D
330
10A
100
AcDbEntity
  8
0
100
AcDbBlockEnd
  0
BLOCK
  5
111
330
10F
100
AcDbEntity
  8
0
100
AcDbBlockBegin
  2
block 32
 70
     0
 71
     0
 10
0.0
 20
0.0
 30
0.0
  3
block 32
  1

  0
POLYLINE
  5
113
330
10F
100
AcDbEntity
  8
0
 62
     7
420
 16777215
370
     9
100
AcDb2dPolyline
 66
     1
 10
0.0
 20
0.0
 30
0.0
  0
VERTEX
  5
114
330
113
100
AcDbEntity
  8
0
 62
     7
420
 16777215
370
     9
100
AcDbVertex
100
AcDb2dVertex
 10
51.20776081945464
 20
164.5459648999814
 30
0.0
  0
VERTEX
  5
115
330
113
100
AcDbEntity
  8
0
 62
     7
420
 16777215
370
     9
100
AcDbVertex
100
AcDb2dVertex
 10
52.81765500175014
 20
166.1560313371648
 30
0.0
  0
SEQEND
  5
116
330
113
100
AcDbEntity
  8
0
370
     9
  0
ENDBLK
  5
112
330
10F
100
AcDbEntity
  8
0
100
AcDbBlockEnd
  0
BLOCK
  5
119
330
117
100
AcDbEntity
  8
0
100
AcDbBlockBegin
  2
block 33
 70
     0
 71
     0
 10
0.0
 20
0.0
 30
0.0
  3
block 33
  1

  0
POLYLINE
  5
11B
330
117
100
AcDbEntity
  8
0
 62
     7
420
 16777215
370
     9
100
AcDb2dPolyline
 66
     1
 10
0.0
 20
0.0
 30
0.0
  0
VERTEX
  5
11C
330
11B
100
AcDbEntity
  8
0
 62
     7
420
 16777215
370
     9
100
AcDbVertex
100
AcDb2dVertex
 10
49.59769438227124
 20
162.936070717686
 30
0.0
  0
VERTEX
  5
11D
330
11B
100
AcDbEntity
  8
0
 62
     7
420
 16777215
370
     9
100
AcDbVertex
100
AcDb2dVertex
 10
51.20776081945464
 20
164.5459648999814
 30
0.0
  0
SEQEND
  5
11E
330
11B
100
AcDbEntity
  8
0
370
     9
  0
ENDBLK
  5
11A
330
117
100
AcDbEntity
  8
0
100
AcDbBlockEnd
  0
BLOCK
  5
121
330
11F
100
AcDbEntity
  8
0
100
AcDbBlockBegin
  2
block 34
 70
     0
 71
     0
 10
0.0
 20
0.0
 30
0.0
  3
block 34
  1

  0
POLYLINE
  5
123
330
11F
100
AcDbEntity
  8
0
 62
     7
420
 16777215
370
     9
100
AcDb2dPolyline
 66
     1
 10
0.0
 20
0.0
 30
0.0
  0
VERTEX
  5
124
330
123
100
AcDbEntity
  8
0
 62
     7
420
 16777215
370
     9
100
AcDbVertex
100
AcDb2dVertex
 10
56.91594329462136
 20
162.1815943086924
 30
0.0
  0
VERTEX
  5
125
330
123
100
AcDbEntity
  8
0
 62
     7
420
 16777215
370
     9
100
AcDbVertex
100
AcDb2dVertex
 10
56.91594329462136
 20
164.4584594169292
 30
0.0
  0
SEQEND
  5
126
330
123
100
AcDbEntity
  8
0
370
     9
  0
ENDBLK
  5
122
330
11F
100
AcDbEntity
  8
0
100
AcDbBlockEnd
  0
BLOCK
  5
129
330
127
100
AcDbEntity
  8
0
100
AcDbBlockBegin
  2
block 35
 70
     0
 71
     0
 10
0.0
 20
0.0
 30
0.0
  3
block 35
  1

  0
POLYLINE
  5
12B
330
127
100
AcDbEntity
  8
0
 62
     7
420
 16777215
370
     9
100
AcDb2dPolyline
 66
     1
 10
0.0
 20
0.0
 30
0.0
  0
VERTEX
  5
12C
330
12B
100
AcDbEntity
  8
0
 62
     7
420
 16777215
370
     9
100
AcDbVertex
100
AcDb2dVertex
 10
56.91594329462136
 20
159.9047292004555
 30
0.0
  0
VERTEX
  5
12D
330
12B
100
AcDbEntity
  8
0
 62
     7
420
 16777215
370
     9
100
AcDbVertex
100
AcDb2dVertex
 10
56.91594329462136
 20
162.1815943086924
 30
0.0
  0
SEQEND
  5
12E
330
12B
100
AcDbEntity
  8
0
370
     9
  0
ENDBLK
  5
12A
330
127
100
AcDbEntity
  8
0
100
AcDbBlockEnd
  0
BLOCK
  5
131
330
12F
100
AcDbEntity
  8
0
100
AcDbBlockBegin
  2
block 36
 70
     0
 71
     0
 10
0.0
 20
0.0
 30
0.0
  3
block 36
  1

  0
SPLINE
  5
133
330
12F
100
AcDbEntity
  8
0
 62
     7
420
 16777215
370
     9
100
AcDbSpline
210
0.0
220
0.0
230
1.0
 70
     8
 71
     3
 72
    14
 73
    10
 74
     0
 42
0.0000000001
 43
0.0000000001
 40
0.0
 40
0.0
 40
0.0
 40
0.0
 40
1.0
 40
1.0
 40
1.0
 40
2.0
 40
2.0
 40
2.0
 40
3.0
 40
3.0
 40
3.0
 40
3.0
 10
20.89382888248605
 20
203.2692082092466
 30
0.0
 10
18.57166073873197
 20
205.5913763530007
 30
0.0
 10
14.80668565394354
 20
205.5913763530007
 30
0.0
 10
12.48451751018946
 20
203.2692082092466
 30
0.0
 10
10.16234936643539
 20
200.9470400654926
 30
0.0
 10
10.16234936643539
 20
197.182237235592
 30
0.0
 10
12.48451751018946
 20
194.8600690918379
 30
0.0
 10
14.02206463956777
 20
193.1921250123208
 30
0.0
 10
16.90440567876641
 20
192.6185162356202
 30
0.0
 10
18.96354060870011
 20
193.570396746145
 30
0.0
  0
ENDBLK
  5
132
330
12F
100
AcDbEntity
  8
0
100
AcDbBlockEnd
  0
BLOCK
  5
136
330
134
100
AcDbEntity
  8
0
100
AcDbBlockBegin
  2
block 37
 70
     0
 71
     0
 10
0.0
 20
0.0
 30
0.0
  3
block 37
  1

  0
SPLINE
  5
138
330
134
100
AcDbEntity
  8
0
 62
     7
420
 16777215
370
     9
100
AcDbSpline
210
0.0
220
0.0
230
1.0
 70
     8
 71
     3
 72
     8
 73
     4
 74
     0
 42
0.0000000001
 43
0.0000000001
 40
0.0
 40
0.0
 40
0.0
 40
0.0
 40
1.0
 40
1.0
 40
1.0
 40
1.0
 10
22.18350122817901
 20
196.7903573656239
 30
0.0
 10
23.13538173870382
 20
198.8493200406697
 30
0.0
 10
22.5617729620032
 20
201.7318333347562
 30
0.0
 10
20.89382888248605
 20
203.2692082092466
 30
0.0
  0
ENDBLK
  5
137
330
134
100
AcDbEntity
  8
0
100
AcDbBlockEnd
  0
BLOCK
  5
13B
330
139
100
AcDbEntity
  8
0
100
AcDbBlockBegin
  2
block 38
 70
     0
 71
     0
 10
0.0
 20
0.0
 30
0.0
  3
block 38
  1

  0
SPLINE
  5
13D
330
139
100
AcDbEntity
  8
0
 62
     7
420
 16777215
370
     9
100
AcDbSpline
210
0.0
220
0.0
230
1.0
 70
     8
 71
     3
 72
    14
 73
    10
 74
     0
 42
0.0000000001
 43
0.0000000001
 40
0.0
 40
0.0
 40
0.0
 40
0.0
 40
1.0
 40
1.0
 40
1.0
 40
2.0
 40
2.0
 40
2.0
 40
3.0
 40
3.0
 40
3.0
 40
3.0
 10
18.37236183343389
 20
200.7477411601945
 30
0.0
 10
17.44270220344793
 20
201.6774007901804
 30
0.0
 10
15.93564418922759
 20
201.6774007901804
 30
0.0
 10
15.00598455924163
 20
200.7477411601945
 30
0.0
 10
14.07649718414356
 20
199.8180815302085
 30
0.0
 10
14.07649718414356
 20
198.3111957708761
 30
0.0
 10
15.00598455924163
 20
197.3813638860022
 30
0.0
 10
15.13259190184672
 20
197.2445935050111
 30
0.0
 10
15.40234305629512
 20
197.0447778350494
 30
0.0
 10
15.56994706221995
 20
196.9638180377372
 30
0.0
  0
ENDBLK
  5
13C
330
139
100
AcDbEntity
  8
0
100
AcDbBlockEnd
  0
BLOCK
  5
140
330
13E
100
AcDbEntity
  8
0
100
AcDbBlockBegin
  2
block 39
 70
     0
 71
     0
 10
0.0
 20
0.0
 30
0.0
  3
block 39
  1

  0
POLYLINE
  5
142
330
13E
100
AcDbEntity
  8
0
 62
     7
420
 16777215
370
     9
100
AcDb2dPolyline
 66
     1
 10
0.0
 20
0.0
 30
0.0
  0
VERTEX
  5
143
330
142
100
AcDbEntity
  8
0
 62
     7
420
 16777215
370
     9
100
AcDbVertex
100
AcDb2dVertex
 10
18.78990768169885
 20
200.1837786572161
 30
0.0
  0
VERTEX
  5
144
330
142
100
AcDbEntity
  8
0
 62
     7
420
 16777215
370
     9
100
AcDbVertex
100
AcDb2dVertex
 10
18.64573034052815
 20
200.4201123634123
 30
0.0
  0
VERTEX
  5
145
330
142
100
AcDbEntity
  8
0
 62
     7
420
 16777215
370
     9
100
AcDbVertex
100
AcDb2dVertex
 10
18.37236183343389
 20
200.7477411601945
 30
0.0
  0
SEQEND
  5
146
330
142
100
AcDbEntity
  8
0
370
     9
  0
ENDBLK
  5
141
330
13E
100
AcDbEntity
  8
0
100
AcDbBlockEnd
  0
BLOCK
  5
149
330
147
100
AcDbEntity
  8
0
100
AcDbBlockBegin
  2
block 40
 70
     0
 71
     0
 10
0.0
 20
0.0
 30
0.0
  3
block 40
  1

  0
POLYLINE
  5
14B
330
147
100
AcDbEntity
  8
0
 62
     7
420
 16777215
370
     9
100
AcDb2dPolyline
 66
     1
 10
0.0
 20
0.0
 30
0.0
  0
VERTEX
  5
14C
330
14B
100
AcDbEntity
  8
0
 62
     7
420
 16777215
370
     9
100
AcDbVertex
100
AcDb2dVertex
 10
21.07986416141598
 20
197.893822177499
 30
0.0
  0
VERTEX
  5
14D
330
14B
100
AcDbEntity
  8
0
 62
     7
420
 16777215
370
     9
100
AcDbVertex
100
AcDb2dVertex
 10
17.85990354193709
 20
194.6738615580201
 30
0.0
  0
SEQEND
  5
14E
330
14B
100
AcDbEntity
  8
0
370
     9
  0
ENDBLK
  5
14A
330
147
100
AcDbEntity
  8
0
100
AcDbBlockEnd
  0
BLOCK
  5
151
330
14F
100
AcDbEntity
  8
0
100
AcDbBlockBegin
  2
block 41
 70
     0
 71
     0
 10
0.0
 20
0.0
 30
0.0
  3
block 41
  1

  0
POLYLINE
  5
153
330
14F
100
AcDbEntity
  8
0
 62
     7
420
 16777215
370
     9
100
AcDb2dPolyline
 66
     1
 10
0.0
 20
0.0
 30
0.0
  0
VERTEX
  5
154
330
153
100
AcDbEntity
  8
0
 62
     7
420
 16777215
370
     9
100
AcDbVertex
100
AcDb2dVertex
 10
101.7998826695615
 20
159.9047292004555
 30
0.0
  0
VERTEX
  5
155
330
153
100
AcDbEntity
  8
0
 62
     7
420
 16777215
370
     9
100
AcDbVertex
100
AcDb2dVertex
 10
101.7998826695615
 20
164.4584594169292
 30
0.0
  0
SEQEND
  5
156
330
153
100
AcDbEntity
  8
0
370
     9
  0
ENDBLK
  5
152
330
14F
100
AcDbEntity
  8
0
100
AcDbBlockEnd
  0
BLOCK
  5
159
330
157
100
AcDbEntity
  8
0
100
AcDbBlockBegin
  2
block 42
 70
     0
 71
     0
 10
0.0
 20
0.0
 30
0.0
  3
block 42
  1

  0
SPLINE
  5
15B
330
157
100
AcDbEntity
  8
0
 62
     7
420
 16777215
370
     9
100
AcDbSpline
210
0.0
220
0.0
230
1.0
 70
     8
 71
     3
 72
     8
 73
     4
 74
     0
 42
0.0000000001
 43
0.0000000001
 40
0.0
 40
0.0
 40
0.0
 40
0.0
 40
1.0
 40
1.0
 40
1.0
 40
1.0
 10
105.7326340151627
 20
168.1280052938221
 30
0.0
 10
103.4659319453118
 20
168.2199894039597
 30
0.0
 10
101.0221518507017
 20
166.5875298313495
 30
0.0
 10
100.2392533852049
 20
164.4584594169292
 30
0.0
  0
ENDBLK
  5
15A
330
157
100
AcDbEntity
  8
0
100
AcDbBlockEnd
  0
BLOCK
  5
15E
330
15C
100
AcDbEntity
  8
0
100
AcDbBlockBegin
  2
block 43
 70
     0
 71
     0
 10
0.0
 20
0.0
 30
0.0
  3
block 43
  1

  0
SPLINE
  5
160
330
15C
100
AcDbEntity
  8
0
 62
     7
420
 16777215
370
     9
100
AcDbSpline
210
0.0
220
0.0
230
1.0
 70
     8
 71
     3
 72
    14
 73
    10
 74
     0
 42
0.0000000001
 43
0.0000000001
 40
0.0
 40
0.0
 40
0.0
 40
0.0
 40
1.0
 40
1.0
 40
1.0
 40
2.0
 40
2.0
 40
2.0
 40
3.0
 40
3.0
 40
3.0
 40
3.0
 10
100.2392533852049
 20
159.9047292004555
 30
0.0
 10
101.4968863217488
 20
156.8709761147944
 30
0.0
 10
104.9755737828506
 20
155.4310975068543
 30
0.0
 10
108.0094991233996
 20
156.6885581885103
 30
0.0
 10
111.0429076992848
 20
157.9460188701663
 30
0.0
 10
112.4833030718886
 20
161.4247063312682
 30
0.0
 10
111.2254978804568
 20
164.4584594169292
 30
0.0
 10
110.4431161796237
 20
166.5875298313495
 30
0.0
 10
107.9991638301257
 20
168.2199894039597
 30
0.0
 10
105.7326340151627
 20
168.1280052938221
 30
0.0
  0
ENDBLK
  5
15F
330
15C
100
AcDbEntity
  8
0
100
AcDbBlockEnd
  0
BLOCK
  5
163
330
161
100
AcDbEntity
  8
0
100
AcDbBlockBegin
  2
block 44
 70
     0
 71
     0
 10
0.0
 20
0.0
 30
0.0
  3
block 44
  1

  0
POLYLINE
  5
165
330
161
100
AcDbEntity
  8
0
 62
     7
420
 16777215
370
     9
100
AcDb2dPolyline
 66
     1
 10
0.0
 20
0.0
 30
0.0
  0
VERTEX
  5
166
330
165
100
AcDbEntity
  8
0
 62
     7
420
 16777215
370
     9
100
AcDbVertex
100
AcDb2dVertex
 10
105.7326340151627
 20
164.561984604556
 30
0.0
  0
VERTEX
  5
167
330
165
100
AcDbEntity
  8
0
 62
     7
420
 16777215
370
     9
100
AcDbVertex
100
AcDb2dVertex
 10
105.3075089518302
 20
164.5237440194426
 30
0.0
  0
VERTEX
  5
168
330
165
100
AcDbEntity
  8
0
 62
     7
420
 16777215
370
     9
100
AcDbVertex
100
AcDb2dVertex
 10
105.0382745620455
 20
164.4584594169292
 30
0.0
  0
SEQEND
  5
169
330
165
100
AcDbEntity
  8
0
370
     9
  0
ENDBLK
  5
164
330
161
100
AcDbEntity
  8
0
100
AcDbBlockEnd
  0
BLOCK
  5
16C
330
16A
100
AcDbEntity
  8
0
100
AcDbBlockBegin
  2
block 45
 70
     0
 71
     0
 10
0.0
 20
0.0
 30
0.0
  3
block 45
  1

  0
SPLINE
  5
16E
330
16A
100
AcDbEntity
  8
0
 62
     7
420
 16777215
370
     9
100
AcDbSpline
210
0.0
220
0.0
230
1.0
 70
     8
 71
     3
 72
    14
 73
    10
 74
     0
 42
0.0000000001
 43
0.0000000001
 40
0.0
 40
0.0
 40
0.0
 40
0.0
 40
1.0
 40
1.0
 40
1.0
 40
2.0
 40
2.0
 40
2.0
 40
3.0
 40
3.0
 40
3.0
 40
3.0
 10
105.0382745620455
 20
159.9047292004555
 30
0.0
 10
106.2955629888136
 20
159.5212898199943
 30
0.0
 10
107.6257152331626
 20
160.2297741739191
 30
0.0
 10
108.0094991233996
 20
161.4874071104631
 30
0.0
 10
108.3929385038607
 20
162.7448677921191
 30
0.0
 10
107.684281895048
 20
164.0750200364681
 30
0.0
 10
106.426821213392
 20
164.4584594169292
 30
0.0
 10
106.2507767179601
 20
164.519782157021
 30
0.0
 10
105.9190138038684
 20
164.5692193098477
 30
0.0
 10
105.7326340151627
 20
164.561984604556
 30
0.0
  0
ENDBLK
  5
16D
330
16A
100
AcDbEntity
  8
0
100
AcDbBlockEnd
  0
BLOCK
  5
171
330
16F
100
AcDbEntity
  8
0
100
AcDbBlockBegin
  2
block 46
 70
     0
 71
     0
 10
0.0
 20
0.0
 30
0.0
  3
block 46
  1

  0
INSERT
  5
174
330
16F
100
AcDbEntity
  8
0
100
AcDbBlockReference
  2
block 47
 10
0.0
 20
0.0
 30
0.0
  0
INSERT
  5
17C
330
16F
100
AcDbEntity
  8
0
100
AcDbBlockReference
  2
block 48
 10
0.0
 20
0.0
 30
0.0
  0
INSERT
  5
184
330
16F
100
AcDbEntity
  8
0
100
AcDbBlockReference
  2
block 49
 10
0.0
 20
0.0
 30
0.0
  0
INSERT
  5
18C
330
16F
100
AcDbEntity
  8
0
100
AcDbBlockReference
  2
block 50
 10
0.0
 20
0.0
 30
0.0
  0
INSERT
  5
197
330
16F
100
AcDbEntity
  8
0
100
AcDbBlockReference
  2
block 51
 10
0.0
 20
0.0
 30
0.0
  0
INSERT
  5
1A2
330
16F
100
AcDbEntity
  8
0
100
AcDbBlockReference
  2
block 52
 10
0.0
 20
0.0
 30
0.0
  0
INSERT
  5
1A7
330
16F
100
AcDbEntity
  8
0
100
AcDbBlockReference
  2
block 53
 10
0.0
 20
0.0
 30
0.0
  0
INSERT
  5
1AF
330
16F
100
AcDbEntity
  8
0
100
AcDbBlockReference
  2
block 54
 10
0.0
 20
0.0
 30
0.0
  0
INSERT
  5
1B7
330
16F
100
AcDbEntity
  8
0
100
AcDbBlockReference
  2
block 55
 10
0.0
 20
0.0
 30
0.0
  0
ENDBLK
  5
172
330
16F
100
AcDbEntity
  8
0
100
AcDbBlockEnd
  0
BLOCK
  5
175
330
173
100
AcDbEntity
  8
0
100
AcDbBlockBegin
  2
block 47
 70
     0
 71
     0
 10
0.0
 20
0.0
 30
0.0
  3
block 47
  1

  0
POLYLINE
  5
177
330
173
100
AcDbEntity
  8
0
 62
     7
420
 16777215
370
     9
100
AcDb2dPolyline
 66
     1
 10
0.0
 20
0.0
 30
0.0
  0
VERTEX
  5
178
330
177
100
AcDbEntity
  8
0
 62
     7
420
 16777215
370
     9
100
AcDbVertex
100
AcDb2dVertex
 10
111.9420782141128
 20
162.1299178423229
 30
0.0
  0
VERTEX
  5
179
330
177
100
AcDbEntity
  8
0
 62
     7
420
 16777215
370
     9
100
AcDbVertex
100
AcDb2dVertex
 10
111.9420782141128
 20
142.72488795594
 30
0.0
  0
SEQEND
  5
17A
330
177
100
AcDbEntity
  8
0
370
     9
  0
ENDBLK
  5
176
330
173
100
AcDbEntity
  8
0
100
AcDbBlockEnd
  0
BLOCK
  5
17D
330
17B
100
AcDbEntity
  8
0
100
AcDbBlockBegin
  2
block 48
 70
     0
 71
     0
 10
0.0
 20
0.0
 30
0.0
  3
block 48
  1

  0
POLYLINE
  5
17F
330
17B
100
AcDbEntity
  8
0
 62
     7
420
 16777215
370
     9
100
AcDb2dPolyline
 66
     1
 10
0.0
 20
0.0
 30
0.0
  0
VERTEX
  5
180
330
17F
100
AcDbEntity
  8
0
 62
     7
420
 16777215
370
     9
100
AcDbVertex
100
AcDb2dVertex
 10
10.47964286994366
 20
199.0129621841729
 30
0.0
  0
VERTEX
  5
181
330
17F
100
AcDbEntity
  8
0
 62
     7
420
 16777215
370
     9
100
AcDbVertex
100
AcDb2dVertex
 10
10.47964286994366
 20
142.72488795594
 30
0.0
  0
SEQEND
  5
182
330
17F
100
AcDbEntity
  8
0
370
     9
  0
ENDBLK
  5
17E
330
17B
100
AcDbEntity
  8
0
100
AcDbBlockEnd
  0
BLOCK
  5
185
330
183
100
AcDbEntity
  8
0
100
AcDbBlockBegin
  2
block 49
 70
     0
 71
     0
 10
0.0
 20
0.0
 30
0.0
  3
block 49
  1

  0
POLYLINE
  5
187
330
183
100
AcDbEntity
  8
0
 62
     7
420
 16777215
370
     9
100
AcDb2dPolyline
 66
     1
 10
0.0
 20
0.0
 30
0.0
  0
VERTEX
  5
188
330
187
100
AcDbEntity
  8
0
 62
     7
420
 16777215
370
     9
100
AcDbVertex
100
AcDb2dVertex
 10
109.2083931431702
 20
142.72488795594
 30
0.0
  0
VERTEX
  5
189
330
187
100
AcDbEntity
  8
0
 62
     7
420
 16777215
370
     9
100
AcDbVertex
100
AcDb2dVertex
 10
13.21350019577416
 20
142.72488795594
 30
0.0
  0
SEQEND
  5
18A
330
187
100
AcDbEntity
  8
0
370
     9
  0
ENDBLK
  5
186
330
183
100
AcDbEntity
  8
0
100
AcDbBlockEnd
  0
BLOCK
  5
18D
330
18B
100
AcDbEntity
  8
0
100
AcDbBlockBegin
  2
block 50
 70
     0
 71
     0
 10
0.0
 20
0.0
 30
0.0
  3
block 50
  1

  0
POLYLINE
  5
18F
330
18B
100
AcDbEntity
  8
0
370
     0
100
AcDb2dPolyline
 66
     1
 10
0.0
 20
0.0
 30
0.0
  0
VERTEX
  5
190
330
18F
100
AcDbEntity
  8
0
370
     0
100
AcDbVertex
100
AcDb2dVertex
 10
109.2083931431702
 20
143.1806743893183
 30
0.0
  0
VERTEX
  5
191
330
18F
100
AcDbEntity
  8
0
370
     0
100
AcDbVertex
100
AcDb2dVertex
 10
109.2083931431702
 20
142.2694460323375
 30
0.0
  0
VERTEX
  5
192
330
18F
100
AcDbEntity
  8
0
370
     0
100
AcDbVertex
100
AcDb2dVertex
 10
111.9420782141128
 20
142.72488795594
 30
0.0
  0
VERTEX
  5
193
330
18F
100
AcDbEntity
  8
0
370
     0
100
AcDbVertex
100
AcDb2dVertex
 10
109.2083931431702
 20
143.1806743893183
 30
0.0
  0
SEQEND
  5
194
330
18F
100
AcDbEntity
  8
0
370
     0
  0
HATCH
  5
195
330
18B
100
AcDbEntity
  8
0
 62
     7
420
 16777215
100
AcDbHatch
 10
0.0
 20
0.0
 30
0.0
210
0.0
220
0.0
230
1.0
  2
SOLID
 70
     1
 71
     0
 91
        1
 92
        1
 93
        3
 72
     1
 10
109.2083931431702
 20
143.1806743893183
 11
109.2083931431702
 21
142.2694460323375
 72
     1
 10
109.2083931431702
 20
142.2694460323375
 11
111.9420782141128
 21
142.72488795594
 72
     1
 10
111.9420782141128
 20
142.72488795594
 11
109.2083931431702
 21
143.1806743893183
 97
        0
 75
     2
 76
     1
 98
        0
  0
ENDBLK
  5
18E
330
18B
100
AcDbEntity
  8
0
100
AcDbBlockEnd
  0
BLOCK
  5
198
330
196
100
AcDbEntity
  8
0
100
AcDbBlockBegin
  2
block 51
 70
     0
 71
     0
 10
0.0
 20
0.0
 30
0.0
  3
block 51
  1

  0
POLYLINE
  5
19A
330
196
100
AcDbEntity
  8
0
370
     0
100
AcDb2dPolyline
 66
     1
 10
0.0
 20
0.0
 30
0.0
  0
VERTEX
  5
19B
330
19A
100
AcDbEntity
  8
0
370
     0
100
AcDbVertex
100
AcDb2dVertex
 10
13.21350019577416
 20
143.1806743893183
 30
0.0
  0
VERTEX
  5
19C
330
19A
100
AcDbEntity
  8
0
370
     0
100
AcDbVertex
100
AcDb2dVertex
 10
13.21350019577416
 20
142.2694460323375
 30
0.0
  0
VERTEX
  5
19D
330
19A
100
AcDbEntity
  8
0
370
     0
100
AcDbVertex
100
AcDb2dVertex
 10
10.47964286994366
 20
142.72488795594
 30
0.0
  0
VERTEX
  5
19E
330
19A
100
AcDbEntity
  8
0
370
     0
100
AcDbVertex
100
AcDb2dVertex
 10
13.21350019577416
 20
143.1806743893183
 30
0.0
  0
SEQEND
  5
19F
330
19A
100
AcDbEntity
  8
0
370
     0
  0
HATCH
  5
1A0
330
196
100
AcDbEntity
  8
0
 62
     7
420
 16777215
100
AcDbHatch
 10
0.0
 20
0.0
 30
0.0
210
0.0
220
0.0
230
1.0
  2
SOLID
 70
     1
 71
     0
 91
        1
 92
        1
 93
        3
 72
     1
 10
13.21350019577416
 20
143.1806743893183
 11
13.21350019577416
 21
142.2694460323375
 72
     1
 10
13.21350019577416
 20
142.2694460323375
 11
10.47964286994366
 21
142.72488795594
 72
     1
 10
10.47964286994366
 20
142.72488795594
 11
13.21350019577416
 21
143.1806743893183
 97
        0
 75
     2
 76
     1
 98
        0
  0
ENDBLK
  5
199
330
196
100
AcDbEntity
  8
0
100
AcDbBlockEnd
  0
BLOCK
  5
1A3
330
1A1
100
AcDbEntity
  8
0
100
AcDbBlockBegin
  2
block 52
 70
     0
 71
     0
 10
0.0
 20
0.0
 30
0.0
  3
block 52
  1

  0
MTEXT
  5
1A5
330
1A1
100
AcDbEntity
  8
0
 62
     7
420
 16777215
100
AcDbMText
 10
56.55972018644812
 20
143.4493920144394
 30
0.0
 40
2.398890470823883
 41
0.0
 71
     7
 72
     1
  1
\fArial|b1|i0|c0|p34;\W0.75;490.2
 73
     1
 44
1.0
  0
ENDBLK
  5
1A4
330
1A1
100
AcDbEntity
  8
0
100
AcDbBlockEnd
  0
BLOCK
  5
1A8
330
1A6
100
AcDbEntity
  8
0
100
AcDbBlockBegin
  2
block 53
 70
     0
 71
     0
 10
0.0
 20
0.0
 30
0.0
  3
block 53
  1

  0
POLYLINE
  5
1AA
330
1A6
100
AcDbEntity
  8
0
 62
     7
420
 16777215
370
     9
100
AcDb2dPolyline
 66
     1
 10
0.0
 20
0.0
 30
0.0
  0
VERTEX
  5
1AB
330
1AA
100
AcDbEntity
  8
0
 62
     7
420
 16777215
370
     9
100
AcDbVertex
100
AcDb2dVertex
 10
111.9420782141128
 20
162.1815943086924
 30
0.0
  0
VERTEX
  5
1AC
330
1AA
100
AcDbEntity
  8
0
 62
     7
420
 16777215
370
     9
100
AcDbVertex
100
AcDb2dVertex
 10
111.9420782141128
 20
162.1815943086924
 30
0.0
  0
SEQEND
  5
1AD
330
1AA
100
AcDbEntity
  8
0
370
     9
  0
ENDBLK
  5
1A9
330
1A6
100
AcDbEntity
  8
0
100
AcDbBlockEnd
  0
BLOCK
  5
1B0
330
1AE
100
AcDbEntity
  8
0
100
AcDbBlockBegin
  2
block 54
 70
     0
 71
     0
 10
0.0
 20
0.0
 30
0.0
  3
block 54
  1

  0
POLYLINE
  5
1B2
330
1AE
100
AcDbEntity
  8
0
 62
     7
420
 16777215
370
     9
100
AcDb2dPolyline
 66
     1
 10
0.0
 20
0.0
 30
0.0
  0
VERTEX
  5
1B3
330
1B2
100
AcDbEntity
  8
0
 62
     7
420
 16777215
370
     9
100
AcDbVertex
100
AcDb2dVertex
 10
10.47964286994366
 20
199.0646386505423
 30
0.0
  0
VERTEX
  5
1B4
330
1B2
100
AcDbEntity
  8
0
 62
     7
420
 16777215
370
     9
100
AcDbVertex
100
AcDb2dVertex
 10
10.47964286994366
 20
199.0646386505423
 30
0.0
  0
SEQEND
  5
1B5
330
1B2
100
AcDbEntity
  8
0
370
     9
  0
ENDBLK
  5
1B1
330
1AE
100
AcDbEntity
  8
0
100
AcDbBlockEnd
  0
BLOCK
  5
1B8
330
1B6
100
AcDbEntity
  8
0
100
AcDbBlockBegin
  2
block 55
 70
     0
 71
     0
 10
0.0
 20
0.0
 30
0.0
  3
block 55
  1

  0
POLYLINE
  5
1BA
330
1B6
100
AcDbEntity
  8
0
 62
     7
420
 16777215
370
     9
100
AcDb2dPolyline
 66
     1
 10
0.0
 20
0.0
 30
0.0
  0
VERTEX
  5
1BB
330
1BA
100
AcDbEntity
  8
0
 62
     7
420
 16777215
370
     9
100
AcDbVertex
100
AcDb2dVertex
 10
10.47964286994366
 20
142.72488795594
 30
0.0
  0
VERTEX
  5
1BC
330
1BA
100
AcDbEntity
  8
0
 62
     7
420
 16777215
370
     9
100
AcDbVertex
100
AcDb2dVertex
 10
10.47964286994366
 20
142.72488795594
 30
0.0
  0
SEQEND
  5
1BD
330
1BA
100
AcDbEntity
  8
0
370
     9
  0
ENDBLK
  5
1B9
330
1B6
100
AcDbEntity
  8
0
100
AcDbBlockEnd
  0
BLOCK
  5
1C0
330
1BE
100
AcDbEntity
  8
0
100
AcDbBlockBegin
  2
block 56
 70
     0
 71
     0
 10
0.0
 20
0.0
 30
0.0
  3
block 56
  1

  0
POLYLINE
  5
1C2
330
1BE
100
AcDbEntity
  8
0
 62
     7
420
 16777215
370
     9
100
AcDb2dPolyline
 66
     1
 10
0.0
 20
0.0
 30
0.0
  0
VERTEX
  5
1C3
330
1C2
100
AcDbEntity
  8
0
 62
     7
420
 16777215
370
     9
100
AcDbVertex
100
AcDb2dVertex
 10
189.1773803400801
 20
160.4221828837013
 30
0.0
  0
VERTEX
  5
1C4
330
1C2
100
AcDbEntity
  8
0
 62
     7
420
 16777215
370
     9
100
AcDbVertex
100
AcDb2dVertex
 10
195.684825495094
 20
160.4221828837013
 30
0.0
  0
SEQEND
  5
1C5
330
1C2
100
AcDbEntity
  8
0
370
     9
  0
ENDBLK
  5
1C1
330
1BE
100
AcDbEntity
  8
0
100
AcDbBlockEnd
  0
BLOCK
  5
1C8
330
1C6
100
AcDbEntity
  8
0
100
AcDbBlockBegin
  2
block 57
 70
     0
 71
     0
 10
0.0
 20
0.0
 30
0.0
  3
block 57
  1

  0
POLYLINE
  5
1CA
330
1C6
100
AcDbEntity
  8
0
 62
     7
420
 16777215
370
     9
100
AcDb2dPolyline
 66
     1
 10
0.0
 20
0.0
 30
0.0
  0
VERTEX
  5
1CB
330
1CA
100
AcDbEntity
  8
0
 62
     7
420
 16777215
370
     9
100
AcDbVertex
100
AcDb2dVertex
 10
185.4518516246204
 20
160.4221828837013
 30
0.0
  0
VERTEX
  5
1CC
330
1CA
100
AcDbEntity
  8
0
 62
     7
420
 16777215
370
     9
100
AcDbVertex
100
AcDb2dVertex
 10
187.9357671081108
 20
160.4221828837013
 30
0.0
  0
SEQEND
  5
1CD
330
1CA
100
AcDbEntity
  8
0
370
     9
  0
ENDBLK
  5
1C9
330
1C6
100
AcDbEntity
  8
0
100
AcDbBlockEnd
  0
BLOCK
  5
1D0
330
1CE
100
AcDbEntity
  8
0
100
AcDbBlockBegin
  2
block 58
 70
     0
 71
     0
 10
0.0
 20
0.0
 30
0.0
  3
block 58
  1

  0
POLYLINE
  5
1D2
330
1CE
100
AcDbEntity
  8
0
 62
     7
420
 16777215
370
     9
100
AcDb2dPolyline
 66
     1
 10
0.0
 20
0.0
 30
0.0
  0
VERTEX
  5
1D3
330
1D2
100
AcDbEntity
  8
0
 62
     7
420
 16777215
370
     9
100
AcDbVertex
100
AcDb2dVertex
 10
194.8697153655602
 20
163.9411779885713
 30
0.0
  0
VERTEX
  5
1D4
330
1D2
100
AcDbEntity
  8
0
 62
     7
420
 16777215
370
     9
100
AcDbVertex
100
AcDb2dVertex
 10
185.4518516246204
 20
163.9411779885713
 30
0.0
  0
SEQEND
  5
1D5
330
1D2
100
AcDbEntity
  8
0
370
     9
  0
ENDBLK
  5
1D1
330
1CE
100
AcDbEntity
  8
0
100
AcDbBlockEnd
  0
BLOCK
  5
1D8
330
1D6
100
AcDbEntity
  8
0
100
AcDbBlockBegin
  2
block 59
 70
     0
 71
     0
 10
0.0
 20
0.0
 30
0.0
  3
block 59
  1

  0
POLYLINE
  5
1DA
330
1D6
100
AcDbEntity
  8
0
 62
     7
420
 16777215
370
     9
100
AcDb2dPolyline
 66
     1
 10
0.0
 20
0.0
 30
0.0
  0
VERTEX
  5
1DB
330
1DA
100
AcDbEntity
  8
0
 62
     7
420
 16777215
370
     9
100
AcDbVertex
100
AcDb2dVertex
 10
194.8697153655602
 20
195.9910946857768
 30
0.0
  0
VERTEX
  5
1DC
330
1DA
100
AcDbEntity
  8
0
 62
     7
420
 16777215
370
     9
100
AcDbVertex
100
AcDb2dVertex
 10
194.8697153655602
 20
164.5459648999814
 30
0.0
  0
SEQEND
  5
1DD
330
1DA
100
AcDbEntity
  8
0
370
     9
  0
ENDBLK
  5
1D9
330
1D6
100
AcDbEntity
  8
0
100
AcDbBlockEnd
  0
BLOCK
  5
1E0
330
1DE
100
AcDbEntity
  8
0
100
AcDbBlockBegin
  2
block 60
 70
     0
 71
     0
 10
0.0
 20
0.0
 30
0.0
  3
block 60
  1

  0
POLYLINE
  5
1E2
330
1DE
100
AcDbEntity
  8
0
 62
     7
420
 16777215
370
     9
100
AcDb2dPolyline
 66
     1
 10
0.0
 20
0.0
 30
0.0
  0
VERTEX
  5
1E3
330
1E2
100
AcDbEntity
  8
0
 62
     7
420
 16777215
370
     9
100
AcDbVertex
100
AcDb2dVertex
 10
199.423445582034
 20
164.5459648999814
 30
0.0
  0
VERTEX
  5
1E4
330
1E2
100
AcDbEntity
  8
0
 62
     7
420
 16777215
370
     9
100
AcDbVertex
100
AcDb2dVertex
 10
199.423445582034
 20
195.9910946857768
 30
0.0
  0
SEQEND
  5
1E5
330
1E2
100
AcDbEntity
  8
0
370
     9
  0
ENDBLK
  5
1E1
330
1DE
100
AcDbEntity
  8
0
100
AcDbBlockEnd
  0
BLOCK
  5
1E8
330
1E6
100
AcDbEntity
  8
0
100
AcDbBlockBegin
  2
block 61
 70
     0
 71
     0
 10
0.0
 20
0.0
 30
0.0
  3
block 61
  1

  0
POLYLINE
  5
1EA
330
1E6
100
AcDbEntity
  8
0
 62
     7
420
 16777215
370
     9
100
AcDb2dPolyline
 66
     1
 10
0.0
 20
0.0
 30
0.0
  0
VERTEX
  5
1EB
330
1EA
100
AcDbEntity
  8
0
 62
     7
420
 16777215
370
     9
100
AcDbVertex
100
AcDb2dVertex
 10
199.423445582034
 20
162.1815943086924
 30
0.0
  0
VERTEX
  5
1EC
330
1EA
100
AcDbEntity
  8
0
 62
     7
420
 16777215
370
     9
100
AcDbVertex
100
AcDb2dVertex
 10
199.423445582034
 20
164.5459648999814
 30
0.0
  0
SEQEND
  5
1ED
330
1EA
100
AcDbEntity
  8
0
370
     9
  0
ENDBLK
  5
1E9
330
1E6
100
AcDbEntity
  8
0
100
AcDbBlockEnd
  0
BLOCK
  5
1F0
330
1EE
100
AcDbEntity
  8
0
100
AcDbBlockBegin
  2
block 62
 70
     0
 71
     0
 10
0.0
 20
0.0
 30
0.0
  3
block 62
  1

  0
POLYLINE
  5
1F2
330
1EE
100
AcDbEntity
  8
0
 62
     7
420
 16777215
370
     9
100
AcDb2dPolyline
 66
     1
 10
0.0
 20
0.0
 30
0.0
  0
VERTEX
  5
1F3
330
1F2
100
AcDbEntity
  8
0
 62
     7
420
 16777215
370
     9
100
AcDbVertex
100
AcDb2dVertex
 10
194.8697153655602
 20
164.5459648999814
 30
0.0
  0
VERTEX
  5
1F4
330
1F2
100
AcDbEntity
  8
0
 62
     7
420
 16777215
370
     9
100
AcDbVertex
100
AcDb2dVertex
 10
194.8697153655602
 20
162.1815943086924
 30
0.0
  0
SEQEND
  5
1F5
330
1F2
100
AcDbEntity
  8
0
370
     9
  0
ENDBLK
  5
1F1
330
1EE
100
AcDbEntity
  8
0
100
AcDbBlockEnd
  0
BLOCK
  5
1F8
330
1F6
100
AcDbEntity
  8
0
100
AcDbBlockBegin
  2
block 63
 70
     0
 71
     0
 10
0.0
 20
0.0
 30
0.0
  3
block 63
  1

  0
SPLINE
  5
1FA
330
1F6
100
AcDbEntity
  8
0
 62
     7
420
 16777215
370
     9
100
AcDbSpline
210
0.0
220
0.0
230
1.0
 70
     8
 71
     3
 72
     8
 73
     4
 74
     0
 42
0.0000000001
 43
0.0000000001
 40
0.0
 40
0.0
 40
0.0
 40
0.0
 40
1.0
 40
1.0
 40
1.0
 40
1.0
 10
187.8699657409337
 20
205.0108773807842
 30
0.0
 10
187.8499841739375
 20
205.1597056039281
 30
0.0
 10
187.7132137929464
 20
205.2768389276988
 30
0.0
 10
187.5630075306993
 20
205.2742551043803
 30
0.0
  0
ENDBLK
  5
1F9
330
1F6
100
AcDbEntity
  8
0
100
AcDbBlockEnd
  0
BLOCK
  5
1FD
330
1FB
100
AcDbEntity
  8
0
100
AcDbBlockBegin
  2
block 64
 70
     0
 71
     0
 10
0.0
 20
0.0
 30
0.0
  3
block 64
  1

  0
SPLINE
  5
1FF
330
1FB
100
AcDbEntity
  8
0
 62
     7
420
 16777215
370
     9
100
AcDbSpline
210
0.0
220
0.0
230
1.0
 70
     8
 71
     3
 72
     8
 73
     4
 74
     0
 42
0.0000000001
 43
0.0000000001
 40
0.0
 40
0.0
 40
0.0
 40
0.0
 40
1.0
 40
1.0
 40
1.0
 40
1.0
 10
187.5630075306993
 20
192.8550221967042
 30
0.0
 10
187.7132137929464
 20
192.8524383733858
 30
0.0
 10
187.8499841739375
 20
192.9695716971565
 30
0.0
 10
187.8699657409337
 20
193.1183999203004
 30
0.0
  0
ENDBLK
  5
1FE
330
1FB
100
AcDbEntity
  8
0
100
AcDbBlockEnd
  0
BLOCK
  5
202
330
200
100
AcDbEntity
  8
0
100
AcDbBlockBegin
  2
block 65
 70
     0
 71
     0
 10
0.0
 20
0.0
 30
0.0
  3
block 65
  1

  0
POLYLINE
  5
204
330
200
100
AcDbEntity
  8
0
 62
     7
420
 16777215
370
     9
100
AcDb2dPolyline
 66
     1
 10
0.0
 20
0.0
 30
0.0
  0
VERTEX
  5
205
330
204
100
AcDbEntity
  8
0
 62
     7
420
 16777215
370
     9
100
AcDbVertex
100
AcDb2dVertex
 10
187.5630075306993
 20
205.2742551043803
 30
0.0
  0
VERTEX
  5
206
330
204
100
AcDbEntity
  8
0
 62
     7
420
 16777215
370
     9
100
AcDbVertex
100
AcDb2dVertex
 10
185.913839233963
 20
205.2742551043803
 30
0.0
  0
SEQEND
  5
207
330
204
100
AcDbEntity
  8
0
370
     9
  0
ENDBLK
  5
203
330
200
100
AcDbEntity
  8
0
100
AcDbBlockEnd
  0
BLOCK
  5
20A
330
208
100
AcDbEntity
  8
0
100
AcDbBlockBegin
  2
block 66
 70
     0
 71
     0
 10
0.0
 20
0.0
 30
0.0
  3
block 66
  1

  0
POLYLINE
  5
20C
330
208
100
AcDbEntity
  8
0
 62
     7
420
 16777215
370
     9
100
AcDb2dPolyline
 66
     1
 10
0.0
 20
0.0
 30
0.0
  0
VERTEX
  5
20D
330
20C
100
AcDbEntity
  8
0
 62
     7
420
 16777215
370
     9
100
AcDbVertex
100
AcDb2dVertex
 10
185.913839233963
 20
192.8550221967042
 30
0.0
  0
VERTEX
  5
20E
330
20C
100
AcDbEntity
  8
0
 62
     7
420
 16777215
370
     9
100
AcDbVertex
100
AcDb2dVertex
 10
187.5630075306993
 20
192.8550221967042
 30
0.0
  0
SEQEND
  5
20F
330
20C
100
AcDbEntity
  8
0
370
     9
  0
ENDBLK
  5
20B
330
208
100
AcDbEntity
  8
0
100
AcDbBlockEnd
  0
BLOCK
  5
212
330
210
100
AcDbEntity
  8
0
100
AcDbBlockBegin
  2
block 67
 70
     0
 71
     0
 10
0.0
 20
0.0
 30
0.0
  3
block 67
  1

  0
POLYLINE
  5
214
330
210
100
AcDbEntity
  8
0
 62
     7
420
 16777215
370
     9
100
AcDb2dPolyline
 66
     1
 10
0.0
 20
0.0
 30
0.0
  0
VERTEX
  5
215
330
214
100
AcDbEntity
  8
0
 62
     7
420
 16777215
370
     9
100
AcDbVertex
100
AcDb2dVertex
 10
185.913839233963
 20
205.2742551043803
 30
0.0
  0
VERTEX
  5
216
330
214
100
AcDbEntity
  8
0
 62
     7
420
 16777215
370
     9
100
AcDbVertex
100
AcDb2dVertex
 10
185.555549067135
 20
205.1779646220453
 30
0.0
  0
SEQEND
  5
217
330
214
100
AcDbEntity
  8
0
370
     9
  0
ENDBLK
  5
213
330
210
100
AcDbEntity
  8
0
100
AcDbBlockEnd
  0
BLOCK
  5
21A
330
218
100
AcDbEntity
  8
0
100
AcDbBlockBegin
  2
block 68
 70
     0
 71
     0
 10
0.0
 20
0.0
 30
0.0
  3
block 68
  1

  0
POLYLINE
  5
21C
330
218
100
AcDbEntity
  8
0
 62
     7
420
 16777215
370
     9
100
AcDb2dPolyline
 66
     1
 10
0.0
 20
0.0
 30
0.0
  0
VERTEX
  5
21D
330
21C
100
AcDbEntity
  8
0
 62
     7
420
 16777215
370
     9
100
AcDbVertex
100
AcDb2dVertex
 10
185.555549067135
 20
192.9513126790393
 30
0.0
  0
VERTEX
  5
21E
330
21C
100
AcDbEntity
  8
0
 62
     7
420
 16777215
370
     9
100
AcDbVertex
100
AcDb2dVertex
 10
185.913839233963
 20
192.8550221967042
 30
0.0
  0
SEQEND
  5
21F
330
21C
100
AcDbEntity
  8
0
370
     9
  0
ENDBLK
  5
21B
330
218
100
AcDbEntity
  8
0
100
AcDbBlockEnd
  0
BLOCK
  5
222
330
220
100
AcDbEntity
  8
0
100
AcDbBlockBegin
  2
block 69
 70
     0
 71
     0
 10
0.0
 20
0.0
 30
0.0
  3
block 69
  1

  0
SPLINE
  5
224
330
220
100
AcDbEntity
  8
0
 62
     7
420
 16777215
370
     9
100
AcDbSpline
210
0.0
220
0.0
230
1.0
 70
     8
 71
     3
 72
     8
 73
     4
 74
     0
 42
0.0000000001
 43
0.0000000001
 40
0.0
 40
0.0
 40
0.0
 40
0.0
 40
1.0
 40
1.0
 40
1.0
 40
1.0
 10
188.1424729735884
 20
201.4450289464059
 30
0.0
 10
188.163488069912
 20
202.3648700477817
 30
0.0
 10
188.0305072964547
 20
204.1049889253281
 30
0.0
 10
187.8699657409337
 20
205.0108773807842
 30
0.0
  0
ENDBLK
  5
223
330
220
100
AcDbEntity
  8
0
100
AcDbBlockEnd
  0
BLOCK
  5
227
330
225
100
AcDbEntity
  8
0
100
AcDbBlockBegin
  2
block 70
 70
     0
 71
     0
 10
0.0
 20
0.0
 30
0.0
  3
block 70
  1

  0
SPLINE
  5
229
330
225
100
AcDbEntity
  8
0
 62
     7
420
 16777215
370
     9
100
AcDbSpline
210
0.0
220
0.0
230
1.0
 70
     8
 71
     3
 72
     8
 73
     4
 74
     0
 42
0.0000000001
 43
0.0000000001
 40
0.0
 40
0.0
 40
0.0
 40
0.0
 40
1.0
 40
1.0
 40
1.0
 40
1.0
 10
187.8699657409337
 20
193.1183999203004
 30
0.0
 10
188.0305072964547
 20
194.0242883757564
 30
0.0
 10
188.163488069912
 20
195.7644072533029
 30
0.0
 10
188.1424729735884
 20
196.6842483546787
 30
0.0
  0
ENDBLK
  5
228
330
225
100
AcDbEntity
  8
0
100
AcDbBlockEnd
  0
BLOCK
  5
22C
330
22A
100
AcDbEntity
  8
0
100
AcDbBlockBegin
  2
block 71
 70
     0
 71
     0
 10
0.0
 20
0.0
 30
0.0
  3
block 71
  1

  0
POLYLINE
  5
22E
330
22A
100
AcDbEntity
  8
0
 62
     7
420
 16777215
370
     9
100
AcDb2dPolyline
 66
     1
 10
0.0
 20
0.0
 30
0.0
  0
VERTEX
  5
22F
330
22E
100
AcDbEntity
  8
0
 62
     7
420
 16777215
370
     9
100
AcDbVertex
100
AcDb2dVertex
 10
185.5562380866866
 20
200.0578603341626
 30
0.0
  0
VERTEX
  5
230
330
22E
100
AcDbEntity
  8
0
 62
     7
420
 16777215
370
     9
100
AcDbVertex
100
AcDb2dVertex
 10
185.5328114219325
 20
199.97776181129
 30
0.0
  0
VERTEX
  5
231
330
22E
100
AcDbEntity
  8
0
 62
     7
420
 16777215
370
     9
100
AcDbVertex
100
AcDb2dVertex
 10
185.5138633842637
 20
199.8134306482353
 30
0.0
  0
SEQEND
  5
232
330
22E
100
AcDbEntity
  8
0
370
     9
  0
ENDBLK
  5
22D
330
22A
100
AcDbEntity
  8
0
100
AcDbBlockEnd
  0
BLOCK
  5
235
330
233
100
AcDbEntity
  8
0
100
AcDbBlockBegin
  2
block 72
 70
     0
 71
     0
 10
0.0
 20
0.0
 30
0.0
  3
block 72
  1

  0
POLYLINE
  5
237
330
233
100
AcDbEntity
  8
0
 62
     7
420
 16777215
370
     9
100
AcDb2dPolyline
 66
     1
 10
0.0
 20
0.0
 30
0.0
  0
VERTEX
  5
238
330
237
100
AcDbEntity
  8
0
 62
     7
420
 16777215
370
     9
100
AcDbVertex
100
AcDb2dVertex
 10
185.5138633842637
 20
198.3158466528493
 30
0.0
  0
VERTEX
  5
239
330
237
100
AcDbEntity
  8
0
 62
     7
420
 16777215
370
     9
100
AcDbVertex
100
AcDb2dVertex
 10
185.5328114219325
 20
198.1515154897945
 30
0.0
  0
VERTEX
  5
23A
330
237
100
AcDbEntity
  8
0
 62
     7
420
 16777215
370
     9
100
AcDbVertex
100
AcDb2dVertex
 10
185.555549067135
 20
198.0743453000162
 30
0.0
  0
SEQEND
  5
23B
330
237
100
AcDbEntity
  8
0
370
     9
  0
ENDBLK
  5
236
330
233
100
AcDbEntity
  8
0
100
AcDbBlockEnd
  0
BLOCK
  5
23E
330
23C
100
AcDbEntity
  8
0
100
AcDbBlockBegin
  2
block 73
 70
     0
 71
     0
 10
0.0
 20
0.0
 30
0.0
  3
block 73
  1

  0
POLYLINE
  5
240
330
23C
100
AcDbEntity
  8
0
 62
     7
420
 16777215
370
     9
100
AcDb2dPolyline
 66
     1
 10
0.0
 20
0.0
 30
0.0
  0
VERTEX
  5
241
330
240
100
AcDbEntity
  8
0
 62
     7
420
 16777215
370
     9
100
AcDbVertex
100
AcDb2dVertex
 10
188.1424729735884
 20
196.7877735423054
 30
0.0
  0
VERTEX
  5
242
330
240
100
AcDbEntity
  8
0
 62
     7
420
 16777215
370
     9
100
AcDbVertex
100
AcDb2dVertex
 10
193.2140013830839
 20
196.7877735423054
 30
0.0
  0
SEQEND
  5
243
330
240
100
AcDbEntity
  8
0
370
     9
  0
ENDBLK
  5
23F
330
23C
100
AcDbEntity
  8
0
100
AcDbBlockEnd
  0
BLOCK
  5
246
330
244
100
AcDbEntity
  8
0
100
AcDbBlockBegin
  2
block 74
 70
     0
 71
     0
 10
0.0
 20
0.0
 30
0.0
  3
block 74
  1

  0
POLYLINE
  5
248
330
244
100
AcDbEntity
  8
0
 62
     7
420
 16777215
370
     9
100
AcDb2dPolyline
 66
     1
 10
0.0
 20
0.0
 30
0.0
  0
VERTEX
  5
249
330
248
100
AcDbEntity
  8
0
 62
     7
420
 16777215
370
     9
100
AcDbVertex
100
AcDb2dVertex
 10
193.2140013830839
 20
201.3415037587792
 30
0.0
  0
VERTEX
  5
24A
330
248
100
AcDbEntity
  8
0
 62
     7
420
 16777215
370
     9
100
AcDbVertex
100
AcDb2dVertex
 10
188.1424729735884
 20
201.3415037587792
 30
0.0
  0
SEQEND
  5
24B
330
248
100
AcDbEntity
  8
0
370
     9
  0
ENDBLK
  5
247
330
244
100
AcDbEntity
  8
0
100
AcDbBlockEnd
  0
BLOCK
  5
24E
330
24C
100
AcDbEntity
  8
0
100
AcDbBlockBegin
  2
block 75
 70
     0
 71
     0
 10
0.0
 20
0.0
 30
0.0
  3
block 75
  1

  0
SPLINE
  5
250
330
24C
100
AcDbEntity
  8
0
 62
     7
420
 16777215
370
     9
100
AcDbSpline
210
0.0
220
0.0
230
1.0
 70
     8
 71
     3
 72
    62
 73
    58
 74
     0
 42
0.0000000001
 43
0.0000000001
 40
0.0
 40
0.0
 40
0.0
 40
0.0
 40
1.0
 40
1.0
 40
1.0
 40
2.0
 40
2.0
 40
2.0
 40
3.0
 40
3.0
 40
3.0
 40
4.0
 40
4.0
 40
4.0
 40
5.0
 40
5.0
 40
5.0
 40
6.0
 40
6.0
 40
6.0
 40
7.0
 40
7.0
 40
7.0
 40
8.0
 40
8.0
 40
8.0
 40
9.0
 40
9.0
 40
9.0
 40
10.0
 40
10.0
 40
10.0
 40
11.0
 40
11.0
 40
11.0
 40
12.0
 40
12.0
 40
12.0
 40
13.0
 40
13.0
 40
13.0
 40
14.0
 40
14.0
 40
14.0
 40
15.0
 40
15.0
 40
15.0
 40
16.0
 40
16.0
 40
16.0
 40
17.0
 40
17.0
 40
17.0
 40
18.0
 40
18.0
 40
18.0
 40
19.0
 40
19.0
 40
19.0
 40
19.0
 10
193.2140013830839
 20
196.7877735423054
 30
0.0
 10
193.2663668690049
 20
196.7870845227538
 30
0.0
 10
193.3187323549259
 20
196.7862232483143
 30
0.0
 10
193.3707533310711
 20
196.7841561896595
 30
0.0
 10
193.3707533310711
 20
196.7841561896595
 30
0.0
 10
193.3707533310711
 20
196.7841561896595
 30
0.0
 10
193.3707533310711
 20
196.7841561896595
 30
0.0
 10
193.4803074397743
 20
196.7793330527984
 30
0.0
 10
193.5888280191501
 20
196.768136485085
 30
0.0
 10
193.6942480105437
 20
196.7521167805105
 30
0.0
 10
193.6942480105437
 20
196.7521167805105
 30
0.0
 10
193.6942480105437
 20
196.7521167805105
 30
0.0
 10
193.6942480105437
 20
196.7521167805105
 30
0.0
 10
193.7993234921615
 20
196.736097075936
 30
0.0
 10
193.9009538760214
 20
196.7154264893882
 30
0.0
 10
193.9977611230201
 20
196.6902772757551
 30
0.0
 10
193.9977611230201
 20
196.6902772757551
 30
0.0
 10
193.9977611230201
 20
196.6902772757551
 30
0.0
 10
193.9977611230201
 20
196.6902772757551
 30
0.0
 10
194.0931903309157
 20
196.6654725718978
 30
0.0
 10
194.1841409117258
 20
196.6365337507309
 30
0.0
 10
194.2675122774685
 20
196.6046665964697
 30
0.0
 10
194.2675122774685
 20
196.6046665964697
 30
0.0
 10
194.2675122774685
 20
196.6046665964697
 30
0.0
 10
194.2675122774685
 20
196.6046665964697
 30
0.0
 10
194.3498501138838
 20
196.5733162068723
 30
0.0
 10
194.425642264559
 20
196.5392097390685
 30
0.0
 10
194.4928216708392
 20
196.5042419968252
 30
0.0
 10
194.4928216708392
 20
196.5042419968252
 30
0.0
 10
194.4928216708392
 20
196.5042419968252
 30
0.0
 10
194.4928216708392
 20
196.5042419968252
 30
0.0
 10
194.5600010771195
 20
196.4694465094697
 30
0.0
 10
194.618223229229
 20
196.4339620025627
 30
0.0
 10
194.6671436173921
 20
196.4002000445347
 30
0.0
 10
194.6671436173921
 20
196.4002000445347
 30
0.0
 10
194.6671436173921
 20
196.4002000445347
 30
0.0
 10
194.6671436173921
 20
196.4002000445347
 30
0.0
 10
194.7164085153309
 20
196.365921321843
 30
0.0
 10
194.7567161590991
 20
196.3333651480303
 30
0.0
 10
194.7873775291449
 20
196.3054598561908
 30
0.0
 10
194.7873775291449
 20
196.3054598561908
 30
0.0
 10
194.7873775291449
 20
196.3054598561908
 30
0.0
 10
194.7873775291449
 20
196.3054598561908
 30
0.0
 10
194.8190724285182
 20
196.2766932899118
 30
0.0
 10
194.841465563945
 20
196.2525776056061
 30
0.0
 10
194.85662399408
 20
196.2334573130494
 30
0.0
 10
194.85662399408
 20
196.2334573130494
 30
0.0
 10
194.85662399408
 20
196.2334573130494
 30
0.0
 10
194.85662399408
 20
196.2334573130494
 30
0.0
 10
194.8731604633182
 20
196.2129589813895
 30
0.0
 10
194.8821177174889
 20
196.1976282963666
 30
0.0
 10
194.8831512468163
 20
196.1955612377118
 30
0.0
 10
194.8831512468163
 20
196.1955612377118
 30
0.0
 10
194.8831512468163
 20
196.1955612377118
 30
0.0
 10
194.8831512468163
 20
196.1955612377118
 30
0.0
 10
194.8841847761437
 20
196.1948722181602
 30
0.0
 10
194.8834957565921
 20
196.1962502572634
 30
0.0
 10
194.8828067370405
 20
196.1978005512545
 30
0.0
  0
ENDBLK
  5
24F
330
24C
100
AcDbEntity
  8
0
100
AcDbBlockEnd
  0
BLOCK
  5
253
330
251
100
AcDbEntity
  8
0
100
AcDbBlockBegin
  2
block 76
 70
     0
 71
     0
 10
0.0
 20
0.0
 30
0.0
  3
block 76
  1

  0
SPLINE
  5
255
330
251
100
AcDbEntity
  8
0
 62
     7
420
 16777215
370
     9
100
AcDbSpline
210
0.0
220
0.0
230
1.0
 70
     8
 71
     3
 72
    98
 73
    94
 74
     0
 42
0.0000000001
 43
0.0000000001
 40
0.0
 40
0.0
 40
0.0
 40
0.0
 40
1.0
 40
1.0
 40
1.0
 40
2.0
 40
2.0
 40
2.0
 40
3.0
 40
3.0
 40
3.0
 40
4.0
 40
4.0
 40
4.0
 40
5.0
 40
5.0
 40
5.0
 40
6.0
 40
6.0
 40
6.0
 40
7.0
 40
7.0
 40
7.0
 40
8.0
 40
8.0
 40
8.0
 40
9.0
 40
9.0
 40
9.0
 40
10.0
 40
10.0
 40
10.0
 40
11.0
 40
11.0
 40
11.0
 40
12.0
 40
12.0
 40
12.0
 40
13.0
 40
13.0
 40
13.0
 40
14.0
 40
14.0
 40
14.0
 40
15.0
 40
15.0
 40
15.0
 40
16.0
 40
16.0
 40
16.0
 40
17.0
 40
17.0
 40
17.0
 40
18.0
 40
18.0
 40
18.0
 40
19.0
 40
19.0
 40
19.0
 40
20.0
 40
20.0
 40
20.0
 40
21.0
 40
21.0
 40
21.0
 40
22.0
 40
22.0
 40
22.0
 40
23.0
 40
23.0
 40
23.0
 40
24.0
 40
24.0
 40
24.0
 40
25.0
 40
25.0
 40
25.0
 40
26.0
 40
26.0
 40
26.0
 40
27.0
 40
27.0
 40
27.0
 40
28.0
 40
28.0
 40
28.0
 40
29.0
 40
29.0
 40
29.0
 40
30.0
 40
30.0
 40
30.0
 40
31.0
 40
31.0
 40
31.0
 40
31.0
 10
199.423445582034
 20
196.2837557403156
 30
0.0
 10
199.4193114647244
 20
196.4191480822035
 30
0.0
 10
199.4155218571907
 20
196.5545404240914
 30
0.0
 10
199.4038085248136
 20
196.6892437464277
 30
0.0
 10
199.4038085248136
 20
196.6892437464277
 30
0.0
 10
199.4038085248136
 20
196.6892437464277
 30
0.0
 10
199.4038085248136
 20
196.6892437464277
 30
0.0
 10
199.3886500946786
 20
196.8633934380927
 30
0.0
 10
199.3600557832875
 20
197.0366818553181
 30
0.0
 10
199.3218151981741
 20
197.2077309590009
 30
0.0
 10
199.3218151981741
 20
197.2077309590009
 30
0.0
 10
199.3218151981741
 20
197.2077309590009
 30
0.0
 10
199.3218151981741
 20
197.2077309590009
 30
0.0
 10
199.2835746130608
 20
197.37826329802
 30
0.0
 10
199.2356877542251
 20
197.5469008332723
 30
0.0
 10
199.1774656021155
 20
197.7119210158786
 30
0.0
 10
199.1774656021155
 20
197.7119210158786
 30
0.0
 10
199.1774656021155
 20
197.7119210158786
 30
0.0
 10
199.1774656021155
 20
197.7119210158786
 30
0.0
 10
199.119243450006
 20
197.8776302180366
 30
0.0
 10
199.0510305143983
 20
198.0398943224366
 30
0.0
 10
198.9731713050684
 20
198.198024309527
 30
0.0
 10
198.9731713050684
 20
198.198024309527
 30
0.0
 10
198.9731713050684
 20
198.198024309527
 30
0.0
 10
198.9731713050684
 20
198.198024309527
 30
0.0
 10
198.8949675859627
 20
198.3577045906085
 30
0.0
 10
198.8074621029104
 20
198.5127339897168
 30
0.0
 10
198.7113438754633
 20
198.6627679970761
 30
0.0
 10
198.7113438754633
 20
198.6627679970761
 30
0.0
 10
198.7113438754633
 20
198.6627679970761
 30
0.0
 10
198.7113438754633
 20
198.6627679970761
 30
0.0
 10
198.6135030991372
 20
198.8146968082022
 30
0.0
 10
198.5070495784162
 20
198.9612857178034
 30
0.0
 10
198.3926723328518
 20
199.1021902161041
 30
0.0
 10
198.3926723328518
 20
199.1021902161041
 30
0.0
 10
198.3926723328518
 20
199.1021902161041
 30
0.0
 10
198.3926723328518
 20
199.1021902161041
 30
0.0
 10
198.2769170481843
 20
199.2455062828353
 30
0.0
 10
198.1525490191219
 20
199.3826211736022
 30
0.0
 10
198.0202572652162
 20
199.5133626335168
 30
0.0
 10
198.0202572652162
 20
199.5133626335168
 30
0.0
 10
198.0202572652162
 20
199.5133626335168
 30
0.0
 10
198.0202572652162
 20
199.5133626335168
 30
0.0
 10
197.8865874722073
 20
199.6463434069741
 30
0.0
 10
197.7446494445793
 20
199.7729507495792
 30
0.0
 10
197.5961657312111
 20
199.8924956417805
 30
0.0
 10
197.5961657312111
 20
199.8924956417805
 30
0.0
 10
197.5961657312111
 20
199.8924956417805
 30
0.0
 10
197.5961657312111
 20
199.8924956417805
 30
0.0
 10
197.4456149591882
 20
200.0139353377486
 30
0.0
 10
197.2878294818735
 20
200.128140328425
 30
0.0
 10
197.1238428285946
 20
200.2351106138098
 30
0.0
 10
197.1238428285946
 20
200.2351106138098
 30
0.0
 10
197.1238428285946
 20
200.2351106138098
 30
0.0
 10
197.1238428285946
 20
200.2351106138098
 30
0.0
 10
196.9571000971092
 20
200.3436311931856
 30
0.0
 10
196.7845006994353
 20
200.4444003026059
 30
0.0
 10
196.6063891453487
 20
200.5375901969588
 30
0.0
 10
196.6063891453487
 20
200.5375901969588
 30
0.0
 10
196.6063891453487
 20
200.5375901969588
 30
0.0
 10
196.6063891453487
 20
200.5375901969588
 30
0.0
 10
196.4265550423831
 20
200.6318136206391
 30
0.0
 10
196.240864273229
 20
200.7177688097002
 30
0.0
 10
196.0510393867653
 20
200.795800273918
 30
0.0
 10
196.0510393867653
 20
200.795800273918
 30
0.0
 10
196.0510393867653
 20
200.795800273918
 30
0.0
 10
196.0510393867653
 20
200.795800273918
 30
0.0
 10
195.8591474416468
 20
200.8743485027996
 30
0.0
 10
195.6634658889946
 20
200.944628497062
 30
0.0
 10
195.463305709257
 20
201.0064680018174
 30
0.0
 10
195.463305709257
 20
201.0064680018174
 30
0.0
 10
195.463305709257
 20
201.0064680018174
 30
0.0
 10
195.463305709257
 20
201.0064680018174
 30
0.0
 10
195.2628010197436
 20
201.0686520163486
 30
0.0
 10
195.0581622129207
 20
201.1222232864849
 30
0.0
 10
194.8511118376672
 20
201.1671818122263
 30
0.0
 10
194.8511118376672
 20
201.1671818122263
 30
0.0
 10
194.8511118376672
 20
201.1671818122263
 30
0.0
 10
194.8511118376672
 20
201.1671818122263
 30
0.0
 10
194.6433724428622
 20
201.2121403379677
 30
0.0
 10
194.4328769698507
 20
201.2484861193142
 30
0.0
 10
194.2210034577361
 20
201.2763914111537
 30
0.0
 10
194.2210034577361
 20
201.2763914111537
 30
0.0
 10
194.2210034577361
 20
201.2763914111537
 30
0.0
 10
194.2210034577361
 20
201.2763914111537
 30
0.0
 10
194.0084409260698
 20
201.3042967029932
 30
0.0
 10
193.7941558455246
 20
201.3239337602135
 30
0.0
 10
193.5798707649794
 20
201.3328910143842
 30
0.0
 10
193.5798707649794
 20
201.3328910143842
 30
0.0
 10
193.5798707649794
 20
201.3328910143842
 30
0.0
 10
193.5798707649794
 20
201.3328910143842
 30
0.0
 10
193.4579143043475
 20
201.3380586610212
 30
0.0
 10
193.3356133339399
 20
201.3397812099002
 30
0.0
 10
193.2140013830839
 20
201.3415037587792
 30
0.0
  0
ENDBLK
  5
254
330
251
100
AcDbEntity
  8
0
100
AcDbBlockEnd
  0
BLOCK
  5
258
330
256
100
AcDbEntity
  8
0
100
AcDbBlockBegin
  2
block 77
 70
     0
 71
     0
 10
0.0
 20
0.0
 30
0.0
  3
block 77
  1

  0
POLYLINE
  5
25A
330
256
100
AcDbEntity
  8
0
 62
     7
420
 16777215
370
     9
100
AcDb2dPolyline
 66
     1
 10
0.0
 20
0.0
 30
0.0
  0
VERTEX
  5
25B
330
25A
100
AcDbEntity
  8
0
 62
     7
420
 16777215
370
     9
100
AcDbVertex
100
AcDb2dVertex
 10
194.8697153655602
 20
196.1948722181602
 30
0.0
  0
VERTEX
  5
25C
330
25A
100
AcDbEntity
  8
0
 62
     7
420
 16777215
370
     9
100
AcDbVertex
100
AcDb2dVertex
 10
194.8697153655602
 20
195.9910946857768
 30
0.0
  0
SEQEND
  5
25D
330
25A
100
AcDbEntity
  8
0
370
     9
  0
ENDBLK
  5
259
330
256
100
AcDbEntity
  8
0
100
AcDbBlockEnd
  0
BLOCK
  5
260
330
25E
100
AcDbEntity
  8
0
100
AcDbBlockBegin
  2
block 78
 70
     0
 71
     0
 10
0.0
 20
0.0
 30
0.0
  3
block 78
  1

  0
POLYLINE
  5
262
330
25E
100
AcDbEntity
  8
0
 62
     7
420
 16777215
370
     9
100
AcDb2dPolyline
 66
     1
 10
0.0
 20
0.0
 30
0.0
  0
VERTEX
  5
263
330
262
100
AcDbEntity
  8
0
 62
     7
420
 16777215
370
     9
100
AcDbVertex
100
AcDb2dVertex
 10
199.423445582034
 20
195.9910946857768
 30
0.0
  0
VERTEX
  5
264
330
262
100
AcDbEntity
  8
0
 62
     7
420
 16777215
370
     9
100
AcDbVertex
100
AcDb2dVertex
 10
199.423445582034
 20
196.2837557403156
 30
0.0
  0
SEQEND
  5
265
330
262
100
AcDbEntity
  8
0
370
     9
  0
ENDBLK
  5
261
330
25E
100
AcDbEntity
  8
0
100
AcDbBlockEnd
  0
BLOCK
  5
268
330
266
100
AcDbEntity
  8
0
100
AcDbBlockBegin
  2
block 79
 70
     0
 71
     0
 10
0.0
 20
0.0
 30
0.0
  3
block 79
  1

  0
POLYLINE
  5
26A
330
266
100
AcDbEntity
  8
0
 62
     7
420
 16777215
370
     9
100
AcDb2dPolyline
 66
     1
 10
0.0
 20
0.0
 30
0.0
  0
VERTEX
  5
26B
330
26A
100
AcDbEntity
  8
0
 62
     7
420
 16777215
370
     9
100
AcDbVertex
100
AcDb2dVertex
 10
194.8697153655602
 20
164.4584594169292
 30
0.0
  0
VERTEX
  5
26C
330
26A
100
AcDbEntity
  8
0
 62
     7
420
 16777215
370
     9
100
AcDbVertex
100
AcDb2dVertex
 10
193.2140013830839
 20
164.4584594169292
 30
0.0
  0
SEQEND
  5
26D
330
26A
100
AcDbEntity
  8
0
370
     9
  0
ENDBLK
  5
269
330
266
100
AcDbEntity
  8
0
100
AcDbBlockEnd
  0
BLOCK
  5
270
330
26E
100
AcDbEntity
  8
0
100
AcDbBlockBegin
  2
block 80
 70
     0
 71
     0
 10
0.0
 20
0.0
 30
0.0
  3
block 80
  1

  0
POLYLINE
  5
272
330
26E
100
AcDbEntity
  8
0
 62
     7
420
 16777215
370
     9
100
AcDb2dPolyline
 66
     1
 10
0.0
 20
0.0
 30
0.0
  0
VERTEX
  5
273
330
272
100
AcDbEntity
  8
0
 62
     7
420
 16777215
370
     9
100
AcDbVertex
100
AcDb2dVertex
 10
193.2140013830839
 20
159.9047292004555
 30
0.0
  0
VERTEX
  5
274
330
272
100
AcDbEntity
  8
0
 62
     7
420
 16777215
370
     9
100
AcDbVertex
100
AcDb2dVertex
 10
197.1462359640213
 20
159.9047292004555
 30
0.0
  0
SEQEND
  5
275
330
272
100
AcDbEntity
  8
0
370
     9
  0
ENDBLK
  5
271
330
26E
100
AcDbEntity
  8
0
100
AcDbBlockEnd
  0
BLOCK
  5
278
330
276
100
AcDbEntity
  8
0
100
AcDbBlockBegin
  2
block 81
 70
     0
 71
     0
 10
0.0
 20
0.0
 30
0.0
  3
block 81
  1

  0
POLYLINE
  5
27A
330
276
100
AcDbEntity
  8
0
 62
     7
420
 16777215
370
     9
100
AcDb2dPolyline
 66
     1
 10
0.0
 20
0.0
 30
0.0
  0
VERTEX
  5
27B
330
27A
100
AcDbEntity
  8
0
 62
     7
420
 16777215
370
     9
100
AcDbVertex
100
AcDb2dVertex
 10
188.1424729735884
 20
159.9047292004555
 30
0.0
  0
VERTEX
  5
27C
330
27A
100
AcDbEntity
  8
0
 62
     7
420
 16777215
370
     9
100
AcDbVertex
100
AcDb2dVertex
 10
193.2140013830839
 20
159.9047292004555
 30
0.0
  0
SEQEND
  5
27D
330
27A
100
AcDbEntity
  8
0
370
     9
  0
ENDBLK
  5
279
330
276
100
AcDbEntity
  8
0
100
AcDbBlockEnd
  0
BLOCK
  5
280
330
27E
100
AcDbEntity
  8
0
100
AcDbBlockBegin
  2
block 82
 70
     0
 71
     0
 10
0.0
 20
0.0
 30
0.0
  3
block 82
  1

  0
POLYLINE
  5
282
330
27E
100
AcDbEntity
  8
0
 62
     7
420
 16777215
370
     9
100
AcDb2dPolyline
 66
     1
 10
0.0
 20
0.0
 30
0.0
  0
VERTEX
  5
283
330
282
100
AcDbEntity
  8
0
 62
     7
420
 16777215
370
     9
100
AcDbVertex
100
AcDb2dVertex
 10
193.2140013830839
 20
164.4584594169292
 30
0.0
  0
VERTEX
  5
284
330
282
100
AcDbEntity
  8
0
 62
     7
420
 16777215
370
     9
100
AcDbVertex
100
AcDb2dVertex
 10
188.1424729735884
 20
164.4584594169292
 30
0.0
  0
SEQEND
  5
285
330
282
100
AcDbEntity
  8
0
370
     9
  0
ENDBLK
  5
281
330
27E
100
AcDbEntity
  8
0
100
AcDbBlockEnd
  0
BLOCK
  5
288
330
286
100
AcDbEntity
  8
0
100
AcDbBlockBegin
  2
block 83
 70
     0
 71
     0
 10
0.0
 20
0.0
 30
0.0
  3
block 83
  1

  0
POLYLINE
  5
28A
330
286
100
AcDbEntity
  8
0
 62
     7
420
 16777215
370
     9
100
AcDb2dPolyline
 66
     1
 10
0.0
 20
0.0
 30
0.0
  0
VERTEX
  5
28B
330
28A
100
AcDbEntity
  8
0
 62
     7
420
 16777215
370
     9
100
AcDbVertex
100
AcDb2dVertex
 10
185.913839233963
 20
168.3912107625304
 30
0.0
  0
VERTEX
  5
28C
330
28A
100
AcDbEntity
  8
0
 62
     7
420
 16777215
370
     9
100
AcDbVertex
100
AcDb2dVertex
 10
185.555549067135
 20
168.2949202801954
 30
0.0
  0
SEQEND
  5
28D
330
28A
100
AcDbEntity
  8
0
370
     9
  0
ENDBLK
  5
289
330
286
100
AcDbEntity
  8
0
100
AcDbBlockEnd
  0
BLOCK
  5
290
330
28E
100
AcDbEntity
  8
0
100
AcDbBlockBegin
  2
block 84
 70
     0
 71
     0
 10
0.0
 20
0.0
 30
0.0
  3
block 84
  1

  0
POLYLINE
  5
292
330
28E
100
AcDbEntity
  8
0
 62
     7
420
 16777215
370
     9
100
AcDb2dPolyline
 66
     1
 10
0.0
 20
0.0
 30
0.0
  0
VERTEX
  5
293
330
292
100
AcDbEntity
  8
0
 62
     7
420
 16777215
370
     9
100
AcDbVertex
100
AcDb2dVertex
 10
185.555549067135
 20
156.0682683371893
 30
0.0
  0
VERTEX
  5
294
330
292
100
AcDbEntity
  8
0
 62
     7
420
 16777215
370
     9
100
AcDbVertex
100
AcDb2dVertex
 10
185.913839233963
 20
155.9721501097422
 30
0.0
  0
SEQEND
  5
295
330
292
100
AcDbEntity
  8
0
370
     9
  0
ENDBLK
  5
291
330
28E
100
AcDbEntity
  8
0
100
AcDbBlockEnd
  0
BLOCK
  5
298
330
296
100
AcDbEntity
  8
0
100
AcDbBlockBegin
  2
block 85
 70
     0
 71
     0
 10
0.0
 20
0.0
 30
0.0
  3
block 85
  1

  0
POLYLINE
  5
29A
330
296
100
AcDbEntity
  8
0
 62
     7
420
 16777215
370
     9
100
AcDb2dPolyline
 66
     1
 10
0.0
 20
0.0
 30
0.0
  0
VERTEX
  5
29B
330
29A
100
AcDbEntity
  8
0
 62
     7
420
 16777215
370
     9
100
AcDbVertex
100
AcDb2dVertex
 10
187.5630075306993
 20
168.3912107625304
 30
0.0
  0
VERTEX
  5
29C
330
29A
100
AcDbEntity
  8
0
 62
     7
420
 16777215
370
     9
100
AcDbVertex
100
AcDb2dVertex
 10
185.913839233963
 20
168.3912107625304
 30
0.0
  0
SEQEND
  5
29D
330
29A
100
AcDbEntity
  8
0
370
     9
  0
ENDBLK
  5
299
330
296
100
AcDbEntity
  8
0
100
AcDbBlockEnd
  0
BLOCK
  5
2A0
330
29E
100
AcDbEntity
  8
0
100
AcDbBlockBegin
  2
block 86
 70
     0
 71
     0
 10
0.0
 20
0.0
 30
0.0
  3
block 86
  1

  0
POLYLINE
  5
2A2
330
29E
100
AcDbEntity
  8
0
 62
     7
420
 16777215
370
     9
100
AcDb2dPolyline
 66
     1
 10
0.0
 20
0.0
 30
0.0
  0
VERTEX
  5
2A3
330
2A2
100
AcDbEntity
  8
0
 62
     7
420
 16777215
370
     9
100
AcDbVertex
100
AcDb2dVertex
 10
185.913839233963
 20
155.9721501097422
 30
0.0
  0
VERTEX
  5
2A4
330
2A2
100
AcDbEntity
  8
0
 62
     7
420
 16777215
370
     9
100
AcDbVertex
100
AcDb2dVertex
 10
187.5630075306993
 20
155.9721501097422
 30
0.0
  0
SEQEND
  5
2A5
330
2A2
100
AcDbEntity
  8
0
370
     9
  0
ENDBLK
  5
2A1
330
29E
100
AcDbEntity
  8
0
100
AcDbBlockEnd
  0
BLOCK
  5
2A8
330
2A6
100
AcDbEntity
  8
0
100
AcDbBlockBegin
  2
block 87
 70
     0
 71
     0
 10
0.0
 20
0.0
 30
0.0
  3
block 87
  1

  0
SPLINE
  5
2AA
330
2A6
100
AcDbEntity
  8
0
 62
     7
420
 16777215
370
     9
100
AcDbSpline
210
0.0
220
0.0
230
1.0
 70
     8
 71
     3
 72
     8
 73
     4
 74
     0
 42
0.0000000001
 43
0.0000000001
 40
0.0
 40
0.0
 40
0.0
 40
0.0
 40
1.0
 40
1.0
 40
1.0
 40
1.0
 10
187.8699657409337
 20
168.1280052938221
 30
0.0
 10
187.8499841739375
 20
168.2766612620782
 30
0.0
 10
187.7132137929464
 20
168.3937945858489
 30
0.0
 10
187.5630075306993
 20
168.3912107625304
 30
0.0
  0
ENDBLK
  5
2A9
330
2A6
100
AcDbEntity
  8
0
100
AcDbBlockEnd
  0
BLOCK
  5
2AD
330
2AB
100
AcDbEntity
  8
0
100
AcDbBlockBegin
  2
block 88
 70
     0
 71
     0
 10
0.0
 20
0.0
 30
0.0
  3
block 88
  1

  0
SPLINE
  5
2AF
330
2AB
100
AcDbEntity
  8
0
 62
     7
420
 16777215
370
     9
100
AcDbSpline
210
0.0
220
0.0
230
1.0
 70
     8
 71
     3
 72
     8
 73
     4
 74
     0
 42
0.0000000001
 43
0.0000000001
 40
0.0
 40
0.0
 40
0.0
 40
0.0
 40
1.0
 40
1.0
 40
1.0
 40
1.0
 10
187.5630075306993
 20
155.9721501097422
 30
0.0
 10
187.7132137929464
 20
155.9693940315358
 30
0.0
 10
187.8499841739375
 20
156.0865273553065
 30
0.0
 10
187.8699657409337
 20
156.2353555784505
 30
0.0
  0
ENDBLK
  5
2AE
330
2AB
100
AcDbEntity
  8
0
100
AcDbBlockEnd
  0
BLOCK
  5
2B2
330
2B0
100
AcDbEntity
  8
0
100
AcDbBlockBegin
  2
block 89
 70
     0
 71
     0
 10
0.0
 20
0.0
 30
0.0
  3
block 89
  1

  0
SPLINE
  5
2B4
330
2B0
100
AcDbEntity
  8
0
 62
     7
420
 16777215
370
     9
100
AcDbSpline
210
0.0
220
0.0
230
1.0
 70
     8
 71
     3
 72
     8
 73
     4
 74
     0
 42
0.0000000001
 43
0.0000000001
 40
0.0
 40
0.0
 40
0.0
 40
0.0
 40
1.0
 40
1.0
 40
1.0
 40
1.0
 10
188.1424729735884
 20
164.561984604556
 30
0.0
 10
188.163488069912
 20
165.4818257059318
 30
0.0
 10
188.0305072964547
 20
167.2219445834782
 30
0.0
 10
187.8699657409337
 20
168.1280052938221
 30
0.0
  0
ENDBLK
  5
2B3
330
2B0
100
AcDbEntity
  8
0
100
AcDbBlockEnd
  0
BLOCK
  5
2B7
330
2B5
100
AcDbEntity
  8
0
100
AcDbBlockBegin
  2
block 90
 70
     0
 71
     0
 10
0.0
 20
0.0
 30
0.0
  3
block 90
  1

  0
SPLINE
  5
2B9
330
2B5
100
AcDbEntity
  8
0
 62
     7
420
 16777215
370
     9
100
AcDbSpline
210
0.0
220
0.0
230
1.0
 70
     8
 71
     3
 72
     8
 73
     4
 74
     0
 42
0.0000000001
 43
0.0000000001
 40
0.0
 40
0.0
 40
0.0
 40
0.0
 40
1.0
 40
1.0
 40
1.0
 40
1.0
 10
187.8699657409337
 20
156.2353555784505
 30
0.0
 10
188.0305072964547
 20
157.1414162887944
 30
0.0
 10
188.163488069912
 20
158.881362911453
 30
0.0
 10
188.1424729735884
 20
159.8013762677166
 30
0.0
  0
ENDBLK
  5
2B8
330
2B5
100
AcDbEntity
  8
0
100
AcDbBlockEnd
  0
BLOCK
  5
2BC
330
2BA
100
AcDbEntity
  8
0
100
AcDbBlockBegin
  2
block 91
 70
     0
 71
     0
 10
0.0
 20
0.0
 30
0.0
  3
block 91
  1

  0
POLYLINE
  5
2BE
330
2BA
100
AcDbEntity
  8
0
 62
     7
420
 16777215
370
     9
100
AcDb2dPolyline
 66
     1
 10
0.0
 20
0.0
 30
0.0
  0
VERTEX
  5
2BF
330
2BE
100
AcDbEntity
  8
0
 62
     7
420
 16777215
370
     9
100
AcDbVertex
100
AcDb2dVertex
 10
194.8697153655602
 20
162.1815943086924
 30
0.0
  0
VERTEX
  5
2C0
330
2BE
100
AcDbEntity
  8
0
 62
     7
420
 16777215
370
     9
100
AcDbVertex
100
AcDb2dVertex
 10
194.8821177174889
 20
162.0720401999892
 30
0.0
  0
SEQEND
  5
2C1
330
2BE
100
AcDbEntity
  8
0
370
     9
  0
ENDBLK
  5
2BD
330
2BA
100
AcDbEntity
  8
0
100
AcDbBlockEnd
  0
BLOCK
  5
2C4
330
2C2
100
AcDbEntity
  8
0
100
AcDbBlockBegin
  2
block 92
 70
     0
 71
     0
 10
0.0
 20
0.0
 30
0.0
  3
block 92
  1

  0
SPLINE
  5
2C6
330
2C2
100
AcDbEntity
  8
0
 62
     7
420
 16777215
370
     9
100
AcDbSpline
210
0.0
220
0.0
230
1.0
 70
     8
 71
     3
 72
    20
 73
    16
 74
     0
 42
0.0000000001
 43
0.0000000001
 40
0.0
 40
0.0
 40
0.0
 40
0.0
 40
1.0
 40
1.0
 40
1.0
 40
2.0
 40
2.0
 40
2.0
 40
3.0
 40
3.0
 40
3.0
 40
4.0
 40
4.0
 40
4.0
 40
5.0
 40
5.0
 40
5.0
 40
5.0
 10
195.5525337411882
 20
160.5592977744682
 30
0.0
 10
195.5594239367041
 20
160.5515463045128
 30
0.0
 10
195.5659696224443
 20
160.5437948345574
 30
0.0
 10
195.5725153081844
 20
160.5365601292656
 30
0.0
 10
195.5725153081844
 20
160.5365601292656
 30
0.0
 10
195.5725153081844
 20
160.5365601292656
 30
0.0
 10
195.5725153081844
 20
160.5365601292656
 30
0.0
 10
195.6300484407424
 20
160.4716200365281
 30
0.0
 10
195.6741456920443
 20
160.4428534702491
 30
0.0
 10
195.6851700048698
 20
160.4357910198453
 30
0.0
 10
195.6851700048698
 20
160.4357910198453
 30
0.0
 10
195.6851700048698
 20
160.4357910198453
 30
0.0
 10
195.6851700048698
 20
160.4357910198453
 30
0.0
 10
195.6906821612825
 20
160.4321736671994
 30
0.0
 10
195.6875815733003
 20
160.4340684709663
 30
0.0
 10
195.684825495094
 20
160.4359632747332
 30
0.0
  0
ENDBLK
  5
2C5
330
2C2
100
AcDbEntity
  8
0
100
AcDbBlockEnd
  0
BLOCK
  5
2C9
330
2C7
100
AcDbEntity
  8
0
100
AcDbBlockBegin
  2
block 93
 70
     0
 71
     0
 10
0.0
 20
0.0
 30
0.0
  3
block 93
  1

  0
POLYLINE
  5
2CB
330
2C7
100
AcDbEntity
  8
0
 62
     7
420
 16777215
370
     9
100
AcDb2dPolyline
 66
     1
 10
0.0
 20
0.0
 30
0.0
  0
VERTEX
  5
2CC
330
2CB
100
AcDbEntity
  8
0
 62
     7
420
 16777215
370
     9
100
AcDbVertex
100
AcDb2dVertex
 10
185.4518516246204
 20
163.9411779885713
 30
0.0
  0
VERTEX
  5
2CD
330
2CB
100
AcDbEntity
  8
0
 62
     7
420
 16777215
370
     9
100
AcDbVertex
100
AcDb2dVertex
 10
185.4518516246204
 20
160.4221828837013
 30
0.0
  0
SEQEND
  5
2CE
330
2CB
100
AcDbEntity
  8
0
370
     9
  0
ENDBLK
  5
2CA
330
2C7
100
AcDbEntity
  8
0
100
AcDbBlockEnd
  0
BLOCK
  5
2D1
330
2CF
100
AcDbEntity
  8
0
100
AcDbBlockBegin
  2
block 94
 70
     0
 71
     0
 10
0.0
 20
0.0
 30
0.0
  3
block 94
  1

  0
SPLINE
  5
2D3
330
2CF
100
AcDbEntity
  8
0
 62
     7
420
 16777215
370
     9
100
AcDbSpline
210
0.0
220
0.0
230
1.0
 70
     8
 71
     3
 72
     8
 73
     4
 74
     0
 42
0.0000000001
 43
0.0000000001
 40
0.0
 40
0.0
 40
0.0
 40
0.0
 40
1.0
 40
1.0
 40
1.0
 40
1.0
 10
189.1773803400801
 20
160.4221828837013
 30
0.0
 10
188.8380382109209
 20
160.5880643407472
 30
0.0
 10
188.27510923727
 20
160.5880643407472
 30
0.0
 10
187.9357671081108
 20
160.4221828837013
 30
0.0
  0
ENDBLK
  5
2D2
330
2CF
100
AcDbEntity
  8
0
100
AcDbBlockEnd
  0
BLOCK
  5
2D6
330
2D4
100
AcDbEntity
  8
0
100
AcDbBlockBegin
  2
block 95
 70
     0
 71
     0
 10
0.0
 20
0.0
 30
0.0
  3
block 95
  1

  0
POLYLINE
  5
2D8
330
2D4
100
AcDbEntity
  8
0
 62
     7
420
 16777215
370
     9
100
AcDb2dPolyline
 66
     1
 10
0.0
 20
0.0
 30
0.0
  0
VERTEX
  5
2D9
330
2D8
100
AcDbEntity
  8
0
 62
     7
420
 16777215
370
     9
100
AcDbVertex
100
AcDb2dVertex
 10
199.423445582034
 20
195.9910946857768
 30
0.0
  0
VERTEX
  5
6EE
330
2D8
100
AcDbEntity
  8
0
100
AcDbVertex
100
AcDb2dVertex
 10
199.423445582034
 20
195.9910946857768
 30
0.0
  0
SEQEND
  5
2DA
330
2D8
100
AcDbEntity
  8
0
370
     9
  0
POLYLINE
  5
2DB
330
2D4
100
AcDbEntity
  8
0
 62
     7
420
 16777215
370
     9
100
AcDb2dPolyline
 66
     1
 10
0.0
 20
0.0
 30
0.0
  0
VERTEX
  5
2DC
330
2DB
100
AcDbEntity
  8
0
 62
     7
420
 16777215
370
     9
100
AcDbVertex
100
AcDb2dVertex
 10
194.8697153655602
 20
195.9910946857768
 30
0.0
  0
VERTEX
  5
2DD
330
2DB
100
AcDbEntity
  8
0
 62
     7
420
 16777215
370
     9
100
AcDbVertex
100
AcDb2dVertex
 10
194.8790171295067
 20
195.8467450897182
 30
0.0
  0
VERTEX
  5
2DE
330
2DB
100
AcDbEntity
  8
0
 62
     7
420
 16777215
370
     9
100
AcDbVertex
100
AcDb2dVertex
 10
194.9517086921997
 20
195.5626967795742
 30
0.0
  0
VERTEX
  5
2DF
330
2DB
100
AcDbEntity
  8
0
 62
     7
420
 16777215
370
     9
100
AcDbVertex
100
AcDb2dVertex
 10
195.0950247589309
 20
195.29260111535
 30
0.0
  0
VERTEX
  5
2E0
330
2DB
100
AcDbEntity
  8
0
 62
     7
420
 16777215
370
     9
100
AcDbVertex
100
AcDb2dVertex
 10
195.304486702615
 20
195.0447263316647
 30
0.0
  0
VERTEX
  5
2E1
330
2DB
100
AcDbEntity
  8
0
 62
     7
420
 16777215
370
     9
100
AcDbVertex
100
AcDb2dVertex
 10
195.573204327736
 20
194.8275129180252
 30
0.0
  0
VERTEX
  5
2E2
330
2DB
100
AcDbEntity
  8
0
 62
     7
420
 16777215
370
     9
100
AcDbVertex
100
AcDb2dVertex
 10
195.8922203801233
 20
194.6475065601717
 30
0.0
  0
VERTEX
  5
2E3
330
2DB
100
AcDbEntity
  8
0
 62
     7
420
 16777215
370
     9
100
AcDbVertex
100
AcDb2dVertex
 10
196.2515440762787
 20
194.5105639242927
 30
0.0
  0
VERTEX
  5
2E4
330
2DB
100
AcDbEntity
  8
0
 62
     7
420
 16777215
370
     9
100
AcDbVertex
100
AcDb2dVertex
 10
196.639806593601
 20
194.4215081472494
 30
0.0
  0
VERTEX
  5
2E5
330
2DB
100
AcDbEntity
  8
0
 62
     7
420
 16777215
370
     9
100
AcDbVertex
100
AcDb2dVertex
 10
197.0442610703857
 20
194.3827507974723
 30
0.0
  0
VERTEX
  5
2E6
330
2DB
100
AcDbEntity
  8
0
 62
     7
420
 16777215
370
     9
100
AcDbVertex
100
AcDb2dVertex
 10
197.4521606449283
 20
194.3956699140647
 30
0.0
  0
VERTEX
  5
2E7
330
2DB
100
AcDbEntity
  8
0
 62
     7
420
 16777215
370
     9
100
AcDbVertex
100
AcDb2dVertex
 10
197.8500694359729
 20
194.4599209872507
 30
0.0
  0
VERTEX
  5
2E8
330
2DB
100
AcDbEntity
  8
0
 62
     7
420
 16777215
370
     9
100
AcDbVertex
100
AcDb2dVertex
 10
198.2252405818149
 20
194.5734369583755
 30
0.0
  0
VERTEX
  5
2E9
330
2DB
100
AcDbEntity
  8
0
 62
     7
420
 16777215
370
     9
100
AcDbVertex
100
AcDb2dVertex
 10
198.5659607500773
 20
194.7322559650176
 30
0.0
  0
VERTEX
  5
2EA
330
2DB
100
AcDbEntity
  8
0
 62
     7
420
 16777215
370
     9
100
AcDbVertex
100
AcDb2dVertex
 10
198.8608611181589
 20
194.9317271252035
 30
0.0
  0
VERTEX
  5
2EB
330
2DB
100
AcDbEntity
  8
0
 62
     7
420
 16777215
370
     9
100
AcDbVertex
100
AcDb2dVertex
 10
199.1009844318888
 20
195.1653047531933
 30
0.0
  0
VERTEX
  5
2EC
330
2DB
100
AcDbEntity
  8
0
 62
     7
420
 16777215
370
     9
100
AcDbVertex
100
AcDb2dVertex
 10
199.278062456648
 20
195.4254096339195
 30
0.0
  0
VERTEX
  5
2ED
330
2DB
100
AcDbEntity
  8
0
 62
     7
420
 16777215
370
     9
100
AcDbVertex
100
AcDb2dVertex
 10
199.3869275457996
 20
195.7036012778749
 30
0.0
  0
VERTEX
  5
2EE
330
2DB
100
AcDbEntity
  8
0
 62
     7
420
 16777215
370
     9
100
AcDbVertex
100
AcDb2dVertex
 10
199.423445582034
 20
195.9910946857768
 30
0.0
  0
SEQEND
  5
2EF
330
2DB
100
AcDbEntity
  8
0
370
     9
  0
ENDBLK
  5
2D7
330
2D4
100
AcDbEntity
  8
0
100
AcDbBlockEnd
  0
BLOCK
  5
2F2
330
2F0
100
AcDbEntity
  8
0
100
AcDbBlockBegin
  2
block 96
 70
     0
 71
     0
 10
0.0
 20
0.0
 30
0.0
  3
block 96
  1

  0
SPLINE
  5
2F4
330
2F0
100
AcDbEntity
  8
0
 62
     7
420
 16777215
370
     9
100
AcDbSpline
210
0.0
220
0.0
230
1.0
 70
     8
 71
     3
 72
    14
 73
    10
 74
     0
 42
0.0000000001
 43
0.0000000001
 40
0.0
 40
0.0
 40
0.0
 40
0.0
 40
1.0
 40
1.0
 40
1.0
 40
2.0
 40
2.0
 40
2.0
 40
3.0
 40
3.0
 40
3.0
 40
3.0
 10
194.8697153655602
 20
162.1815943086924
 30
0.0
 10
194.8697153655602
 20
160.9243058819242
 30
0.0
 10
195.8891197921411
 20
159.9047292004555
 30
0.0
 10
197.1462359640213
 20
159.9047292004555
 30
0.0
 10
198.4040411554531
 20
159.9047292004555
 30
0.0
 10
199.423445582034
 20
160.9243058819242
 30
0.0
 10
199.423445582034
 20
162.1815943086924
 30
0.0
 10
199.423445582034
 20
162.1815943086924
 30
0.0
 10
199.423445582034
 20
162.1815943086924
 30
0.0
 10
199.423445582034
 20
162.1815943086924
 30
0.0
  0
ENDBLK
  5
2F3
330
2F0
100
AcDbEntity
  8
0
100
AcDbBlockEnd
  0
BLOCK
  5
2F7
330
2F5
100
AcDbEntity
  8
0
100
AcDbBlockBegin
  2
block 97
 70
     0
 71
     0
 10
0.0
 20
0.0
 30
0.0
  3
block 97
  1

  0
POLYLINE
  5
2F9
330
2F5
100
AcDbEntity
  8
0
 62
     7
420
 16777215
370
     9
100
AcDb2dPolyline
 66
     1
 10
0.0
 20
0.0
 30
0.0
  0
VERTEX
  5
2FA
330
2F9
100
AcDbEntity
  8
0
 62
     7
420
 16777215
370
     9
100
AcDbVertex
100
AcDb2dVertex
 10
185.913839233963
 20
205.2742551043803
 30
0.0
  0
VERTEX
  5
2FB
330
2F9
100
AcDbEntity
  8
0
 62
     7
420
 16777215
370
     9
100
AcDbVertex
100
AcDb2dVertex
 10
185.913839233963
 20
192.8550221967042
 30
0.0
  0
SEQEND
  5
2FC
330
2F9
100
AcDbEntity
  8
0
370
     9
  0
ENDBLK
  5
2F8
330
2F5
100
AcDbEntity
  8
0
100
AcDbBlockEnd
  0
BLOCK
  5
2FF
330
2FD
100
AcDbEntity
  8
0
100
AcDbBlockBegin
  2
block 98
 70
     0
 71
     0
 10
0.0
 20
0.0
 30
0.0
  3
block 98
  1

  0
POLYLINE
  5
301
330
2FD
100
AcDbEntity
  8
0
 62
     7
420
 16777215
370
     9
100
AcDb2dPolyline
 66
     1
 10
0.0
 20
0.0
 30
0.0
  0
VERTEX
  5
302
330
301
100
AcDbEntity
  8
0
 62
     7
420
 16777215
370
     9
100
AcDbVertex
100
AcDb2dVertex
 10
185.555549067135
 20
205.1779646220453
 30
0.0
  0
VERTEX
  5
303
330
301
100
AcDbEntity
  8
0
 62
     7
420
 16777215
370
     9
100
AcDbVertex
100
AcDb2dVertex
 10
185.555549067135
 20
192.9513126790393
 30
0.0
  0
SEQEND
  5
304
330
301
100
AcDbEntity
  8
0
370
     9
  0
ENDBLK
  5
300
330
2FD
100
AcDbEntity
  8
0
100
AcDbBlockEnd
  0
BLOCK
  5
307
330
305
100
AcDbEntity
  8
0
100
AcDbBlockBegin
  2
block 99
 70
     0
 71
     0
 10
0.0
 20
0.0
 30
0.0
  3
block 99
  1

  0
POLYLINE
  5
309
330
305
100
AcDbEntity
  8
0
 62
     7
420
 16777215
370
     9
100
AcDb2dPolyline
 66
     1
 10
0.0
 20
0.0
 30
0.0
  0
VERTEX
  5
30A
330
309
100
AcDbEntity
  8
0
 62
     7
420
 16777215
370
     9
100
AcDbVertex
100
AcDb2dVertex
 10
188.1424729735884
 20
201.4450289464059
 30
0.0
  0
VERTEX
  5
30B
330
309
100
AcDbEntity
  8
0
 62
     7
420
 16777215
370
     9
100
AcDbVertex
100
AcDb2dVertex
 10
188.1424729735884
 20
196.6842483546787
 30
0.0
  0
SEQEND
  5
30C
330
309
100
AcDbEntity
  8
0
370
     9
  0
ENDBLK
  5
308
330
305
100
AcDbEntity
  8
0
100
AcDbBlockEnd
  0
BLOCK
  5
30F
330
30D
100
AcDbEntity
  8
0
100
AcDbBlockBegin
  2
block 100
 70
     0
 71
     0
 10
0.0
 20
0.0
 30
0.0
  3
block 100
  1

  0
POLYLINE
  5
311
330
30D
100
AcDbEntity
  8
0
 62
     7
420
 16777215
370
     9
100
AcDb2dPolyline
 66
     1
 10
0.0
 20
0.0
 30
0.0
  0
VERTEX
  5
312
330
311
100
AcDbEntity
  8
0
 62
     7
420
 16777215
370
     9
100
AcDbVertex
100
AcDb2dVertex
 10
185.5138633842637
 20
199.8134306482353
 30
0.0
  0
VERTEX
  5
313
330
311
100
AcDbEntity
  8
0
 62
     7
420
 16777215
370
     9
100
AcDbVertex
100
AcDb2dVertex
 10
185.5138633842637
 20
198.3158466528493
 30
0.0
  0
SEQEND
  5
314
330
311
100
AcDbEntity
  8
0
370
     9
  0
ENDBLK
  5
310
330
30D
100
AcDbEntity
  8
0
100
AcDbBlockEnd
  0
BLOCK
  5
317
330
315
100
AcDbEntity
  8
0
100
AcDbBlockBegin
  2
block 101
 70
     0
 71
     0
 10
0.0
 20
0.0
 30
0.0
  3
block 101
  1

  0
POLYLINE
  5
319
330
315
100
AcDbEntity
  8
0
 62
     7
420
 16777215
370
     9
100
AcDb2dPolyline
 66
     1
 10
0.0
 20
0.0
 30
0.0
  0
VERTEX
  5
31A
330
319
100
AcDbEntity
  8
0
 62
     7
420
 16777215
370
     9
100
AcDbVertex
100
AcDb2dVertex
 10
199.423445582034
 20
195.9910946857768
 30
0.0
  0
VERTEX
  5
31B
330
319
100
AcDbEntity
  8
0
 62
     7
420
 16777215
370
     9
100
AcDbVertex
100
AcDb2dVertex
 10
199.4141438180875
 20
195.8467450897182
 30
0.0
  0
VERTEX
  5
31C
330
319
100
AcDbEntity
  8
0
 62
     7
420
 16777215
370
     9
100
AcDbVertex
100
AcDb2dVertex
 10
199.3411077456187
 20
195.5626967795742
 30
0.0
  0
VERTEX
  5
31D
330
319
100
AcDbEntity
  8
0
 62
     7
420
 16777215
370
     9
100
AcDbVertex
100
AcDb2dVertex
 10
199.1981361886633
 20
195.29260111535
 30
0.0
  0
VERTEX
  5
31E
330
319
100
AcDbEntity
  8
0
 62
     7
420
 16777215
370
     9
100
AcDbVertex
100
AcDb2dVertex
 10
198.9883297352034
 20
195.0447263316647
 30
0.0
  0
VERTEX
  5
31F
330
319
100
AcDbEntity
  8
0
 62
     7
420
 16777215
370
     9
100
AcDbVertex
100
AcDb2dVertex
 10
198.7199566198582
 20
194.8275129180252
 30
0.0
  0
VERTEX
  5
320
330
319
100
AcDbEntity
  8
0
 62
     7
420
 16777215
370
     9
100
AcDbVertex
100
AcDb2dVertex
 10
198.400940567471
 20
194.6475065601717
 30
0.0
  0
VERTEX
  5
321
330
319
100
AcDbEntity
  8
0
 62
     7
420
 16777215
370
     9
100
AcDbVertex
100
AcDb2dVertex
 10
198.0416168713156
 20
194.5105639242927
 30
0.0
  0
VERTEX
  5
322
330
319
100
AcDbEntity
  8
0
 62
     7
420
 16777215
370
     9
100
AcDbVertex
100
AcDb2dVertex
 10
197.6530098442175
 20
194.4215081472494
 30
0.0
  0
VERTEX
  5
323
330
319
100
AcDbEntity
  8
0
 62
     7
420
 16777215
370
     9
100
AcDbVertex
100
AcDb2dVertex
 10
197.2485553674328
 20
194.3827507974723
 30
0.0
  0
VERTEX
  5
324
330
319
100
AcDbEntity
  8
0
 62
     7
420
 16777215
370
     9
100
AcDbVertex
100
AcDb2dVertex
 10
196.8410003026659
 20
194.3956699140647
 30
0.0
  0
VERTEX
  5
325
330
319
100
AcDbEntity
  8
0
 62
     7
420
 16777215
370
     9
100
AcDbVertex
100
AcDb2dVertex
 10
196.4427470018455
 20
194.4599209872507
 30
0.0
  0
VERTEX
  5
326
330
319
100
AcDbEntity
  8
0
 62
     7
420
 16777215
370
     9
100
AcDbVertex
100
AcDb2dVertex
 10
196.0675758560035
 20
194.5734369583755
 30
0.0
  0
VERTEX
  5
327
330
319
100
AcDbEntity
  8
0
 62
     7
420
 16777215
370
     9
100
AcDbVertex
100
AcDb2dVertex
 10
195.7268556877411
 20
194.7322559650176
 30
0.0
  0
VERTEX
  5
328
330
319
100
AcDbEntity
  8
0
 62
     7
420
 16777215
370
     9
100
AcDbVertex
100
AcDb2dVertex
 10
195.4316108098838
 20
194.9317271252035
 30
0.0
  0
VERTEX
  5
329
330
319
100
AcDbEntity
  8
0
 62
     7
420
 16777215
370
     9
100
AcDbVertex
100
AcDb2dVertex
 10
195.1921765157055
 20
195.1653047531933
 30
0.0
  0
VERTEX
  5
32A
330
319
100
AcDbEntity
  8
0
 62
     7
420
 16777215
370
     9
100
AcDbVertex
100
AcDb2dVertex
 10
195.0147539811704
 20
195.4254096339195
 30
0.0
  0
VERTEX
  5
32B
330
319
100
AcDbEntity
  8
0
 62
     7
420
 16777215
370
     9
100
AcDbVertex
100
AcDb2dVertex
 10
194.9062334017946
 20
195.7036012778749
 30
0.0
  0
VERTEX
  5
32C
330
319
100
AcDbEntity
  8
0
 62
     7
420
 16777215
370
     9
100
AcDbVertex
100
AcDb2dVertex
 10
194.8697153655602
 20
195.9910946857768
 30
0.0
  0
SEQEND
  5
32D
330
319
100
AcDbEntity
  8
0
370
     9
  0
ENDBLK
  5
318
330
315
100
AcDbEntity
  8
0
100
AcDbBlockEnd
  0
BLOCK
  5
330
330
32E
100
AcDbEntity
  8
0
100
AcDbBlockBegin
  2
block 102
 70
     0
 71
     0
 10
0.0
 20
0.0
 30
0.0
  3
block 102
  1

  0
POLYLINE
  5
332
330
32E
100
AcDbEntity
  8
0
 62
     7
420
 16777215
370
     9
100
AcDb2dPolyline
 66
     1
 10
0.0
 20
0.0
 30
0.0
  0
VERTEX
  5
333
330
332
100
AcDbEntity
  8
0
 62
     7
420
 16777215
370
     9
100
AcDbVertex
100
AcDb2dVertex
 10
185.913839233963
 20
168.3912107625304
 30
0.0
  0
VERTEX
  5
334
330
332
100
AcDbEntity
  8
0
 62
     7
420
 16777215
370
     9
100
AcDbVertex
100
AcDb2dVertex
 10
185.913839233963
 20
163.9411779885713
 30
0.0
  0
SEQEND
  5
335
330
332
100
AcDbEntity
  8
0
370
     9
  0
ENDBLK
  5
331
330
32E
100
AcDbEntity
  8
0
100
AcDbBlockEnd
  0
BLOCK
  5
338
330
336
100
AcDbEntity
  8
0
100
AcDbBlockBegin
  2
block 103
 70
     0
 71
     0
 10
0.0
 20
0.0
 30
0.0
  3
block 103
  1

  0
POLYLINE
  5
33A
330
336
100
AcDbEntity
  8
0
 62
     7
420
 16777215
370
     9
100
AcDb2dPolyline
 66
     1
 10
0.0
 20
0.0
 30
0.0
  0
VERTEX
  5
33B
330
33A
100
AcDbEntity
  8
0
 62
     7
420
 16777215
370
     9
100
AcDbVertex
100
AcDb2dVertex
 10
185.913839233963
 20
160.4221828837013
 30
0.0
  0
VERTEX
  5
33C
330
33A
100
AcDbEntity
  8
0
 62
     7
420
 16777215
370
     9
100
AcDbVertex
100
AcDb2dVertex
 10
185.913839233963
 20
155.9721501097422
 30
0.0
  0
SEQEND
  5
33D
330
33A
100
AcDbEntity
  8
0
370
     9
  0
ENDBLK
  5
339
330
336
100
AcDbEntity
  8
0
100
AcDbBlockEnd
  0
BLOCK
  5
340
330
33E
100
AcDbEntity
  8
0
100
AcDbBlockBegin
  2
block 104
 70
     0
 71
     0
 10
0.0
 20
0.0
 30
0.0
  3
block 104
  1

  0
POLYLINE
  5
342
330
33E
100
AcDbEntity
  8
0
 62
     7
420
 16777215
370
     9
100
AcDb2dPolyline
 66
     1
 10
0.0
 20
0.0
 30
0.0
  0
VERTEX
  5
343
330
342
100
AcDbEntity
  8
0
 62
     7
420
 16777215
370
     9
100
AcDbVertex
100
AcDb2dVertex
 10
185.555549067135
 20
168.2949202801954
 30
0.0
  0
VERTEX
  5
344
330
342
100
AcDbEntity
  8
0
 62
     7
420
 16777215
370
     9
100
AcDbVertex
100
AcDb2dVertex
 10
185.555549067135
 20
163.9411779885713
 30
0.0
  0
SEQEND
  5
345
330
342
100
AcDbEntity
  8
0
370
     9
  0
ENDBLK
  5
341
330
33E
100
AcDbEntity
  8
0
100
AcDbBlockEnd
  0
BLOCK
  5
348
330
346
100
AcDbEntity
  8
0
100
AcDbBlockBegin
  2
block 105
 70
     0
 71
     0
 10
0.0
 20
0.0
 30
0.0
  3
block 105
  1

  0
POLYLINE
  5
34A
330
346
100
AcDbEntity
  8
0
 62
     7
420
 16777215
370
     9
100
AcDb2dPolyline
 66
     1
 10
0.0
 20
0.0
 30
0.0
  0
VERTEX
  5
34B
330
34A
100
AcDbEntity
  8
0
 62
     7
420
 16777215
370
     9
100
AcDbVertex
100
AcDb2dVertex
 10
185.555549067135
 20
160.4221828837013
 30
0.0
  0
VERTEX
  5
34C
330
34A
100
AcDbEntity
  8
0
 62
     7
420
 16777215
370
     9
100
AcDbVertex
100
AcDb2dVertex
 10
185.555549067135
 20
156.0682683371893
 30
0.0
  0
SEQEND
  5
34D
330
34A
100
AcDbEntity
  8
0
370
     9
  0
ENDBLK
  5
349
330
346
100
AcDbEntity
  8
0
100
AcDbBlockEnd
  0
BLOCK
  5
350
330
34E
100
AcDbEntity
  8
0
100
AcDbBlockBegin
  2
block 106
 70
     0
 71
     0
 10
0.0
 20
0.0
 30
0.0
  3
block 106
  1

  0
POLYLINE
  5
352
330
34E
100
AcDbEntity
  8
0
 62
     7
420
 16777215
370
     9
100
AcDb2dPolyline
 66
     1
 10
0.0
 20
0.0
 30
0.0
  0
VERTEX
  5
353
330
352
100
AcDbEntity
  8
0
 62
     7
420
 16777215
370
     9
100
AcDbVertex
100
AcDb2dVertex
 10
188.1424729735884
 20
164.561984604556
 30
0.0
  0
VERTEX
  5
354
330
352
100
AcDbEntity
  8
0
 62
     7
420
 16777215
370
     9
100
AcDbVertex
100
AcDb2dVertex
 10
188.1424729735884
 20
163.9411779885713
 30
0.0
  0
SEQEND
  5
355
330
352
100
AcDbEntity
  8
0
370
     9
  0
ENDBLK
  5
351
330
34E
100
AcDbEntity
  8
0
100
AcDbBlockEnd
  0
BLOCK
  5
358
330
356
100
AcDbEntity
  8
0
100
AcDbBlockBegin
  2
block 107
 70
     0
 71
     0
 10
0.0
 20
0.0
 30
0.0
  3
block 107
  1

  0
POLYLINE
  5
35A
330
356
100
AcDbEntity
  8
0
 62
     7
420
 16777215
370
     9
100
AcDb2dPolyline
 66
     1
 10
0.0
 20
0.0
 30
0.0
  0
VERTEX
  5
35B
330
35A
100
AcDbEntity
  8
0
 62
     7
420
 16777215
370
     9
100
AcDbVertex
100
AcDb2dVertex
 10
188.1424729735884
 20
160.4747206245102
 30
0.0
  0
VERTEX
  5
35C
330
35A
100
AcDbEntity
  8
0
 62
     7
420
 16777215
370
     9
100
AcDbVertex
100
AcDb2dVertex
 10
188.1424729735884
 20
159.8013762677166
 30
0.0
  0
SEQEND
  5
35D
330
35A
100
AcDbEntity
  8
0
370
     9
  0
ENDBLK
  5
359
330
356
100
AcDbEntity
  8
0
100
AcDbBlockEnd
  0
BLOCK
  5
360
330
35E
100
AcDbEntity
  8
0
100
AcDbBlockBegin
  2
block 108
 70
     0
 71
     0
 10
0.0
 20
0.0
 30
0.0
  3
block 108
  1

  0
POLYLINE
  5
362
330
35E
100
AcDbEntity
  8
0
 62
     7
420
 16777215
370
     9
100
AcDb2dPolyline
 66
     1
 10
0.0
 20
0.0
 30
0.0
  0
VERTEX
  5
363
330
362
100
AcDbEntity
  8
0
 62
     7
420
 16777215
370
     9
100
AcDbVertex
100
AcDb2dVertex
 10
194.8697153655602
 20
164.5459648999814
 30
0.0
  0
VERTEX
  5
364
330
362
100
AcDbEntity
  8
0
 62
     7
420
 16777215
370
     9
100
AcDbVertex
100
AcDb2dVertex
 10
194.8790171295067
 20
164.4016153039229
 30
0.0
  0
VERTEX
  5
365
330
362
100
AcDbEntity
  8
0
 62
     7
420
 16777215
370
     9
100
AcDbVertex
100
AcDb2dVertex
 10
194.9517086921997
 20
164.1177392486668
 30
0.0
  0
VERTEX
  5
366
330
362
100
AcDbEntity
  8
0
 62
     7
420
 16777215
370
     9
100
AcDbVertex
100
AcDb2dVertex
 10
195.0950247589309
 20
163.8474713295547
 30
0.0
  0
VERTEX
  5
367
330
362
100
AcDbEntity
  8
0
 62
     7
420
 16777215
370
     9
100
AcDbVertex
100
AcDb2dVertex
 10
195.304486702615
 20
163.5997688007573
 30
0.0
  0
VERTEX
  5
368
330
362
100
AcDbEntity
  8
0
 62
     7
420
 16777215
370
     9
100
AcDbVertex
100
AcDb2dVertex
 10
195.573204327736
 20
163.3823831322299
 30
0.0
  0
VERTEX
  5
369
330
362
100
AcDbEntity
  8
0
 62
     7
420
 16777215
370
     9
100
AcDbVertex
100
AcDb2dVertex
 10
195.8922203801233
 20
163.2023767743764
 30
0.0
  0
VERTEX
  5
36A
330
362
100
AcDbEntity
  8
0
 62
     7
420
 16777215
370
     9
100
AcDbVertex
100
AcDb2dVertex
 10
196.2515440762787
 20
163.0656063933853
 30
0.0
  0
VERTEX
  5
36B
330
362
100
AcDbEntity
  8
0
 62
     7
420
 16777215
370
     9
100
AcDbVertex
100
AcDb2dVertex
 10
196.639806593601
 20
162.9763783614541
 30
0.0
  0
VERTEX
  5
36C
330
362
100
AcDbEntity
  8
0
 62
     7
420
 16777215
370
     9
100
AcDbVertex
100
AcDb2dVertex
 10
197.0442610703857
 20
162.937621011677
 30
0.0
  0
VERTEX
  5
36D
330
362
100
AcDbEntity
  8
0
 62
     7
420
 16777215
370
     9
100
AcDbVertex
100
AcDb2dVertex
 10
197.4521606449283
 20
162.9505401282694
 30
0.0
  0
VERTEX
  5
36E
330
362
100
AcDbEntity
  8
0
 62
     7
420
 16777215
370
     9
100
AcDbVertex
100
AcDb2dVertex
 10
197.8500694359729
 20
163.0147912014554
 30
0.0
  0
VERTEX
  5
36F
330
362
100
AcDbEntity
  8
0
 62
     7
420
 16777215
370
     9
100
AcDbVertex
100
AcDb2dVertex
 10
198.2252405818149
 20
163.1283071725802
 30
0.0
  0
VERTEX
  5
370
330
362
100
AcDbEntity
  8
0
 62
     7
420
 16777215
370
     9
100
AcDbVertex
100
AcDb2dVertex
 10
198.5659607500773
 20
163.2872984341101
 30
0.0
  0
VERTEX
  5
371
330
362
100
AcDbEntity
  8
0
 62
     7
420
 16777215
370
     9
100
AcDbVertex
100
AcDb2dVertex
 10
198.8608611181589
 20
163.4867695942961
 30
0.0
  0
VERTEX
  5
372
330
362
100
AcDbEntity
  8
0
 62
     7
420
 16777215
370
     9
100
AcDbVertex
100
AcDb2dVertex
 10
199.1009844318888
 20
163.720174967398
 30
0.0
  0
VERTEX
  5
373
330
362
100
AcDbEntity
  8
0
 62
     7
420
 16777215
370
     9
100
AcDbVertex
100
AcDb2dVertex
 10
199.278062456648
 20
163.9802798481242
 30
0.0
  0
VERTEX
  5
374
330
362
100
AcDbEntity
  8
0
 62
     7
420
 16777215
370
     9
100
AcDbVertex
100
AcDb2dVertex
 10
199.3869275457996
 20
164.2586437469674
 30
0.0
  0
VERTEX
  5
375
330
362
100
AcDbEntity
  8
0
 62
     7
420
 16777215
370
     9
100
AcDbVertex
100
AcDb2dVertex
 10
199.423445582034
 20
164.5459648999814
 30
0.0
  0
SEQEND
  5
376
330
362
100
AcDbEntity
  8
0
370
     9
  0
ENDBLK
  5
361
330
35E
100
AcDbEntity
  8
0
100
AcDbBlockEnd
  0
BLOCK
  5
379
330
377
100
AcDbEntity
  8
0
100
AcDbBlockBegin
  2
block 109
 70
     0
 71
     0
 10
0.0
 20
0.0
 30
0.0
  3
block 109
  1

  0
POLYLINE
  5
37B
330
377
100
AcDbEntity
  8
0
 62
     7
420
 16777215
370
     9
100
AcDb2dPolyline
 66
     1
 10
0.0
 20
0.0
 30
0.0
  0
VERTEX
  5
37C
330
37B
100
AcDbEntity
  8
0
 62
     7
420
 16777215
370
     9
100
AcDbVertex
100
AcDb2dVertex
 10
187.5630075306993
 20
205.2742551043803
 30
0.0
  0
VERTEX
  5
37D
330
37B
100
AcDbEntity
  8
0
 62
     7
420
 16777215
370
     9
100
AcDbVertex
100
AcDb2dVertex
 10
187.5630075306993
 20
192.8550221967042
 30
0.0
  0
SEQEND
  5
37E
330
37B
100
AcDbEntity
  8
0
370
     9
  0
ENDBLK
  5
37A
330
377
100
AcDbEntity
  8
0
100
AcDbBlockEnd
  0
BLOCK
  5
381
330
37F
100
AcDbEntity
  8
0
100
AcDbBlockBegin
  2
block 110
 70
     0
 71
     0
 10
0.0
 20
0.0
 30
0.0
  3
block 110
  1

  0
POLYLINE
  5
383
330
37F
100
AcDbEntity
  8
0
 62
     7
420
 16777215
370
     9
100
AcDb2dPolyline
 66
     1
 10
0.0
 20
0.0
 30
0.0
  0
VERTEX
  5
384
330
383
100
AcDbEntity
  8
0
 62
     7
420
 16777215
370
     9
100
AcDbVertex
100
AcDb2dVertex
 10
187.8699657409337
 20
205.0108773807842
 30
0.0
  0
VERTEX
  5
385
330
383
100
AcDbEntity
  8
0
 62
     7
420
 16777215
370
     9
100
AcDbVertex
100
AcDb2dVertex
 10
187.8699657409337
 20
193.1183999203004
 30
0.0
  0
SEQEND
  5
386
330
383
100
AcDbEntity
  8
0
370
     9
  0
ENDBLK
  5
382
330
37F
100
AcDbEntity
  8
0
100
AcDbBlockEnd
  0
BLOCK
  5
389
330
387
100
AcDbEntity
  8
0
100
AcDbBlockBegin
  2
block 111
 70
     0
 71
     0
 10
0.0
 20
0.0
 30
0.0
  3
block 111
  1

  0
POLYLINE
  5
38B
330
387
100
AcDbEntity
  8
0
 62
     7
420
 16777215
370
     9
100
AcDb2dPolyline
 66
     1
 10
0.0
 20
0.0
 30
0.0
  0
VERTEX
  5
38C
330
38B
100
AcDbEntity
  8
0
 62
     7
420
 16777215
370
     9
100
AcDbVertex
100
AcDb2dVertex
 10
193.2140013830839
 20
201.3415037587792
 30
0.0
  0
VERTEX
  5
38D
330
38B
100
AcDbEntity
  8
0
 62
     7
420
 16777215
370
     9
100
AcDbVertex
100
AcDb2dVertex
 10
193.2140013830839
 20
196.7877735423054
 30
0.0
  0
SEQEND
  5
38E
330
38B
100
AcDbEntity
  8
0
370
     9
  0
ENDBLK
  5
38A
330
387
100
AcDbEntity
  8
0
100
AcDbBlockEnd
  0
BLOCK
  5
391
330
38F
100
AcDbEntity
  8
0
100
AcDbBlockBegin
  2
block 112
 70
     0
 71
     0
 10
0.0
 20
0.0
 30
0.0
  3
block 112
  1

  0
POLYLINE
  5
393
330
38F
100
AcDbEntity
  8
0
 62
     7
420
 16777215
370
     9
100
AcDb2dPolyline
 66
     1
 10
0.0
 20
0.0
 30
0.0
  0
VERTEX
  5
394
330
393
100
AcDbEntity
  8
0
 62
     7
420
 16777215
370
     9
100
AcDbVertex
100
AcDb2dVertex
 10
199.423445582034
 20
196.2832389756519
 30
0.0
  0
VERTEX
  5
395
330
393
100
AcDbEntity
  8
0
 62
     7
420
 16777215
370
     9
100
AcDbVertex
100
AcDb2dVertex
 10
199.4141438180875
 20
196.139406144257
 30
0.0
  0
VERTEX
  5
396
330
393
100
AcDbEntity
  8
0
 62
     7
420
 16777215
370
     9
100
AcDbVertex
100
AcDb2dVertex
 10
199.3411077456187
 20
195.855530089001
 30
0.0
  0
VERTEX
  5
397
330
393
100
AcDbEntity
  8
0
 62
     7
420
 16777215
370
     9
100
AcDbVertex
100
AcDb2dVertex
 10
199.1981361886633
 20
195.5852621698889
 30
0.0
  0
VERTEX
  5
398
330
393
100
AcDbEntity
  8
0
 62
     7
420
 16777215
370
     9
100
AcDbVertex
100
AcDb2dVertex
 10
198.9883297352034
 20
195.3375596410914
 30
0.0
  0
VERTEX
  5
399
330
393
100
AcDbEntity
  8
0
 62
     7
420
 16777215
370
     9
100
AcDbVertex
100
AcDb2dVertex
 10
198.7199566198582
 20
195.1201739725641
 30
0.0
  0
VERTEX
  5
39A
330
393
100
AcDbEntity
  8
0
 62
     7
420
 16777215
370
     9
100
AcDbVertex
100
AcDb2dVertex
 10
198.400940567471
 20
194.9401676147106
 30
0.0
  0
VERTEX
  5
39B
330
393
100
AcDbEntity
  8
0
 62
     7
420
 16777215
370
     9
100
AcDbVertex
100
AcDb2dVertex
 10
198.0416168713156
 20
194.8033972337195
 30
0.0
  0
VERTEX
  5
39C
330
393
100
AcDbEntity
  8
0
 62
     7
420
 16777215
370
     9
100
AcDbVertex
100
AcDb2dVertex
 10
197.6530098442175
 20
194.7141692017883
 30
0.0
  0
VERTEX
  5
39D
330
393
100
AcDbEntity
  8
0
 62
     7
420
 16777215
370
     9
100
AcDbVertex
100
AcDb2dVertex
 10
197.2485553674328
 20
194.6754118520112
 30
0.0
  0
VERTEX
  5
39E
330
393
100
AcDbEntity
  8
0
 62
     7
420
 16777215
370
     9
100
AcDbVertex
100
AcDb2dVertex
 10
196.8410003026659
 20
194.6883309686035
 30
0.0
  0
VERTEX
  5
39F
330
393
100
AcDbEntity
  8
0
 62
     7
420
 16777215
370
     9
100
AcDbVertex
100
AcDb2dVertex
 10
196.4427470018455
 20
194.7525820417895
 30
0.0
  0
VERTEX
  5
3A0
330
393
100
AcDbEntity
  8
0
 62
     7
420
 16777215
370
     9
100
AcDbVertex
100
AcDb2dVertex
 10
196.0675758560035
 20
194.8660980129144
 30
0.0
  0
VERTEX
  5
3A1
330
393
100
AcDbEntity
  8
0
 62
     7
420
 16777215
370
     9
100
AcDbVertex
100
AcDb2dVertex
 10
195.7268556877411
 20
195.0249170195564
 30
0.0
  0
VERTEX
  5
3A2
330
393
100
AcDbEntity
  8
0
 62
     7
420
 16777215
370
     9
100
AcDbVertex
100
AcDb2dVertex
 10
195.4316108098838
 20
195.2245604346303
 30
0.0
  0
VERTEX
  5
3A3
330
393
100
AcDbEntity
  8
0
 62
     7
420
 16777215
370
     9
100
AcDbVertex
100
AcDb2dVertex
 10
195.1921765157055
 20
195.4579658077322
 30
0.0
  0
VERTEX
  5
3A4
330
393
100
AcDbEntity
  8
0
 62
     7
420
 16777215
370
     9
100
AcDbVertex
100
AcDb2dVertex
 10
195.0147539811704
 20
195.7180706884583
 30
0.0
  0
VERTEX
  5
3A5
330
393
100
AcDbEntity
  8
0
 62
     7
420
 16777215
370
     9
100
AcDbVertex
100
AcDb2dVertex
 10
194.9062334017946
 20
195.9964345873016
 30
0.0
  0
VERTEX
  5
3A6
330
393
100
AcDbEntity
  8
0
 62
     7
420
 16777215
370
     9
100
AcDbVertex
100
AcDb2dVertex
 10
194.8731604633182
 20
196.1960780023755
 30
0.0
  0
SEQEND
  5
3A7
330
393
100
AcDbEntity
  8
0
370
     9
  0
ENDBLK
  5
392
330
38F
100
AcDbEntity
  8
0
100
AcDbBlockEnd
  0
BLOCK
  5
3AA
330
3A8
100
AcDbEntity
  8
0
100
AcDbBlockBegin
  2
block 113
 70
     0
 71
     0
 10
0.0
 20
0.0
 30
0.0
  3
block 113
  1

  0
POLYLINE
  5
3AC
330
3A8
100
AcDbEntity
  8
0
 62
     7
420
 16777215
370
     9
100
AcDb2dPolyline
 66
     1
 10
0.0
 20
0.0
 30
0.0
  0
VERTEX
  5
3AD
330
3AC
100
AcDbEntity
  8
0
 62
     7
420
 16777215
370
     9
100
AcDbVertex
100
AcDb2dVertex
 10
193.2140013830839
 20
160.4221828837013
 30
0.0
  0
VERTEX
  5
3AE
330
3AC
100
AcDbEntity
  8
0
 62
     7
420
 16777215
370
     9
100
AcDbVertex
100
AcDb2dVertex
 10
193.2140013830839
 20
159.9047292004555
 30
0.0
  0
SEQEND
  5
3AF
330
3AC
100
AcDbEntity
  8
0
370
     9
  0
ENDBLK
  5
3AB
330
3A8
100
AcDbEntity
  8
0
100
AcDbBlockEnd
  0
BLOCK
  5
3B2
330
3B0
100
AcDbEntity
  8
0
100
AcDbBlockBegin
  2
block 114
 70
     0
 71
     0
 10
0.0
 20
0.0
 30
0.0
  3
block 114
  1

  0
POLYLINE
  5
3B4
330
3B0
100
AcDbEntity
  8
0
 62
     7
420
 16777215
370
     9
100
AcDb2dPolyline
 66
     1
 10
0.0
 20
0.0
 30
0.0
  0
VERTEX
  5
3B5
330
3B4
100
AcDbEntity
  8
0
 62
     7
420
 16777215
370
     9
100
AcDbVertex
100
AcDb2dVertex
 10
193.2140013830839
 20
164.4584594169292
 30
0.0
  0
VERTEX
  5
3B6
330
3B4
100
AcDbEntity
  8
0
 62
     7
420
 16777215
370
     9
100
AcDbVertex
100
AcDb2dVertex
 10
193.2140013830839
 20
163.9411779885713
 30
0.0
  0
SEQEND
  5
3B7
330
3B4
100
AcDbEntity
  8
0
370
     9
  0
ENDBLK
  5
3B3
330
3B0
100
AcDbEntity
  8
0
100
AcDbBlockEnd
  0
BLOCK
  5
3BA
330
3B8
100
AcDbEntity
  8
0
100
AcDbBlockBegin
  2
block 115
 70
     0
 71
     0
 10
0.0
 20
0.0
 30
0.0
  3
block 115
  1

  0
POLYLINE
  5
3BC
330
3B8
100
AcDbEntity
  8
0
 62
     7
420
 16777215
370
     9
100
AcDb2dPolyline
 66
     1
 10
0.0
 20
0.0
 30
0.0
  0
VERTEX
  5
3BD
330
3BC
100
AcDbEntity
  8
0
 62
     7
420
 16777215
370
     9
100
AcDbVertex
100
AcDb2dVertex
 10
187.5630075306993
 20
168.3912107625304
 30
0.0
  0
VERTEX
  5
3BE
330
3BC
100
AcDbEntity
  8
0
 62
     7
420
 16777215
370
     9
100
AcDbVertex
100
AcDb2dVertex
 10
187.5630075306993
 20
163.9411779885713
 30
0.0
  0
SEQEND
  5
3BF
330
3BC
100
AcDbEntity
  8
0
370
     9
  0
ENDBLK
  5
3BB
330
3B8
100
AcDbEntity
  8
0
100
AcDbBlockEnd
  0
BLOCK
  5
3C2
330
3C0
100
AcDbEntity
  8
0
100
AcDbBlockBegin
  2
block 116
 70
     0
 71
     0
 10
0.0
 20
0.0
 30
0.0
  3
block 116
  1

  0
POLYLINE
  5
3C4
330
3C0
100
AcDbEntity
  8
0
 62
     7
420
 16777215
370
     9
100
AcDb2dPolyline
 66
     1
 10
0.0
 20
0.0
 30
0.0
  0
VERTEX
  5
3C5
330
3C4
100
AcDbEntity
  8
0
 62
     7
420
 16777215
370
     9
100
AcDbVertex
100
AcDb2dVertex
 10
187.5630075306993
 20
160.4221828837013
 30
0.0
  0
VERTEX
  5
3C6
330
3C4
100
AcDbEntity
  8
0
 62
     7
420
 16777215
370
     9
100
AcDbVertex
100
AcDb2dVertex
 10
187.5630075306993
 20
155.9721501097422
 30
0.0
  0
SEQEND
  5
3C7
330
3C4
100
AcDbEntity
  8
0
370
     9
  0
ENDBLK
  5
3C3
330
3C0
100
AcDbEntity
  8
0
100
AcDbBlockEnd
  0
BLOCK
  5
3CA
330
3C8
100
AcDbEntity
  8
0
100
AcDbBlockBegin
  2
block 117
 70
     0
 71
     0
 10
0.0
 20
0.0
 30
0.0
  3
block 117
  1

  0
POLYLINE
  5
3CC
330
3C8
100
AcDbEntity
  8
0
 62
     7
420
 16777215
370
     9
100
AcDb2dPolyline
 66
     1
 10
0.0
 20
0.0
 30
0.0
  0
VERTEX
  5
3CD
330
3CC
100
AcDbEntity
  8
0
 62
     7
420
 16777215
370
     9
100
AcDbVertex
100
AcDb2dVertex
 10
187.8699657409337
 20
168.1280052938221
 30
0.0
  0
VERTEX
  5
3CE
330
3CC
100
AcDbEntity
  8
0
 62
     7
420
 16777215
370
     9
100
AcDbVertex
100
AcDb2dVertex
 10
187.8699657409337
 20
163.9411779885713
 30
0.0
  0
SEQEND
  5
3CF
330
3CC
100
AcDbEntity
  8
0
370
     9
  0
ENDBLK
  5
3CB
330
3C8
100
AcDbEntity
  8
0
100
AcDbBlockEnd
  0
BLOCK
  5
3D2
330
3D0
100
AcDbEntity
  8
0
100
AcDbBlockBegin
  2
block 118
 70
     0
 71
     0
 10
0.0
 20
0.0
 30
0.0
  3
block 118
  1

  0
POLYLINE
  5
3D4
330
3D0
100
AcDbEntity
  8
0
 62
     7
420
 16777215
370
     9
100
AcDb2dPolyline
 66
     1
 10
0.0
 20
0.0
 30
0.0
  0
VERTEX
  5
3D5
330
3D4
100
AcDbEntity
  8
0
 62
     7
420
 16777215
370
     9
100
AcDbVertex
100
AcDb2dVertex
 10
187.8699657409337
 20
160.4240776874682
 30
0.0
  0
VERTEX
  5
3D6
330
3D4
100
AcDbEntity
  8
0
 62
     7
420
 16777215
370
     9
100
AcDbVertex
100
AcDb2dVertex
 10
187.8699657409337
 20
156.2353555784505
 30
0.0
  0
SEQEND
  5
3D7
330
3D4
100
AcDbEntity
  8
0
370
     9
  0
ENDBLK
  5
3D3
330
3D0
100
AcDbEntity
  8
0
100
AcDbBlockEnd
  0
BLOCK
  5
3DA
330
3D8
100
AcDbEntity
  8
0
100
AcDbBlockBegin
  2
block 119
 70
     0
 71
     0
 10
0.0
 20
0.0
 30
0.0
  3
block 119
  1

  0
INSERT
  5
3DD
330
3D8
100
AcDbEntity
  8
0
100
AcDbBlockReference
  2
block 120
 10
0.0
 20
0.0
 30
0.0
  0
INSERT
  5
3E5
330
3D8
100
AcDbEntity
  8
0
100
AcDbBlockReference
  2
block 121
 10
0.0
 20
0.0
 30
0.0
  0
INSERT
  5
3ED
330
3D8
100
AcDbEntity
  8
0
100
AcDbBlockReference
  2
block 122
 10
0.0
 20
0.0
 30
0.0
  0
INSERT
  5
3F5
330
3D8
100
AcDbEntity
  8
0
100
AcDbBlockReference
  2
block 123
 10
0.0
 20
0.0
 30
0.0
  0
INSERT
  5
400
330
3D8
100
AcDbEntity
  8
0
100
AcDbBlockReference
  2
block 124
 10
0.0
 20
0.0
 30
0.0
  0
INSERT
  5
40B
330
3D8
100
AcDbEntity
  8
0
100
AcDbBlockReference
  2
block 125
 10
0.0
 20
0.0
 30
0.0
  0
INSERT
  5
410
330
3D8
100
AcDbEntity
  8
0
100
AcDbBlockReference
  2
block 126
 10
0.0
 20
0.0
 30
0.0
  0
INSERT
  5
418
330
3D8
100
AcDbEntity
  8
0
100
AcDbBlockReference
  2
block 127
 10
0.0
 20
0.0
 30
0.0
  0
INSERT
  5
420
330
3D8
100
AcDbEntity
  8
0
100
AcDbBlockReference
  2
block 128
 10
0.0
 20
0.0
 30
0.0
  0
ENDBLK
  5
3DB
330
3D8
100
AcDbEntity
  8
0
100
AcDbBlockEnd
  0
BLOCK
  5
3DE
330
3DC
100
AcDbEntity
  8
0
100
AcDbBlockBegin
  2
block 120
 70
     0
 71
     0
 10
0.0
 20
0.0
 30
0.0
  3
block 120
  1

  0
POLYLINE
  5
3E0
330
3DC
100
AcDbEntity
  8
0
 62
     7
420
 16777215
370
     9
100
AcDb2dPolyline
 66
     1
 10
0.0
 20
0.0
 30
0.0
  0
VERTEX
  5
3E1
330
3E0
100
AcDbEntity
  8
0
 62
     7
420
 16777215
370
     9
100
AcDbVertex
100
AcDb2dVertex
 10
185.8621627675936
 20
155.9721501097422
 30
0.0
  0
VERTEX
  5
3E2
330
3E0
100
AcDbEntity
  8
0
 62
     7
420
 16777215
370
     9
100
AcDbVertex
100
AcDb2dVertex
 10
169.6812276179992
 20
155.9721501097422
 30
0.0
  0
SEQEND
  5
3E3
330
3E0
100
AcDbEntity
  8
0
370
     9
  0
ENDBLK
  5
3DF
330
3DC
100
AcDbEntity
  8
0
100
AcDbBlockEnd
  0
BLOCK
  5
3E6
330
3E4
100
AcDbEntity
  8
0
100
AcDbBlockBegin
  2
block 121
 70
     0
 71
     0
 10
0.0
 20
0.0
 30
0.0
  3
block 121
  1

  0
POLYLINE
  5
3E8
330
3E4
100
AcDbEntity
  8
0
 62
     7
420
 16777215
370
     9
100
AcDb2dPolyline
 66
     1
 10
0.0
 20
0.0
 30
0.0
  0
VERTEX
  5
3E9
330
3E8
100
AcDbEntity
  8
0
 62
     7
420
 16777215
370
     9
100
AcDbVertex
100
AcDb2dVertex
 10
185.8621627675936
 20
205.2742551043803
 30
0.0
  0
VERTEX
  5
3EA
330
3E8
100
AcDbEntity
  8
0
 62
     7
420
 16777215
370
     9
100
AcDbVertex
100
AcDb2dVertex
 10
169.6812276179992
 20
205.2742551043803
 30
0.0
  0
SEQEND
  5
3EB
330
3E8
100
AcDbEntity
  8
0
370
     9
  0
ENDBLK
  5
3E7
330
3E4
100
AcDbEntity
  8
0
100
AcDbBlockEnd
  0
BLOCK
  5
3EE
330
3EC
100
AcDbEntity
  8
0
100
AcDbBlockBegin
  2
block 122
 70
     0
 71
     0
 10
0.0
 20
0.0
 30
0.0
  3
block 122
  1

  0
POLYLINE
  5
3F0
330
3EC
100
AcDbEntity
  8
0
 62
     7
420
 16777215
370
     9
100
AcDb2dPolyline
 66
     1
 10
0.0
 20
0.0
 30
0.0
  0
VERTEX
  5
3F1
330
3F0
100
AcDbEntity
  8
0
 62
     7
420
 16777215
370
     9
100
AcDbVertex
100
AcDb2dVertex
 10
169.6812276179992
 20
158.7058351806848
 30
0.0
  0
VERTEX
  5
3F2
330
3F0
100
AcDbEntity
  8
0
 62
     7
420
 16777215
370
     9
100
AcDbVertex
100
AcDb2dVertex
 10
169.6812276179992
 20
202.5403977785498
 30
0.0
  0
SEQEND
  5
3F3
330
3F0
100
AcDbEntity
  8
0
370
     9
  0
ENDBLK
  5
3EF
330
3EC
100
AcDbEntity
  8
0
100
AcDbBlockEnd
  0
BLOCK
  5
3F6
330
3F4
100
AcDbEntity
  8
0
100
AcDbBlockBegin
  2
block 123
 70
     0
 71
     0
 10
0.0
 20
0.0
 30
0.0
  3
block 123
  1

  0
POLYLINE
  5
3F8
330
3F4
100
AcDbEntity
  8
0
370
     0
100
AcDb2dPolyline
 66
     1
 10
0.0
 20
0.0
 30
0.0
  0
VERTEX
  5
3F9
330
3F8
100
AcDbEntity
  8
0
370
     0
100
AcDbVertex
100
AcDb2dVertex
 10
169.2254411846208
 20
158.7058351806848
 30
0.0
  0
VERTEX
  5
3FA
330
3F8
100
AcDbEntity
  8
0
370
     0
100
AcDbVertex
100
AcDb2dVertex
 10
170.1366695416017
 20
158.7058351806848
 30
0.0
  0
VERTEX
  5
3FB
330
3F8
100
AcDbEntity
  8
0
370
     0
100
AcDbVertex
100
AcDb2dVertex
 10
169.6812276179992
 20
155.9721501097422
 30
0.0
  0
VERTEX
  5
3FC
330
3F8
100
AcDbEntity
  8
0
370
     0
100
AcDbVertex
100
AcDb2dVertex
 10
169.2254411846208
 20
158.7058351806848
 30
0.0
  0
SEQEND
  5
3FD
330
3F8
100
AcDbEntity
  8
0
370
     0
  0
HATCH
  5
3FE
330
3F4
100
AcDbEntity
  8
0
 62
     7
420
 16777215
100
AcDbHatch
 10
0.0
 20
0.0
 30
0.0
210
0.0
220
0.0
230
1.0
  2
SOLID
 70
     1
 71
     0
 91
        1
 92
        1
 93
        3
 72
     1
 10
169.2254411846208
 20
158.7058351806848
 11
170.1366695416017
 21
158.7058351806848
 72
     1
 10
170.1366695416017
 20
158.7058351806848
 11
169.6812276179992
 21
155.9721501097422
 72
     1
 10
169.6812276179992
 20
155.9721501097422
 11
169.2254411846208
 21
158.7058351806848
 97
        0
 75
     2
 76
     1
 98
        0
  0
ENDBLK
  5
3F7
330
3F4
100
AcDbEntity
  8
0
100
AcDbBlockEnd
  0
BLOCK
  5
401
330
3FF
100
AcDbEntity
  8
0
100
AcDbBlockBegin
  2
block 124
 70
     0
 71
     0
 10
0.0
 20
0.0
 30
0.0
  3
block 124
  1

  0
POLYLINE
  5
403
330
3FF
100
AcDbEntity
  8
0
370
     0
100
AcDb2dPolyline
 66
     1
 10
0.0
 20
0.0
 30
0.0
  0
VERTEX
  5
404
330
403
100
AcDbEntity
  8
0
370
     0
100
AcDbVertex
100
AcDb2dVertex
 10
169.2254411846208
 20
202.5403977785498
 30
0.0
  0
VERTEX
  5
405
330
403
100
AcDbEntity
  8
0
370
     0
100
AcDbVertex
100
AcDb2dVertex
 10
170.1366695416017
 20
202.5403977785498
 30
0.0
  0
VERTEX
  5
406
330
403
100
AcDbEntity
  8
0
370
     0
100
AcDbVertex
100
AcDb2dVertex
 10
169.6812276179992
 20
205.2742551043803
 30
0.0
  0
VERTEX
  5
407
330
403
100
AcDbEntity
  8
0
370
     0
100
AcDbVertex
100
AcDb2dVertex
 10
169.2254411846208
 20
202.5403977785498
 30
0.0
  0
SEQEND
  5
408
330
403
100
AcDbEntity
  8
0
370
     0
  0
HATCH
  5
409
330
3FF
100
AcDbEntity
  8
0
 62
     7
420
 16777215
100
AcDbHatch
 10
0.0
 20
0.0
 30
0.0
210
0.0
220
0.0
230
1.0
  2
SOLID
 70
     1
 71
     0
 91
        1
 92
        1
 93
        3
 72
     1
 10
169.2254411846208
 20
202.5403977785498
 11
170.1366695416017
 21
202.5403977785498
 72
     1
 10
170.1366695416017
 20
202.5403977785498
 11
169.6812276179992
 21
205.2742551043803
 72
     1
 10
169.6812276179992
 20
205.2742551043803
 11
169.2254411846208
 21
202.5403977785498
 97
        0
 75
     2
 76
     1
 98
        0
  0
ENDBLK
  5
402
330
3FF
100
AcDbEntity
  8
0
100
AcDbBlockEnd
  0
BLOCK
  5
40C
330
40A
100
AcDbEntity
  8
0
100
AcDbBlockBegin
  2
block 125
 70
     0
 71
     0
 10
0.0
 20
0.0
 30
0.0
  3
block 125
  1

  0
MTEXT
  5
40E
330
40A
100
AcDbEntity
  8
0
 62
     7
420
 16777215
100
AcDbMText
 10
168.9570680692756
 20
176.4577349079098
 30
0.0
 40
2.398890470823883
 41
0.0
 71
     7
 72
     1
  1
\fArial|b1|i0|c0|p34;\W0.75;238.2
 11
-4.371139000186241E-8
 21
0.999999999999999
 31
0.0
 73
     1
 44
1.0
  0
ENDBLK
  5
40D
330
40A
100
AcDbEntity
  8
0
100
AcDbBlockEnd
  0
BLOCK
  5
411
330
40F
100
AcDbEntity
  8
0
100
AcDbBlockBegin
  2
block 126
 70
     0
 71
     0
 10
0.0
 20
0.0
 30
0.0
  3
block 126
  1

  0
POLYLINE
  5
413
330
40F
100
AcDbEntity
  8
0
 62
     7
420
 16777215
370
     9
100
AcDb2dPolyline
 66
     1
 10
0.0
 20
0.0
 30
0.0
  0
VERTEX
  5
414
330
413
100
AcDbEntity
  8
0
 62
     7
420
 16777215
370
     9
100
AcDbVertex
100
AcDb2dVertex
 10
185.913839233963
 20
155.9721501097422
 30
0.0
  0
VERTEX
  5
415
330
413
100
AcDbEntity
  8
0
 62
     7
420
 16777215
370
     9
100
AcDbVertex
100
AcDb2dVertex
 10
185.913839233963
 20
155.9721501097422
 30
0.0
  0
SEQEND
  5
416
330
413
100
AcDbEntity
  8
0
370
     9
  0
ENDBLK
  5
412
330
40F
100
AcDbEntity
  8
0
100
AcDbBlockEnd
  0
BLOCK
  5
419
330
417
100
AcDbEntity
  8
0
100
AcDbBlockBegin
  2
block 127
 70
     0
 71
     0
 10
0.0
 20
0.0
 30
0.0
  3
block 127
  1

  0
POLYLINE
  5
41B
330
417
100
AcDbEntity
  8
0
 62
     7
420
 16777215
370
     9
100
AcDb2dPolyline
 66
     1
 10
0.0
 20
0.0
 30
0.0
  0
VERTEX
  5
41C
330
41B
100
AcDbEntity
  8
0
 62
     7
420
 16777215
370
     9
100
AcDbVertex
100
AcDb2dVertex
 10
185.913839233963
 20
205.2742551043803
 30
0.0
  0
VERTEX
  5
41D
330
41B
100
AcDbEntity
  8
0
 62
     7
420
 16777215
370
     9
100
AcDbVertex
100
AcDb2dVertex
 10
185.913839233963
 20
205.2742551043803
 30
0.0
  0
SEQEND
  5
41E
330
41B
100
AcDbEntity
  8
0
370
     9
  0
ENDBLK
  5
41A
330
417
100
AcDbEntity
  8
0
100
AcDbBlockEnd
  0
BLOCK
  5
421
330
41F
100
AcDbEntity
  8
0
100
AcDbBlockBegin
  2
block 128
 70
     0
 71
     0
 10
0.0
 20
0.0
 30
0.0
  3
block 128
  1

  0
POLYLINE
  5
423
330
41F
100
AcDbEntity
  8
0
 62
     7
420
 16777215
370
     9
100
AcDb2dPolyline
 66
     1
 10
0.0
 20
0.0
 30
0.0
  0
VERTEX
  5
424
330
423
100
AcDbEntity
  8
0
 62
     7
420
 16777215
370
     9
100
AcDbVertex
100
AcDb2dVertex
 10
169.6812276179992
 20
205.2742551043803
 30
0.0
  0
VERTEX
  5
425
330
423
100
AcDbEntity
  8
0
 62
     7
420
 16777215
370
     9
100
AcDbVertex
100
AcDb2dVertex
 10
169.6812276179992
 20
205.2742551043803
 30
0.0
  0
SEQEND
  5
426
330
423
100
AcDbEntity
  8
0
370
     9
  0
ENDBLK
  5
422
330
41F
100
AcDbEntity
  8
0
100
AcDbBlockEnd
  0
BLOCK
  5
429
330
427
100
AcDbEntity
  8
0
100
AcDbBlockBegin
  2
block 129
 70
     0
 71
     0
 10
0.0
 20
0.0
 30
0.0
  3
block 129
  1

  0
POLYLINE
  5
42B
330
427
100
AcDbEntity
  8
0
 62
     7
420
 16777215
370
     9
100
AcDb2dPolyline
 66
     1
 10
0.0
 20
0.0
 30
0.0
  0
VERTEX
  5
42C
330
42B
100
AcDbEntity
  8
0
 62
     7
420
 16777215
370
     9
100
AcDbVertex
100
AcDb2dVertex
 10
59.26429418133595
 20
105.7362513678085
 30
0.0
  0
VERTEX
  5
42D
330
42B
100
AcDbEntity
  8
0
 62
     7
420
 16777215
370
     9
100
AcDbVertex
100
AcDb2dVertex
 10
59.26429418133595
 20
96.31873213664448
 30
0.0
  0
SEQEND
  5
42E
330
42B
100
AcDbEntity
  8
0
370
     9
  0
ENDBLK
  5
42A
330
427
100
AcDbEntity
  8
0
100
AcDbBlockEnd
  0
BLOCK
  5
431
330
42F
100
AcDbEntity
  8
0
100
AcDbBlockBegin
  2
block 130
 70
     0
 71
     0
 10
0.0
 20
0.0
 30
0.0
  3
block 130
  1

  0
POLYLINE
  5
433
330
42F
100
AcDbEntity
  8
0
 62
     7
420
 16777215
370
     9
100
AcDb2dPolyline
 66
     1
 10
0.0
 20
0.0
 30
0.0
  0
VERTEX
  5
434
330
433
100
AcDbEntity
  8
0
 62
     7
420
 16777215
370
     9
100
AcDbVertex
100
AcDb2dVertex
 10
62.78294477643011
 20
96.31873213664448
 30
0.0
  0
VERTEX
  5
435
330
433
100
AcDbEntity
  8
0
 62
     7
420
 16777215
370
     9
100
AcDbVertex
100
AcDb2dVertex
 10
62.78294477643011
 20
105.7362513678085
 30
0.0
  0
SEQEND
  5
436
330
433
100
AcDbEntity
  8
0
370
     9
  0
ENDBLK
  5
432
330
42F
100
AcDbEntity
  8
0
100
AcDbBlockEnd
  0
BLOCK
  5
439
330
437
100
AcDbEntity
  8
0
100
AcDbBlockBegin
  2
block 131
 70
     0
 71
     0
 10
0.0
 20
0.0
 30
0.0
  3
block 131
  1

  0
POLYLINE
  5
43B
330
437
100
AcDbEntity
  8
0
 62
     7
420
 16777215
370
     9
100
AcDb2dPolyline
 66
     1
 10
0.0
 20
0.0
 30
0.0
  0
VERTEX
  5
43C
330
43B
100
AcDbEntity
  8
0
 62
     7
420
 16777215
370
     9
100
AcDbVertex
100
AcDb2dVertex
 10
19.76280328854723
 20
91.76500192017072
 30
0.0
  0
VERTEX
  5
43D
330
43B
100
AcDbEntity
  8
0
 62
     7
420
 16777215
370
     9
100
AcDbVertex
100
AcDb2dVertex
 10
51.20776081945464
 20
91.76500192017072
 30
0.0
  0
SEQEND
  5
43E
330
43B
100
AcDbEntity
  8
0
370
     9
  0
ENDBLK
  5
43A
330
437
100
AcDbEntity
  8
0
100
AcDbBlockEnd
  0
BLOCK
  5
441
330
43F
100
AcDbEntity
  8
0
100
AcDbBlockBegin
  2
block 132
 70
     0
 71
     0
 10
0.0
 20
0.0
 30
0.0
  3
block 132
  1

  0
POLYLINE
  5
443
330
43F
100
AcDbEntity
  8
0
 62
     7
420
 16777215
370
     9
100
AcDb2dPolyline
 66
     1
 10
0.0
 20
0.0
 30
0.0
  0
VERTEX
  5
444
330
443
100
AcDbEntity
  8
0
 62
     7
420
 16777215
370
     9
100
AcDbVertex
100
AcDb2dVertex
 10
51.20776081945464
 20
96.31873213664448
 30
0.0
  0
VERTEX
  5
445
330
443
100
AcDbEntity
  8
0
 62
     7
420
 16777215
370
     9
100
AcDbVertex
100
AcDb2dVertex
 10
19.76280328854723
 20
96.31873213664448
 30
0.0
  0
SEQEND
  5
446
330
443
100
AcDbEntity
  8
0
370
     9
  0
ENDBLK
  5
442
330
43F
100
AcDbEntity
  8
0
100
AcDbBlockEnd
  0
BLOCK
  5
449
330
447
100
AcDbEntity
  8
0
100
AcDbBlockBegin
  2
block 133
 70
     0
 71
     0
 10
0.0
 20
0.0
 30
0.0
  3
block 133
  1

  0
POLYLINE
  5
44B
330
447
100
AcDbEntity
  8
0
 62
     7
420
 16777215
370
     9
100
AcDb2dPolyline
 66
     1
 10
0.0
 20
0.0
 30
0.0
  0
VERTEX
  5
44C
330
44B
100
AcDbEntity
  8
0
 62
     7
420
 16777215
370
     9
100
AcDbVertex
100
AcDb2dVertex
 10
51.20776081945464
 20
91.76500192017072
 30
0.0
  0
VERTEX
  5
44D
330
44B
100
AcDbEntity
  8
0
 62
     7
420
 16777215
370
     9
100
AcDbVertex
100
AcDb2dVertex
 10
56.91594329462136
 20
91.76500192017072
 30
0.0
  0
SEQEND
  5
44E
330
44B
100
AcDbEntity
  8
0
370
     9
  0
ENDBLK
  5
44A
330
447
100
AcDbEntity
  8
0
100
AcDbBlockEnd
  0
BLOCK
  5
451
330
44F
100
AcDbEntity
  8
0
100
AcDbBlockBegin
  2
block 134
 70
     0
 71
     0
 10
0.0
 20
0.0
 30
0.0
  3
block 134
  1

  0
POLYLINE
  5
453
330
44F
100
AcDbEntity
  8
0
 62
     7
420
 16777215
370
     9
100
AcDb2dPolyline
 66
     1
 10
0.0
 20
0.0
 30
0.0
  0
VERTEX
  5
454
330
453
100
AcDbEntity
  8
0
 62
     7
420
 16777215
370
     9
100
AcDbVertex
100
AcDb2dVertex
 10
56.91594329462136
 20
96.31873213664448
 30
0.0
  0
VERTEX
  5
455
330
453
100
AcDbEntity
  8
0
 62
     7
420
 16777215
370
     9
100
AcDbVertex
100
AcDb2dVertex
 10
51.20776081945464
 20
96.31873213664448
 30
0.0
  0
SEQEND
  5
456
330
453
100
AcDbEntity
  8
0
370
     9
  0
ENDBLK
  5
452
330
44F
100
AcDbEntity
  8
0
100
AcDbBlockEnd
  0
BLOCK
  5
459
330
457
100
AcDbEntity
  8
0
100
AcDbBlockBegin
  2
block 135
 70
     0
 71
     0
 10
0.0
 20
0.0
 30
0.0
  3
block 135
  1

  0
POLYLINE
  5
45B
330
457
100
AcDbEntity
  8
0
 62
     7
420
 16777215
370
     9
100
AcDb2dPolyline
 66
     1
 10
0.0
 20
0.0
 30
0.0
  0
VERTEX
  5
45C
330
45B
100
AcDbEntity
  8
0
 62
     7
420
 16777215
370
     9
100
AcDbVertex
100
AcDb2dVertex
 10
59.26429418133595
 20
96.31873213664448
 30
0.0
  0
VERTEX
  5
45D
330
45B
100
AcDbEntity
  8
0
 62
     7
420
 16777215
370
     9
100
AcDbVertex
100
AcDb2dVertex
 10
56.91594329462136
 20
96.31873213664448
 30
0.0
  0
SEQEND
  5
45E
330
45B
100
AcDbEntity
  8
0
370
     9
  0
ENDBLK
  5
45A
330
457
100
AcDbEntity
  8
0
100
AcDbBlockEnd
  0
BLOCK
  5
461
330
45F
100
AcDbEntity
  8
0
100
AcDbBlockBegin
  2
block 136
 70
     0
 71
     0
 10
0.0
 20
0.0
 30
0.0
  3
block 136
  1

  0
POLYLINE
  5
463
330
45F
100
AcDbEntity
  8
0
 62
     7
420
 16777215
370
     9
100
AcDb2dPolyline
 66
     1
 10
0.0
 20
0.0
 30
0.0
  0
VERTEX
  5
464
330
463
100
AcDbEntity
  8
0
 62
     7
420
 16777215
370
     9
100
AcDbVertex
100
AcDb2dVertex
 10
101.3857819190545
 20
96.31873213664448
 30
0.0
  0
VERTEX
  5
465
330
463
100
AcDbEntity
  8
0
 62
     7
420
 16777215
370
     9
100
AcDbVertex
100
AcDb2dVertex
 10
62.78294477643011
 20
96.31873213664448
 30
0.0
  0
SEQEND
  5
466
330
463
100
AcDbEntity
  8
0
370
     9
  0
ENDBLK
  5
462
330
45F
100
AcDbEntity
  8
0
100
AcDbBlockEnd
  0
BLOCK
  5
469
330
467
100
AcDbEntity
  8
0
100
AcDbBlockBegin
  2
block 137
 70
     0
 71
     0
 10
0.0
 20
0.0
 30
0.0
  3
block 137
  1

  0
POLYLINE
  5
46B
330
467
100
AcDbEntity
  8
0
 62
     7
420
 16777215
370
     9
100
AcDb2dPolyline
 66
     1
 10
0.0
 20
0.0
 30
0.0
  0
VERTEX
  5
46C
330
46B
100
AcDbEntity
  8
0
 62
     7
420
 16777215
370
     9
100
AcDbVertex
100
AcDb2dVertex
 10
56.91594329462136
 20
91.76500192017072
 30
0.0
  0
VERTEX
  5
46D
330
46B
100
AcDbEntity
  8
0
 62
     7
420
 16777215
370
     9
100
AcDbVertex
100
AcDb2dVertex
 10
101.3857819190545
 20
91.76500192017072
 30
0.0
  0
SEQEND
  5
46E
330
46B
100
AcDbEntity
  8
0
370
     9
  0
ENDBLK
  5
46A
330
467
100
AcDbEntity
  8
0
100
AcDbBlockEnd
  0
BLOCK
  5
471
330
46F
100
AcDbEntity
  8
0
100
AcDbBlockBegin
  2
block 138
 70
     0
 71
     0
 10
0.0
 20
0.0
 30
0.0
  3
block 138
  1

  0
SPLINE
  5
473
330
46F
100
AcDbEntity
  8
0
 62
     7
420
 16777215
370
     9
100
AcDbSpline
210
0.0
220
0.0
230
1.0
 70
     8
 71
     3
 72
     8
 73
     4
 74
     0
 42
0.0000000001
 43
0.0000000001
 40
0.0
 40
0.0
 40
0.0
 40
0.0
 40
1.0
 40
1.0
 40
1.0
 40
1.0
 10
22.63549805402358
 20
103.3181372514952
 30
0.0
 10
22.78415402227963
 20
103.3384633282672
 30
0.0
 10
22.90128734605032
 20
103.4752337092583
 30
0.0
 10
22.89870352273185
 20
103.6250954617296
 30
0.0
  0
ENDBLK
  5
472
330
46F
100
AcDbEntity
  8
0
100
AcDbBlockEnd
  0
BLOCK
  5
476
330
474
100
AcDbEntity
  8
0
100
AcDbBlockBegin
  2
block 139
 70
     0
 71
     0
 10
0.0
 20
0.0
 30
0.0
  3
block 139
  1

  0
SPLINE
  5
478
330
474
100
AcDbEntity
  8
0
 62
     7
420
 16777215
370
     9
100
AcDbSpline
210
0.0
220
0.0
230
1.0
 70
     8
 71
     3
 72
     8
 73
     4
 74
     0
 42
0.0000000001
 43
0.0000000001
 40
0.0
 40
0.0
 40
0.0
 40
0.0
 40
1.0
 40
1.0
 40
1.0
 40
1.0
 10
10.47964286994366
 20
103.6250954617296
 30
0.0
 10
10.47688679173729
 20
103.4752337092583
 30
0.0
 10
10.59402011550799
 20
103.3384633282672
 30
0.0
 10
10.74284833865193
 20
103.3181372514952
 30
0.0
  0
ENDBLK
  5
477
330
474
100
AcDbEntity
  8
0
100
AcDbBlockEnd
  0
BLOCK
  5
47B
330
479
100
AcDbEntity
  8
0
100
AcDbBlockBegin
  2
block 140
 70
     0
 71
     0
 10
0.0
 20
0.0
 30
0.0
  3
block 140
  1

  0
POLYLINE
  5
47D
330
479
100
AcDbEntity
  8
0
 62
     7
420
 16777215
370
     9
100
AcDb2dPolyline
 66
     1
 10
0.0
 20
0.0
 30
0.0
  0
VERTEX
  5
47E
330
47D
100
AcDbEntity
  8
0
 62
     7
420
 16777215
370
     9
100
AcDbVertex
100
AcDb2dVertex
 10
22.89870352273185
 20
103.6250954617296
 30
0.0
  0
VERTEX
  5
47F
330
47D
100
AcDbEntity
  8
0
 62
     7
420
 16777215
370
     9
100
AcDbVertex
100
AcDb2dVertex
 10
22.89870352273185
 20
105.2742637584659
 30
0.0
  0
SEQEND
  5
480
330
47D
100
AcDbEntity
  8
0
370
     9
  0
ENDBLK
  5
47C
330
479
100
AcDbEntity
  8
0
100
AcDbBlockEnd
  0
BLOCK
  5
483
330
481
100
AcDbEntity
  8
0
100
AcDbBlockBegin
  2
block 141
 70
     0
 71
     0
 10
0.0
 20
0.0
 30
0.0
  3
block 141
  1

  0
POLYLINE
  5
485
330
481
100
AcDbEntity
  8
0
 62
     7
420
 16777215
370
     9
100
AcDb2dPolyline
 66
     1
 10
0.0
 20
0.0
 30
0.0
  0
VERTEX
  5
486
330
485
100
AcDbEntity
  8
0
 62
     7
420
 16777215
370
     9
100
AcDbVertex
100
AcDb2dVertex
 10
10.47964286994366
 20
105.2742637584659
 30
0.0
  0
VERTEX
  5
487
330
485
100
AcDbEntity
  8
0
 62
     7
420
 16777215
370
     9
100
AcDbVertex
100
AcDb2dVertex
 10
10.47964286994366
 20
103.6250954617296
 30
0.0
  0
SEQEND
  5
488
330
485
100
AcDbEntity
  8
0
370
     9
  0
ENDBLK
  5
484
330
481
100
AcDbEntity
  8
0
100
AcDbBlockEnd
  0
BLOCK
  5
48B
330
489
100
AcDbEntity
  8
0
100
AcDbBlockBegin
  2
block 142
 70
     0
 71
     0
 10
0.0
 20
0.0
 30
0.0
  3
block 142
  1

  0
POLYLINE
  5
48D
330
489
100
AcDbEntity
  8
0
 62
     7
420
 16777215
370
     9
100
AcDb2dPolyline
 66
     1
 10
0.0
 20
0.0
 30
0.0
  0
VERTEX
  5
48E
330
48D
100
AcDbEntity
  8
0
 62
     7
420
 16777215
370
     9
100
AcDbVertex
100
AcDb2dVertex
 10
22.89870352273185
 20
105.2742637584659
 30
0.0
  0
VERTEX
  5
48F
330
48D
100
AcDbEntity
  8
0
 62
     7
420
 16777215
370
     9
100
AcDbVertex
100
AcDb2dVertex
 10
22.80241304039683
 20
105.6328984350697
 30
0.0
  0
SEQEND
  5
490
330
48D
100
AcDbEntity
  8
0
370
     9
  0
ENDBLK
  5
48C
330
489
100
AcDbEntity
  8
0
100
AcDbBlockEnd
  0
BLOCK
  5
493
330
491
100
AcDbEntity
  8
0
100
AcDbBlockBegin
  2
block 143
 70
     0
 71
     0
 10
0.0
 20
0.0
 30
0.0
  3
block 143
  1

  0
POLYLINE
  5
495
330
491
100
AcDbEntity
  8
0
 62
     7
420
 16777215
370
     9
100
AcDb2dPolyline
 66
     1
 10
0.0
 20
0.0
 30
0.0
  0
VERTEX
  5
496
330
495
100
AcDbEntity
  8
0
 62
     7
420
 16777215
370
     9
100
AcDbVertex
100
AcDb2dVertex
 10
10.57576109739079
 20
105.6328984350697
 30
0.0
  0
VERTEX
  5
497
330
495
100
AcDbEntity
  8
0
 62
     7
420
 16777215
370
     9
100
AcDbVertex
100
AcDb2dVertex
 10
10.47964286994366
 20
105.2742637584659
 30
0.0
  0
SEQEND
  5
498
330
495
100
AcDbEntity
  8
0
370
     9
  0
ENDBLK
  5
494
330
491
100
AcDbEntity
  8
0
100
AcDbBlockEnd
  0
BLOCK
  5
49B
330
499
100
AcDbEntity
  8
0
100
AcDbBlockBegin
  2
block 144
 70
     0
 71
     0
 10
0.0
 20
0.0
 30
0.0
  3
block 144
  1

  0
SPLINE
  5
49D
330
499
100
AcDbEntity
  8
0
 62
     7
420
 16777215
370
     9
100
AcDbSpline
210
0.0
220
0.0
230
1.0
 70
     8
 71
     3
 72
     8
 73
     4
 74
     0
 42
0.0000000001
 43
0.0000000001
 40
0.0
 40
0.0
 40
0.0
 40
0.0
 40
1.0
 40
1.0
 40
1.0
 40
1.0
 10
19.06947736475744
 20
103.0456300188405
 30
0.0
 10
19.98931846613321
 20
103.0246149225169
 30
0.0
 10
21.72943734367966
 20
103.1575956959742
 30
0.0
 10
22.63549805402358
 20
103.3181372514952
 30
0.0
  0
ENDBLK
  5
49C
330
499
100
AcDbEntity
  8
0
100
AcDbBlockEnd
  0
BLOCK
  5
4A0
330
49E
100
AcDbEntity
  8
0
100
AcDbBlockBegin
  2
block 145
 70
     0
 71
     0
 10
0.0
 20
0.0
 30
0.0
  3
block 145
  1

  0
SPLINE
  5
4A2
330
49E
100
AcDbEntity
  8
0
 62
     7
420
 16777215
370
     9
100
AcDbSpline
210
0.0
220
0.0
230
1.0
 70
     8
 71
     3
 72
     8
 73
     4
 74
     0
 42
0.0000000001
 43
0.0000000001
 40
0.0
 40
0.0
 40
0.0
 40
0.0
 40
1.0
 40
1.0
 40
1.0
 40
1.0
 10
10.74284833865193
 20
103.3181372514952
 30
0.0
 10
11.64873679410796
 20
103.1575956959742
 30
0.0
 10
13.38885567165441
 20
103.0246149225169
 30
0.0
 10
14.30886902791808
 20
103.0456300188405
 30
0.0
  0
ENDBLK
  5
4A1
330
49E
100
AcDbEntity
  8
0
100
AcDbBlockEnd
  0
BLOCK
  5
4A5
330
4A3
100
AcDbEntity
  8
0
100
AcDbBlockBegin
  2
block 146
 70
     0
 71
     0
 10
0.0
 20
0.0
 30
0.0
  3
block 146
  1

  0
POLYLINE
  5
4A7
330
4A3
100
AcDbEntity
  8
0
 62
     7
420
 16777215
370
     9
100
AcDb2dPolyline
 66
     1
 10
0.0
 20
0.0
 30
0.0
  0
VERTEX
  5
4A8
330
4A7
100
AcDbEntity
  8
0
 62
     7
420
 16777215
370
     9
100
AcDbVertex
100
AcDb2dVertex
 10
106.7227551108009
 20
105.6328984350697
 30
0.0
  0
VERTEX
  5
4A9
330
4A7
100
AcDbEntity
  8
0
 62
     7
420
 16777215
370
     9
100
AcDbVertex
100
AcDb2dVertex
 10
106.6459294307983
 20
105.6556360802722
 30
0.0
  0
VERTEX
  5
4AA
330
4A7
100
AcDbEntity
  8
0
 62
     7
420
 16777215
370
     9
100
AcDbVertex
100
AcDb2dVertex
 10
106.4815982677436
 20
105.6742396081652
 30
0.0
  0
SEQEND
  5
4AB
330
4A7
100
AcDbEntity
  8
0
370
     9
  0
ENDBLK
  5
4A6
330
4A3
100
AcDbEntity
  8
0
100
AcDbBlockEnd
  0
BLOCK
  5
4AE
330
4AC
100
AcDbEntity
  8
0
100
AcDbBlockBegin
  2
block 147
 70
     0
 71
     0
 10
0.0
 20
0.0
 30
0.0
  3
block 147
  1

  0
POLYLINE
  5
4B0
330
4AC
100
AcDbEntity
  8
0
 62
     7
420
 16777215
370
     9
100
AcDb2dPolyline
 66
     1
 10
0.0
 20
0.0
 30
0.0
  0
VERTEX
  5
4B1
330
4B0
100
AcDbEntity
  8
0
 62
     7
420
 16777215
370
     9
100
AcDbVertex
100
AcDb2dVertex
 10
104.9836697625818
 20
105.6742396081652
 30
0.0
  0
VERTEX
  5
4B2
330
4B0
100
AcDbEntity
  8
0
 62
     7
420
 16777215
370
     9
100
AcDbVertex
100
AcDb2dVertex
 10
104.819338599527
 20
105.6556360802722
 30
0.0
  0
VERTEX
  5
4B3
330
4B0
100
AcDbEntity
  8
0
 62
     7
420
 16777215
370
     9
100
AcDbVertex
100
AcDb2dVertex
 10
104.7423406646366
 20
105.6328984350697
 30
0.0
  0
SEQEND
  5
4B4
330
4B0
100
AcDbEntity
  8
0
370
     9
  0
ENDBLK
  5
4AF
330
4AC
100
AcDbEntity
  8
0
100
AcDbBlockEnd
  0
BLOCK
  5
4B7
330
4B5
100
AcDbEntity
  8
0
100
AcDbBlockBegin
  2
block 148
 70
     0
 71
     0
 10
0.0
 20
0.0
 30
0.0
  3
block 148
  1

  0
POLYLINE
  5
4B9
330
4B5
100
AcDbEntity
  8
0
 62
     7
420
 16777215
370
     9
100
AcDb2dPolyline
 66
     1
 10
0.0
 20
0.0
 30
0.0
  0
VERTEX
  5
4BA
330
4B9
100
AcDbEntity
  8
0
 62
     7
420
 16777215
370
     9
100
AcDbVertex
100
AcDb2dVertex
 10
15.94046732608873
 20
105.6742396081652
 30
0.0
  0
VERTEX
  5
4BB
330
4B9
100
AcDbEntity
  8
0
 62
     7
420
 16777215
370
     9
100
AcDbVertex
100
AcDb2dVertex
 10
15.77613616303396
 20
105.6556360802722
 30
0.0
  0
VERTEX
  5
4BC
330
4B9
100
AcDbEntity
  8
0
 62
     7
420
 16777215
370
     9
100
AcDbVertex
100
AcDb2dVertex
 10
15.69896597325562
 20
105.6328984350697
 30
0.0
  0
SEQEND
  5
4BD
330
4B9
100
AcDbEntity
  8
0
370
     9
  0
ENDBLK
  5
4B8
330
4B5
100
AcDbEntity
  8
0
100
AcDbBlockEnd
  0
BLOCK
  5
4C0
330
4BE
100
AcDbEntity
  8
0
100
AcDbBlockBegin
  2
block 149
 70
     0
 71
     0
 10
0.0
 20
0.0
 30
0.0
  3
block 149
  1

  0
POLYLINE
  5
4C2
330
4BE
100
AcDbEntity
  8
0
 62
     7
420
 16777215
370
     9
100
AcDb2dPolyline
 66
     1
 10
0.0
 20
0.0
 30
0.0
  0
VERTEX
  5
4C3
330
4C2
100
AcDbEntity
  8
0
 62
     7
420
 16777215
370
     9
100
AcDbVertex
100
AcDb2dVertex
 10
14.41222196065693
 20
103.0456300188405
 30
0.0
  0
VERTEX
  5
4C4
330
4C2
100
AcDbEntity
  8
0
 62
     7
420
 16777215
370
     9
100
AcDbVertex
100
AcDb2dVertex
 10
14.41222196065693
 20
97.97444611912087
 30
0.0
  0
SEQEND
  5
4C5
330
4C2
100
AcDbEntity
  8
0
370
     9
  0
ENDBLK
  5
4C1
330
4BE
100
AcDbEntity
  8
0
100
AcDbBlockEnd
  0
BLOCK
  5
4C8
330
4C6
100
AcDbEntity
  8
0
100
AcDbBlockBegin
  2
block 150
 70
     0
 71
     0
 10
0.0
 20
0.0
 30
0.0
  3
block 150
  1

  0
POLYLINE
  5
4CA
330
4C6
100
AcDbEntity
  8
0
 62
     7
420
 16777215
370
     9
100
AcDb2dPolyline
 66
     1
 10
0.0
 20
0.0
 30
0.0
  0
VERTEX
  5
4CB
330
4CA
100
AcDbEntity
  8
0
 62
     7
420
 16777215
370
     9
100
AcDbVertex
100
AcDb2dVertex
 10
18.96595217713069
 20
97.97444611912087
 30
0.0
  0
VERTEX
  5
4CC
330
4CA
100
AcDbEntity
  8
0
 62
     7
420
 16777215
370
     9
100
AcDbVertex
100
AcDb2dVertex
 10
18.96595217713069
 20
103.0456300188405
 30
0.0
  0
SEQEND
  5
4CD
330
4CA
100
AcDbEntity
  8
0
370
     9
  0
ENDBLK
  5
4C9
330
4C6
100
AcDbEntity
  8
0
100
AcDbBlockEnd
  0
BLOCK
  5
4D0
330
4CE
100
AcDbEntity
  8
0
100
AcDbBlockBegin
  2
block 151
 70
     0
 71
     0
 10
0.0
 20
0.0
 30
0.0
  3
block 151
  1

  0
SPLINE
  5
4D2
330
4CE
100
AcDbEntity
  8
0
 62
     7
420
 16777215
370
     9
100
AcDbSpline
210
0.0
220
0.0
230
1.0
 70
     8
 71
     3
 72
    98
 73
    94
 74
     0
 42
0.0000000001
 43
0.0000000001
 40
0.0
 40
0.0
 40
0.0
 40
0.0
 40
1.0
 40
1.0
 40
1.0
 40
2.0
 40
2.0
 40
2.0
 40
3.0
 40
3.0
 40
3.0
 40
4.0
 40
4.0
 40
4.0
 40
5.0
 40
5.0
 40
5.0
 40
6.0
 40
6.0
 40
6.0
 40
7.0
 40
7.0
 40
7.0
 40
8.0
 40
8.0
 40
8.0
 40
9.0
 40
9.0
 40
9.0
 40
10.0
 40
10.0
 40
10.0
 40
11.0
 40
11.0
 40
11.0
 40
12.0
 40
12.0
 40
12.0
 40
13.0
 40
13.0
 40
13.0
 40
14.0
 40
14.0
 40
14.0
 40
15.0
 40
15.0
 40
15.0
 40
16.0
 40
16.0
 40
16.0
 40
17.0
 40
17.0
 40
17.0
 40
18.0
 40
18.0
 40
18.0
 40
19.0
 40
19.0
 40
19.0
 40
20.0
 40
20.0
 40
20.0
 40
21.0
 40
21.0
 40
21.0
 40
22.0
 40
22.0
 40
22.0
 40
23.0
 40
23.0
 40
23.0
 40
24.0
 40
24.0
 40
24.0
 40
25.0
 40
25.0
 40
25.0
 40
26.0
 40
26.0
 40
26.0
 40
27.0
 40
27.0
 40
27.0
 40
28.0
 40
28.0
 40
28.0
 40
29.0
 40
29.0
 40
29.0
 40
30.0
 40
30.0
 40
30.0
 40
31.0
 40
31.0
 40
31.0
 40
31.0
 10
14.41222196065693
 20
97.97444611912087
 30
0.0
 10
14.41411676442381
 20
97.84938907050686
 30
0.0
 10
14.41583931330279
 20
97.72433202189285
 30
0.0
 10
14.42117921482763
 20
97.59927497327884
 30
0.0
 10
14.42117921482763
 20
97.59927497327884
 30
0.0
 10
14.42117921482763
 20
97.59927497327884
 30
0.0
 10
14.42117921482763
 20
97.59927497327884
 30
0.0
 10
14.43048097877412
 20
97.38395636340623
 30
0.0
 10
14.4506348006582
 20
97.16932677308522
 30
0.0
 10
14.47888460227349
 20
96.9557307120916
 30
0.0
 10
14.47888460227349
 20
96.9557307120916
 30
0.0
 10
14.47888460227349
 20
96.9557307120916
 30
0.0
 10
14.47888460227349
 20
96.9557307120916
 30
0.0
 10
14.50747891366457
 20
96.74213465109797
 30
0.0
 10
14.54434145967476
 20
96.53026113898332
 30
0.0
 10
14.59016125985565
 20
96.32079919529926
 30
0.0
 10
14.59016125985565
 20
96.32079919529926
 30
0.0
 10
14.59016125985565
 20
96.32079919529926
 30
0.0
 10
14.59016125985565
 20
96.32079919529926
 30
0.0
 10
14.63615331492444
 20
96.11099274183938
 30
0.0
 10
14.69110262416393
 20
95.9039423665859
 30
0.0
 10
14.75483693268622
 20
95.70033708909035
 30
0.0
 10
14.75483693268622
 20
95.70033708909035
 30
0.0
 10
14.75483693268622
 20
95.70033708909035
 30
0.0
 10
14.75483693268622
 20
95.70033708909035
 30
0.0
 10
14.81874349609641
 20
95.49638730181903
 30
0.0
 10
14.8914350587894
 20
95.29657163185725
 30
0.0
 10
14.97291162076519
 20
95.10123458898082
 30
0.0
 10
14.97291162076519
 20
95.10123458898082
 30
0.0
 10
14.97291162076519
 20
95.10123458898082
 30
0.0
 10
14.97291162076519
 20
95.10123458898082
 30
0.0
 10
15.05438818274099
 20
94.9055530363286
 30
0.0
 10
15.14482199888748
 20
94.71469462053751
 30
0.0
 10
15.24352404965308
 20
94.53003738071077
 30
0.0
 10
15.24352404965308
 20
94.53003738071077
 30
0.0
 10
15.24352404965308
 20
94.53003738071077
 30
0.0
 10
15.24352404965308
 20
94.53003738071077
 30
0.0
 10
15.34239835530658
 20
94.34469112133243
 30
0.0
 10
15.44971315046709
 20
94.16589054769422
 30
0.0
 10
15.5652961802467
 20
93.99432467934773
 30
0.0
 10
15.5652961802467
 20
93.99432467934773
 30
0.0
 10
15.5652961802467
 20
93.99432467934773
 30
0.0
 10
15.5652961802467
 20
93.99432467934773
 30
0.0
 10
15.68036244536263
 20
93.82275881100124
 30
0.0
 10
15.80404145487345
 20
93.65842764794647
 30
0.0
 10
15.93529967945179
 20
93.50202020973501
 30
0.0
 10
15.93529967945179
 20
93.50202020973501
 30
0.0
 10
15.93529967945179
 20
93.50202020973501
 30
0.0
 10
15.93529967945179
 20
93.50202020973501
 30
0.0
 10
16.06552437470274
 20
93.34664630085094
 30
0.0
 10
16.20350053990911
 20
93.19988513636176
 30
0.0
 10
16.34888366529509
 20
93.0613922064917
 30
0.0
 10
16.34888366529509
 20
93.0613922064917
 30
0.0
 10
16.34888366529509
 20
93.0613922064917
 30
0.0
 10
16.34888366529509
 20
93.0613922064917
 30
0.0
 10
16.49237198691419
 20
92.92462182550062
 30
0.0
 10
16.64309501382502
 20
92.79715320845604
 30
0.0
 10
16.80036372647597
 20
92.67933086513375
 30
0.0
 10
16.80036372647597
 20
92.67933086513375
 30
0.0
 10
16.80036372647597
 20
92.67933086513375
 30
0.0
 10
16.80036372647597
 20
92.67933086513375
 30
0.0
 10
16.95504861580845
 20
92.56288656091465
 30
0.0
 10
17.11593468110526
 20
92.45643304019363
 30
0.0
 10
17.28250515770271
 20
92.3603148127465
 30
0.0
 10
17.28250515770271
 20
92.3603148127465
 30
0.0
 10
17.28250515770271
 20
92.3603148127465
 30
0.0
 10
17.28250515770271
 20
92.3603148127465
 30
0.0
 10
17.44580279143009
 20
92.26626364395415
 30
0.0
 10
17.61461258157021
 20
92.18220325865988
 30
0.0
 10
17.78772874390779
 20
92.10916718619109
 30
0.0
 10
17.78772874390779
 20
92.10916718619109
 30
0.0
 10
17.78772874390779
 20
92.10916718619109
 30
0.0
 10
17.78772874390779
 20
92.10916718619109
 30
0.0
 10
17.9573998084874
 20
92.03750915282549
 30
0.0
 10
18.13137724526447
 20
91.97584190295797
 30
0.0
 10
18.3082830151358
 20
91.92623249524333
 30
0.0
 10
18.3082830151358
 20
91.92623249524333
 30
0.0
 10
18.3082830151358
 20
91.92623249524333
 30
0.0
 10
18.3082830151358
 20
91.92623249524333
 30
0.0
 10
18.48226045191286
 20
91.87731210708027
 30
0.0
 10
18.6589939668963
 20
91.83941603174269
 30
0.0
 10
18.83745003075872
 20
91.8121997594548
 30
0.0
 10
18.83745003075872
 20
91.8121997594548
 30
0.0
 10
18.83745003075872
 20
91.8121997594548
 30
0.0
 10
18.83745003075872
 20
91.8121997594548
 30
0.0
 10
19.00229795847718
 20
91.78705054582167
 30
0.0
 10
19.16835167041094
 20
91.77154760591084
 30
0.0
 10
19.33474989212048
 20
91.76706897882549
 30
0.0
 10
19.33474989212048
 20
91.76706897882549
 30
0.0
 10
19.33474989212048
 20
91.76706897882549
 30
0.0
 10
19.33474989212048
 20
91.76706897882549
 30
0.0
 10
19.37988067274978
 20
91.7656909397223
 30
0.0
 10
19.42483919849118
 20
91.76534642994652
 30
0.0
 10
19.46996997912048
 20
91.76500192017072
 30
0.0
  0
ENDBLK
  5
4D1
330
4CE
100
AcDbEntity
  8
0
100
AcDbBlockEnd
  0
BLOCK
  5
4D5
330
4D3
100
AcDbEntity
  8
0
100
AcDbBlockBegin
  2
block 152
 70
     0
 71
     0
 10
0.0
 20
0.0
 30
0.0
  3
block 152
  1

  0
SPLINE
  5
4D7
330
4D3
100
AcDbEntity
  8
0
 62
     7
420
 16777215
370
     9
100
AcDbSpline
210
0.0
220
0.0
230
1.0
 70
     8
 71
     3
 72
    62
 73
    58
 74
     0
 42
0.0000000001
 43
0.0000000001
 40
0.0
 40
0.0
 40
0.0
 40
0.0
 40
1.0
 40
1.0
 40
1.0
 40
2.0
 40
2.0
 40
2.0
 40
3.0
 40
3.0
 40
3.0
 40
4.0
 40
4.0
 40
4.0
 40
5.0
 40
5.0
 40
5.0
 40
6.0
 40
6.0
 40
6.0
 40
7.0
 40
7.0
 40
7.0
 40
8.0
 40
8.0
 40
8.0
 40
9.0
 40
9.0
 40
9.0
 40
10.0
 40
10.0
 40
10.0
 40
11.0
 40
11.0
 40
11.0
 40
12.0
 40
12.0
 40
12.0
 40
13.0
 40
13.0
 40
13.0
 40
14.0
 40
14.0
 40
14.0
 40
15.0
 40
15.0
 40
15.0
 40
16.0
 40
16.0
 40
16.0
 40
17.0
 40
17.0
 40
17.0
 40
18.0
 40
18.0
 40
18.0
 40
19.0
 40
19.0
 40
19.0
 40
19.0
 10
19.55575291329373
 20
96.30564076516423
 30
0.0
 10
19.55730320728481
 20
96.30495174561263
 30
0.0
 10
19.55885350127589
 20
96.30426272606104
 30
0.0
 10
19.5578199719485
 20
96.30495174561263
 30
0.0
 10
19.5578199719485
 20
96.30495174561263
 30
0.0
 10
19.5578199719485
 20
96.30495174561263
 30
0.0
 10
19.5578199719485
 20
96.30495174561263
 30
0.0
 10
19.55558065840583
 20
96.30701880426741
 30
0.0
 10
19.5404222282708
 20
96.31563154866231
 30
0.0
 10
19.52026840638672
 20
96.33182350812473
 30
0.0
 10
19.52026840638672
 20
96.33182350812473
 30
0.0
 10
19.52026840638672
 20
96.33182350812473
 30
0.0
 10
19.52026840638672
 20
96.33182350812473
 30
0.0
 10
19.49977007472685
 20
96.34801546758715
 30
0.0
 10
19.47393184154214
 20
96.37213115189289
 30
0.0
 10
19.44292596172048
 20
96.4065821294725
 30
0.0
 10
19.44292596172048
 20
96.4065821294725
 30
0.0
 10
19.44292596172048
 20
96.4065821294725
 30
0.0
 10
19.44292596172048
 20
96.4065821294725
 30
0.0
 10
19.4141593954415
 20
96.43896604839735
 30
0.0
 10
19.38074194718928
 20
96.48099624104448
 30
0.0
 10
19.34611871472176
 20
96.53198368786231
 30
0.0
 10
19.34611871472176
 20
96.53198368786231
 30
0.0
 10
19.34611871472176
 20
96.53198368786231
 30
0.0
 10
19.34611871472176
 20
96.53198368786231
 30
0.0
 10
19.31235675669373
 20
96.58193760535275
 30
0.0
 10
19.27721675956253
 20
96.64119328678969
 30
0.0
 10
19.24276578198291
 20
96.70837269306995
 30
0.0
 10
19.24276578198291
 20
96.70837269306995
 30
0.0
 10
19.24276578198291
 20
96.70837269306995
 30
0.0
 10
19.24276578198291
 20
96.70837269306995
 30
0.0
 10
19.20848705929119
 20
96.7755520993502
 30
0.0
 10
19.17506961103896
 20
96.85099974024956
 30
0.0
 10
19.1444082409931
 20
96.93368208644064
 30
0.0
 10
19.1444082409931
 20
96.93368208644064
 30
0.0
 10
19.1444082409931
 20
96.93368208644064
 30
0.0
 10
19.1444082409931
 20
96.93368208644064
 30
0.0
 10
19.11340236117145
 20
97.01636443263172
 30
0.0
 10
19.08498030466826
 20
97.10593697433872
 30
0.0
 10
19.06086462036253
 20
97.20033265290688
 30
0.0
 10
19.06086462036253
 20
97.20033265290688
 30
0.0
 10
19.06086462036253
 20
97.20033265290688
 30
0.0
 10
19.06086462036253
 20
97.20033265290688
 30
0.0
 10
19.036404426281
 20
97.296450880354
 30
0.0
 10
19.01625060439693
 20
97.39704773488648
 30
0.0
 10
19.0007476644861
 20
97.50074517740113
 30
0.0
 10
19.0007476644861
 20
97.50074517740113
 30
0.0
 10
19.0007476644861
 20
97.50074517740113
 30
0.0
 10
19.0007476644861
 20
97.50074517740113
 30
0.0
 10
18.98490021479948
 20
97.60582065901896
 30
0.0
 10
18.9740481568619
 20
97.71365221884317
 30
0.0
 10
18.96956952977655
 20
97.82251730799476
 30
0.0
 10
18.96956952977655
 20
97.82251730799476
 30
0.0
 10
18.96956952977655
 20
97.82251730799476
 30
0.0
 10
18.96956952977655
 20
97.82251730799476
 30
0.0
 10
18.96750247112177
 20
97.87316024503679
 30
0.0
 10
18.96664119668228
 20
97.92380318207883
 30
0.0
 10
18.96595217713069
 20
97.97444611912087
 30
0.0
  0
ENDBLK
  5
4D6
330
4D3
100
AcDbEntity
  8
0
100
AcDbBlockEnd
  0
BLOCK
  5
4DA
330
4D8
100
AcDbEntity
  8
0
100
AcDbBlockBegin
  2
block 153
 70
     0
 71
     0
 10
0.0
 20
0.0
 30
0.0
  3
block 153
  1

  0
POLYLINE
  5
4DC
330
4D8
100
AcDbEntity
  8
0
 62
     7
420
 16777215
370
     9
100
AcDb2dPolyline
 66
     1
 10
0.0
 20
0.0
 30
0.0
  0
VERTEX
  5
4DD
330
4DC
100
AcDbEntity
  8
0
 62
     7
420
 16777215
370
     9
100
AcDbVertex
100
AcDb2dVertex
 10
19.46996997912048
 20
91.76500192017072
 30
0.0
  0
VERTEX
  5
4DE
330
4DC
100
AcDbEntity
  8
0
 62
     7
420
 16777215
370
     9
100
AcDbVertex
100
AcDb2dVertex
 10
19.76280328854723
 20
91.76500192017072
 30
0.0
  0
SEQEND
  5
4DF
330
4DC
100
AcDbEntity
  8
0
370
     9
  0
ENDBLK
  5
4DB
330
4D8
100
AcDbEntity
  8
0
100
AcDbBlockEnd
  0
BLOCK
  5
4E2
330
4E0
100
AcDbEntity
  8
0
100
AcDbBlockBegin
  2
block 154
 70
     0
 71
     0
 10
0.0
 20
0.0
 30
0.0
  3
block 154
  1

  0
POLYLINE
  5
4E4
330
4E0
100
AcDbEntity
  8
0
 62
     7
420
 16777215
370
     9
100
AcDb2dPolyline
 66
     1
 10
0.0
 20
0.0
 30
0.0
  0
VERTEX
  5
4E5
330
4E4
100
AcDbEntity
  8
0
 62
     7
420
 16777215
370
     9
100
AcDbVertex
100
AcDb2dVertex
 10
19.76280328854723
 20
96.31873213664448
 30
0.0
  0
VERTEX
  5
4E6
330
4E4
100
AcDbEntity
  8
0
 62
     7
420
 16777215
370
     9
100
AcDbVertex
100
AcDb2dVertex
 10
19.55868124638799
 20
96.31873213664448
 30
0.0
  0
SEQEND
  5
4E7
330
4E4
100
AcDbEntity
  8
0
370
     9
  0
ENDBLK
  5
4E3
330
4E0
100
AcDbEntity
  8
0
100
AcDbBlockEnd
  0
BLOCK
  5
4EA
330
4E8
100
AcDbEntity
  8
0
100
AcDbBlockBegin
  2
block 155
 70
     0
 71
     0
 10
0.0
 20
0.0
 30
0.0
  3
block 155
  1

  0
POLYLINE
  5
4EC
330
4E8
100
AcDbEntity
  8
0
 62
     7
420
 16777215
370
     9
100
AcDb2dPolyline
 66
     1
 10
0.0
 20
0.0
 30
0.0
  0
VERTEX
  5
4ED
330
4EC
100
AcDbEntity
  8
0
 62
     7
420
 16777215
370
     9
100
AcDbVertex
100
AcDb2dVertex
 10
103.4557689069258
 20
103.0456300188405
 30
0.0
  0
VERTEX
  5
4EE
330
4EC
100
AcDbEntity
  8
0
 62
     7
420
 16777215
370
     9
100
AcDbVertex
100
AcDb2dVertex
 10
103.4557689069258
 20
97.97444611912087
 30
0.0
  0
SEQEND
  5
4EF
330
4EC
100
AcDbEntity
  8
0
370
     9
  0
ENDBLK
  5
4EB
330
4E8
100
AcDbEntity
  8
0
100
AcDbBlockEnd
  0
BLOCK
  5
4F2
330
4F0
100
AcDbEntity
  8
0
100
AcDbBlockBegin
  2
block 156
 70
     0
 71
     0
 10
0.0
 20
0.0
 30
0.0
  3
block 156
  1

  0
POLYLINE
  5
4F4
330
4F0
100
AcDbEntity
  8
0
 62
     7
420
 16777215
370
     9
100
AcDb2dPolyline
 66
     1
 10
0.0
 20
0.0
 30
0.0
  0
VERTEX
  5
4F5
330
4F4
100
AcDbEntity
  8
0
 62
     7
420
 16777215
370
     9
100
AcDbVertex
100
AcDb2dVertex
 10
108.0094991233996
 20
97.97444611912087
 30
0.0
  0
VERTEX
  5
4F6
330
4F4
100
AcDbEntity
  8
0
 62
     7
420
 16777215
370
     9
100
AcDbVertex
100
AcDb2dVertex
 10
108.0094991233996
 20
103.0456300188405
 30
0.0
  0
SEQEND
  5
4F7
330
4F4
100
AcDbEntity
  8
0
370
     9
  0
ENDBLK
  5
4F3
330
4F0
100
AcDbEntity
  8
0
100
AcDbBlockEnd
  0
BLOCK
  5
4FA
330
4F8
100
AcDbEntity
  8
0
100
AcDbBlockBegin
  2
block 157
 70
     0
 71
     0
 10
0.0
 20
0.0
 30
0.0
  3
block 157
  1

  0
SPLINE
  5
4FC
330
4F8
100
AcDbEntity
  8
0
 62
     7
420
 16777215
370
     9
100
AcDbSpline
210
0.0
220
0.0
230
1.0
 70
     8
 71
     3
 72
    11
 73
     7
 74
     0
 42
0.0000000001
 43
0.0000000001
 40
0.0
 40
0.0
 40
0.0
 40
0.0
 40
1.0
 40
1.0
 40
1.0
 40
2.0
 40
2.0
 40
2.0
 40
2.0
 10
101.7998826695615
 20
96.31873213664448
 30
0.0
 10
102.7143838694125
 20
96.31873213664448
 30
0.0
 10
103.4557689069258
 20
97.06011717415784
 30
0.0
 10
103.4557689069258
 20
97.97444611912087
 30
0.0
 10
103.4557689069258
 20
97.97444611912087
 30
0.0
 10
103.4557689069258
 20
97.97444611912087
 30
0.0
 10
103.4557689069258
 20
97.97444611912087
 30
0.0
  0
ENDBLK
  5
4FB
330
4F8
100
AcDbEntity
  8
0
100
AcDbBlockEnd
  0
BLOCK
  5
4FF
330
4FD
100
AcDbEntity
  8
0
100
AcDbBlockBegin
  2
block 158
 70
     0
 71
     0
 10
0.0
 20
0.0
 30
0.0
  3
block 158
  1

  0
SPLINE
  5
501
330
4FD
100
AcDbEntity
  8
0
 62
     7
420
 16777215
370
     9
100
AcDbSpline
210
0.0
220
0.0
230
1.0
 70
     8
 71
     3
 72
    11
 73
     7
 74
     0
 42
0.0000000001
 43
0.0000000001
 40
0.0
 40
0.0
 40
0.0
 40
0.0
 40
1.0
 40
1.0
 40
1.0
 40
2.0
 40
2.0
 40
2.0
 40
2.0
 10
101.7998826695615
 20
91.76500192017072
 30
0.0
 10
105.2289607229487
 20
91.76500192017072
 30
0.0
 10
108.0094991233996
 20
94.5451958108458
 30
0.0
 10
108.0094991233996
 20
97.97444611912087
 30
0.0
 10
108.0094991233996
 20
97.97444611912087
 30
0.0
 10
108.0094991233996
 20
97.97444611912087
 30
0.0
 10
108.0094991233996
 20
97.97444611912087
 30
0.0
  0
ENDBLK
  5
500
330
4FD
100
AcDbEntity
  8
0
100
AcDbBlockEnd
  0
BLOCK
  5
504
330
502
100
AcDbEntity
  8
0
100
AcDbBlockBegin
  2
block 159
 70
     0
 71
     0
 10
0.0
 20
0.0
 30
0.0
  3
block 159
  1

  0
POLYLINE
  5
506
330
502
100
AcDbEntity
  8
0
 62
     7
420
 16777215
370
     9
100
AcDb2dPolyline
 66
     1
 10
0.0
 20
0.0
 30
0.0
  0
VERTEX
  5
507
330
506
100
AcDbEntity
  8
0
 62
     7
420
 16777215
370
     9
100
AcDbVertex
100
AcDb2dVertex
 10
101.7998826695615
 20
96.31873213664448
 30
0.0
  0
VERTEX
  5
508
330
506
100
AcDbEntity
  8
0
 62
     7
420
 16777215
370
     9
100
AcDbVertex
100
AcDb2dVertex
 10
101.3857819190545
 20
96.31873213664448
 30
0.0
  0
SEQEND
  5
509
330
506
100
AcDbEntity
  8
0
370
     9
  0
ENDBLK
  5
505
330
502
100
AcDbEntity
  8
0
100
AcDbBlockEnd
  0
BLOCK
  5
50C
330
50A
100
AcDbEntity
  8
0
100
AcDbBlockBegin
  2
block 160
 70
     0
 71
     0
 10
0.0
 20
0.0
 30
0.0
  3
block 160
  1

  0
POLYLINE
  5
50E
330
50A
100
AcDbEntity
  8
0
 62
     7
420
 16777215
370
     9
100
AcDb2dPolyline
 66
     1
 10
0.0
 20
0.0
 30
0.0
  0
VERTEX
  5
50F
330
50E
100
AcDbEntity
  8
0
 62
     7
420
 16777215
370
     9
100
AcDbVertex
100
AcDb2dVertex
 10
101.3857819190545
 20
91.76500192017072
 30
0.0
  0
VERTEX
  5
510
330
50E
100
AcDbEntity
  8
0
 62
     7
420
 16777215
370
     9
100
AcDbVertex
100
AcDb2dVertex
 10
101.7998826695615
 20
91.76500192017072
 30
0.0
  0
SEQEND
  5
511
330
50E
100
AcDbEntity
  8
0
370
     9
  0
ENDBLK
  5
50D
330
50A
100
AcDbEntity
  8
0
100
AcDbBlockEnd
  0
BLOCK
  5
514
330
512
100
AcDbEntity
  8
0
100
AcDbBlockBegin
  2
block 161
 70
     0
 71
     0
 10
0.0
 20
0.0
 30
0.0
  3
block 161
  1

  0
POLYLINE
  5
516
330
512
100
AcDbEntity
  8
0
 62
     7
420
 16777215
370
     9
100
AcDb2dPolyline
 66
     1
 10
0.0
 20
0.0
 30
0.0
  0
VERTEX
  5
517
330
516
100
AcDbEntity
  8
0
 62
     7
420
 16777215
370
     9
100
AcDbVertex
100
AcDb2dVertex
 10
111.9420782141128
 20
105.2742637584659
 30
0.0
  0
VERTEX
  5
518
330
516
100
AcDbEntity
  8
0
 62
     7
420
 16777215
370
     9
100
AcDbVertex
100
AcDb2dVertex
 10
111.8456154768899
 20
105.6328984350697
 30
0.0
  0
SEQEND
  5
519
330
516
100
AcDbEntity
  8
0
370
     9
  0
ENDBLK
  5
515
330
512
100
AcDbEntity
  8
0
100
AcDbBlockEnd
  0
BLOCK
  5
51C
330
51A
100
AcDbEntity
  8
0
100
AcDbBlockBegin
  2
block 162
 70
     0
 71
     0
 10
0.0
 20
0.0
 30
0.0
  3
block 162
  1

  0
POLYLINE
  5
51E
330
51A
100
AcDbEntity
  8
0
 62
     7
420
 16777215
370
     9
100
AcDb2dPolyline
 66
     1
 10
0.0
 20
0.0
 30
0.0
  0
VERTEX
  5
51F
330
51E
100
AcDbEntity
  8
0
 62
     7
420
 16777215
370
     9
100
AcDbVertex
100
AcDb2dVertex
 10
99.61913578877177
 20
105.6328984350697
 30
0.0
  0
VERTEX
  5
520
330
51E
100
AcDbEntity
  8
0
 62
     7
420
 16777215
370
     9
100
AcDbVertex
100
AcDb2dVertex
 10
99.52301756132465
 20
105.2742637584659
 30
0.0
  0
SEQEND
  5
521
330
51E
100
AcDbEntity
  8
0
370
     9
  0
ENDBLK
  5
51D
330
51A
100
AcDbEntity
  8
0
100
AcDbBlockEnd
  0
BLOCK
  5
524
330
522
100
AcDbEntity
  8
0
100
AcDbBlockBegin
  2
block 163
 70
     0
 71
     0
 10
0.0
 20
0.0
 30
0.0
  3
block 163
  1

  0
POLYLINE
  5
526
330
522
100
AcDbEntity
  8
0
 62
     7
420
 16777215
370
     9
100
AcDb2dPolyline
 66
     1
 10
0.0
 20
0.0
 30
0.0
  0
VERTEX
  5
527
330
526
100
AcDbEntity
  8
0
 62
     7
420
 16777215
370
     9
100
AcDbVertex
100
AcDb2dVertex
 10
111.9420782141128
 20
103.6250954617296
 30
0.0
  0
VERTEX
  5
528
330
526
100
AcDbEntity
  8
0
 62
     7
420
 16777215
370
     9
100
AcDbVertex
100
AcDb2dVertex
 10
111.9420782141128
 20
105.2742637584659
 30
0.0
  0
SEQEND
  5
529
330
526
100
AcDbEntity
  8
0
370
     9
  0
ENDBLK
  5
525
330
522
100
AcDbEntity
  8
0
100
AcDbBlockEnd
  0
BLOCK
  5
52C
330
52A
100
AcDbEntity
  8
0
100
AcDbBlockBegin
  2
block 164
 70
     0
 71
     0
 10
0.0
 20
0.0
 30
0.0
  3
block 164
  1

  0
POLYLINE
  5
52E
330
52A
100
AcDbEntity
  8
0
 62
     7
420
 16777215
370
     9
100
AcDb2dPolyline
 66
     1
 10
0.0
 20
0.0
 30
0.0
  0
VERTEX
  5
52F
330
52E
100
AcDbEntity
  8
0
 62
     7
420
 16777215
370
     9
100
AcDbVertex
100
AcDb2dVertex
 10
99.52301756132465
 20
105.2742637584659
 30
0.0
  0
VERTEX
  5
530
330
52E
100
AcDbEntity
  8
0
 62
     7
420
 16777215
370
     9
100
AcDbVertex
100
AcDb2dVertex
 10
99.52301756132465
 20
103.6250954617296
 30
0.0
  0
SEQEND
  5
531
330
52E
100
AcDbEntity
  8
0
370
     9
  0
ENDBLK
  5
52D
330
52A
100
AcDbEntity
  8
0
100
AcDbBlockEnd
  0
BLOCK
  5
534
330
532
100
AcDbEntity
  8
0
100
AcDbBlockBegin
  2
block 165
 70
     0
 71
     0
 10
0.0
 20
0.0
 30
0.0
  3
block 165
  1

  0
SPLINE
  5
536
330
532
100
AcDbEntity
  8
0
 62
     7
420
 16777215
370
     9
100
AcDbSpline
210
0.0
220
0.0
230
1.0
 70
     8
 71
     3
 72
     8
 73
     4
 74
     0
 42
0.0000000001
 43
0.0000000001
 40
0.0
 40
0.0
 40
0.0
 40
0.0
 40
1.0
 40
1.0
 40
1.0
 40
1.0
 10
111.6788727454046
 20
103.3181372514952
 30
0.0
 10
111.8273564587727
 20
103.3384633282672
 30
0.0
 10
111.9448342923192
 20
103.4752337092583
 30
0.0
 10
111.9420782141128
 20
103.6250954617296
 30
0.0
  0
ENDBLK
  5
535
330
532
100
AcDbEntity
  8
0
100
AcDbBlockEnd
  0
BLOCK
  5
539
330
537
100
AcDbEntity
  8
0
100
AcDbBlockBegin
  2
block 166
 70
     0
 71
     0
 10
0.0
 20
0.0
 30
0.0
  3
block 166
  1

  0
SPLINE
  5
53B
330
537
100
AcDbEntity
  8
0
 62
     7
420
 16777215
370
     9
100
AcDbSpline
210
0.0
220
0.0
230
1.0
 70
     8
 71
     3
 72
     8
 73
     4
 74
     0
 42
0.0000000001
 43
0.0000000001
 40
0.0
 40
0.0
 40
0.0
 40
0.0
 40
1.0
 40
1.0
 40
1.0
 40
1.0
 10
99.52301756132465
 20
103.6250954617296
 30
0.0
 10
99.52026148311828
 20
103.4752337092583
 30
0.0
 10
99.63756706177688
 20
103.3384633282672
 30
0.0
 10
99.78622303003291
 20
103.3181372514952
 30
0.0
  0
ENDBLK
  5
53A
330
537
100
AcDbEntity
  8
0
100
AcDbBlockEnd
  0
BLOCK
  5
53E
330
53C
100
AcDbEntity
  8
0
100
AcDbBlockBegin
  2
block 167
 70
     0
 71
     0
 10
0.0
 20
0.0
 30
0.0
  3
block 167
  1

  0
SPLINE
  5
540
330
53C
100
AcDbEntity
  8
0
 62
     7
420
 16777215
370
     9
100
AcDbSpline
210
0.0
220
0.0
230
1.0
 70
     8
 71
     3
 72
     8
 73
     4
 74
     0
 42
0.0000000001
 43
0.0000000001
 40
0.0
 40
0.0
 40
0.0
 40
0.0
 40
1.0
 40
1.0
 40
1.0
 40
1.0
 10
108.1128520561384
 20
103.0456300188405
 30
0.0
 10
109.0326931575142
 20
103.0246149225169
 30
0.0
 10
110.7728120350606
 20
103.1575956959742
 30
0.0
 10
111.6788727454046
 20
103.3181372514952
 30
0.0
  0
ENDBLK
  5
53F
330
53C
100
AcDbEntity
  8
0
100
AcDbBlockEnd
  0
BLOCK
  5
543
330
541
100
AcDbEntity
  8
0
100
AcDbBlockBegin
  2
block 168
 70
     0
 71
     0
 10
0.0
 20
0.0
 30
0.0
  3
block 168
  1

  0
SPLINE
  5
545
330
541
100
AcDbEntity
  8
0
 62
     7
420
 16777215
370
     9
100
AcDbSpline
210
0.0
220
0.0
230
1.0
 70
     8
 71
     3
 72
     8
 73
     4
 74
     0
 42
0.0000000001
 43
0.0000000001
 40
0.0
 40
0.0
 40
0.0
 40
0.0
 40
1.0
 40
1.0
 40
1.0
 40
1.0
 10
99.78622303003291
 20
103.3181372514952
 30
0.0
 10
100.692111485489
 20
103.1575956959742
 30
0.0
 10
102.4324026179233
 20
103.0246149225169
 30
0.0
 10
103.3522437192991
 20
103.0456300188405
 30
0.0
  0
ENDBLK
  5
544
330
541
100
AcDbEntity
  8
0
100
AcDbBlockEnd
  0
BLOCK
  5
548
330
546
100
AcDbEntity
  8
0
100
AcDbBlockBegin
  2
block 169
 70
     0
 71
     0
 10
0.0
 20
0.0
 30
0.0
  3
block 169
  1

  0
SPLINE
  5
54A
330
546
100
AcDbEntity
  8
0
 62
     7
420
 16777215
370
     9
100
AcDbSpline
210
0.0
220
0.0
230
1.0
 70
     8
 71
     3
 72
    74
 73
    70
 74
     0
 42
0.0000000001
 43
0.0000000001
 40
0.0
 40
0.0
 40
0.0
 40
0.0
 40
1.0
 40
1.0
 40
1.0
 40
2.0
 40
2.0
 40
2.0
 40
3.0
 40
3.0
 40
3.0
 40
4.0
 40
4.0
 40
4.0
 40
5.0
 40
5.0
 40
5.0
 40
6.0
 40
6.0
 40
6.0
 40
7.0
 40
7.0
 40
7.0
 40
8.0
 40
8.0
 40
8.0
 40
9.0
 40
9.0
 40
9.0
 40
10.0
 40
10.0
 40
10.0
 40
11.0
 40
11.0
 40
11.0
 40
12.0
 40
12.0
 40
12.0
 40
13.0
 40
13.0
 40
13.0
 40
14.0
 40
14.0
 40
14.0
 40
15.0
 40
15.0
 40
15.0
 40
16.0
 40
16.0
 40
16.0
 40
17.0
 40
17.0
 40
17.0
 40
18.0
 40
18.0
 40
18.0
 40
19.0
 40
19.0
 40
19.0
 40
20.0
 40
20.0
 40
20.0
 40
21.0
 40
21.0
 40
21.0
 40
22.0
 40
22.0
 40
22.0
 40
23.0
 40
23.0
 40
23.0
 40
23.0
 10
62.77312624781992
 20
96.31080841180116
 30
0.0
 10
62.77639909068999
 20
96.31356449000754
 30
0.0
 10
62.77949967867215
 20
96.31597605843811
 30
0.0
 10
62.78122222755113
 20
96.3173540975413
 30
0.0
 10
62.78122222755113
 20
96.3173540975413
 30
0.0
 10
62.78122222755113
 20
96.3173540975413
 30
0.0
 10
62.78122222755113
 20
96.3173540975413
 30
0.0
 10
62.793280069704
 20
96.326311351712
 30
0.0
 10
62.75038860261738
 20
96.29323841323556
 30
0.0
 10
62.69733409714477
 20
96.25327527924321
 30
0.0
 10
62.69733409714477
 20
96.25327527924321
 30
0.0
 10
62.69733409714477
 20
96.25327527924321
 30
0.0
 10
62.69733409714477
 20
96.25327527924321
 30
0.0
 10
62.64359057212057
 20
96.21227861592347
 30
0.0
 10
62.57933949893458
 20
96.1643917570878
 30
0.0
 10
62.49855195651038
 20
96.10651411475403
 30
0.0
 10
62.49855195651038
 20
96.10651411475403
 30
0.0
 10
62.49855195651038
 20
96.10651411475403
 30
0.0
 10
62.49855195651038
 20
96.10651411475403
 30
0.0
 10
62.40450078771803
 20
96.03967921824959
 30
0.0
 10
62.28840099327471
 20
95.96009746004067
 30
0.0
 10
62.15765953336007
 20
95.87879315295277
 30
0.0
 10
62.15765953336007
 20
95.87879315295277
 30
0.0
 10
62.15765953336007
 20
95.87879315295277
 30
0.0
 10
62.15765953336007
 20
95.87879315295277
 30
0.0
 10
61.99970180115753
 20
95.78060786685086
 30
0.0
 10
61.82038446285562
 20
95.68104454164578
 30
0.0
 10
61.61867398912696
 20
95.60456337141902
 30
0.0
 10
61.61867398912696
 20
95.60456337141902
 30
0.0
 10
61.61867398912696
 20
95.60456337141902
 30
0.0
 10
61.61867398912696
 20
95.60456337141902
 30
0.0
 10
61.49206664652187
 20
95.55667651258335
 30
0.0
 10
61.35650204974608
 20
95.51774690791838
 30
0.0
 10
61.21576980633334
 20
95.49983239957699
 30
0.0
 10
61.21576980633334
 20
95.49983239957699
 30
0.0
 10
61.21576980633334
 20
95.49983239957699
 30
0.0
 10
61.21576980633334
 20
95.49983239957699
 30
0.0
 10
61.07400403359322
 20
95.481228871684
 30
0.0
 10
60.92689835932826
 20
95.48398494989036
 30
0.0
 10
60.78599386102762
 20
95.50637808531711
 30
0.0
 10
60.78599386102762
 20
95.50637808531711
 30
0.0
 10
60.78599386102762
 20
95.50637808531711
 30
0.0
 10
60.78599386102762
 20
95.50637808531711
 30
0.0
 10
60.63285926568623
 20
95.53083827939864
 30
0.0
 10
60.48713163052444
 20
95.5787251382343
 30
0.0
 10
60.35191154352445
 20
95.63522474146488
 30
0.0
 10
60.35191154352445
 20
95.63522474146488
 30
0.0
 10
60.35191154352445
 20
95.63522474146488
 30
0.0
 10
60.35191154352445
 20
95.63522474146488
 30
0.0
 10
60.15778028486331
 20
95.71721806810437
 30
0.0
 10
59.98535314207733
 20
95.81747041286106
 30
0.0
 10
59.8353191347181
 20
95.91289962075659
 30
0.0
 10
59.8353191347181
 20
95.91289962075659
 30
0.0
 10
59.8353191347181
 20
95.91289962075659
 30
0.0
 10
59.8353191347181
 20
95.91289962075659
 30
0.0
 10
59.68149551982511
 20
96.0107403970827
 30
0.0
 10
59.55127082457415
 20
96.10375803654767
 30
0.0
 10
59.45170749936906
 20
96.17713861879226
 30
0.0
 10
59.45170749936906
 20
96.17713861879226
 30
0.0
 10
59.45170749936906
 20
96.17713861879226
 30
0.0
 10
59.45170749936906
 20
96.17713861879226
 30
0.0
 10
59.37781015246078
 20
96.23157116336805
 30
0.0
 10
59.32079378456652
 20
96.27497939511836
 30
0.0
 10
59.29323300250282
 20
96.29633900121773
 30
0.0
 10
59.29323300250282
 20
96.29633900121773
 30
0.0
 10
59.29323300250282
 20
96.29633900121773
 30
0.0
 10
59.29323300250282
 20
96.29633900121773
 30
0.0
 10
59.27583525882512
 20
96.30943037269799
 30
0.0
 10
59.26997859263658
 20
96.31390899978334
 30
0.0
 10
59.26429418133595
 20
96.31873213664448
 30
0.0
  0
ENDBLK
  5
549
330
546
100
AcDbEntity
  8
0
100
AcDbBlockEnd
  0
BLOCK
  5
54D
330
54B
100
AcDbEntity
  8
0
100
AcDbBlockBegin
  2
block 170
 70
     0
 71
     0
 10
0.0
 20
0.0
 30
0.0
  3
block 170
  1

  0
POLYLINE
  5
54F
330
54B
100
AcDbEntity
  8
0
 62
     7
420
 16777215
370
     9
100
AcDb2dPolyline
 66
     1
 10
0.0
 20
0.0
 30
0.0
  0
VERTEX
  5
550
330
54F
100
AcDbEntity
  8
0
 62
     7
420
 16777215
370
     9
100
AcDbVertex
100
AcDb2dVertex
 10
62.78294477643011
 20
105.7362513678085
 30
0.0
  0
VERTEX
  5
551
330
54F
100
AcDbEntity
  8
0
 62
     7
420
 16777215
370
     9
100
AcDbVertex
100
AcDb2dVertex
 10
59.26429418133595
 20
105.7362513678085
 30
0.0
  0
SEQEND
  5
552
330
54F
100
AcDbEntity
  8
0
370
     9
  0
ENDBLK
  5
54E
330
54B
100
AcDbEntity
  8
0
100
AcDbBlockEnd
  0
BLOCK
  5
555
330
553
100
AcDbEntity
  8
0
100
AcDbBlockBegin
  2
block 171
 70
     0
 71
     0
 10
0.0
 20
0.0
 30
0.0
  3
block 171
  1

  0
POLYLINE
  5
557
330
553
100
AcDbEntity
  8
0
 62
     7
420
 16777215
370
     9
100
AcDb2dPolyline
 66
     1
 10
0.0
 20
0.0
 30
0.0
  0
VERTEX
  5
558
330
557
100
AcDbEntity
  8
0
 62
     7
420
 16777215
370
     9
100
AcDbVertex
100
AcDb2dVertex
 10
19.76280328854723
 20
91.76500192017072
 30
0.0
  0
VERTEX
  5
559
330
557
100
AcDbEntity
  8
0
 62
     7
420
 16777215
370
     9
100
AcDbVertex
100
AcDb2dVertex
 10
20.05029669644913
 20
91.80151995640512
 30
0.0
  0
VERTEX
  5
55A
330
557
100
AcDbEntity
  8
0
 62
     7
420
 16777215
370
     9
100
AcDbVertex
100
AcDb2dVertex
 10
20.32848834040454
 20
91.91004053578091
 30
0.0
  0
VERTEX
  5
55B
330
557
100
AcDbEntity
  8
0
 62
     7
420
 16777215
370
     9
100
AcDbVertex
100
AcDb2dVertex
 10
20.58842096624274
 20
92.08746307031593
 30
0.0
  0
VERTEX
  5
55C
330
557
100
AcDbEntity
  8
0
 62
     7
420
 16777215
370
     9
100
AcDbVertex
100
AcDb2dVertex
 10
20.82199859423255
 20
92.32689736449427
 30
0.0
  0
VERTEX
  5
55D
330
557
100
AcDbEntity
  8
0
 62
     7
420
 16777215
370
     9
100
AcDbVertex
100
AcDb2dVertex
 10
21.02146975441853
 20
92.62214224235159
 30
0.0
  0
VERTEX
  5
55E
330
557
100
AcDbEntity
  8
0
 62
     7
420
 16777215
370
     9
100
AcDbVertex
100
AcDb2dVertex
 10
21.18046101594846
 20
92.962862410614
 30
0.0
  0
VERTEX
  5
55F
330
557
100
AcDbEntity
  8
0
 62
     7
420
 16777215
370
     9
100
AcDbVertex
100
AcDb2dVertex
 10
21.2938047321854
 20
93.33803355645603
 30
0.0
  0
VERTEX
  5
560
330
557
100
AcDbEntity
  8
0
 62
     7
420
 16777215
370
     9
100
AcDbVertex
100
AcDb2dVertex
 10
21.35822806025928
 20
93.7362868572764
 30
0.0
  0
VERTEX
  5
561
330
557
100
AcDbEntity
  8
0
 62
     7
420
 16777215
370
     9
100
AcDbVertex
100
AcDb2dVertex
 10
21.37114717685164
 20
94.14384192204326
 30
0.0
  0
VERTEX
  5
562
330
557
100
AcDbEntity
  8
0
 62
     7
420
 16777215
370
     9
100
AcDbVertex
100
AcDb2dVertex
 10
21.33238982707457
 20
94.54829639882797
 30
0.0
  0
VERTEX
  5
563
330
557
100
AcDbEntity
  8
0
 62
     7
420
 16777215
370
     9
100
AcDbVertex
100
AcDb2dVertex
 10
21.24316179514337
 20
94.93690342592605
 30
0.0
  0
VERTEX
  5
564
330
557
100
AcDbEntity
  8
0
 62
     7
420
 16777215
370
     9
100
AcDbVertex
100
AcDb2dVertex
 10
21.10639141415228
 20
95.29622712208145
 30
0.0
  0
VERTEX
  5
565
330
557
100
AcDbEntity
  8
0
 62
     7
420
 16777215
370
     9
100
AcDbVertex
100
AcDb2dVertex
 10
20.92638505629879
 20
95.6152431744687
 30
0.0
  0
VERTEX
  5
566
330
557
100
AcDbEntity
  8
0
 62
     7
420
 16777215
370
     9
100
AcDbVertex
100
AcDb2dVertex
 10
20.7091716426593
 20
95.88361628981392
 30
0.0
  0
VERTEX
  5
567
330
557
100
AcDbEntity
  8
0
 62
     7
420
 16777215
370
     9
100
AcDbVertex
100
AcDb2dVertex
 10
20.46112460408606
 20
96.09342274327378
 30
0.0
  0
VERTEX
  5
568
330
557
100
AcDbEntity
  8
0
 62
     7
420
 16777215
370
     9
100
AcDbVertex
100
AcDb2dVertex
 10
20.19102893986186
 20
96.2363943002292
 30
0.0
  0
VERTEX
  5
569
330
557
100
AcDbEntity
  8
0
 62
     7
420
 16777215
370
     9
100
AcDbVertex
100
AcDb2dVertex
 10
19.90698062971792
 20
96.30943037269799
 30
0.0
  0
VERTEX
  5
56A
330
557
100
AcDbEntity
  8
0
 62
     7
420
 16777215
370
     9
100
AcDbVertex
100
AcDb2dVertex
 10
19.76280328854723
 20
96.31873213664448
 30
0.0
  0
SEQEND
  5
56B
330
557
100
AcDbEntity
  8
0
370
     9
  0
ENDBLK
  5
556
330
553
100
AcDbEntity
  8
0
100
AcDbBlockEnd
  0
BLOCK
  5
56E
330
56C
100
AcDbEntity
  8
0
100
AcDbBlockBegin
  2
block 172
 70
     0
 71
     0
 10
0.0
 20
0.0
 30
0.0
  3
block 172
  1

  0
POLYLINE
  5
570
330
56C
100
AcDbEntity
  8
0
 62
     7
420
 16777215
370
     9
100
AcDb2dPolyline
 66
     1
 10
0.0
 20
0.0
 30
0.0
  0
VERTEX
  5
571
330
570
100
AcDbEntity
  8
0
 62
     7
420
 16777215
370
     9
100
AcDbVertex
100
AcDb2dVertex
 10
101.3857819190545
 20
91.76500192017072
 30
0.0
  0
VERTEX
  5
572
330
570
100
AcDbEntity
  8
0
 62
     7
420
 16777215
370
     9
100
AcDbVertex
100
AcDb2dVertex
 10
101.3857819190545
 20
96.31873213664448
 30
0.0
  0
SEQEND
  5
573
330
570
100
AcDbEntity
  8
0
370
     9
  0
ENDBLK
  5
56F
330
56C
100
AcDbEntity
  8
0
100
AcDbBlockEnd
  0
BLOCK
  5
576
330
574
100
AcDbEntity
  8
0
100
AcDbBlockBegin
  2
block 173
 70
     0
 71
     0
 10
0.0
 20
0.0
 30
0.0
  3
block 173
  1

  0
POLYLINE
  5
578
330
574
100
AcDbEntity
  8
0
 62
     7
420
 16777215
370
     9
100
AcDb2dPolyline
 66
     1
 10
0.0
 20
0.0
 30
0.0
  0
VERTEX
  5
579
330
578
100
AcDbEntity
  8
0
 62
     7
420
 16777215
370
     9
100
AcDbVertex
100
AcDb2dVertex
 10
21.07986416141598
 20
105.2742637584659
 30
0.0
  0
VERTEX
  5
57A
330
578
100
AcDbEntity
  8
0
 62
     7
420
 16777215
370
     9
100
AcDbVertex
100
AcDb2dVertex
 10
10.47964286994366
 20
105.2742637584659
 30
0.0
  0
SEQEND
  5
57B
330
578
100
AcDbEntity
  8
0
370
     9
  0
ENDBLK
  5
577
330
574
100
AcDbEntity
  8
0
100
AcDbBlockEnd
  0
BLOCK
  5
57E
330
57C
100
AcDbEntity
  8
0
100
AcDbBlockBegin
  2
block 174
 70
     0
 71
     0
 10
0.0
 20
0.0
 30
0.0
  3
block 174
  1

  0
POLYLINE
  5
580
330
57C
100
AcDbEntity
  8
0
 62
     7
420
 16777215
370
     9
100
AcDb2dPolyline
 66
     1
 10
0.0
 20
0.0
 30
0.0
  0
VERTEX
  5
581
330
580
100
AcDbEntity
  8
0
 62
     7
420
 16777215
370
     9
100
AcDbVertex
100
AcDb2dVertex
 10
22.89870352273185
 20
105.2742637584659
 30
0.0
  0
VERTEX
  5
582
330
580
100
AcDbEntity
  8
0
 62
     7
420
 16777215
370
     9
100
AcDbVertex
100
AcDb2dVertex
 10
21.07986416141598
 20
105.2742637584659
 30
0.0
  0
SEQEND
  5
583
330
580
100
AcDbEntity
  8
0
370
     9
  0
ENDBLK
  5
57F
330
57C
100
AcDbEntity
  8
0
100
AcDbBlockEnd
  0
BLOCK
  5
586
330
584
100
AcDbEntity
  8
0
100
AcDbBlockBegin
  2
block 175
 70
     0
 71
     0
 10
0.0
 20
0.0
 30
0.0
  3
block 175
  1

  0
POLYLINE
  5
588
330
584
100
AcDbEntity
  8
0
 62
     7
420
 16777215
370
     9
100
AcDb2dPolyline
 66
     1
 10
0.0
 20
0.0
 30
0.0
  0
VERTEX
  5
589
330
588
100
AcDbEntity
  8
0
 62
     7
420
 16777215
370
     9
100
AcDbVertex
100
AcDb2dVertex
 10
21.01182348069624
 20
105.6328984350697
 30
0.0
  0
VERTEX
  5
58A
330
588
100
AcDbEntity
  8
0
 62
     7
420
 16777215
370
     9
100
AcDbVertex
100
AcDb2dVertex
 10
10.57576109739079
 20
105.6328984350697
 30
0.0
  0
SEQEND
  5
58B
330
588
100
AcDbEntity
  8
0
370
     9
  0
ENDBLK
  5
587
330
584
100
AcDbEntity
  8
0
100
AcDbBlockEnd
  0
BLOCK
  5
58E
330
58C
100
AcDbEntity
  8
0
100
AcDbBlockBegin
  2
block 176
 70
     0
 71
     0
 10
0.0
 20
0.0
 30
0.0
  3
block 176
  1

  0
POLYLINE
  5
590
330
58C
100
AcDbEntity
  8
0
 62
     7
420
 16777215
370
     9
100
AcDb2dPolyline
 66
     1
 10
0.0
 20
0.0
 30
0.0
  0
VERTEX
  5
591
330
590
100
AcDbEntity
  8
0
 62
     7
420
 16777215
370
     9
100
AcDbVertex
100
AcDb2dVertex
 10
22.80241304039683
 20
105.6328984350697
 30
0.0
  0
VERTEX
  5
592
330
590
100
AcDbEntity
  8
0
 62
     7
420
 16777215
370
     9
100
AcDbVertex
100
AcDb2dVertex
 10
21.01182348069624
 20
105.6328984350697
 30
0.0
  0
SEQEND
  5
593
330
590
100
AcDbEntity
  8
0
370
     9
  0
ENDBLK
  5
58F
330
58C
100
AcDbEntity
  8
0
100
AcDbBlockEnd
  0
BLOCK
  5
596
330
594
100
AcDbEntity
  8
0
100
AcDbBlockBegin
  2
block 177
 70
     0
 71
     0
 10
0.0
 20
0.0
 30
0.0
  3
block 177
  1

  0
POLYLINE
  5
598
330
594
100
AcDbEntity
  8
0
 62
     7
420
 16777215
370
     9
100
AcDb2dPolyline
 66
     1
 10
0.0
 20
0.0
 30
0.0
  0
VERTEX
  5
599
330
598
100
AcDbEntity
  8
0
 62
     7
420
 16777215
370
     9
100
AcDbVertex
100
AcDb2dVertex
 10
18.37236183343389
 20
103.0456300188405
 30
0.0
  0
VERTEX
  5
59A
330
598
100
AcDbEntity
  8
0
 62
     7
420
 16777215
370
     9
100
AcDbVertex
100
AcDb2dVertex
 10
14.30886902791808
 20
103.0456300188405
 30
0.0
  0
SEQEND
  5
59B
330
598
100
AcDbEntity
  8
0
370
     9
  0
ENDBLK
  5
597
330
594
100
AcDbEntity
  8
0
100
AcDbBlockEnd
  0
BLOCK
  5
59E
330
59C
100
AcDbEntity
  8
0
100
AcDbBlockBegin
  2
block 178
 70
     0
 71
     0
 10
0.0
 20
0.0
 30
0.0
  3
block 178
  1

  0
POLYLINE
  5
5A0
330
59C
100
AcDbEntity
  8
0
 62
     7
420
 16777215
370
     9
100
AcDb2dPolyline
 66
     1
 10
0.0
 20
0.0
 30
0.0
  0
VERTEX
  5
5A1
330
5A0
100
AcDbEntity
  8
0
 62
     7
420
 16777215
370
     9
100
AcDbVertex
100
AcDb2dVertex
 10
19.06947736475744
 20
103.0456300188405
 30
0.0
  0
VERTEX
  5
5A2
330
5A0
100
AcDbEntity
  8
0
 62
     7
420
 16777215
370
     9
100
AcDbVertex
100
AcDb2dVertex
 10
18.37236183343389
 20
103.0456300188405
 30
0.0
  0
SEQEND
  5
5A3
330
5A0
100
AcDbEntity
  8
0
370
     9
  0
ENDBLK
  5
59F
330
59C
100
AcDbEntity
  8
0
100
AcDbBlockEnd
  0
BLOCK
  5
5A6
330
5A4
100
AcDbEntity
  8
0
100
AcDbBlockBegin
  2
block 179
 70
     0
 71
     0
 10
0.0
 20
0.0
 30
0.0
  3
block 179
  1

  0
POLYLINE
  5
5A8
330
5A4
100
AcDbEntity
  8
0
 62
     7
420
 16777215
370
     9
100
AcDb2dPolyline
 66
     1
 10
0.0
 20
0.0
 30
0.0
  0
VERTEX
  5
5A9
330
5A8
100
AcDbEntity
  8
0
 62
     7
420
 16777215
370
     9
100
AcDbVertex
100
AcDb2dVertex
 10
106.4815982677436
 20
105.6742396081652
 30
0.0
  0
VERTEX
  5
5AA
330
5A8
100
AcDbEntity
  8
0
 62
     7
420
 16777215
370
     9
100
AcDbVertex
100
AcDb2dVertex
 10
104.9836697625818
 20
105.6742396081652
 30
0.0
  0
SEQEND
  5
5AB
330
5A8
100
AcDbEntity
  8
0
370
     9
  0
ENDBLK
  5
5A7
330
5A4
100
AcDbEntity
  8
0
100
AcDbBlockEnd
  0
BLOCK
  5
5AE
330
5AC
100
AcDbEntity
  8
0
100
AcDbBlockBegin
  2
block 180
 70
     0
 71
     0
 10
0.0
 20
0.0
 30
0.0
  3
block 180
  1

  0
POLYLINE
  5
5B0
330
5AC
100
AcDbEntity
  8
0
 62
     7
420
 16777215
370
     9
100
AcDb2dPolyline
 66
     1
 10
0.0
 20
0.0
 30
0.0
  0
VERTEX
  5
5B1
330
5B0
100
AcDbEntity
  8
0
 62
     7
420
 16777215
370
     9
100
AcDbVertex
100
AcDb2dVertex
 10
16.48048639964923
 20
105.6742396081652
 30
0.0
  0
VERTEX
  5
5B2
330
5B0
100
AcDbEntity
  8
0
 62
     7
420
 16777215
370
     9
100
AcDbVertex
100
AcDb2dVertex
 10
15.94046732608873
 20
105.6742396081652
 30
0.0
  0
SEQEND
  5
5B3
330
5B0
100
AcDbEntity
  8
0
370
     9
  0
ENDBLK
  5
5AF
330
5AC
100
AcDbEntity
  8
0
100
AcDbBlockEnd
  0
BLOCK
  5
5B6
330
5B4
100
AcDbEntity
  8
0
100
AcDbBlockBegin
  2
block 181
 70
     0
 71
     0
 10
0.0
 20
0.0
 30
0.0
  3
block 181
  1

  0
POLYLINE
  5
5B8
330
5B4
100
AcDbEntity
  8
0
 62
     7
420
 16777215
370
     9
100
AcDb2dPolyline
 66
     1
 10
0.0
 20
0.0
 30
0.0
  0
VERTEX
  5
5B9
330
5B8
100
AcDbEntity
  8
0
 62
     7
420
 16777215
370
     9
100
AcDbVertex
100
AcDb2dVertex
 10
17.43805132147468
 20
105.6742396081652
 30
0.0
  0
VERTEX
  5
5BA
330
5B8
100
AcDbEntity
  8
0
 62
     7
420
 16777215
370
     9
100
AcDbVertex
100
AcDb2dVertex
 10
16.48048639964923
 20
105.6742396081652
 30
0.0
  0
SEQEND
  5
5BB
330
5B8
100
AcDbEntity
  8
0
370
     9
  0
ENDBLK
  5
5B7
330
5B4
100
AcDbEntity
  8
0
100
AcDbBlockEnd
  0
BLOCK
  5
5BE
330
5BC
100
AcDbEntity
  8
0
100
AcDbBlockBegin
  2
block 182
 70
     0
 71
     0
 10
0.0
 20
0.0
 30
0.0
  3
block 182
  1

  0
POLYLINE
  5
5C0
330
5BC
100
AcDbEntity
  8
0
 62
     7
420
 16777215
370
     9
100
AcDb2dPolyline
 66
     1
 10
0.0
 20
0.0
 30
0.0
  0
VERTEX
  5
5C1
330
5C0
100
AcDbEntity
  8
0
 62
     7
420
 16777215
370
     9
100
AcDbVertex
100
AcDb2dVertex
 10
19.76280328854723
 20
96.31873213664448
 30
0.0
  0
VERTEX
  5
5C2
330
5C0
100
AcDbEntity
  8
0
 62
     7
420
 16777215
370
     9
100
AcDbVertex
100
AcDb2dVertex
 10
20.05029669644913
 20
96.28221410041009
 30
0.0
  0
VERTEX
  5
5C3
330
5C0
100
AcDbEntity
  8
0
 62
     7
420
 16777215
370
     9
100
AcDbVertex
100
AcDb2dVertex
 10
20.32848834040454
 20
96.1733490112585
 30
0.0
  0
VERTEX
  5
5C4
330
5C0
100
AcDbEntity
  8
0
 62
     7
420
 16777215
370
     9
100
AcDbVertex
100
AcDb2dVertex
 10
20.58842096624274
 20
95.99627098649927
 30
0.0
  0
VERTEX
  5
5C5
330
5C0
100
AcDbEntity
  8
0
 62
     7
420
 16777215
370
     9
100
AcDbVertex
100
AcDb2dVertex
 10
20.82199859423255
 20
95.75614767276933
 30
0.0
  0
VERTEX
  5
5C6
330
5C0
100
AcDbEntity
  8
0
 62
     7
420
 16777215
370
     9
100
AcDbVertex
100
AcDb2dVertex
 10
21.02146975441853
 20
95.46124730468782
 30
0.0
  0
VERTEX
  5
5C7
330
5C0
100
AcDbEntity
  8
0
 62
     7
420
 16777215
370
     9
100
AcDbVertex
100
AcDb2dVertex
 10
21.18046101594846
 20
95.12052713642541
 30
0.0
  0
VERTEX
  5
5C8
330
5C0
100
AcDbEntity
  8
0
 62
     7
420
 16777215
370
     9
100
AcDbVertex
100
AcDb2dVertex
 10
21.2938047321854
 20
94.74535599058338
 30
0.0
  0
VERTEX
  5
5C9
330
5C0
100
AcDbEntity
  8
0
 62
     7
420
 16777215
370
     9
100
AcDbVertex
100
AcDb2dVertex
 10
21.35822806025928
 20
94.3474471995388
 30
0.0
  0
VERTEX
  5
5CA
330
5C0
100
AcDbEntity
  8
0
 62
     7
420
 16777215
370
     9
100
AcDbVertex
100
AcDb2dVertex
 10
21.37114717685164
 20
93.93954762499614
 30
0.0
  0
VERTEX
  5
5CB
330
5C0
100
AcDbEntity
  8
0
 62
     7
420
 16777215
370
     9
100
AcDbVertex
100
AcDb2dVertex
 10
21.33238982707457
 20
93.53509314821143
 30
0.0
  0
VERTEX
  5
5CC
330
5C0
100
AcDbEntity
  8
0
 62
     7
420
 16777215
370
     9
100
AcDbVertex
100
AcDb2dVertex
 10
21.24316179514337
 20
93.14683063088916
 30
0.0
  0
VERTEX
  5
5CD
330
5C0
100
AcDbEntity
  8
0
 62
     7
420
 16777215
370
     9
100
AcDbVertex
100
AcDb2dVertex
 10
21.10639141415228
 20
92.78750693473374
 30
0.0
  0
VERTEX
  5
5CE
330
5C0
100
AcDbEntity
  8
0
 62
     7
420
 16777215
370
     9
100
AcDbVertex
100
AcDb2dVertex
 10
20.92638505629879
 20
92.4684908823465
 30
0.0
  0
VERTEX
  5
5CF
330
5C0
100
AcDbEntity
  8
0
 62
     7
420
 16777215
370
     9
100
AcDbVertex
100
AcDb2dVertex
 10
20.7091716426593
 20
92.19977325722549
 30
0.0
  0
VERTEX
  5
5D0
330
5C0
100
AcDbEntity
  8
0
 62
     7
420
 16777215
370
     9
100
AcDbVertex
100
AcDb2dVertex
 10
20.46112460408606
 20
91.99031131354141
 30
0.0
  0
VERTEX
  5
5D1
330
5C0
100
AcDbEntity
  8
0
 62
     7
420
 16777215
370
     9
100
AcDbVertex
100
AcDb2dVertex
 10
20.19102893986186
 20
91.84699524681021
 30
0.0
  0
VERTEX
  5
5D2
330
5C0
100
AcDbEntity
  8
0
 62
     7
420
 16777215
370
     9
100
AcDbVertex
100
AcDb2dVertex
 10
19.90698062971792
 20
91.77430368411721
 30
0.0
  0
VERTEX
  5
5D3
330
5C0
100
AcDbEntity
  8
0
 62
     7
420
 16777215
370
     9
100
AcDbVertex
100
AcDb2dVertex
 10
19.76280328854723
 20
91.76500192017072
 30
0.0
  0
SEQEND
  5
5D4
330
5C0
100
AcDbEntity
  8
0
370
     9
  0
ENDBLK
  5
5BF
330
5BC
100
AcDbEntity
  8
0
100
AcDbBlockEnd
  0
BLOCK
  5
5D7
330
5D5
100
AcDbEntity
  8
0
100
AcDbBlockBegin
  2
block 183
 70
     0
 71
     0
 10
0.0
 20
0.0
 30
0.0
  3
block 183
  1

  0
POLYLINE
  5
5D9
330
5D5
100
AcDbEntity
  8
0
 62
     7
420
 16777215
370
     9
100
AcDb2dPolyline
 66
     1
 10
0.0
 20
0.0
 30
0.0
  0
VERTEX
  5
5DA
330
5D9
100
AcDbEntity
  8
0
 62
     7
420
 16777215
370
     9
100
AcDbVertex
100
AcDb2dVertex
 10
101.3857819190545
 20
91.76500192017072
 30
0.0
  0
VERTEX
  5
5DB
330
5D9
100
AcDbEntity
  8
0
 62
     7
420
 16777215
370
     9
100
AcDbVertex
100
AcDb2dVertex
 10
101.3857819190545
 20
96.31873213664448
 30
0.0
  0
SEQEND
  5
5DC
330
5D9
100
AcDbEntity
  8
0
370
     9
  0
ENDBLK
  5
5D8
330
5D5
100
AcDbEntity
  8
0
100
AcDbBlockEnd
  0
BLOCK
  5
5DF
330
5DD
100
AcDbEntity
  8
0
100
AcDbBlockBegin
  2
block 184
 70
     0
 71
     0
 10
0.0
 20
0.0
 30
0.0
  3
block 184
  1

  0
POLYLINE
  5
5E1
330
5DD
100
AcDbEntity
  8
0
 62
     7
420
 16777215
370
     9
100
AcDb2dPolyline
 66
     1
 10
0.0
 20
0.0
 30
0.0
  0
VERTEX
  5
5E2
330
5E1
100
AcDbEntity
  8
0
 62
     7
420
 16777215
370
     9
100
AcDbVertex
100
AcDb2dVertex
 10
105.7326340151627
 20
105.2742637584659
 30
0.0
  0
VERTEX
  5
5E3
330
5E1
100
AcDbEntity
  8
0
 62
     7
420
 16777215
370
     9
100
AcDbVertex
100
AcDb2dVertex
 10
99.52301756132465
 20
105.2742637584659
 30
0.0
  0
SEQEND
  5
5E4
330
5E1
100
AcDbEntity
  8
0
370
     9
  0
ENDBLK
  5
5E0
330
5DD
100
AcDbEntity
  8
0
100
AcDbBlockEnd
  0
BLOCK
  5
5E7
330
5E5
100
AcDbEntity
  8
0
100
AcDbBlockBegin
  2
block 185
 70
     0
 71
     0
 10
0.0
 20
0.0
 30
0.0
  3
block 185
  1

  0
POLYLINE
  5
5E9
330
5E5
100
AcDbEntity
  8
0
 62
     7
420
 16777215
370
     9
100
AcDb2dPolyline
 66
     1
 10
0.0
 20
0.0
 30
0.0
  0
VERTEX
  5
5EA
330
5E9
100
AcDbEntity
  8
0
 62
     7
420
 16777215
370
     9
100
AcDbVertex
100
AcDb2dVertex
 10
111.9420782141128
 20
105.2742637584659
 30
0.0
  0
VERTEX
  5
5EB
330
5E9
100
AcDbEntity
  8
0
 62
     7
420
 16777215
370
     9
100
AcDbVertex
100
AcDb2dVertex
 10
105.7326340151627
 20
105.2742637584659
 30
0.0
  0
SEQEND
  5
5EC
330
5E9
100
AcDbEntity
  8
0
370
     9
  0
ENDBLK
  5
5E8
330
5E5
100
AcDbEntity
  8
0
100
AcDbBlockEnd
  0
BLOCK
  5
5EF
330
5ED
100
AcDbEntity
  8
0
100
AcDbBlockBegin
  2
block 186
 70
     0
 71
     0
 10
0.0
 20
0.0
 30
0.0
  3
block 186
  1

  0
POLYLINE
  5
5F1
330
5ED
100
AcDbEntity
  8
0
 62
     7
420
 16777215
370
     9
100
AcDb2dPolyline
 66
     1
 10
0.0
 20
0.0
 30
0.0
  0
VERTEX
  5
5F2
330
5F1
100
AcDbEntity
  8
0
 62
     7
420
 16777215
370
     9
100
AcDbVertex
100
AcDb2dVertex
 10
105.7326340151627
 20
105.6328984350697
 30
0.0
  0
VERTEX
  5
5F3
330
5F1
100
AcDbEntity
  8
0
 62
     7
420
 16777215
370
     9
100
AcDbVertex
100
AcDb2dVertex
 10
99.61913578877177
 20
105.6328984350697
 30
0.0
  0
SEQEND
  5
5F4
330
5F1
100
AcDbEntity
  8
0
370
     9
  0
ENDBLK
  5
5F0
330
5ED
100
AcDbEntity
  8
0
100
AcDbBlockEnd
  0
BLOCK
  5
5F7
330
5F5
100
AcDbEntity
  8
0
100
AcDbBlockBegin
  2
block 187
 70
     0
 71
     0
 10
0.0
 20
0.0
 30
0.0
  3
block 187
  1

  0
POLYLINE
  5
5F9
330
5F5
100
AcDbEntity
  8
0
 62
     7
420
 16777215
370
     9
100
AcDb2dPolyline
 66
     1
 10
0.0
 20
0.0
 30
0.0
  0
VERTEX
  5
5FA
330
5F9
100
AcDbEntity
  8
0
 62
     7
420
 16777215
370
     9
100
AcDbVertex
100
AcDb2dVertex
 10
111.8456154768899
 20
105.6328984350697
 30
0.0
  0
VERTEX
  5
5FB
330
5F9
100
AcDbEntity
  8
0
 62
     7
420
 16777215
370
     9
100
AcDbVertex
100
AcDb2dVertex
 10
105.7326340151627
 20
105.6328984350697
 30
0.0
  0
SEQEND
  5
5FC
330
5F9
100
AcDbEntity
  8
0
370
     9
  0
ENDBLK
  5
5F8
330
5F5
100
AcDbEntity
  8
0
100
AcDbBlockEnd
  0
BLOCK
  5
5FF
330
5FD
100
AcDbEntity
  8
0
100
AcDbBlockBegin
  2
block 188
 70
     0
 71
     0
 10
0.0
 20
0.0
 30
0.0
  3
block 188
  1

  0
POLYLINE
  5
601
330
5FD
100
AcDbEntity
  8
0
 62
     7
420
 16777215
370
     9
100
AcDb2dPolyline
 66
     1
 10
0.0
 20
0.0
 30
0.0
  0
VERTEX
  5
602
330
601
100
AcDbEntity
  8
0
 62
     7
420
 16777215
370
     9
100
AcDbVertex
100
AcDb2dVertex
 10
105.7326340151627
 20
103.0456300188405
 30
0.0
  0
VERTEX
  5
603
330
601
100
AcDbEntity
  8
0
 62
     7
420
 16777215
370
     9
100
AcDbVertex
100
AcDb2dVertex
 10
103.3522437192991
 20
103.0456300188405
 30
0.0
  0
SEQEND
  5
604
330
601
100
AcDbEntity
  8
0
370
     9
  0
ENDBLK
  5
600
330
5FD
100
AcDbEntity
  8
0
100
AcDbBlockEnd
  0
BLOCK
  5
607
330
605
100
AcDbEntity
  8
0
100
AcDbBlockBegin
  2
block 189
 70
     0
 71
     0
 10
0.0
 20
0.0
 30
0.0
  3
block 189
  1

  0
POLYLINE
  5
609
330
605
100
AcDbEntity
  8
0
 62
     7
420
 16777215
370
     9
100
AcDb2dPolyline
 66
     1
 10
0.0
 20
0.0
 30
0.0
  0
VERTEX
  5
60A
330
609
100
AcDbEntity
  8
0
 62
     7
420
 16777215
370
     9
100
AcDbVertex
100
AcDb2dVertex
 10
108.1128520561384
 20
103.0456300188405
 30
0.0
  0
VERTEX
  5
60B
330
609
100
AcDbEntity
  8
0
 62
     7
420
 16777215
370
     9
100
AcDbVertex
100
AcDb2dVertex
 10
105.7326340151627
 20
103.0456300188405
 30
0.0
  0
SEQEND
  5
60C
330
609
100
AcDbEntity
  8
0
370
     9
  0
ENDBLK
  5
608
330
605
100
AcDbEntity
  8
0
100
AcDbBlockEnd
  0
BLOCK
  5
60F
330
60D
100
AcDbEntity
  8
0
100
AcDbBlockBegin
  2
block 190
 70
     0
 71
     0
 10
0.0
 20
0.0
 30
0.0
  3
block 190
  1

  0
POLYLINE
  5
611
330
60D
100
AcDbEntity
  8
0
 62
     7
420
 16777215
370
     9
100
AcDb2dPolyline
 66
     1
 10
0.0
 20
0.0
 30
0.0
  0
VERTEX
  5
612
330
611
100
AcDbEntity
  8
0
 62
     7
420
 16777215
370
     9
100
AcDbVertex
100
AcDb2dVertex
 10
51.20776081945464
 20
91.76500192017072
 30
0.0
  0
VERTEX
  5
613
330
611
100
AcDbEntity
  8
0
 62
     7
420
 16777215
370
     9
100
AcDbVertex
100
AcDb2dVertex
 10
51.49525422735654
 20
91.80151995640512
 30
0.0
  0
VERTEX
  5
614
330
611
100
AcDbEntity
  8
0
 62
     7
420
 16777215
370
     9
100
AcDbVertex
100
AcDb2dVertex
 10
51.77344587131195
 20
91.91004053578091
 30
0.0
  0
VERTEX
  5
615
330
611
100
AcDbEntity
  8
0
 62
     7
420
 16777215
370
     9
100
AcDbVertex
100
AcDb2dVertex
 10
52.03355075203805
 20
92.08746307031593
 30
0.0
  0
VERTEX
  5
616
330
611
100
AcDbEntity
  8
0
 62
     7
420
 16777215
370
     9
100
AcDbVertex
100
AcDb2dVertex
 10
52.26695612513996
 20
92.32689736449427
 30
0.0
  0
VERTEX
  5
617
330
611
100
AcDbEntity
  8
0
 62
     7
420
 16777215
370
     9
100
AcDbVertex
100
AcDb2dVertex
 10
52.46659954021384
 20
92.62214224235159
 30
0.0
  0
VERTEX
  5
618
330
611
100
AcDbEntity
  8
0
 62
     7
420
 16777215
370
     9
100
AcDbVertex
100
AcDb2dVertex
 10
52.62541854685588
 20
92.962862410614
 30
0.0
  0
VERTEX
  5
619
330
611
100
AcDbEntity
  8
0
 62
     7
420
 16777215
370
     9
100
AcDbVertex
100
AcDb2dVertex
 10
52.73893451798071
 20
93.33803355645603
 30
0.0
  0
VERTEX
  5
61A
330
611
100
AcDbEntity
  8
0
 62
     7
420
 16777215
370
     9
100
AcDbVertex
100
AcDb2dVertex
 10
52.8031855911667
 20
93.7362868572764
 30
0.0
  0
VERTEX
  5
61B
330
611
100
AcDbEntity
  8
0
 62
     7
420
 16777215
370
     9
100
AcDbVertex
100
AcDb2dVertex
 10
52.81610470775905
 20
94.14384192204326
 30
0.0
  0
VERTEX
  5
61C
330
611
100
AcDbEntity
  8
0
 62
     7
420
 16777215
370
     9
100
AcDbVertex
100
AcDb2dVertex
 10
52.77734735798199
 20
94.54829639882797
 30
0.0
  0
VERTEX
  5
61D
330
611
100
AcDbEntity
  8
0
 62
     7
420
 16777215
370
     9
100
AcDbVertex
100
AcDb2dVertex
 10
52.68829158093867
 20
94.93690342592605
 30
0.0
  0
VERTEX
  5
61E
330
611
100
AcDbEntity
  8
0
 62
     7
420
 16777215
370
     9
100
AcDbVertex
100
AcDb2dVertex
 10
52.5513489450597
 20
95.29622712208145
 30
0.0
  0
VERTEX
  5
61F
330
611
100
AcDbEntity
  8
0
 62
     7
420
 16777215
370
     9
100
AcDbVertex
100
AcDb2dVertex
 10
52.3715148420941
 20
95.6152431744687
 30
0.0
  0
VERTEX
  5
620
330
611
100
AcDbEntity
  8
0
 62
     7
420
 16777215
370
     9
100
AcDbVertex
100
AcDb2dVertex
 10
52.15395691867882
 20
95.88361628981392
 30
0.0
  0
VERTEX
  5
621
330
611
100
AcDbEntity
  8
0
 62
     7
420
 16777215
370
     9
100
AcDbVertex
100
AcDb2dVertex
 10
51.90625438988137
 20
96.09342274327378
 30
0.0
  0
VERTEX
  5
622
330
611
100
AcDbEntity
  8
0
 62
     7
420
 16777215
370
     9
100
AcDbVertex
100
AcDb2dVertex
 10
51.63598647076928
 20
96.2363943002292
 30
0.0
  0
VERTEX
  5
623
330
611
100
AcDbEntity
  8
0
 62
     7
420
 16777215
370
     9
100
AcDbVertex
100
AcDb2dVertex
 10
51.35211041551323
 20
96.30943037269799
 30
0.0
  0
VERTEX
  5
624
330
611
100
AcDbEntity
  8
0
 62
     7
420
 16777215
370
     9
100
AcDbVertex
100
AcDb2dVertex
 10
51.20776081945464
 20
96.31873213664448
 30
0.0
  0
SEQEND
  5
625
330
611
100
AcDbEntity
  8
0
370
     9
  0
ENDBLK
  5
610
330
60D
100
AcDbEntity
  8
0
100
AcDbBlockEnd
  0
BLOCK
  5
628
330
626
100
AcDbEntity
  8
0
100
AcDbBlockBegin
  2
block 191
 70
     0
 71
     0
 10
0.0
 20
0.0
 30
0.0
  3
block 191
  1

  0
POLYLINE
  5
62A
330
626
100
AcDbEntity
  8
0
 62
     7
420
 16777215
370
     9
100
AcDb2dPolyline
 66
     1
 10
0.0
 20
0.0
 30
0.0
  0
VERTEX
  5
62B
330
62A
100
AcDbEntity
  8
0
 62
     7
420
 16777215
370
     9
100
AcDbVertex
100
AcDb2dVertex
 10
56.91594329462136
 20
91.76500192017072
 30
0.0
  0
VERTEX
  5
62C
330
62A
100
AcDbEntity
  8
0
 62
     7
420
 16777215
370
     9
100
AcDbVertex
100
AcDb2dVertex
 10
56.91594329462136
 20
96.31873213664448
 30
0.0
  0
SEQEND
  5
62D
330
62A
100
AcDbEntity
  8
0
370
     9
  0
ENDBLK
  5
629
330
626
100
AcDbEntity
  8
0
100
AcDbBlockEnd
  0
BLOCK
  5
630
330
62E
100
AcDbEntity
  8
0
100
AcDbBlockBegin
  2
block 192
 70
     0
 71
     0
 10
0.0
 20
0.0
 30
0.0
  3
block 192
  1

  0
POLYLINE
  5
632
330
62E
100
AcDbEntity
  8
0
 62
     7
420
 16777215
370
     9
100
AcDb2dPolyline
 66
     1
 10
0.0
 20
0.0
 30
0.0
  0
VERTEX
  5
633
330
632
100
AcDbEntity
  8
0
 62
     7
420
 16777215
370
     9
100
AcDbVertex
100
AcDb2dVertex
 10
21.07986416141598
 20
103.6250954617296
 30
0.0
  0
VERTEX
  5
634
330
632
100
AcDbEntity
  8
0
 62
     7
420
 16777215
370
     9
100
AcDbVertex
100
AcDb2dVertex
 10
10.47964286994366
 20
103.6250954617296
 30
0.0
  0
SEQEND
  5
635
330
632
100
AcDbEntity
  8
0
370
     9
  0
ENDBLK
  5
631
330
62E
100
AcDbEntity
  8
0
100
AcDbBlockEnd
  0
BLOCK
  5
638
330
636
100
AcDbEntity
  8
0
100
AcDbBlockBegin
  2
block 193
 70
     0
 71
     0
 10
0.0
 20
0.0
 30
0.0
  3
block 193
  1

  0
POLYLINE
  5
63A
330
636
100
AcDbEntity
  8
0
 62
     7
420
 16777215
370
     9
100
AcDb2dPolyline
 66
     1
 10
0.0
 20
0.0
 30
0.0
  0
VERTEX
  5
63B
330
63A
100
AcDbEntity
  8
0
 62
     7
420
 16777215
370
     9
100
AcDbVertex
100
AcDb2dVertex
 10
22.89870352273185
 20
103.6250954617296
 30
0.0
  0
VERTEX
  5
63C
330
63A
100
AcDbEntity
  8
0
 62
     7
420
 16777215
370
     9
100
AcDbVertex
100
AcDb2dVertex
 10
21.07986416141598
 20
103.6250954617296
 30
0.0
  0
SEQEND
  5
63D
330
63A
100
AcDbEntity
  8
0
370
     9
  0
ENDBLK
  5
639
330
636
100
AcDbEntity
  8
0
100
AcDbBlockEnd
  0
BLOCK
  5
640
330
63E
100
AcDbEntity
  8
0
100
AcDbBlockBegin
  2
block 194
 70
     0
 71
     0
 10
0.0
 20
0.0
 30
0.0
  3
block 194
  1

  0
POLYLINE
  5
642
330
63E
100
AcDbEntity
  8
0
 62
     7
420
 16777215
370
     9
100
AcDb2dPolyline
 66
     1
 10
0.0
 20
0.0
 30
0.0
  0
VERTEX
  5
643
330
642
100
AcDbEntity
  8
0
 62
     7
420
 16777215
370
     9
100
AcDbVertex
100
AcDb2dVertex
 10
20.89382888248605
 20
103.3181372514952
 30
0.0
  0
VERTEX
  5
644
330
642
100
AcDbEntity
  8
0
 62
     7
420
 16777215
370
     9
100
AcDbVertex
100
AcDb2dVertex
 10
10.74284833865193
 20
103.3181372514952
 30
0.0
  0
SEQEND
  5
645
330
642
100
AcDbEntity
  8
0
370
     9
  0
ENDBLK
  5
641
330
63E
100
AcDbEntity
  8
0
100
AcDbBlockEnd
  0
BLOCK
  5
648
330
646
100
AcDbEntity
  8
0
100
AcDbBlockBegin
  2
block 195
 70
     0
 71
     0
 10
0.0
 20
0.0
 30
0.0
  3
block 195
  1

  0
POLYLINE
  5
64A
330
646
100
AcDbEntity
  8
0
 62
     7
420
 16777215
370
     9
100
AcDb2dPolyline
 66
     1
 10
0.0
 20
0.0
 30
0.0
  0
VERTEX
  5
64B
330
64A
100
AcDbEntity
  8
0
 62
     7
420
 16777215
370
     9
100
AcDbVertex
100
AcDb2dVertex
 10
22.63549805402358
 20
103.3181372514952
 30
0.0
  0
VERTEX
  5
64C
330
64A
100
AcDbEntity
  8
0
 62
     7
420
 16777215
370
     9
100
AcDbVertex
100
AcDb2dVertex
 10
20.89382888248605
 20
103.3181372514952
 30
0.0
  0
SEQEND
  5
64D
330
64A
100
AcDbEntity
  8
0
370
     9
  0
ENDBLK
  5
649
330
646
100
AcDbEntity
  8
0
100
AcDbBlockEnd
  0
BLOCK
  5
650
330
64E
100
AcDbEntity
  8
0
100
AcDbBlockBegin
  2
block 196
 70
     0
 71
     0
 10
0.0
 20
0.0
 30
0.0
  3
block 196
  1

  0
POLYLINE
  5
652
330
64E
100
AcDbEntity
  8
0
 62
     7
420
 16777215
370
     9
100
AcDb2dPolyline
 66
     1
 10
0.0
 20
0.0
 30
0.0
  0
VERTEX
  5
653
330
652
100
AcDbEntity
  8
0
 62
     7
420
 16777215
370
     9
100
AcDbVertex
100
AcDb2dVertex
 10
18.96595217713069
 20
97.97444611912087
 30
0.0
  0
VERTEX
  5
654
330
652
100
AcDbEntity
  8
0
 62
     7
420
 16777215
370
     9
100
AcDbVertex
100
AcDb2dVertex
 10
14.41222196065693
 20
97.97444611912087
 30
0.0
  0
SEQEND
  5
655
330
652
100
AcDbEntity
  8
0
370
     9
  0
ENDBLK
  5
651
330
64E
100
AcDbEntity
  8
0
100
AcDbBlockEnd
  0
BLOCK
  5
658
330
656
100
AcDbEntity
  8
0
100
AcDbBlockBegin
  2
block 197
 70
     0
 71
     0
 10
0.0
 20
0.0
 30
0.0
  3
block 197
  1

  0
POLYLINE
  5
65A
330
656
100
AcDbEntity
  8
0
 62
     7
420
 16777215
370
     9
100
AcDb2dPolyline
 66
     1
 10
0.0
 20
0.0
 30
0.0
  0
VERTEX
  5
65B
330
65A
100
AcDbEntity
  8
0
 62
     7
420
 16777215
370
     9
100
AcDbVertex
100
AcDb2dVertex
 10
19.46996997912048
 20
96.31873213664448
 30
0.0
  0
VERTEX
  5
65C
330
65A
100
AcDbEntity
  8
0
 62
     7
420
 16777215
370
     9
100
AcDbVertex
100
AcDb2dVertex
 10
19.75746338702239
 20
96.28221410041009
 30
0.0
  0
VERTEX
  5
65D
330
65A
100
AcDbEntity
  8
0
 62
     7
420
 16777215
370
     9
100
AcDbVertex
100
AcDb2dVertex
 10
20.03565503097779
 20
96.1733490112585
 30
0.0
  0
VERTEX
  5
65E
330
65A
100
AcDbEntity
  8
0
 62
     7
420
 16777215
370
     9
100
AcDbVertex
100
AcDb2dVertex
 10
20.2957599117039
 20
95.99627098649927
 30
0.0
  0
VERTEX
  5
65F
330
65A
100
AcDbEntity
  8
0
 62
     7
420
 16777215
370
     9
100
AcDbVertex
100
AcDb2dVertex
 10
20.5293375396937
 20
95.75614767276933
 30
0.0
  0
VERTEX
  5
660
330
65A
100
AcDbEntity
  8
0
 62
     7
420
 16777215
370
     9
100
AcDbVertex
100
AcDb2dVertex
 10
20.72880869987968
 20
95.46124730468782
 30
0.0
  0
VERTEX
  5
661
330
65A
100
AcDbEntity
  8
0
 62
     7
420
 16777215
370
     9
100
AcDbVertex
100
AcDb2dVertex
 10
20.88762770652172
 20
95.12052713642541
 30
0.0
  0
VERTEX
  5
662
330
65A
100
AcDbEntity
  8
0
 62
     7
420
 16777215
370
     9
100
AcDbVertex
100
AcDb2dVertex
 10
21.00114367764656
 20
94.74535599058338
 30
0.0
  0
VERTEX
  5
663
330
65A
100
AcDbEntity
  8
0
 62
     7
420
 16777215
370
     9
100
AcDbVertex
100
AcDb2dVertex
 10
21.06539475083254
 20
94.3474471995388
 30
0.0
  0
VERTEX
  5
664
330
65A
100
AcDbEntity
  8
0
 62
     7
420
 16777215
370
     9
100
AcDbVertex
100
AcDb2dVertex
 10
21.0783138674249
 20
93.93954762499614
 30
0.0
  0
VERTEX
  5
665
330
65A
100
AcDbEntity
  8
0
 62
     7
420
 16777215
370
     9
100
AcDbVertex
100
AcDb2dVertex
 10
21.03955651764783
 20
93.53509314821143
 30
0.0
  0
VERTEX
  5
666
330
65A
100
AcDbEntity
  8
0
 62
     7
420
 16777215
370
     9
100
AcDbVertex
100
AcDb2dVertex
 10
20.95050074060452
 20
93.14683063088916
 30
0.0
  0
VERTEX
  5
667
330
65A
100
AcDbEntity
  8
0
 62
     7
420
 16777215
370
     9
100
AcDbVertex
100
AcDb2dVertex
 10
20.81355810472554
 20
92.78750693473374
 30
0.0
  0
VERTEX
  5
668
330
65A
100
AcDbEntity
  8
0
 62
     7
420
 16777215
370
     9
100
AcDbVertex
100
AcDb2dVertex
 10
20.63372400175994
 20
92.4684908823465
 30
0.0
  0
VERTEX
  5
669
330
65A
100
AcDbEntity
  8
0
 62
     7
420
 16777215
370
     9
100
AcDbVertex
100
AcDb2dVertex
 10
20.41633833323256
 20
92.19977325722549
 30
0.0
  0
VERTEX
  5
66A
330
65A
100
AcDbEntity
  8
0
 62
     7
420
 16777215
370
     9
100
AcDbVertex
100
AcDb2dVertex
 10
20.16846354954722
 20
91.99031131354141
 30
0.0
  0
VERTEX
  5
66B
330
65A
100
AcDbEntity
  8
0
 62
     7
420
 16777215
370
     9
100
AcDbVertex
100
AcDb2dVertex
 10
19.89836788532302
 20
91.84699524681021
 30
0.0
  0
VERTEX
  5
66C
330
65A
100
AcDbEntity
  8
0
 62
     7
420
 16777215
370
     9
100
AcDbVertex
100
AcDb2dVertex
 10
19.61431957517908
 20
91.77430368411721
 30
0.0
  0
VERTEX
  5
66D
330
65A
100
AcDbEntity
  8
0
 62
     7
420
 16777215
370
     9
100
AcDbVertex
100
AcDb2dVertex
 10
19.46893644979309
 20
91.76500192017072
 30
0.0
  0
SEQEND
  5
66E
330
65A
100
AcDbEntity
  8
0
370
     9
  0
ENDBLK
  5
659
330
656
100
AcDbEntity
  8
0
100
AcDbBlockEnd
  0
BLOCK
  5
671
330
66F
100
AcDbEntity
  8
0
100
AcDbBlockBegin
  2
block 198
 70
     0
 71
     0
 10
0.0
 20
0.0
 30
0.0
  3
block 198
  1

  0
POLYLINE
  5
673
330
66F
100
AcDbEntity
  8
0
 62
     7
420
 16777215
370
     9
100
AcDb2dPolyline
 66
     1
 10
0.0
 20
0.0
 30
0.0
  0
VERTEX
  5
674
330
673
100
AcDbEntity
  8
0
 62
     7
420
 16777215
370
     9
100
AcDbVertex
100
AcDb2dVertex
 10
108.0094991233996
 20
97.97444611912087
 30
0.0
  0
VERTEX
  5
675
330
673
100
AcDbEntity
  8
0
 62
     7
420
 16777215
370
     9
100
AcDbVertex
100
AcDb2dVertex
 10
103.4557689069258
 20
97.97444611912087
 30
0.0
  0
SEQEND
  5
676
330
673
100
AcDbEntity
  8
0
370
     9
  0
ENDBLK
  5
672
330
66F
100
AcDbEntity
  8
0
100
AcDbBlockEnd
  0
BLOCK
  5
679
330
677
100
AcDbEntity
  8
0
100
AcDbBlockBegin
  2
block 199
 70
     0
 71
     0
 10
0.0
 20
0.0
 30
0.0
  3
block 199
  1

  0
POLYLINE
  5
67B
330
677
100
AcDbEntity
  8
0
 62
     7
420
 16777215
370
     9
100
AcDb2dPolyline
 66
     1
 10
0.0
 20
0.0
 30
0.0
  0
VERTEX
  5
67C
330
67B
100
AcDbEntity
  8
0
 62
     7
420
 16777215
370
     9
100
AcDbVertex
100
AcDb2dVertex
 10
101.7998826695615
 20
91.76500192017072
 30
0.0
  0
VERTEX
  5
67D
330
67B
100
AcDbEntity
  8
0
 62
     7
420
 16777215
370
     9
100
AcDbVertex
100
AcDb2dVertex
 10
101.7998826695615
 20
96.31873213664448
 30
0.0
  0
SEQEND
  5
67E
330
67B
100
AcDbEntity
  8
0
370
     9
  0
ENDBLK
  5
67A
330
677
100
AcDbEntity
  8
0
100
AcDbBlockEnd
  0
BLOCK
  5
681
330
67F
100
AcDbEntity
  8
0
100
AcDbBlockBegin
  2
block 200
 70
     0
 71
     0
 10
0.0
 20
0.0
 30
0.0
  3
block 200
  1

  0
POLYLINE
  5
683
330
67F
100
AcDbEntity
  8
0
 62
     7
420
 16777215
370
     9
100
AcDb2dPolyline
 66
     1
 10
0.0
 20
0.0
 30
0.0
  0
VERTEX
  5
684
330
683
100
AcDbEntity
  8
0
 62
     7
420
 16777215
370
     9
100
AcDbVertex
100
AcDb2dVertex
 10
105.7326340151627
 20
103.6250954617296
 30
0.0
  0
VERTEX
  5
685
330
683
100
AcDbEntity
  8
0
 62
     7
420
 16777215
370
     9
100
AcDbVertex
100
AcDb2dVertex
 10
99.52301756132465
 20
103.6250954617296
 30
0.0
  0
SEQEND
  5
686
330
683
100
AcDbEntity
  8
0
370
     9
  0
ENDBLK
  5
682
330
67F
100
AcDbEntity
  8
0
100
AcDbBlockEnd
  0
BLOCK
  5
689
330
687
100
AcDbEntity
  8
0
100
AcDbBlockBegin
  2
block 201
 70
     0
 71
     0
 10
0.0
 20
0.0
 30
0.0
  3
block 201
  1

  0
POLYLINE
  5
68B
330
687
100
AcDbEntity
  8
0
 62
     7
420
 16777215
370
     9
100
AcDb2dPolyline
 66
     1
 10
0.0
 20
0.0
 30
0.0
  0
VERTEX
  5
68C
330
68B
100
AcDbEntity
  8
0
 62
     7
420
 16777215
370
     9
100
AcDbVertex
100
AcDb2dVertex
 10
111.9420782141128
 20
103.6250954617296
 30
0.0
  0
VERTEX
  5
68D
330
68B
100
AcDbEntity
  8
0
 62
     7
420
 16777215
370
     9
100
AcDbVertex
100
AcDb2dVertex
 10
105.7326340151627
 20
103.6250954617296
 30
0.0
  0
SEQEND
  5
68E
330
68B
100
AcDbEntity
  8
0
370
     9
  0
ENDBLK
  5
68A
330
687
100
AcDbEntity
  8
0
100
AcDbBlockEnd
  0
BLOCK
  5
691
330
68F
100
AcDbEntity
  8
0
100
AcDbBlockBegin
  2
block 202
 70
     0
 71
     0
 10
0.0
 20
0.0
 30
0.0
  3
block 202
  1

  0
POLYLINE
  5
693
330
68F
100
AcDbEntity
  8
0
 62
     7
420
 16777215
370
     9
100
AcDb2dPolyline
 66
     1
 10
0.0
 20
0.0
 30
0.0
  0
VERTEX
  5
694
330
693
100
AcDbEntity
  8
0
 62
     7
420
 16777215
370
     9
100
AcDbVertex
100
AcDb2dVertex
 10
105.7326340151627
 20
103.3181372514952
 30
0.0
  0
VERTEX
  5
695
330
693
100
AcDbEntity
  8
0
 62
     7
420
 16777215
370
     9
100
AcDbVertex
100
AcDb2dVertex
 10
99.78622303003291
 20
103.3181372514952
 30
0.0
  0
SEQEND
  5
696
330
693
100
AcDbEntity
  8
0
370
     9
  0
ENDBLK
  5
692
330
68F
100
AcDbEntity
  8
0
100
AcDbBlockEnd
  0
BLOCK
  5
699
330
697
100
AcDbEntity
  8
0
100
AcDbBlockBegin
  2
block 203
 70
     0
 71
     0
 10
0.0
 20
0.0
 30
0.0
  3
block 203
  1

  0
POLYLINE
  5
69B
330
697
100
AcDbEntity
  8
0
 62
     7
420
 16777215
370
     9
100
AcDb2dPolyline
 66
     1
 10
0.0
 20
0.0
 30
0.0
  0
VERTEX
  5
69C
330
69B
100
AcDbEntity
  8
0
 62
     7
420
 16777215
370
     9
100
AcDbVertex
100
AcDb2dVertex
 10
111.6788727454046
 20
103.3181372514952
 30
0.0
  0
VERTEX
  5
69D
330
69B
100
AcDbEntity
  8
0
 62
     7
420
 16777215
370
     9
100
AcDbVertex
100
AcDb2dVertex
 10
105.7326340151627
 20
103.3181372514952
 30
0.0
  0
SEQEND
  5
69E
330
69B
100
AcDbEntity
  8
0
370
     9
  0
ENDBLK
  5
69A
330
697
100
AcDbEntity
  8
0
100
AcDbBlockEnd
  0
BLOCK
  5
6A1
330
69F
100
AcDbEntity
  8
0
100
AcDbBlockBegin
  2
block 204
 70
     0
 71
     0
 10
0.0
 20
0.0
 30
0.0
  3
block 204
  1

  0
INSERT
  5
6A4
330
69F
100
AcDbEntity
  8
0
100
AcDbBlockReference
  2
block 205
 10
0.0
 20
0.0
 30
0.0
  0
INSERT
  5
6AC
330
69F
100
AcDbEntity
  8
0
100
AcDbBlockReference
  2
block 206
 10
0.0
 20
0.0
 30
0.0
  0
INSERT
  5
6B4
330
69F
100
AcDbEntity
  8
0
100
AcDbBlockReference
  2
block 207
 10
0.0
 20
0.0
 30
0.0
  0
INSERT
  5
6BC
330
69F
100
AcDbEntity
  8
0
100
AcDbBlockReference
  2
block 208
 10
0.0
 20
0.0
 30
0.0
  0
INSERT
  5
6C7
330
69F
100
AcDbEntity
  8
0
100
AcDbBlockReference
  2
block 209
 10
0.0
 20
0.0
 30
0.0
  0
INSERT
  5
6D2
330
69F
100
AcDbEntity
  8
0
100
AcDbBlockReference
  2
block 210
 10
0.0
 20
0.0
 30
0.0
  0
INSERT
  5
6D7
330
69F
100
AcDbEntity
  8
0
100
AcDbBlockReference
  2
block 211
 10
0.0
 20
0.0
 30
0.0
  0
INSERT
  5
6DF
330
69F
100
AcDbEntity
  8
0
100
AcDbBlockReference
  2
block 212
 10
0.0
 20
0.0
 30
0.0
  0
INSERT
  5
6E7
330
69F
100
AcDbEntity
  8
0
100
AcDbBlockReference
  2
block 213
 10
0.0
 20
0.0
 30
0.0
  0
ENDBLK
  5
6A2
330
69F
100
AcDbEntity
  8
0
100
AcDbBlockEnd
  0
BLOCK
  5
6A5
330
6A3
100
AcDbEntity
  8
0
100
AcDbBlockBegin
  2
block 205
 70
     0
 71
     0
 10
0.0
 20
0.0
 30
0.0
  3
block 205
  1

  0
POLYLINE
  5
6A7
330
6A3
100
AcDbEntity
  8
0
 62
     7
420
 16777215
370
     9
100
AcDb2dPolyline
 66
     1
 10
0.0
 20
0.0
 30
0.0
  0
VERTEX
  5
6A8
330
6A7
100
AcDbEntity
  8
0
 62
     7
420
 16777215
370
     9
100
AcDbVertex
100
AcDb2dVertex
 10
62.44653098036516
 20
105.7362513678085
 30
0.0
  0
VERTEX
  5
6A9
330
6A7
100
AcDbEntity
  8
0
 62
     7
420
 16777215
370
     9
100
AcDbVertex
100
AcDb2dVertex
 10
121.2045680461686
 20
105.7362513678085
 30
0.0
  0
SEQEND
  5
6AA
330
6A7
100
AcDbEntity
  8
0
370
     9
  0
ENDBLK
  5
6A6
330
6A3
100
AcDbEntity
  8
0
100
AcDbBlockEnd
  0
BLOCK
  5
6AD
330
6AB
100
AcDbEntity
  8
0
100
AcDbBlockBegin
  2
block 206
 70
     0
 71
     0
 10
0.0
 20
0.0
 30
0.0
  3
block 206
  1

  0
POLYLINE
  5
6AF
330
6AB
100
AcDbEntity
  8
0
 62
     7
420
 16777215
370
     9
100
AcDb2dPolyline
 66
     1
 10
0.0
 20
0.0
 30
0.0
  0
VERTEX
  5
6B0
330
6AF
100
AcDbEntity
  8
0
 62
     7
420
 16777215
370
     9
100
AcDbVertex
100
AcDb2dVertex
 10
101.4376306403119
 20
91.76500192017072
 30
0.0
  0
VERTEX
  5
6B1
330
6AF
100
AcDbEntity
  8
0
 62
     7
420
 16777215
370
     9
100
AcDbVertex
100
AcDb2dVertex
 10
121.2045680461686
 20
91.76500192017072
 30
0.0
  0
SEQEND
  5
6B2
330
6AF
100
AcDbEntity
  8
0
370
     9
  0
ENDBLK
  5
6AE
330
6AB
100
AcDbEntity
  8
0
100
AcDbBlockEnd
  0
BLOCK
  5
6B5
330
6B3
100
AcDbEntity
  8
0
100
AcDbBlockBegin
  2
block 207
 70
     0
 71
     0
 10
0.0
 20
0.0
 30
0.0
  3
block 207
  1

  0
POLYLINE
  5
6B7
330
6B3
100
AcDbEntity
  8
0
 62
     7
420
 16777215
370
     9
100
AcDb2dPolyline
 66
     1
 10
0.0
 20
0.0
 30
0.0
  0
VERTEX
  5
6B8
330
6B7
100
AcDbEntity
  8
0
 62
     7
420
 16777215
370
     9
100
AcDbVertex
100
AcDb2dVertex
 10
121.2045680461686
 20
103.002566296866
 30
0.0
  0
VERTEX
  5
6B9
330
6B7
100
AcDbEntity
  8
0
 62
     7
420
 16777215
370
     9
100
AcDbVertex
100
AcDb2dVertex
 10
121.2045680461686
 20
94.49868699111332
 30
0.0
  0
SEQEND
  5
6BA
330
6B7
100
AcDbEntity
  8
0
370
     9
  0
ENDBLK
  5
6B6
330
6B3
100
AcDbEntity
  8
0
100
AcDbBlockEnd
  0
BLOCK
  5
6BD
330
6BB
100
AcDbEntity
  8
0
100
AcDbBlockBegin
  2
block 208
 70
     0
 71
     0
 10
0.0
 20
0.0
 30
0.0
  3
block 208
  1

  0
POLYLINE
  5
6BF
330
6BB
100
AcDbEntity
  8
0
370
     0
100
AcDb2dPolyline
 66
     1
 10
0.0
 20
0.0
 30
0.0
  0
VERTEX
  5
6C0
330
6BF
100
AcDbEntity
  8
0
370
     0
100
AcDbVertex
100
AcDb2dVertex
 10
120.7491261225661
 20
103.002566296866
 30
0.0
  0
VERTEX
  5
6C1
330
6BF
100
AcDbEntity
  8
0
370
     0
100
AcDbVertex
100
AcDb2dVertex
 10
121.660354479547
 20
103.002566296866
 30
0.0
  0
VERTEX
  5
6C2
330
6BF
100
AcDbEntity
  8
0
370
     0
100
AcDbVertex
100
AcDb2dVertex
 10
121.2045680461686
 20
105.7362513678085
 30
0.0
  0
VERTEX
  5
6C3
330
6BF
100
AcDbEntity
  8
0
370
     0
100
AcDbVertex
100
AcDb2dVertex
 10
120.7491261225661
 20
103.002566296866
 30
0.0
  0
SEQEND
  5
6C4
330
6BF
100
AcDbEntity
  8
0
370
     0
  0
HATCH
  5
6C5
330
6BB
100
AcDbEntity
  8
0
 62
     7
420
 16777215
100
AcDbHatch
 10
0.0
 20
0.0
 30
0.0
210
0.0
220
0.0
230
1.0
  2
SOLID
 70
     1
 71
     0
 91
        1
 92
        1
 93
        3
 72
     1
 10
120.7491261225661
 20
103.002566296866
 11
121.660354479547
 21
103.002566296866
 72
     1
 10
121.660354479547
 20
103.002566296866
 11
121.2045680461686
 21
105.7362513678085
 72
     1
 10
121.2045680461686
 20
105.7362513678085
 11
120.7491261225661
 21
103.002566296866
 97
        0
 75
     2
 76
     1
 98
        0
  0
ENDBLK
  5
6BE
330
6BB
100
AcDbEntity
  8
0
100
AcDbBlockEnd
  0
BLOCK
  5
6C8
330
6C6
100
AcDbEntity
  8
0
100
AcDbBlockBegin
  2
block 209
 70
     0
 71
     0
 10
0.0
 20
0.0
 30
0.0
  3
block 209
  1

  0
POLYLINE
  5
6CA
330
6C6
100
AcDbEntity
  8
0
370
     0
100
AcDb2dPolyline
 66
     1
 10
0.0
 20
0.0
 30
0.0
  0
VERTEX
  5
6CB
330
6CA
100
AcDbEntity
  8
0
370
     0
100
AcDbVertex
100
AcDb2dVertex
 10
120.7491261225661
 20
94.49868699111332
 30
0.0
  0
VERTEX
  5
6CC
330
6CA
100
AcDbEntity
  8
0
370
     0
100
AcDbVertex
100
AcDb2dVertex
 10
121.660354479547
 20
94.49868699111332
 30
0.0
  0
VERTEX
  5
6CD
330
6CA
100
AcDbEntity
  8
0
370
     0
100
AcDbVertex
100
AcDb2dVertex
 10
121.2045680461686
 20
91.76500192017072
 30
0.0
  0
VERTEX
  5
6CE
330
6CA
100
AcDbEntity
  8
0
370
     0
100
AcDbVertex
100
AcDb2dVertex
 10
120.7491261225661
 20
94.49868699111332
 30
0.0
  0
SEQEND
  5
6CF
330
6CA
100
AcDbEntity
  8
0
370
     0
  0
HATCH
  5
6D0
330
6C6
100
AcDbEntity
  8
0
 62
     7
420
 16777215
100
AcDbHatch
 10
0.0
 20
0.0
 30
0.0
210
0.0
220
0.0
230
1.0
  2
SOLID
 70
     1
 71
     0
 91
        1
 92
        1
 93
        3
 72
     1
 10
120.7491261225661
 20
94.49868699111332
 11
121.660354479547
 21
94.49868699111332
 72
     1
 10
121.660354479547
 20
94.49868699111332
 11
121.2045680461686
 21
91.76500192017072
 72
     1
 10
121.2045680461686
 20
91.76500192017072
 11
120.7491261225661
 21
94.49868699111332
 97
        0
 75
     2
 76
     1
 98
        0
  0
ENDBLK
  5
6C9
330
6C6
100
AcDbEntity
  8
0
100
AcDbBlockEnd
  0
BLOCK
  5
6D3
330
6D1
100
AcDbEntity
  8
0
100
AcDbBlockBegin
  2
block 210
 70
     0
 71
     0
 10
0.0
 20
0.0
 30
0.0
  3
block 210
  1

  0
MTEXT
  5
6D5
330
6D1
100
AcDbEntity
  8
0
 62
     7
420
 16777215
100
AcDbMText
 10
120.4804084974451
 20
95.07677439489929
 30
0.0
 40
2.398890470823883
 41
0.0
 71
     7
 72
     1
  1
\fArial|b1|i0|c0|p34;\W0.75;67.5
 11
-4.371139000186241E-8
 21
0.999999999999999
 31
0.0
 73
     1
 44
1.0
  0
ENDBLK
  5
6D4
330
6D1
100
AcDbEntity
  8
0
100
AcDbBlockEnd
  0
BLOCK
  5
6D8
330
6D6
100
AcDbEntity
  8
0
100
AcDbBlockBegin
  2
block 211
 70
     0
 71
     0
 10
0.0
 20
0.0
 30
0.0
  3
block 211
  1

  0
POLYLINE
  5
6DA
330
6D6
100
AcDbEntity
  8
0
 62
     7
420
 16777215
370
     9
100
AcDb2dPolyline
 66
     1
 10
0.0
 20
0.0
 30
0.0
  0
VERTEX
  5
6DB
330
6DA
100
AcDbEntity
  8
0
 62
     7
420
 16777215
370
     9
100
AcDbVertex
100
AcDb2dVertex
 10
62.39502676888363
 20
105.7362513678085
 30
0.0
  0
VERTEX
  5
6DC
330
6DA
100
AcDbEntity
  8
0
 62
     7
420
 16777215
370
     9
100
AcDbVertex
100
AcDb2dVertex
 10
62.39502676888363
 20
105.7362513678085
 30
0.0
  0
SEQEND
  5
6DD
330
6DA
100
AcDbEntity
  8
0
370
     9
  0
ENDBLK
  5
6D9
330
6D6
100
AcDbEntity
  8
0
100
AcDbBlockEnd
  0
BLOCK
  5
6E0
330
6DE
100
AcDbEntity
  8
0
100
AcDbBlockBegin
  2
block 212
 70
     0
 71
     0
 10
0.0
 20
0.0
 30
0.0
  3
block 212
  1

  0
POLYLINE
  5
6E2
330
6DE
100
AcDbEntity
  8
0
 62
     7
420
 16777215
370
     9
100
AcDb2dPolyline
 66
     1
 10
0.0
 20
0.0
 30
0.0
  0
VERTEX
  5
6E3
330
6E2
100
AcDbEntity
  8
0
 62
     7
420
 16777215
370
     9
100
AcDbVertex
100
AcDb2dVertex
 10
101.3857819190545
 20
91.76500192017072
 30
0.0
  0
VERTEX
  5
6E4
330
6E2
100
AcDbEntity
  8
0
 62
     7
420
 16777215
370
     9
100
AcDbVertex
100
AcDb2dVertex
 10
101.3857819190545
 20
91.76500192017072
 30
0.0
  0
SEQEND
  5
6E5
330
6E2
100
AcDbEntity
  8
0
370
     9
  0
ENDBLK
  5
6E1
330
6DE
100
AcDbEntity
  8
0
100
AcDbBlockEnd
  0
BLOCK
  5
6E8
330
6E6
100
AcDbEntity
  8
0
100
AcDbBlockBegin
  2
block 213
 70
     0
 71
     0
 10
0.0
 20
0.0
 30
0.0
  3
block 213
  1

  0
POLYLINE
  5
6EA
330
6E6
100
AcDbEntity
  8
0
 62
     7
420
 16777215
370
     9
100
AcDb2dPolyline
 66
     1
 10
0.0
 20
0.0
 30
0.0
  0
VERTEX
  5
6EB
330
6EA
100
AcDbEntity
  8
0
 62
     7
420
 16777215
370
     9
100
AcDbVertex
100
AcDb2dVertex
 10
121.2045680461686
 20
91.76500192017072
 30
0.0
  0
VERTEX
  5
6EC
330
6EA
100
AcDbEntity
  8
0
 62
     7
420
 16777215
370
     9
100
AcDbVertex
100
AcDb2dVertex
 10
121.2045680461686
 20
91.76500192017072
 30
0.0
  0
SEQEND
  5
6ED
330
6EA
100
AcDbEntity
  8
0
370
     9
  0
ENDBLK
  5
6E9
330
6E6
100
AcDbEntity
  8
0
100
AcDbBlockEnd
  0
ENDSEC
  0
SECTION
  2
ENTITIES
  0
INSERT
  5
3C
330
1F
100
AcDbEntity
  8
0
100
AcDbBlockReference
  2
block 2
 10
0.0
 20
0.0
 30
0.0
  0
INSERT
  5
41
330
1F
100
AcDbEntity
  8
0
100
AcDbBlockReference
  2
block 3
 10
0.0
 20
0.0
 30
0.0
  0
INSERT
  5
46
330
1F
100
AcDbEntity
  8
0
100
AcDbBlockReference
  2
block 4
 10
0.0
 20
0.0
 30
0.0
  0
INSERT
  5
4E
330
1F
100
AcDbEntity
  8
0
100
AcDbBlockReference
  2
block 5
 10
0.0
 20
0.0
 30
0.0
  0
INSERT
  5
56
330
1F
100
AcDbEntity
  8
0
100
AcDbBlockReference
  2
block 6
 10
0.0
 20
0.0
 30
0.0
  0
INSERT
  5
5E
330
1F
100
AcDbEntity
  8
0
100
AcDbBlockReference
  2
block 7
 10
0.0
 20
0.0
 30
0.0
  0
INSERT
  5
66
330
1F
100
AcDbEntity
  8
0
100
AcDbBlockReference
  2
block 8
 10
0.0
 20
0.0
 30
0.0
  0
INSERT
  5
6E
330
1F
100
AcDbEntity
  8
0
100
AcDbBlockReference
  2
block 9
 10
0.0
 20
0.0
 30
0.0
  0
INSERT
  5
76
330
1F
100
AcDbEntity
  8
0
100
AcDbBlockReference
  2
block 10
 10
0.0
 20
0.0
 30
0.0
  0
INSERT
  5
7E
330
1F
100
AcDbEntity
  8
0
100
AcDbBlockReference
  2
block 11
 10
0.0
 20
0.0
 30
0.0
  0
INSERT
  5
86
330
1F
100
AcDbEntity
  8
0
100
AcDbBlockReference
  2
block 12
 10
0.0
 20
0.0
 30
0.0
  0
INSERT
  5
8E
330
1F
100
AcDbEntity
  8
0
100
AcDbBlockReference
  2
block 13
 10
0.0
 20
0.0
 30
0.0
  0
INSERT
  5
96
330
1F
100
AcDbEntity
  8
0
100
AcDbBlockReference
  2
block 14
 10
0.0
 20
0.0
 30
0.0
  0
INSERT
  5
9E
330
1F
100
AcDbEntity
  8
0
100
AcDbBlockReference
  2
block 15
 10
0.0
 20
0.0
 30
0.0
  0
INSERT
  5
A6
330
1F
100
AcDbEntity
  8
0
100
AcDbBlockReference
  2
block 16
 10
0.0
 20
0.0
 30
0.0
  0
INSERT
  5
AE
330
1F
100
AcDbEntity
  8
0
100
AcDbBlockReference
  2
block 17
 10
0.0
 20
0.0
 30
0.0
  0
INSERT
  5
B6
330
1F
100
AcDbEntity
  8
0
100
AcDbBlockReference
  2
block 18
 10
0.0
 20
0.0
 30
0.0
  0
INSERT
  5
BE
330
1F
100
AcDbEntity
  8
0
100
AcDbBlockReference
  2
block 19
 10
0.0
 20
0.0
 30
0.0
  0
INSERT
  5
C6
330
1F
100
AcDbEntity
  8
0
100
AcDbBlockReference
  2
block 20
 10
0.0
 20
0.0
 30
0.0
  0
INSERT
  5
CB
330
1F
100
AcDbEntity
  8
0
100
AcDbBlockReference
  2
block 21
 10
0.0
 20
0.0
 30
0.0
  0
INSERT
  5
D4
330
1F
100
AcDbEntity
  8
0
100
AcDbBlockReference
  2
block 22
 10
0.0
 20
0.0
 30
0.0
  0
INSERT
  5
D9
330
1F
100
AcDbEntity
  8
0
100
AcDbBlockReference
  2
block 23
 10
0.0
 20
0.0
 30
0.0
  0
INSERT
  5
DE
330
1F
100
AcDbEntity
  8
0
100
AcDbBlockReference
  2
block 24
 10
0.0
 20
0.0
 30
0.0
  0
INSERT
  5
E3
330
1F
100
AcDbEntity
  8
0
100
AcDbBlockReference
  2
block 25
 10
0.0
 20
0.0
 30
0.0
  0
INSERT
  5
EB
330
1F
100
AcDbEntity
  8
0
100
AcDbBlockReference
  2
block 26
 10
0.0
 20
0.0
 30
0.0
  0
INSERT
  5
F3
330
1F
100
AcDbEntity
  8
0
100
AcDbBlockReference
  2
block 27
 10
0.0
 20
0.0
 30
0.0
  0
INSERT
  5
F8
330
1F
100
AcDbEntity
  8
0
100
AcDbBlockReference
  2
block 28
 10
0.0
 20
0.0
 30
0.0
  0
INSERT
  5
101
330
1F
100
AcDbEntity
  8
0
100
AcDbBlockReference
  2
block 29
 10
0.0
 20
0.0
 30
0.0
  0
INSERT
  5
106
330
1F
100
AcDbEntity
  8
0
100
AcDbBlockReference
  2
block 30
 10
0.0
 20
0.0
 30
0.0
  0
INSERT
  5
10B
330
1F
100
AcDbEntity
  8
0
100
AcDbBlockReference
  2
block 31
 10
0.0
 20
0.0
 30
0.0
  0
INSERT
  5
110
330
1F
100
AcDbEntity
  8
0
100
AcDbBlockReference
  2
block 32
 10
0.0
 20
0.0
 30
0.0
  0
INSERT
  5
118
330
1F
100
AcDbEntity
  8
0
100
AcDbBlockReference
  2
block 33
 10
0.0
 20
0.0
 30
0.0
  0
INSERT
  5
120
330
1F
100
AcDbEntity
  8
0
100
AcDbBlockReference
  2
block 34
 10
0.0
 20
0.0
 30
0.0
  0
INSERT
  5
128
330
1F
100
AcDbEntity
  8
0
100
AcDbBlockReference
  2
block 35
 10
0.0
 20
0.0
 30
0.0
  0
INSERT
  5
130
330
1F
100
AcDbEntity
  8
0
100
AcDbBlockReference
  2
block 36
 10
0.0
 20
0.0
 30
0.0
  0
INSERT
  5
135
330
1F
100
AcDbEntity
  8
0
100
AcDbBlockReference
  2
block 37
 10
0.0
 20
0.0
 30
0.0
  0
INSERT
  5
13A
330
1F
100
AcDbEntity
  8
0
100
AcDbBlockReference
  2
block 38
 10
0.0
 20
0.0
 30
0.0
  0
INSERT
  5
13F
330
1F
100
AcDbEntity
  8
0
100
AcDbBlockReference
  2
block 39
 10
0.0
 20
0.0
 30
0.0
  0
INSERT
  5
148
330
1F
100
AcDbEntity
  8
0
100
AcDbBlockReference
  2
block 40
 10
0.0
 20
0.0
 30
0.0
  0
INSERT
  5
150
330
1F
100
AcDbEntity
  8
0
100
AcDbBlockReference
  2
block 41
 10
0.0
 20
0.0
 30
0.0
  0
INSERT
  5
158
330
1F
100
AcDbEntity
  8
0
100
AcDbBlockReference
  2
block 42
 10
0.0
 20
0.0
 30
0.0
  0
INSERT
  5
15D
330
1F
100
AcDbEntity
  8
0
100
AcDbBlockReference
  2
block 43
 10
0.0
 20
0.0
 30
0.0
  0
INSERT
  5
162
330
1F
100
AcDbEntity
  8
0
100
AcDbBlockReference
  2
block 44
 10
0.0
 20
0.0
 30
0.0
  0
INSERT
  5
16B
330
1F
100
AcDbEntity
  8
0
100
AcDbBlockReference
  2
block 45
 10
0.0
 20
0.0
 30
0.0
  0
INSERT
  5
170
330
1F
100
AcDbEntity
  8
0
100
AcDbBlockReference
  2
block 46
 10
0.0
 20
0.0
 30
0.0
  0
INSERT
  5
1BF
330
1F
100
AcDbEntity
  8
0
100
AcDbBlockReference
  2
block 56
 10
0.0
 20
0.0
 30
0.0
  0
INSERT
  5
1C7
330
1F
100
AcDbEntity
  8
0
100
AcDbBlockReference
  2
block 57
 10
0.0
 20
0.0
 30
0.0
  0
INSERT
  5
1CF
330
1F
100
AcDbEntity
  8
0
100
AcDbBlockReference
  2
block 58
 10
0.0
 20
0.0
 30
0.0
  0
INSERT
  5
1D7
330
1F
100
AcDbEntity
  8
0
100
AcDbBlockReference
  2
block 59
 10
0.0
 20
0.0
 30
0.0
  0
INSERT
  5
1DF
330
1F
100
AcDbEntity
  8
0
100
AcDbBlockReference
  2
block 60
 10
0.0
 20
0.0
 30
0.0
  0
INSERT
  5
1E7
330
1F
100
AcDbEntity
  8
0
100
AcDbBlockReference
  2
block 61
 10
0.0
 20
0.0
 30
0.0
  0
INSERT
  5
1EF
330
1F
100
AcDbEntity
  8
0
100
AcDbBlockReference
  2
block 62
 10
0.0
 20
0.0
 30
0.0
  0
INSERT
  5
1F7
330
1F
100
AcDbEntity
  8
0
100
AcDbBlockReference
  2
block 63
 10
0.0
 20
0.0
 30
0.0
  0
INSERT
  5
1FC
330
1F
100
AcDbEntity
  8
0
100
AcDbBlockReference
  2
block 64
 10
0.0
 20
0.0
 30
0.0
  0
INSERT
  5
201
330
1F
100
AcDbEntity
  8
0
100
AcDbBlockReference
  2
block 65
 10
0.0
 20
0.0
 30
0.0
  0
INSERT
  5
209
330
1F
100
AcDbEntity
  8
0
100
AcDbBlockReference
  2
block 66
 10
0.0
 20
0.0
 30
0.0
  0
INSERT
  5
211
330
1F
100
AcDbEntity
  8
0
100
AcDbBlockReference
  2
block 67
 10
0.0
 20
0.0
 30
0.0
  0
INSERT
  5
219
330
1F
100
AcDbEntity
  8
0
100
AcDbBlockReference
  2
block 68
 10
0.0
 20
0.0
 30
0.0
  0
INSERT
  5
221
330
1F
100
AcDbEntity
  8
0
100
AcDbBlockReference
  2
block 69
 10
0.0
 20
0.0
 30
0.0
  0
INSERT
  5
226
330
1F
100
AcDbEntity
  8
0
100
AcDbBlockReference
  2
block 70
 10
0.0
 20
0.0
 30
0.0
  0
INSERT
  5
22B
330
1F
100
AcDbEntity
  8
0
100
AcDbBlockReference
  2
block 71
 10
0.0
 20
0.0
 30
0.0
  0
INSERT
  5
234
330
1F
100
AcDbEntity
  8
0
100
AcDbBlockReference
  2
block 72
 10
0.0
 20
0.0
 30
0.0
  0
INSERT
  5
23D
330
1F
100
AcDbEntity
  8
0
100
AcDbBlockReference
  2
block 73
 10
0.0
 20
0.0
 30
0.0
  0
INSERT
  5
245
330
1F
100
AcDbEntity
  8
0
100
AcDbBlockReference
  2
block 74
 10
0.0
 20
0.0
 30
0.0
  0
INSERT
  5
24D
330
1F
100
AcDbEntity
  8
0
100
AcDbBlockReference
  2
block 75
 10
0.0
 20
0.0
 30
0.0
  0
INSERT
  5
252
330
1F
100
AcDbEntity
  8
0
100
AcDbBlockReference
  2
block 76
 10
0.0
 20
0.0
 30
0.0
  0
INSERT
  5
257
330
1F
100
AcDbEntity
  8
0
100
AcDbBlockReference
  2
block 77
 10
0.0
 20
0.0
 30
0.0
  0
INSERT
  5
25F
330
1F
100
AcDbEntity
  8
0
100
AcDbBlockReference
  2
block 78
 10
0.0
 20
0.0
 30
0.0
  0
INSERT
  5
267
330
1F
100
AcDbEntity
  8
0
100
AcDbBlockReference
  2
block 79
 10
0.0
 20
0.0
 30
0.0
  0
INSERT
  5
26F
330
1F
100
AcDbEntity
  8
0
100
AcDbBlockReference
  2
block 80
 10
0.0
 20
0.0
 30
0.0
  0
INSERT
  5
277
330
1F
100
AcDbEntity
  8
0
100
AcDbBlockReference
  2
block 81
 10
0.0
 20
0.0
 30
0.0
  0
INSERT
  5
27F
330
1F
100
AcDbEntity
  8
0
100
AcDbBlockReference
  2
block 82
 10
0.0
 20
0.0
 30
0.0
  0
INSERT
  5
287
330
1F
100
AcDbEntity
  8
0
100
AcDbBlockReference
  2
block 83
 10
0.0
 20
0.0
 30
0.0
  0
INSERT
  5
28F
330
1F
100
AcDbEntity
  8
0
100
AcDbBlockReference
  2
block 84
 10
0.0
 20
0.0
 30
0.0
  0
INSERT
  5
297
330
1F
100
AcDbEntity
  8
0
100
AcDbBlockReference
  2
block 85
 10
0.0
 20
0.0
 30
0.0
  0
INSERT
  5
29F
330
1F
100
AcDbEntity
  8
0
100
AcDbBlockReference
  2
block 86
 10
0.0
 20
0.0
 30
0.0
  0
INSERT
  5
2A7
330
1F
100
AcDbEntity
  8
0
100
AcDbBlockReference
  2
block 87
 10
0.0
 20
0.0
 30
0.0
  0
INSERT
  5
2AC
330
1F
100
AcDbEntity
  8
0
100
AcDbBlockReference
  2
block 88
 10
0.0
 20
0.0
 30
0.0
  0
INSERT
  5
2B1
330
1F
100
AcDbEntity
  8
0
100
AcDbBlockReference
  2
block 89
 10
0.0
 20
0.0
 30
0.0
  0
INSERT
  5
2B6
330
1F
100
AcDbEntity
  8
0
100
AcDbBlockReference
  2
block 90
 10
0.0
 20
0.0
 30
0.0
  0
INSERT
  5
2BB
330
1F
100
AcDbEntity
  8
0
100
AcDbBlockReference
  2
block 91
 10
0.0
 20
0.0
 30
0.0
  0
INSERT
  5
2C3
330
1F
100
AcDbEntity
  8
0
100
AcDbBlockReference
  2
block 92
 10
0.0
 20
0.0
 30
0.0
  0
INSERT
  5
2C8
330
1F
100
AcDbEntity
  8
0
100
AcDbBlockReference
  2
block 93
 10
0.0
 20
0.0
 30
0.0
  0
INSERT
  5
2D0
330
1F
100
AcDbEntity
  8
0
100
AcDbBlockReference
  2
block 94
 10
0.0
 20
0.0
 30
0.0
  0
INSERT
  5
2D5
330
1F
100
AcDbEntity
  8
0
100
AcDbBlockReference
  2
block 95
 10
0.0
 20
0.0
 30
0.0
  0
INSERT
  5
2F1
330
1F
100
AcDbEntity
  8
0
100
AcDbBlockReference
  2
block 96
 10
0.0
 20
0.0
 30
0.0
  0
INSERT
  5
2F6
330
1F
100
AcDbEntity
  8
0
100
AcDbBlockReference
  2
block 97
 10
0.0
 20
0.0
 30
0.0
  0
INSERT
  5
2FE
330
1F
100
AcDbEntity
  8
0
100
AcDbBlockReference
  2
block 98
 10
0.0
 20
0.0
 30
0.0
  0
INSERT
  5
306
330
1F
100
AcDbEntity
  8
0
100
AcDbBlockReference
  2
block 99
 10
0.0
 20
0.0
 30
0.0
  0
INSERT
  5
30E
330
1F
100
AcDbEntity
  8
0
100
AcDbBlockReference
  2
block 100
 10
0.0
 20
0.0
 30
0.0
  0
INSERT
  5
316
330
1F
100
AcDbEntity
  8
0
100
AcDbBlockReference
  2
block 101
 10
0.0
 20
0.0
 30
0.0
  0
INSERT
  5
32F
330
1F
100
AcDbEntity
  8
0
100
AcDbBlockReference
  2
block 102
 10
0.0
 20
0.0
 30
0.0
  0
INSERT
  5
337
330
1F
100
AcDbEntity
  8
0
100
AcDbBlockReference
  2
block 103
 10
0.0
 20
0.0
 30
0.0
  0
INSERT
  5
33F
330
1F
100
AcDbEntity
  8
0
100
AcDbBlockReference
  2
block 104
 10
0.0
 20
0.0
 30
0.0
  0
INSERT
  5
347
330
1F
100
AcDbEntity
  8
0
100
AcDbBlockReference
  2
block 105
 10
0.0
 20
0.0
 30
0.0
  0
INSERT
  5
34F
330
1F
100
AcDbEntity
  8
0
100
AcDbBlockReference
  2
block 106
 10
0.0
 20
0.0
 30
0.0
  0
INSERT
  5
357
330
1F
100
AcDbEntity
  8
0
100
AcDbBlockReference
  2
block 107
 10
0.0
 20
0.0
 30
0.0
  0
INSERT
  5
35F
330
1F
100
AcDbEntity
  8
0
100
AcDbBlockReference
  2
block 108
 10
0.0
 20
0.0
 30
0.0
  0
INSERT
  5
378
330
1F
100
AcDbEntity
  8
0
100
AcDbBlockReference
  2
block 109
 10
0.0
 20
0.0
 30
0.0
  0
INSERT
  5
380
330
1F
100
AcDbEntity
  8
0
100
AcDbBlockReference
  2
block 110
 10
0.0
 20
0.0
 30
0.0
  0
INSERT
  5
388
330
1F
100
AcDbEntity
  8
0
100
AcDbBlockReference
  2
block 111
 10
0.0
 20
0.0
 30
0.0
  0
INSERT
  5
390
330
1F
100
AcDbEntity
  8
0
100
AcDbBlockReference
  2
block 112
 10
0.0
 20
0.0
 30
0.0
  0
INSERT
  5
3A9
330
1F
100
AcDbEntity
  8
0
100
AcDbBlockReference
  2
block 113
 10
0.0
 20
0.0
 30
0.0
  0
INSERT
  5
3B1
330
1F
100
AcDbEntity
  8
0
100
AcDbBlockReference
  2
block 114
 10
0.0
 20
0.0
 30
0.0
  0
INSERT
  5
3B9
330
1F
100
AcDbEntity
  8
0
100
AcDbBlockReference
  2
block 115
 10
0.0
 20
0.0
 30
0.0
  0
INSERT
  5
3C1
330
1F
100
AcDbEntity
  8
0
100
AcDbBlockReference
  2
block 116
 10
0.0
 20
0.0
 30
0.0
  0
INSERT
  5
3C9
330
1F
100
AcDbEntity
  8
0
100
AcDbBlockReference
  2
block 117
 10
0.0
 20
0.0
 30
0.0
  0
INSERT
  5
3D1
330
1F
100
AcDbEntity
  8
0
100
AcDbBlockReference
  2
block 118
 10
0.0
 20
0.0
 30
0.0
  0
INSERT
  5
3D9
330
1F
100
AcDbEntity
  8
0
100
AcDbBlockReference
  2
block 119
 10
0.0
 20
0.0
 30
0.0
  0
INSERT
  5
428
330
1F
100
AcDbEntity
  8
0
100
AcDbBlockReference
  2
block 129
 10
0.0
 20
0.0
 30
0.0
  0
INSERT
  5
430
330
1F
100
AcDbEntity
  8
0
100
AcDbBlockReference
  2
block 130
 10
0.0
 20
0.0
 30
0.0
  0
INSERT
  5
438
330
1F
100
AcDbEntity
  8
0
100
AcDbBlockReference
  2
block 131
 10
0.0
 20
0.0
 30
0.0
  0
INSERT
  5
440
330
1F
100
AcDbEntity
  8
0
100
AcDbBlockReference
  2
block 132
 10
0.0
 20
0.0
 30
0.0
  0
INSERT
  5
448
330
1F
100
AcDbEntity
  8
0
100
AcDbBlockReference
  2
block 133
 10
0.0
 20
0.0
 30
0.0
  0
INSERT
  5
450
330
1F
100
AcDbEntity
  8
0
100
AcDbBlockReference
  2
block 134
 10
0.0
 20
0.0
 30
0.0
  0
INSERT
  5
458
330
1F
100
AcDbEntity
  8
0
100
AcDbBlockReference
  2
block 135
 10
0.0
 20
0.0
 30
0.0
  0
INSERT
  5
460
330
1F
100
AcDbEntity
  8
0
100
AcDbBlockReference
  2
block 136
 10
0.0
 20
0.0
 30
0.0
  0
INSERT
  5
468
330
1F
100
AcDbEntity
  8
0
100
AcDbBlockReference
  2
block 137
 10
0.0
 20
0.0
 30
0.0
  0
INSERT
  5
470
330
1F
100
AcDbEntity
  8
0
100
AcDbBlockReference
  2
block 138
 10
0.0
 20
0.0
 30
0.0
  0
INSERT
  5
475
330
1F
100
AcDbEntity
  8
0
100
AcDbBlockReference
  2
block 139
 10
0.0
 20
0.0
 30
0.0
  0
INSERT
  5
47A
330
1F
100
AcDbEntity
  8
0
100
AcDbBlockReference
  2
block 140
 10
0.0
 20
0.0
 30
0.0
  0
INSERT
  5
482
330
1F
100
AcDbEntity
  8
0
100
AcDbBlockReference
  2
block 141
 10
0.0
 20
0.0
 30
0.0
  0
INSERT
  5
48A
330
1F
100
AcDbEntity
  8
0
100
AcDbBlockReference
  2
block 142
 10
0.0
 20
0.0
 30
0.0
  0
INSERT
  5
492
330
1F
100
AcDbEntity
  8
0
100
AcDbBlockReference
  2
block 143
 10
0.0
 20
0.0
 30
0.0
  0
INSERT
  5
49A
330
1F
100
AcDbEntity
  8
0
100
AcDbBlockReference
  2
block 144
 10
0.0
 20
0.0
 30
0.0
  0
INSERT
  5
49F
330
1F
100
AcDbEntity
  8
0
100
AcDbBlockReference
  2
block 145
 10
0.0
 20
0.0
 30
0.0
  0
INSERT
  5
4A4
330
1F
100
AcDbEntity
  8
0
100
AcDbBlockReference
  2
block 146
 10
0.0
 20
0.0
 30
0.0
  0
INSERT
  5
4AD
330
1F
100
AcDbEntity
  8
0
100
AcDbBlockReference
  2
block 147
 10
0.0
 20
0.0
 30
0.0
  0
INSERT
  5
4B6
330
1F
100
AcDbEntity
  8
0
100
AcDbBlockReference
  2
block 148
 10
0.0
 20
0.0
 30
0.0
  0
INSERT
  5
4BF
330
1F
100
AcDbEntity
  8
0
100
AcDbBlockReference
  2
block 149
 10
0.0
 20
0.0
 30
0.0
  0
INSERT
  5
4C7
330
1F
100
AcDbEntity
  8
0
100
AcDbBlockReference
  2
block 150
 10
0.0
 20
0.0
 30
0.0
  0
INSERT
  5
4CF
330
1F
100
AcDbEntity
  8
0
100
AcDbBlockReference
  2
block 151
 10
0.0
 20
0.0
 30
0.0
  0
INSERT
  5
4D4
330
1F
100
AcDbEntity
  8
0
100
AcDbBlockReference
  2
block 152
 10
0.0
 20
0.0
 30
0.0
  0
INSERT
  5
4D9
330
1F
100
AcDbEntity
  8
0
100
AcDbBlockReference
  2
block 153
 10
0.0
 20
0.0
 30
0.0
  0
INSERT
  5
4E1
330
1F
100
AcDbEntity
  8
0
100
AcDbBlockReference
  2
block 154
 10
0.0
 20
0.0
 30
0.0
  0
INSERT
  5
4E9
330
1F
100
AcDbEntity
  8
0
100
AcDbBlockReference
  2
block 155
 10
0.0
 20
0.0
 30
0.0
  0
INSERT
  5
4F1
330
1F
100
AcDbEntity
  8
0
100
AcDbBlockReference
  2
block 156
 10
0.0
 20
0.0
 30
0.0
  0
INSERT
  5
4F9
330
1F
100
AcDbEntity
  8
0
100
AcDbBlockReference
  2
block 157
 10
0.0
 20
0.0
 30
0.0
  0
INSERT
  5
4FE
330
1F
100
AcDbEntity
  8
0
100
AcDbBlockReference
  2
block 158
 10
0.0
 20
0.0
 30
0.0
  0
INSERT
  5
503
330
1F
100
AcDbEntity
  8
0
100
AcDbBlockReference
  2
block 159
 10
0.0
 20
0.0
 30
0.0
  0
INSERT
  5
50B
330
1F
100
AcDbEntity
  8
0
100
AcDbBlockReference
  2
block 160
 10
0.0
 20
0.0
 30
0.0
  0
INSERT
  5
513
330
1F
100
AcDbEntity
  8
0
100
AcDbBlockReference
  2
block 161
 10
0.0
 20
0.0
 30
0.0
  0
INSERT
  5
51B
330
1F
100
AcDbEntity
  8
0
100
AcDbBlockReference
  2
block 162
 10
0.0
 20
0.0
 30
0.0
  0
INSERT
  5
523
330
1F
100
AcDbEntity
  8
0
100
AcDbBlockReference
  2
block 163
 10
0.0
 20
0.0
 30
0.0
  0
INSERT
  5
52B
330
1F
100
AcDbEntity
  8
0
100
AcDbBlockReference
  2
block 164
 10
0.0
 20
0.0
 30
0.0
  0
INSERT
  5
533
330
1F
100
AcDbEntity
  8
0
100
AcDbBlockReference
  2
block 165
 10
0.0
 20
0.0
 30
0.0
  0
INSERT
  5
538
330
1F
100
AcDbEntity
  8
0
100
AcDbBlockReference
  2
block 166
 10
0.0
 20
0.0
 30
0.0
  0
INSERT
  5
53D
330
1F
100
AcDbEntity
  8
0
100
AcDbBlockReference
  2
block 167
 10
0.0
 20
0.0
 30
0.0
  0
INSERT
  5
542
330
1F
100
AcDbEntity
  8
0
100
AcDbBlockReference
  2
block 168
 10
0.0
 20
0.0
 30
0.0
  0
INSERT
  5
547
330
1F
100
AcDbEntity
  8
0
100
AcDbBlockReference
  2
block 169
 10
0.0
 20
0.0
 30
0.0
  0
INSERT
  5
54C
330
1F
100
AcDbEntity
  8
0
100
AcDbBlockReference
  2
block 170
 10
0.0
 20
0.0
 30
0.0
  0
INSERT
  5
554
330
1F
100
AcDbEntity
  8
0
100
AcDbBlockReference
  2
block 171
 10
0.0
 20
0.0
 30
0.0
  0
INSERT
  5
56D
330
1F
100
AcDbEntity
  8
0
100
AcDbBlockReference
  2
block 172
 10
0.0
 20
0.0
 30
0.0
  0
INSERT
  5
575
330
1F
100
AcDbEntity
  8
0
100
AcDbBlockReference
  2
block 173
 10
0.0
 20
0.0
 30
0.0
  0
INSERT
  5
57D
330
1F
100
AcDbEntity
  8
0
100
AcDbBlockReference
  2
block 174
 10
0.0
 20
0.0
 30
0.0
  0
INSERT
  5
585
330
1F
100
AcDbEntity
  8
0
100
AcDbBlockReference
  2
block 175
 10
0.0
 20
0.0
 30
0.0
  0
INSERT
  5
58D
330
1F
100
AcDbEntity
  8
0
100
AcDbBlockReference
  2
block 176
 10
0.0
 20
0.0
 30
0.0
  0
INSERT
  5
595
330
1F
100
AcDbEntity
  8
0
100
AcDbBlockReference
  2
block 177
 10
0.0
 20
0.0
 30
0.0
  0
INSERT
  5
59D
330
1F
100
AcDbEntity
  8
0
100
AcDbBlockReference
  2
block 178
 10
0.0
 20
0.0
 30
0.0
  0
INSERT
  5
5A5
330
1F
100
AcDbEntity
  8
0
100
AcDbBlockReference
  2
block 179
 10
0.0
 20
0.0
 30
0.0
  0
INSERT
  5
5AD
330
1F
100
AcDbEntity
  8
0
100
AcDbBlockReference
  2
block 180
 10
0.0
 20
0.0
 30
0.0
  0
INSERT
  5
5B5
330
1F
100
AcDbEntity
  8
0
100
AcDbBlockReference
  2
block 181
 10
0.0
 20
0.0
 30
0.0
  0
INSERT
  5
5BD
330
1F
100
AcDbEntity
  8
0
100
AcDbBlockReference
  2
block 182
 10
0.0
 20
0.0
 30
0.0
  0
INSERT
  5
5D6
330
1F
100
AcDbEntity
  8
0
100
AcDbBlockReference
  2
block 183
 10
0.0
 20
0.0
 30
0.0
  0
INSERT
  5
5DE
330
1F
100
AcDbEntity
  8
0
100
AcDbBlockReference
  2
block 184
 10
0.0
 20
0.0
 30
0.0
  0
INSERT
  5
5E6
330
1F
100
AcDbEntity
  8
0
100
AcDbBlockReference
  2
block 185
 10
0.0
 20
0.0
 30
0.0
  0
INSERT
  5
5EE
330
1F
100
AcDbEntity
  8
0
100
AcDbBlockReference
  2
block 186
 10
0.0
 20
0.0
 30
0.0
  0
INSERT
  5
5F6
330
1F
100
AcDbEntity
  8
0
100
AcDbBlockReference
  2
block 187
 10
0.0
 20
0.0
 30
0.0
  0
INSERT
  5
5FE
330
1F
100
AcDbEntity
  8
0
100
AcDbBlockReference
  2
block 188
 10
0.0
 20
0.0
 30
0.0
  0
INSERT
  5
606
330
1F
100
AcDbEntity
  8
0
100
AcDbBlockReference
  2
block 189
 10
0.0
 20
0.0
 30
0.0
  0
INSERT
  5
60E
330
1F
100
AcDbEntity
  8
0
100
AcDbBlockReference
  2
block 190
 10
0.0
 20
0.0
 30
0.0
  0
INSERT
  5
627
330
1F
100
AcDbEntity
  8
0
100
AcDbBlockReference
  2
block 191
 10
0.0
 20
0.0
 30
0.0
  0
INSERT
  5
62F
330
1F
100
AcDbEntity
  8
0
100
AcDbBlockReference
  2
block 192
 10
0.0
 20
0.0
 30
0.0
  0
INSERT
  5
637
330
1F
100
AcDbEntity
  8
0
100
AcDbBlockReference
  2
block 193
 10
0.0
 20
0.0
 30
0.0
  0
INSERT
  5
63F
330
1F
100
AcDbEntity
  8
0
100
AcDbBlockReference
  2
block 194
 10
0.0
 20
0.0
 30
0.0
  0
INSERT
  5
647
330
1F
100
AcDbEntity
  8
0
100
AcDbBlockReference
  2
block 195
 10
0.0
 20
0.0
 30
0.0
  0
INSERT
  5
64F
330
1F
100
AcDbEntity
  8
0
100
AcDbBlockReference
  2
block 196
 10
0.0
 20
0.0
 30
0.0
  0
INSERT
  5
657
330
1F
100
AcDbEntity
  8
0
100
AcDbBlockReference
  2
block 197
 10
0.0
 20
0.0
 30
0.0
  0
INSERT
  5
670
330
1F
100
AcDbEntity
  8
0
100
AcDbBlockReference
  2
block 198
 10
0.0
 20
0.0
 30
0.0
  0
INSERT
  5
678
330
1F
100
AcDbEntity
  8
0
100
AcDbBlockReference
  2
block 199
 10
0.0
 20
0.0
 30
0.0
  0
INSERT
  5
680
330
1F
100
AcDbEntity
  8
0
100
AcDbBlockReference
  2
block 200
 10
0.0
 20
0.0
 30
0.0
  0
INSERT
  5
688
330
1F
100
AcDbEntity
  8
0
100
AcDbBlockReference
  2
block 201
 10
0.0
 20
0.0
 30
0.0
  0
INSERT
  5
690
330
1F
100
AcDbEntity
  8
0
100
AcDbBlockReference
  2
block 202
 10
0.0
 20
0.0
 30
0.0
  0
INSERT
  5
698
330
1F
100
AcDbEntity
  8
0
100
AcDbBlockReference
  2
block 203
 10
0.0
 20
0.0
 30
0.0
  0
INSERT
  5
6A0
330
1F
100
AcDbEntity
  8
0
100
AcDbBlockReference
  2
block 204
 10
0.0
 20
0.0
 30
0.0
  0
ENDSEC
  0
SECTION
  2
OBJECTS
  0
DICTIONARY
  5
C
330
0
100
AcDbDictionary
281
     1
  3
ACAD_GROUP
350
D
  3
ACAD_LAYOUT
350
1A
  3
ACAD_MLINESTYLE
350
17
  3
ACAD_PLOTSETTINGS
350
19
  3
ACAD_PLOTSTYLENAME
350
E
  3
ACAD_TABLESTYLE
350
6EF
  3
ACAD_VISUALSTYLE
350
2A
  0
DICTIONARY
  5
D
102
{ACAD_REACTORS
330
C
102
}
330
C
100
AcDbDictionary
281
     1
  0
DICTIONARY
  5
1A
102
{ACAD_REACTORS
330
C
102
}
330
C
100
AcDbDictionary
281
     1
  3
Layout1
350
1E
  3
Layout2
350
26
  3
Model
350
22
  0
DICTIONARY
  5
17
102
{ACAD_REACTORS
330
C
102
}
330
C
100
AcDbDictionary
281
     1
  3
Standard
350
18
  0
DICTIONARY
  5
19
102
{ACAD_REACTORS
330
C
102
}
330
C
100
AcDbDictionary
281
     1
  0
ACDBDICTIONARYWDFLT
  5
E
102
{ACAD_REACTORS
330
C
102
}
330
C
100
AcDbDictionary
281
     1
  3
Normal
350
F
100
AcDbDictionaryWithDefault
340
F
  0
DICTIONARY
  5
6EF
102
{ACAD_REACTORS
330
C
102
}
330
C
100
AcDbDictionary
281
     1
  0
DICTIONARY
  5
2A
102
{ACAD_REACTORS
330
C
102
}
330
C
100
AcDbDictionary
281
     1
  3
2dWireframe
350
2F
  3
3D Hidden
350
31
  3
3dWireframe
350
30
  3
Basic
350
32
  3
Brighten
350
36
  3
ColorChange
350
3A
  3
Conceptual
350
34
  3
Dim
350
35
  3
Facepattern
350
39
  3
Flat
350
2B
  3
FlatWithEdges
350
2C
  3
Gouraud
350
2D
  3
GouraudWithEdges
350
2E
  3
Linepattern
350
38
  3
Realistic
350
33
  3
Thicken
350
37
  0
LAYOUT
  5
1E
102
{ACAD_REACTORS
330
1A
102
}
330
1A
100
AcDbPlotSettings
  1

  2
none_device
  4

  6

 40
0.0
 41
0.0
 42
0.0
 43
0.0
 44
0.0
 45
0.0
 46
0.0
 47
0.0
 48
0.0
 49
0.0
140
0.0
141
0.0
142
1.0
143
1.0
 70
   688
 72
     0
 73
     0
 74
     5
  7

 75
    16
 76
     0
 77
     2
 78
   300
147
1.0
148
0.0
149
0.0
100
AcDbLayout
  1
Layout1
 70
     1
 71
     1
 10
0.0
 20
0.0
 11
12.0
 21
9.0
 12
0.0
 22
0.0
 32
0.0
 14
1.000000000000000E+20
 24
1.000000000000000E+20
 34
1.000000000000000E+20
 15
-1.000000000000000E+20
 25
-1.000000000000000E+20
 35
-1.000000000000000E+20
146
0.0
 13
0.0
 23
0.0
 33
0.0
 16
1.0
 26
0.0
 36
0.0
 17
0.0
 27
1.0
 37
0.0
 76
     0
330
1B
  0
LAYOUT
  5
26
102
{ACAD_REACTORS
330
1A
102
}
330
1A
100
AcDbPlotSettings
  1

  2
none_device
  4

  6

 40
0.0
 41
0.0
 42
0.0
 43
0.0
 44
0.0
 45
0.0
 46
0.0
 47
0.0
 48
0.0
 49
0.0
140
0.0
141
0.0
142
1.0
143
1.0
 70
   688
 72
     0
 73
     0
 74
     5
  7

 75
    16
 76
     0
 77
     2
 78
   300
147
1.0
148
0.0
149
0.0
100
AcDbLayout
  1
Layout2
 70
     1
 71
     2
 10
0.0
 20
0.0
 11
0.0
 21
0.0
 12
0.0
 22
0.0
 32
0.0
 14
0.0
 24
0.0
 34
0.0
 15
0.0
 25
0.0
 35
0.0
146
0.0
 13
0.0
 23
0.0
 33
0.0
 16
1.0
 26
0.0
 36
0.0
 17
0.0
 27
1.0
 37
0.0
 76
     0
330
23
  0
LAYOUT
  5
22
102
{ACAD_REACTORS
330
1A
102
}
330
1A
100
AcDbPlotSettings
  1

  2
none_device
  4

  6

 40
0.0
 41
0.0
 42
0.0
 43
0.0
 44
0.0
 45
0.0
 46
0.0
 47
0.0
 48
0.0
 49
0.0
140
0.0
141
0.0
142
1.0
143
1.0
 70
  1712
 72
     0
 73
     0
 74
     0
  7

 75
     0
 76
     0
 77
     2
 78
   300
147
1.0
148
0.0
149
0.0
100
AcDbLayout
  1
Model
 70
     1
 71
     0
 10
0.0
 20
0.0
 11
12.0
 21
9.0
 12
0.0
 22
0.0
 32
0.0
 14
1.000000000000000E+20
 24
1.000000000000000E+20
 34
1.000000000000000E+20
 15
-1.000000000000000E+20
 25
-1.000000000000000E+20
 35
-1.000000000000000E+20
146
0.0
 13
0.0
 23
0.0
 33
0.0
 16
1.0
 26
0.0
 36
0.0
 17
0.0
 27
1.0
 37
0.0
 76
     0
330
1F
331
29
  0
MLINESTYLE
  5
18
102
{ACAD_REACTORS
330
17
102
}
330
17
100
AcDbMlineStyle
  2
Standard
 70
     0
  3

 62
   256
 51
90.0
 52
90.0
 71
     2
 49
0.5
 62
   256
  6
BYLAYER
 49
-0.5
 62
   256
  6
BYLAYER
  0
ACDBPLACEHOLDER
  5
F
102
{ACAD_REACTORS
330
E
102
}
330
E
  0
VISUALSTYLE
  5
2F
102
{ACAD_REACTORS
330
2A
102
}
330
2A
100
AcDbVisualStyle
  2
2dWireframe
 70
     4
 71
     0
 72
     2
 73
     0
 90
        0
 40
-0.6
 41
-30.0
 62
     5
 63
     7
421
 16777215
 74
     1
 91
        4
 64
     7
 65
   257
 75
     1
175
     1
 42
1.0
 92
        0
 66
   257
 43
1.0
 76
     1
 77
     6
 78
     2
 67
     7
 79
     5
170
     0
171
     0
290
     0
174
     0
 93
        1
 44
0.0
173
     0
291
     0
 45
0.0
1001
ACAD
1000
AcDbSavedByObjectVersion
1070
     0
  0
VISUALSTYLE
  5
31
102
{ACAD_REACTORS
330
2A
102
}
330
2A
100
AcDbVisualStyle
  2
3D Hidden
 70
     6
 71
     1
 72
     2
 73
     2
 90
        0
 40
-0.6
 41
-30.0
 62
     5
 63
     7
421
 16777215
 74
     2
 91
        2
 64
     7
 65
   257
 75
     2
175
     1
 42
40.0
 92
        0
 66
   257
 43
1.0
 76
     1
 77
     6
 78
     2
 67
     7
 79
     3
170
     0
171
     0
290
     0
174
     0
 93
        1
 44
0.0
173
     0
291
     0
 45
0.0
1001
ACAD
1000
AcDbSavedByObjectVersion
1070
     0
  0
VISUALSTYLE
  5
30
102
{ACAD_REACTORS
330
2A
102
}
330
2A
100
AcDbVisualStyle
  2
3dWireframe
 70
     5
 71
     0
 72
     2
 73
     0
 90
        0
 40
-0.6
 41
-30.0
 62
     5
 63
     7
421
 16777215
 74
     1
 91
        4
 64
     7
 65
   257
 75
     1
175
     1
 42
1.0
 92
        0
 66
   257
 43
1.0
 76
     1
 77
     6
 78
     2
 67
     7
 79
     5
170
     0
171
     0
290
     0
174
     0
 93
        1
 44
0.0
173
     0
291
     0
 45
0.0
1001
ACAD
1000
AcDbSavedByObjectVersion
1070
     0
  0
VISUALSTYLE
  5
32
102
{ACAD_REACTORS
330
2A
102
}
330
2A
100
AcDbVisualStyle
  2
Basic
 70
     7
 71
     1
 72
     0
 73
     1
 90
        0
 40
-0.6
 41
-30.0
 62
     5
 63
     7
421
 16777215
 74
     0
 91
        4
 64
     7
 65
   257
 75
     1
175
     1
 42
1.0
 92
        8
 66
     7
 43
1.0
 76
     1
 77
     6
 78
     2
 67
     7
 79
     5
170
     0
171
     0
290
     0
174
     0
 93
        1
 44
0.0
173
     0
291
     1
 45
0.0
1001
ACAD
1000
AcDbSavedByObjectVersion
1070
     0
  0
VISUALSTYLE
  5
36
102
{ACAD_REACTORS
330
2A
102
}
330
2A
100
AcDbVisualStyle
  2
Brighten
 70
    12
 71
     2
 72
     2
 73
     0
 90
        0
 40
-0.6
 41
-30.0
 62
     5
 63
     7
421
 16777215
 74
     1
 91
        4
 64
     7
 65
   257
 75
     1
175
     1
 42
1.0
 92
        8
 66
     7
 43
1.0
 76
     1
 77
     6
 78
     2
 67
     7
 79
     5
170
     0
171
     0
290
     0
174
     0
 93
        1
 44
50.0
173
     0
291
     1
 45
0.0
1001
ACAD
1000
AcDbSavedByObjectVersion
1070
     0
  0
VISUALSTYLE
  5
3A
102
{ACAD_REACTORS
330
2A
102
}
330
2A
100
AcDbVisualStyle
  2
ColorChange
 70
    16
 71
     2
 72
     2
 73
     3
 90
        0
 40
-0.6
 41
-30.0
 62
     5
 63
     8
421
  8421504
 74
     1
 91
        4
 64
     7
 65
   257
 75
     1
175
     1
 42
1.0
 92
        8
 66
     8
424
  8421504
 43
1.0
 76
     1
 77
     6
 78
     2
 67
     7
 79
     5
170
     0
171
     0
290
     0
174
     0
 93
        1
 44
0.0
173
     0
291
     1
 45
0.0
1001
ACAD
1000
AcDbSavedByObjectVersion
1070
     0
  0
VISUALSTYLE
  5
34
102
{ACAD_REACTORS
330
2A
102
}
330
2A
100
AcDbVisualStyle
  2
Conceptual
 70
     9
 71
     3
 72
     2
 73
     0
 90
        0
 40
-0.6
 41
-30.0
 62
     5
 63
     7
421
 16777215
 74
     2
 91
        2
 64
     7
 65
   257
 75
     1
175
     1
 42
40.0
 92
        8
 66
     7
 43
1.0
 76
     1
 77
     6
 78
     2
 67
     7
 79
     3
170
     0
171
     0
290
     0
174
     0
 93
        1
 44
0.0
173
     0
291
     0
 45
0.0
1001
ACAD
1000
AcDbSavedByObjectVersion
1070
     0
  0
VISUALSTYLE
  5
35
102
{ACAD_REACTORS
330
2A
102
}
330
2A
100
AcDbVisualStyle
  2
Dim
 70
    11
 71
     2
 72
     2
 73
     0
 90
        0
 40
-0.6
 41
-30.0
 62
     5
 63
     7
421
 16777215
 74
     1
 91
        4
 64
     7
 65
   257
 75
     1
175
     1
 42
1.0
 92
        8
 66
     7
 43
1.0
 76
     1
 77
     6
 78
     2
 67
     7
 79
     5
170
     0
171
     0
290
     0
174
     0
 93
        1
 44
-50.0
173
     0
291
     1
 45
0.0
1001
ACAD
1000
AcDbSavedByObjectVersion
1070
     0
  0
VISUALSTYLE
  5
39
102
{ACAD_REACTORS
330
2A
102
}
330
2A
100
AcDbVisualStyle
  2
Facepattern
 70
    15
 71
     2
 72
     2
 73
     0
 90
        0
 40
-0.6
 41
-30.0
 62
     5
 63
     7
421
 16777215
 74
     1
 91
        4
 64
     7
 65
   257
 75
     1
175
     1
 42
1.0
 92
        8
 66
     7
 43
1.0
 76
     1
 77
     6
 78
     2
 67
     7
 79
     5
170
     0
171
     0
290
     0
174
     0
 93
        1
 44
0.0
173
     0
291
     1
 45
0.0
1001
ACAD
1000
AcDbSavedByObjectVersion
1070
     0
  0
VISUALSTYLE
  5
2B
102
{ACAD_REACTORS
330
2A
102
}
330
2A
100
AcDbVisualStyle
  2
Flat
 70
     0
 71
     2
 72
     1
 73
     1
 90
        2
 40
-0.6
 41
30.0
 62
     5
 63
     7
421
 16777215
 74
     0
 91
        4
 64
     7
 65
   257
 75
     1
175
     1
 42
1.0
 92
        8
 66
     7
 43
1.0
 76
     1
 77
     6
 78
     2
 67
     7
 79
     5
170
     0
171
     0
290
     0
174
     0
 93
       13
 44
0.0
173
     0
291
     1
 45
0.0
1001
ACAD
1000
AcDbSavedByObjectVersion
1070
     0
  0
VISUALSTYLE
  5
2C
102
{ACAD_REACTORS
330
2A
102
}
330
2A
100
AcDbVisualStyle
  2
FlatWithEdges
 70
     1
 71
     2
 72
     1
 73
     1
 90
        2
 40
-0.6
 41
30.0
 62
     5
 63
     7
421
 16777215
 74
     1
 91
        4
 64
     7
 65
   257
 75
     1
175
     1
 42
1.0
 92
        0
 66
   257
 43
1.0
 76
     1
 77
     6
 78
     2
 67
     7
 79
     5
170
     0
171
     0
290
     0
174
     0
 93
       13
 44
0.0
173
     0
291
     1
 45
0.0
1001
ACAD
1000
AcDbSavedByObjectVersion
1070
     0
  0
VISUALSTYLE
  5
2D
102
{ACAD_REACTORS
330
2A
102
}
330
2A
100
AcDbVisualStyle
  2
Gouraud
 70
     2
 71
     2
 72
     2
 73
     1
 90
        2
 40
-0.6
 41
30.0
 62
     5
 63
     7
421
 16777215
 74
     0
 91
        4
 64
     7
 65
   257
 75
     1
175
     1
 42
1.0
 92
        0
 66
     7
 43
1.0
 76
     1
 77
     6
 78
     2
 67
     7
 79
     5
170
     0
171
     0
290
     0
174
     0
 93
       13
 44
0.0
173
     0
291
     1
 45
0.0
1001
ACAD
1000
AcDbSavedByObjectVersion
1070
     0
  0
VISUALSTYLE
  5
2E
102
{ACAD_REACTORS
330
2A
102
}
330
2A
100
AcDbVisualStyle
  2
GouraudWithEdges
 70
     3
 71
     2
 72
     2
 73
     1
 90
        2
 40
-0.6
 41
30.0
 62
     5
 63
     7
421
 16777215
 74
     1
 91
        4
 64
     7
 65
   257
 75
     1
175
     1
 42
1.0
 92
        0
 66
   257
 43
1.0
 76
     1
 77
     6
 78
     2
 67
     7
 79
     5
170
     0
171
     0
290
     0
174
     0
 93
       13
 44
0.0
173
     0
291
     1
 45
0.0
1001
ACAD
1000
AcDbSavedByObjectVersion
1070
     0
  0
VISUALSTYLE
  5
38
102
{ACAD_REACTORS
330
2A
102
}
330
2A
100
AcDbVisualStyle
  2
Linepattern
 70
    14
 71
     2
 72
     2
 73
     0
 90
        0
 40
-0.6
 41
-30.0
 62
     5
 63
     7
421
 16777215
 74
     1
 91
        4
 64
     7
 65
   257
 75
     7
175
     7
 42
1.0
 92
        8
 66
     7
 43
1.0
 76
     1
 77
     6
 78
     2
 67
     7
 79
     5
170
     0
171
     0
290
     0
174
     0
 93
        1
 44
0.0
173
     0
291
     1
 45
0.0
1001
ACAD
1000
AcDbSavedByObjectVersion
1070
     0
  0
VISUALSTYLE
  5
33
102
{ACAD_REACTORS
330
2A
102
}
330
2A
100
AcDbVisualStyle
  2
Realistic
 70
     8
 71
     2
 72
     2
 73
     0
 90
        0
 40
-0.6
 41
-30.0
 62
     5
 63
     7
421
 16777215
 74
     1
 91
        0
 64
     7
 65
   257
 75
     1
175
     1
 42
1.0
 92
        8
 66
     8
424
  7895160
 43
1.0
 76
     1
 77
     6
 78
     2
 67
     7
 79
     5
170
     0
171
     0
290
     0
174
     0
 93
       13
 44
0.0
173
     0
291
     0
 45
0.0
1001
ACAD
1000
AcDbSavedByObjectVersion
1070
     0
  0
VISUALSTYLE
  5
37
102
{ACAD_REACTORS
330
2A
102
}
330
2A
100
AcDbVisualStyle
  2
Thicken
 70
    13
 71
     2
 72
     2
 73
     0
 90
        0
 40
-0.6
 41
-30.0
 62
     5
 63
     7
421
 16777215
 74
     1
 91
        4
 64
     7
 65
   257
 75
     1
175
     1
 42
1.0
 92
       12
 66
     7
 43
1.0
 76
     1
 77
     6
 78
     2
 67
     7
 79
     5
170
     0
171
     0
290
     0
174
     0
 93
        1
 44
0.0
173
     0
291
     1
 45
0.0
1001
ACAD
1000
AcDbSavedByObjectVersion
1070
     0
  0
ENDSEC
  0
EOF
