  0
SECTION
  2
HEADER
  9
$ACADVER
  1
AC1018
  9
$ACADMAINTVER
 70
     0
  9
$DWGCODEPAGE
  3
ASCII
  9
$INSBASE
 10
0.0
 20
0.0
 30
0.0
  9
$EXTMIN
 10
1.000000000000000E+20
 20
1.000000000000000E+20
 30
1.000000000000000E+20
  9
$EXTMAX
 10
-1.000000000000000E+20
 20
-1.000000000000000E+20
 30
-1.000000000000000E+20
  9
$LIMMIN
 10
0.0
 20
0.0
  9
$LIMMAX
 10
12.0
 20
9.0
  9
$ORTHOMODE
 70
     0
  9
$REGENMODE
 70
     1
  9
$FILLMODE
 70
     1
  9
$QTEXTMODE
 70
     0
  9
$MIRRTEXT
 70
     1
  9
$LTSCALE
 40
1.0
  9
$ATTMODE
 70
     1
  9
$TEXTSIZE
 40
0.2
  9
$TRACEWID
 40
0.05
  9
$TEXTSTYLE
  7
Standard
  9
$CLAYER
  8
0
  9
$CELTYPE
  6
ByLayer
  9
$CECOLOR
 62
   256
  9
$CELTSCALE
 40
1.0
  9
$DISPSILH
 70
     0
  9
$DIMSCALE
 40
1.0
  9
$DIMASZ
 40
0.18
  9
$DIMEXO
 40
0.0625
  9
$DIMDLI
 40
0.38
  9
$DIMRND
 40
0.0
  9
$DIMDLE
 40
0.0
  9
$DIMEXE
 40
0.18
  9
$DIMTP
 40
0.0
  9
$DIMTM
 40
0.0
  9
$DIMTXT
 40
0.18
  9
$DIMCEN
 40
0.09
  9
$DIMTSZ
 40
0.0
  9
$DIMTOL
 70
     0
  9
$DIMLIM
 70
     0
  9
$DIMTIH
 70
     1
  9
$DIMTOH
 70
     1
  9
$DIMSE1
 70
     0
  9
$DIMSE2
 70
     0
  9
$DIMTAD
 70
     0
  9
$DIMZIN
 70
     0
  9
$DIMBLK
  1

  9
$DIMASO
 70
     1
  9
$DIMSHO
 70
     1
  9
$DIMPOST
  1

  9
$DIMAPOST
  1

  9
$DIMALT
 70
     0
  9
$DIMALTD
 70
     2
  9
$DIMALTF
 40
25.4
  9
$DIMLFAC
 40
1.0
  9
$DIMTOFL
 70
     0
  9
$DIMTVP
 40
0.0
  9
$DIMTIX
 70
     0
  9
$DIMSOXD
 70
     0
  9
$DIMSAH
 70
     0
  9
$DIMBLK1
  1

  9
$DIMBLK2
  1

  9
$DIMSTYLE
  2
Standard
  9
$DIMCLRD
 70
     0
  9
$DIMCLRE
 70
     0
  9
$DIMCLRT
 70
     0
  9
$DIMTFAC
 40
1.0
  9
$DIMGAP
 40
0.09
  9
$DIMJUST
 70
     0
  9
$DIMSD1
 70
     0
  9
$DIMSD2
 70
     0
  9
$DIMTOLJ
 70
     1
  9
$DIMTZIN
 70
     0
  9
$DIMALTZ
 70
     0
  9
$DIMALTTZ
 70
     0
  9
$DIMUPT
 70
     0
  9
$DIMDEC
 70
     4
  9
$DIMTDEC
 70
     4
  9
$DIMALTU
 70
     2
  9
$DIMALTTD
 70
     2
  9
$DIMTXSTY
  7
Standard
  9
$DIMAUNIT
 70
     0
  9
$DIMADEC
 70
     0
  9
$DIMALTRND
 40
0.0
  9
$DIMAZIN
 70
     0
  9
$DIMDSEP
 70
    46
  9
$DIMATFIT
 70
     3
  9
$DIMFRAC
 70
     0
  9
$DIMLDRBLK
  1

  9
$DIMLUNIT
 70
     2
  9
$DIMLWD
 70
    -2
  9
$DIMLWE
 70
    -2
  9
$DIMTMOVE
 70
     0
  9
$LUNITS
 70
     2
  9
$LUPREC
 70
     4
  9
$SKETCHINC
 40
0.1
  9
$FILLETRAD
 40
0.5
  9
$AUNITS
 70
     0
  9
$AUPREC
 70
     0
  9
$MENU
  1
.
  9
$ELEVATION
 40
0.0
  9
$PELEVATION
 40
0.0
  9
$THICKNESS
 40
0.0
  9
$LIMCHECK
 70
     0
  9
$CHAMFERA
 40
0.5
  9
$CHAMFERB
 40
0.5
  9
$CHAMFERC
 40
1.0
  9
$CHAMFERD
 40
0.0
  9
$SKPOLY
 70
     0
  9
$TDCREATE
 40
2456966.970200914
  9
$TDUCREATE
 40
2456966.928534248
  9
$TDUPDATE
 40
2456966.970200926
  9
$TDUUPDATE
 40
2456966.928534259
  9
$TDINDWG
 40
0.0000000116
  9
$TDUSRTIMER
 40
0.0000000116
  9
$USRTIMER
 70
     1
  9
$ANGBASE
 50
0.0
  9
$ANGDIR
 70
     0
  9
$PDMODE
 70
     0
  9
$PDSIZE
 40
0.0
  9
$PLINEWID
 40
0.0
  9
$SPLFRAME
 70
     0
  9
$SPLINETYPE
 70
     6
  9
$SPLINESEGS
 70
     8
  9
$HANDSEED
  5
217
  9
$SURFTAB1
 70
     6
  9
$SURFTAB2
 70
     6
  9
$SURFTYPE
 70
     6
  9
$SURFU
 70
     6
  9
$SURFV
 70
     6
  9
$UCSBASE
  2

  9
$UCSNAME
  2

  9
$UCSORG
 10
0.0
 20
0.0
 30
0.0
  9
$UCSXDIR
 10
1.0
 20
0.0
 30
0.0
  9
$UCSYDIR
 10
0.0
 20
1.0
 30
0.0
  9
$UCSORTHOREF
  2

  9
$UCSORTHOVIEW
 70
     0
  9
$UCSORGTOP
 10
0.0
 20
0.0
 30
0.0
  9
$UCSORGBOTTOM
 10
0.0
 20
0.0
 30
0.0
  9
$UCSORGLEFT
 10
0.0
 20
0.0
 30
0.0
  9
$UCSORGRIGHT
 10
0.0
 20
0.0
 30
0.0
  9
$UCSORGFRONT
 10
0.0
 20
0.0
 30
0.0
  9
$UCSORGBACK
 10
0.0
 20
0.0
 30
0.0
  9
$PUCSBASE
  2

  9
$PUCSNAME
  2

  9
$PUCSORG
 10
0.0
 20
0.0
 30
0.0
  9
$PUCSXDIR
 10
1.0
 20
0.0
 30
0.0
  9
$PUCSYDIR
 10
0.0
 20
1.0
 30
0.0
  9
$PUCSORTHOREF
  2

  9
$PUCSORTHOVIEW
 70
     0
  9
$PUCSORGTOP
 10
0.0
 20
0.0
 30
0.0
  9
$PUCSORGBOTTOM
 10
0.0
 20
0.0
 30
0.0
  9
$PUCSORGLEFT
 10
0.0
 20
0.0
 30
0.0
  9
$PUCSORGRIGHT
 10
0.0
 20
0.0
 30
0.0
  9
$PUCSORGFRONT
 10
0.0
 20
0.0
 30
0.0
  9
$PUCSORGBACK
 10
0.0
 20
0.0
 30
0.0
  9
$USERI1
 70
     0
  9
$USERI2
 70
     0
  9
$USERI3
 70
     0
  9
$USERI4
 70
     0
  9
$USERI5
 70
     0
  9
$USERR1
 40
0.0
  9
$USERR2
 40
0.0
  9
$USERR3
 40
0.0
  9
$USERR4
 40
0.0
  9
$USERR5
 40
0.0
  9
$WORLDVIEW
 70
     1
  9
$SHADEDGE
 70
     3
  9
$SHADEDIF
 70
    70
  9
$TILEMODE
 70
     1
  9
$MAXACTVP
 70
    64
  9
$PINSBASE
 10
0.0
 20
0.0
 30
0.0
  9
$PLIMCHECK
 70
     0
  9
$PEXTMIN
 10
1.000000000000000E+20
 20
1.000000000000000E+20
 30
1.000000000000000E+20
  9
$PEXTMAX
 10
-1.000000000000000E+20
 20
-1.000000000000000E+20
 30
-1.000000000000000E+20
  9
$PLIMMIN
 10
0.0
 20
0.0
  9
$PLIMMAX
 10
12.0
 20
9.0
  9
$UNITMODE
 70
     0
  9
$VISRETAIN
 70
     1
  9
$PLINEGEN
 70
     0
  9
$PSLTSCALE
 70
     1
  9
$TREEDEPTH
 70
  3020
  9
$CMLSTYLE
  2
Standard
  9
$CMLJUST
 70
     0
  9
$CMLSCALE
 40
1.0
  9
$PROXYGRAPHICS
 70
     1
  9
$MEASUREMENT
 70
     0
  9
$CELWEIGHT
370
    -1
  9
$ENDCAPS
280
     0
  9
$JOINSTYLE
280
     0
  9
$LWDISPLAY
290
     1
  9
$INSUNITS
 70
     1
  9
$HYPERLINKBASE
  1

  9
$STYLESHEET
  1

  9
$XEDIT
290
     1
  9
$CEPSNTYPE
380
     0
  9
$PSTYLEMODE
290
     1
  9
$FINGERPRINTGUID
  2
{0D5542F5-17F3-4CAD-B1A6-7669CD6E37DC}
  9
$VERSIONGUID
  2
{FAEB1C32-E019-11D5-929B-00C0DF256EC4}
  9
$EXTNAMES
290
     1
  9
$PSVPSCALE
 40
0.0
  9
$OLESTARTUP
290
     0
  9
$SORTENTS
280
   127
  9
$INDEXCTL
280
     0
  9
$HIDETEXT
280
     1
  9
$XCLIPFRAME
290
     0
  9
$HALOGAP
280
     0
  9
$OBSCOLOR
 70
   257
  9
$OBSLTYPE
280
     0
  9
$INTERSECTIONDISPLAY
280
     0
  9
$INTERSECTIONCOLOR
 70
   257
  9
$DIMASSOC
280
     2
  9
$PROJECTNAME
  1

  0
ENDSEC
  0
SECTION
  2
CLASSES
  0
CLASS
  1
ACDBDICTIONARYWDFLT
  2
AcDbDictionaryWithDefault
  3
ObjectDBX Classes
 90
        0
 91
        3
280
     0
281
     0
  0
CLASS
  1
VISUALSTYLE
  2
AcDbVisualStyle
  3
ObjectDBX Classes
 90
     4095
 91
        3
280
     0
281
     0
  0
ENDSEC
  0
SECTION
  2
TABLES
  0
TABLE
  2
VPORT
  5
8
330
0
100
AcDbSymbolTable
 70
     1
  0
VPORT
  5
29
330
8
100
AcDbSymbolTableRecord
100
AcDbViewportTableRecord
  2
*Active
 70
     0
 10
0.0
 20
0.0
 11
1.0
 21
1.0
 12
0.0
 22
0.0
 13
0.0
 23
0.0
 14
0.5
 24
0.5
 15
0.5
 25
0.5
 16
0.0
 26
0.0
 36
1.0
 17
105.0008952513716
 27
148.5000775824991
 37
0.0
 40
297.0001551649982
 41
0.7070763662937379
 42
50.0
 43
0.0
 44
0.0
 50
0.0
 51
0.0
 71
     0
 72
   100
 73
     1
 74
     3
 75
     0
 76
     0
 77
     0
 78
     0
281
     0
 65
     1
110
0.0
120
0.0
130
0.0
111
1.0
121
0.0
131
0.0
112
0.0
122
1.0
132
0.0
 79
     0
146
0.0
  0
ENDTAB
  0
TABLE
  2
LTYPE
  5
5
330
0
100
AcDbSymbolTable
 70
     1
  0
LTYPE
  5
14
330
5
100
AcDbSymbolTableRecord
100
AcDbLinetypeTableRecord
  2
ByBlock
 70
     0
  3

 72
    65
 73
     0
 40
0.0
  0
LTYPE
  5
15
330
5
100
AcDbSymbolTableRecord
100
AcDbLinetypeTableRecord
  2
ByLayer
 70
     0
  3

 72
    65
 73
     0
 40
0.0
  0
LTYPE
  5
16
330
5
100
AcDbSymbolTableRecord
100
AcDbLinetypeTableRecord
  2
Continuous
 70
     0
  3
Solid line
 72
    65
 73
     0
 40
0.0
  0
ENDTAB
  0
TABLE
  2
LAYER
  5
2
330
0
100
AcDbSymbolTable
 70
     2
  0
LAYER
  5
10
330
2
100
AcDbSymbolTableRecord
100
AcDbLayerTableRecord
  2
0
 70
     0
 62
     7
  6
Continuous
370
    -3
390
F
  0
LAYER
  5
3B
330
2
100
AcDbSymbolTableRecord
100
AcDbLayerTableRecord
  2
Capa 1
 70
     0
 62
     7
  6
Continuous
370
    -3
390
F
  0
ENDTAB
  0
TABLE
  2
STYLE
  5
3
330
0
100
AcDbSymbolTable
 70
     1
  0
STYLE
  5
11
330
3
100
AcDbSymbolTableRecord
100
AcDbTextStyleTableRecord
  2
Standard
 70
     0
 40
0.0
 41
1.0
 50
0.0
 71
     0
 42
0.2
  3
txt
  4

  0
ENDTAB
  0
TABLE
  2
VIEW
  5
6
330
0
100
AcDbSymbolTable
 70
     0
  0
ENDTAB
  0
TABLE
  2
UCS
  5
7
330
0
100
AcDbSymbolTable
 70
     0
  0
ENDTAB
  0
TABLE
  2
APPID
  5
9
330
0
100
AcDbSymbolTable
 70
     1
  0
APPID
  5
12
330
9
100
AcDbSymbolTableRecord
100
AcDbRegAppTableRecord
  2
ACAD
 70
     0
  0
ENDTAB
  0
TABLE
  2
DIMSTYLE
  5
A
330
0
100
AcDbSymbolTable
 70
     1
100
AcDbDimStyleTable
  0
DIMSTYLE
105
27
330
A
100
AcDbSymbolTableRecord
100
AcDbDimStyleTableRecord
  2
Standard
 70
     0
340
11
  0
ENDTAB
  0
TABLE
  2
BLOCK_RECORD
  5
1
330
0
100
AcDbSymbolTable
 70
     4
  0
BLOCK_RECORD
  5
1F
330
1
100
AcDbSymbolTableRecord
100
AcDbBlockTableRecord
  2
*Model_Space
340
22
  0
BLOCK_RECORD
  5
1B
330
1
100
AcDbSymbolTableRecord
100
AcDbBlockTableRecord
  2
*Paper_Space
340
1E
  0
BLOCK_RECORD
  5
23
330
1
100
AcDbSymbolTableRecord
100
AcDbBlockTableRecord
  2
*Paper_Space0
340
26
  0
BLOCK_RECORD
  5
3C
330
1
100
AcDbSymbolTableRecord
100
AcDbBlockTableRecord
  2
block 2
340
0
102
{BLKREFS
331
3D
102
}
  0
BLOCK_RECORD
  5
12D
330
1
100
AcDbSymbolTableRecord
100
AcDbBlockTableRecord
  2
block 3
340
0
102
{BLKREFS
331
12E
102
}
  0
BLOCK_RECORD
  5
1FB
330
1
100
AcDbSymbolTableRecord
100
AcDbBlockTableRecord
  2
block 4
340
0
102
{BLKREFS
331
1FC
102
}
  0
ENDTAB
  0
ENDSEC
  0
SECTION
  2
BLOCKS
  0
BLOCK
  5
20
330
1F
100
AcDbEntity
  8
0
100
AcDbBlockBegin
  2
*Model_Space
 70
     0
 71
     0
 10
0.0
 20
0.0
 30
0.0
  3
*Model_Space
  1

  0
ENDBLK
  5
21
330
1F
100
AcDbEntity
  8
0
100
AcDbBlockEnd
  0
BLOCK
  5
1C
330
1B
100
AcDbEntity
 67
     1
  8
0
100
AcDbBlockBegin
  2
*Paper_Space
 70
     0
 71
     0
 10
0.0
 20
0.0
 30
0.0
  3
*Paper_Space
  1

  0
ENDBLK
  5
1D
330
1B
100
AcDbEntity
 67
     1
  8
0
100
AcDbBlockEnd
  0
BLOCK
  5
24
330
23
100
AcDbEntity
  8
0
100
AcDbBlockBegin
  2
*Paper_Space0
 70
     0
 71
     0
 10
0.0
 20
0.0
 30
0.0
  3
*Paper_Space0
  1

  0
ENDBLK
  5
25
330
23
100
AcDbEntity
  8
0
100
AcDbBlockEnd
  0
BLOCK
  5
3E
330
3C
100
AcDbEntity
  8
0
100
AcDbBlockBegin
  2
block 2
 70
     0
 71
     0
 10
0.0
 20
0.0
 30
0.0
  3
block 2
  1

  0
POLYLINE
  5
40
330
3C
100
AcDbEntity
  8
Capa 1
370
     0
100
AcDb2dPolyline
 66
     1
 10
0.0
 20
0.0
 30
0.0
  0
VERTEX
  5
41
330
40
100
AcDbEntity
  8
Capa 1
370
     0
100
AcDbVertex
100
AcDb2dVertex
 10
38.77733134406517
 20
212.8882656592515
 30
0.0
  0
VERTEX
  5
42
330
40
100
AcDbEntity
  8
Capa 1
370
     0
100
AcDbVertex
100
AcDb2dVertex
 10
169.7089606549507
 20
212.8882656592515
 30
0.0
  0
VERTEX
  5
43
330
40
100
AcDbEntity
  8
Capa 1
370
     0
100
AcDbVertex
100
AcDb2dVertex
 10
169.7089606549507
 20
83.55567847272381
 30
0.0
  0
VERTEX
  5
44
330
40
100
AcDbEntity
  8
Capa 1
370
     0
100
AcDbVertex
100
AcDb2dVertex
 10
38.77733134406517
 20
83.55567847272381
 30
0.0
  0
VERTEX
  5
45
330
40
100
AcDbEntity
  8
Capa 1
370
     0
100
AcDbVertex
100
AcDb2dVertex
 10
38.77733134406517
 20
212.8882656592515
 30
0.0
  0
SEQEND
  5
46
330
40
100
AcDbEntity
  8
Capa 1
370
     0
  0
SPLINE
  5
47
330
3C
100
AcDbEntity
  8
Capa 1
 62
     7
370
     9
100
AcDbSpline
210
0.0
220
0.0
230
1.0
 70
     8
 71
     3
 72
    20
 73
    16
 74
     0
 42
0.0000000001
 43
0.0000000001
 40
0.0
 40
0.0
 40
0.0
 40
0.0
 40
1.0
 40
1.0
 40
1.0
 40
2.0
 40
2.0
 40
2.0
 40
3.0
 40
3.0
 40
3.0
 40
4.0
 40
4.0
 40
4.0
 40
5.0
 40
5.0
 40
5.0
 40
5.0
 10
121.0421316868807
 20
161.4648417201484
 30
0.0
 10
120.9584158113623
 20
161.4531283877714
 30
0.0
 10
120.8746999358438
 20
161.4391757418516
 30
0.0
 10
120.7933956287559
 20
161.4240173117166
 30
0.0
 10
120.4165019340349
 20
161.3625223167369
 30
0.0
 10
120.0468429446056
 20
161.2717439908147
 30
0.0
 10
119.6771839551763
 20
161.1787263513497
 30
0.0
 10
119.3071804559712
 20
161.0857087118847
 30
0.0
 10
118.9351098981114
 20
160.9904517588771
 30
0.0
 10
118.5630393402515
 20
160.8938167667663
 30
0.0
 10
118.1909687823916
 20
160.7937366768975
 30
0.0
 10
117.8213097929624
 20
160.6903837441586
 30
0.0
 10
117.4492392351025
 20
160.5858250272045
 30
0.0
 10
117.1471041617293
 20
160.5007311125828
 30
0.0
 10
116.8446245785802
 20
160.4147759235217
 30
0.0
 10
116.542489505207
 20
160.3286484795726
 30
0.0
  0
SPLINE
  5
48
330
3C
100
AcDbEntity
  8
Capa 1
 62
     7
370
     9
100
AcDbSpline
210
0.0
220
0.0
230
1.0
 70
     8
 71
     3
 72
    20
 73
    16
 74
     0
 42
0.0000000001
 43
0.0000000001
 40
0.0
 40
0.0
 40
0.0
 40
0.0
 40
1.0
 40
1.0
 40
1.0
 40
2.0
 40
2.0
 40
2.0
 40
3.0
 40
3.0
 40
3.0
 40
4.0
 40
4.0
 40
4.0
 40
5.0
 40
5.0
 40
5.0
 40
5.0
 10
129.4950235458155
 20
160.3300265186758
 30
0.0
 10
129.1904769040117
 20
160.415981707737
 30
0.0
 10
128.8879973208627
 20
160.5007311125828
 30
0.0
 10
128.5858622474894
 20
160.5868585565319
 30
0.0
 10
128.2137916896296
 20
160.6891779599434
 30
0.0
 10
127.8441327002003
 20
160.7937366768975
 30
0.0
 10
127.4720621423404
 20
160.8914051983357
 30
0.0
 10
127.1020586431354
 20
160.9914852882045
 30
0.0
 10
126.7299880852755
 20
161.0867422412121
 30
0.0
 10
126.3579175274156
 20
161.1797598806771
 30
0.0
 10
125.9906701064169
 20
161.2727775201421
 30
0.0
 10
125.6210111169876
 20
161.3635558460643
 30
0.0
 10
125.2441174222666
 20
161.4252230959319
 30
0.0
 10
125.1628131151787
 20
161.4391757418516
 30
0.0
 10
125.0815088080908
 20
161.4519226035561
 30
0.0
 10
124.9998599912271
 20
161.4634636810452
 30
0.0
  0
SPLINE
  5
49
330
3C
100
AcDbEntity
  8
Capa 1
 62
     7
370
     9
100
AcDbSpline
210
0.0
220
0.0
230
1.0
 70
     8
 71
     3
 72
    26
 73
    22
 74
     0
 42
0.0000000001
 43
0.0000000001
 40
0.0
 40
0.0
 40
0.0
 40
0.0
 40
1.0
 40
1.0
 40
1.0
 40
2.0
 40
2.0
 40
2.0
 40
3.0
 40
3.0
 40
3.0
 40
4.0
 40
4.0
 40
4.0
 40
5.0
 40
5.0
 40
5.0
 40
6.0
 40
6.0
 40
6.0
 40
7.0
 40
7.0
 40
7.0
 40
7.0
 10
129.7975031289646
 20
159.9379743938198
 30
0.0
 10
129.7975031289646
 20
159.9694970383051
 30
0.0
 10
129.7975031289646
 20
159.9998138985752
 30
0.0
 10
129.7906129334486
 20
160.0309920332847
 30
0.0
 10
129.7833782281569
 20
160.0695771281739
 30
0.0
 10
129.7671862686945
 20
160.1021333019867
 30
0.0
 10
129.7461711723709
 20
160.1379623186695
 30
0.0
 10
129.7299792129085
 20
160.1672456496121
 30
0.0
 10
129.7113756850155
 20
160.1951509414516
 30
0.0
 10
129.6879490202614
 20
160.2194388806453
 30
0.0
 10
129.6672784337136
 20
160.2380424085383
 30
0.0
 10
129.6462633373901
 20
160.2578517206465
 30
0.0
 10
129.6207696139811
 20
160.2742159349968
 30
0.0
 10
129.5997545176576
 20
160.2881685809166
 30
0.0
 10
129.578739421334
 20
160.2997096584058
 30
0.0
 10
129.5556572663557
 20
160.3100449516797
 30
0.0
 10
129.5370537384627
 20
160.3193467156262
 30
0.0
 10
129.5184502105697
 20
160.32640916603
 30
0.0
 10
129.4974351142461
 20
160.3286484795726
 30
0.0
 10
129.4974351142461
 20
160.3286484795726
 30
0.0
 10
129.4950235458155
 20
160.3310600480032
 30
0.0
 10
129.4929564871608
 20
160.3310600480032
 30
0.0
  0
SPLINE
  5
4A
330
3C
100
AcDbEntity
  8
Capa 1
 62
     7
370
     9
100
AcDbSpline
210
0.0
220
0.0
230
1.0
 70
     8
 71
     3
 72
    20
 73
    16
 74
     0
 42
0.0000000001
 43
0.0000000001
 40
0.0
 40
0.0
 40
0.0
 40
0.0
 40
1.0
 40
1.0
 40
1.0
 40
2.0
 40
2.0
 40
2.0
 40
3.0
 40
3.0
 40
3.0
 40
4.0
 40
4.0
 40
4.0
 40
5.0
 40
5.0
 40
5.0
 40
5.0
 10
116.542489505207
 20
160.3286484795726
 30
0.0
 10
116.5190628404528
 20
160.3239975975994
 30
0.0
 10
116.4935691170439
 20
160.3171074020835
 30
0.0
 10
116.4725540207204
 20
160.307805638137
 30
0.0
 10
116.4446487288809
 20
160.2950587764325
 30
0.0
 10
116.4191550054719
 20
160.2788668169701
 30
0.0
 10
116.3912497136325
 20
160.2602632890771
 30
0.0
 10
116.3588657947076
 20
160.2287406445918
 30
0.0
 10
116.326137366007
 20
160.1973902549943
 30
0.0
 10
116.3030552110286
 20
160.1625947676389
 30
0.0
 10
116.2796285462745
 20
160.128660554723
 30
0.0
 10
116.2610250183815
 20
160.0904199696096
 30
0.0
 10
116.251723254435
 20
160.054246443151
 30
0.0
 10
116.2424214904885
 20
160.017039387365
 30
0.0
 10
116.2375983536274
 20
159.9787988022516
 30
0.0
 10
116.2355312949726
 20
159.9379743938198
 30
0.0
  0
POLYLINE
  5
4B
330
3C
100
AcDbEntity
  8
Capa 1
 62
     7
370
     9
100
AcDb2dPolyline
 66
     1
 10
0.0
 20
0.0
 30
0.0
  0
VERTEX
  5
4C
330
4B
100
AcDbEntity
  8
Capa 1
 62
     7
370
     9
100
AcDbVertex
100
AcDb2dVertex
 10
129.8019817560499
 20
157.610294093653
 30
0.0
  0
VERTEX
  5
4D
330
4B
100
AcDbEntity
  8
Capa 1
 62
     7
370
     9
100
AcDbVertex
100
AcDb2dVertex
 10
129.8019817560499
 20
159.9369408644924
 30
0.0
  0
SEQEND
  5
4E
330
4B
100
AcDbEntity
  8
Capa 1
370
     9
  0
POLYLINE
  5
4F
330
3C
100
AcDbEntity
  8
Capa 1
 62
     7
370
     9
100
AcDb2dPolyline
 66
     1
 10
0.0
 20
0.0
 30
0.0
  0
VERTEX
  5
50
330
4F
100
AcDbEntity
  8
Capa 1
 62
     7
370
     9
100
AcDbVertex
100
AcDb2dVertex
 10
116.233119726542
 20
159.9369408644924
 30
0.0
  0
VERTEX
  5
51
330
4F
100
AcDbEntity
  8
Capa 1
 62
     7
370
     9
100
AcDbVertex
100
AcDb2dVertex
 10
116.233119726542
 20
157.610294093653
 30
0.0
  0
SEQEND
  5
52
330
4F
100
AcDbEntity
  8
Capa 1
370
     9
  0
SPLINE
  5
53
330
3C
100
AcDbEntity
  8
Capa 1
 62
     7
370
     9
100
AcDbSpline
210
0.0
220
0.0
230
1.0
 70
     8
 71
     3
 72
     8
 73
     4
 74
     0
 42
0.0000000001
 43
0.0000000001
 40
0.0
 40
0.0
 40
0.0
 40
0.0
 40
1.0
 40
1.0
 40
1.0
 40
1.0
 10
75.67157225362848
 20
168.9491443444323
 30
0.0
 10
72.3160470373738
 20
168.9491443444323
 30
0.0
 10
69.59752039656624
 20
166.2295841742973
 30
0.0
 10
69.59752039656624
 20
162.8773318009127
 30
0.0
  0
SPLINE
  5
54
330
3C
100
AcDbEntity
  8
Capa 1
 62
     7
370
     9
100
AcDbSpline
210
0.0
220
0.0
230
1.0
 70
     8
 71
     3
 72
     8
 73
     4
 74
     0
 42
0.0000000001
 43
0.0000000001
 40
0.0
 40
0.0
 40
0.0
 40
0.0
 40
1.0
 40
1.0
 40
1.0
 40
1.0
 10
106.0452766366977
 20
162.8762982715853
 30
0.0
 10
106.0452766366977
 20
166.2319957427279
 30
0.0
 10
103.3267499958901
 20
168.9481108151049
 30
0.0
 10
99.97243056385075
 20
168.9481108151049
 30
0.0
  0
POLYLINE
  5
55
330
3C
100
AcDbEntity
  8
Capa 1
 62
     7
370
     9
100
AcDb2dPolyline
 66
     1
 10
0.0
 20
0.0
 30
0.0
  0
VERTEX
  5
56
330
55
100
AcDbEntity
  8
Capa 1
 62
     7
370
     9
100
AcDbVertex
100
AcDb2dVertex
 10
69.59648686723885
 20
162.8762982715853
 30
0.0
  0
VERTEX
  5
57
330
55
100
AcDbEntity
  8
Capa 1
 62
     7
370
     9
100
AcDbVertex
100
AcDb2dVertex
 10
69.59648686723885
 20
157.6114998778683
 30
0.0
  0
SEQEND
  5
58
330
55
100
AcDbEntity
  8
Capa 1
370
     9
  0
POLYLINE
  5
59
330
3C
100
AcDbEntity
  8
Capa 1
 62
     7
370
     9
100
AcDb2dPolyline
 66
     1
 10
0.0
 20
0.0
 30
0.0
  0
VERTEX
  5
5A
330
59
100
AcDbEntity
  8
Capa 1
 62
     7
370
     9
100
AcDbVertex
100
AcDb2dVertex
 10
106.0452766366977
 20
157.610294093653
 30
0.0
  0
VERTEX
  5
5B
330
59
100
AcDbEntity
  8
Capa 1
 62
     7
370
     9
100
AcDbVertex
100
AcDb2dVertex
 10
106.0452766366977
 20
162.87509248737
 30
0.0
  0
SEQEND
  5
5C
330
59
100
AcDbEntity
  8
Capa 1
370
     9
  0
SPLINE
  5
5D
330
3C
100
AcDbEntity
  8
Capa 1
 62
     7
370
     9
100
AcDbSpline
210
0.0
220
0.0
230
1.0
 70
     8
 71
     3
 72
     8
 73
     4
 74
     0
 42
0.0000000001
 43
0.0000000001
 40
0.0
 40
0.0
 40
0.0
 40
0.0
 40
1.0
 40
1.0
 40
1.0
 40
1.0
 10
85.79654230938999
 20
177.2532079802232
 30
0.0
 10
85.57209419045878
 20
177.2532079802232
 30
0.0
 10
85.39191557771738
 20
177.0718235832665
 30
0.0
 10
85.39191557771738
 20
176.8485812485505
 30
0.0
  0
SPLINE
  5
5E
330
3C
100
AcDbEntity
  8
Capa 1
 62
     7
370
     9
100
AcDbSpline
210
0.0
220
0.0
230
1.0
 70
     8
 71
     3
 72
     8
 73
     4
 74
     0
 42
0.0000000001
 43
0.0000000001
 40
0.0
 40
0.0
 40
0.0
 40
0.0
 40
1.0
 40
1.0
 40
1.0
 40
1.0
 10
90.25208723976185
 20
176.8485812485505
 30
0.0
 10
90.25208723976185
 20
177.0718235832665
 30
0.0
 10
90.07070284280516
 20
177.2532079802232
 30
0.0
 10
89.84746050808924
 20
177.2532079802232
 30
0.0
  0
POLYLINE
  5
5F
330
3C
100
AcDbEntity
  8
Capa 1
 62
     7
370
     9
100
AcDb2dPolyline
 66
     1
 10
0.0
 20
0.0
 30
0.0
  0
VERTEX
  5
60
330
5F
100
AcDbEntity
  8
Capa 1
 62
     7
370
     9
100
AcDbVertex
100
AcDb2dVertex
 10
85.39191557771738
 20
173.810521790692
 30
0.0
  0
VERTEX
  5
61
330
5F
100
AcDbEntity
  8
Capa 1
 62
     7
370
     9
100
AcDbVertex
100
AcDb2dVertex
 10
85.39191557771738
 20
173.6058829838691
 30
0.0
  0
SEQEND
  5
62
330
5F
100
AcDbEntity
  8
Capa 1
370
     9
  0
POLYLINE
  5
63
330
3C
100
AcDbEntity
  8
Capa 1
 62
     7
370
     9
100
AcDb2dPolyline
 66
     1
 10
0.0
 20
0.0
 30
0.0
  0
VERTEX
  5
64
330
63
100
AcDbEntity
  8
Capa 1
 62
     7
370
     9
100
AcDbVertex
100
AcDb2dVertex
 10
90.25208723976185
 20
173.6058829838691
 30
0.0
  0
VERTEX
  5
65
330
63
100
AcDbEntity
  8
Capa 1
 62
     7
370
     9
100
AcDbVertex
100
AcDb2dVertex
 10
90.25208723976185
 20
173.810521790692
 30
0.0
  0
SEQEND
  5
66
330
63
100
AcDbEntity
  8
Capa 1
370
     9
  0
POLYLINE
  5
67
330
3C
100
AcDbEntity
  8
Capa 1
 62
     7
370
     9
100
AcDb2dPolyline
 66
     1
 10
0.0
 20
0.0
 30
0.0
  0
VERTEX
  5
68
330
67
100
AcDbEntity
  8
Capa 1
 62
     7
370
     9
100
AcDbVertex
100
AcDb2dVertex
 10
85.39191557771738
 20
176.8485812485505
 30
0.0
  0
VERTEX
  5
69
330
67
100
AcDbEntity
  8
Capa 1
 62
     7
370
     9
100
AcDbVertex
100
AcDb2dVertex
 10
85.39191557771738
 20
176.2417272784856
 30
0.0
  0
SEQEND
  5
6A
330
67
100
AcDbEntity
  8
Capa 1
370
     9
  0
POLYLINE
  5
6B
330
3C
100
AcDbEntity
  8
Capa 1
 62
     7
370
     9
100
AcDb2dPolyline
 66
     1
 10
0.0
 20
0.0
 30
0.0
  0
VERTEX
  5
6C
330
6B
100
AcDbEntity
  8
Capa 1
 62
     7
370
     9
100
AcDbVertex
100
AcDb2dVertex
 10
90.25208723976185
 20
176.2406937491582
 30
0.0
  0
VERTEX
  5
6D
330
6B
100
AcDbEntity
  8
Capa 1
 62
     7
370
     9
100
AcDbVertex
100
AcDb2dVertex
 10
90.25208723976185
 20
176.8475477192231
 30
0.0
  0
SEQEND
  5
6E
330
6B
100
AcDbEntity
  8
Capa 1
370
     9
  0
POLYLINE
  5
6F
330
3C
100
AcDbEntity
  8
Capa 1
 62
     7
370
     9
100
AcDb2dPolyline
 66
     1
 10
0.0
 20
0.0
 30
0.0
  0
VERTEX
  5
70
330
6F
100
AcDbEntity
  8
Capa 1
 62
     7
370
     9
100
AcDbVertex
100
AcDb2dVertex
 10
86.2011690410626
 20
176.2406937491582
 30
0.0
  0
VERTEX
  5
71
330
6F
100
AcDbEntity
  8
Capa 1
 62
     7
370
     9
100
AcDbVertex
100
AcDb2dVertex
 10
86.2011690410626
 20
173.8093160064767
 30
0.0
  0
SEQEND
  5
72
330
6F
100
AcDbEntity
  8
Capa 1
370
     9
  0
POLYLINE
  5
73
330
3C
100
AcDbEntity
  8
Capa 1
 62
     7
370
     9
100
AcDb2dPolyline
 66
     1
 10
0.0
 20
0.0
 30
0.0
  0
VERTEX
  5
74
330
73
100
AcDbEntity
  8
Capa 1
 62
     7
370
     9
100
AcDbVertex
100
AcDb2dVertex
 10
89.44162799220136
 20
173.810521790692
 30
0.0
  0
VERTEX
  5
75
330
73
100
AcDbEntity
  8
Capa 1
 62
     7
370
     9
100
AcDbVertex
100
AcDb2dVertex
 10
89.44162799220136
 20
176.2417272784856
 30
0.0
  0
SEQEND
  5
76
330
73
100
AcDbEntity
  8
Capa 1
370
     9
  0
SPLINE
  5
77
330
3C
100
AcDbEntity
  8
Capa 1
 62
     7
370
     9
100
AcDbSpline
210
0.0
220
0.0
230
1.0
 70
     8
 71
     3
 72
     8
 73
     4
 74
     0
 42
0.0000000001
 43
0.0000000001
 40
0.0
 40
0.0
 40
0.0
 40
0.0
 40
1.0
 40
1.0
 40
1.0
 40
1.0
 10
85.79654230938999
 20
177.2532079802232
 30
0.0
 10
85.57209419045878
 20
177.2532079802232
 30
0.0
 10
85.39191557771738
 20
177.0718235832665
 30
0.0
 10
85.39191557771738
 20
176.8485812485505
 30
0.0
  0
SPLINE
  5
78
330
3C
100
AcDbEntity
  8
Capa 1
 62
     7
370
     9
100
AcDbSpline
210
0.0
220
0.0
230
1.0
 70
     8
 71
     3
 72
     8
 73
     4
 74
     0
 42
0.0000000001
 43
0.0000000001
 40
0.0
 40
0.0
 40
0.0
 40
0.0
 40
1.0
 40
1.0
 40
1.0
 40
1.0
 10
90.25208723976185
 20
176.8485812485505
 30
0.0
 10
90.25208723976185
 20
177.0718235832665
 30
0.0
 10
90.07070284280516
 20
177.2532079802232
 30
0.0
 10
89.84746050808924
 20
177.2532079802232
 30
0.0
  0
POLYLINE
  5
79
330
3C
100
AcDbEntity
  8
Capa 1
 62
     7
370
     9
100
AcDb2dPolyline
 66
     1
 10
0.0
 20
0.0
 30
0.0
  0
VERTEX
  5
7A
330
79
100
AcDbEntity
  8
Capa 1
 62
     7
370
     9
100
AcDbVertex
100
AcDb2dVertex
 10
85.39191557771738
 20
173.810521790692
 30
0.0
  0
VERTEX
  5
7B
330
79
100
AcDbEntity
  8
Capa 1
 62
     7
370
     9
100
AcDbVertex
100
AcDb2dVertex
 10
85.39191557771738
 20
173.6058829838691
 30
0.0
  0
SEQEND
  5
7C
330
79
100
AcDbEntity
  8
Capa 1
370
     9
  0
POLYLINE
  5
7D
330
3C
100
AcDbEntity
  8
Capa 1
 62
     7
370
     9
100
AcDb2dPolyline
 66
     1
 10
0.0
 20
0.0
 30
0.0
  0
VERTEX
  5
7E
330
7D
100
AcDbEntity
  8
Capa 1
 62
     7
370
     9
100
AcDbVertex
100
AcDb2dVertex
 10
90.25208723976185
 20
173.6058829838691
 30
0.0
  0
VERTEX
  5
7F
330
7D
100
AcDbEntity
  8
Capa 1
 62
     7
370
     9
100
AcDbVertex
100
AcDb2dVertex
 10
90.25208723976185
 20
173.810521790692
 30
0.0
  0
SEQEND
  5
80
330
7D
100
AcDbEntity
  8
Capa 1
370
     9
  0
POLYLINE
  5
81
330
3C
100
AcDbEntity
  8
Capa 1
 62
     7
370
     9
100
AcDb2dPolyline
 66
     1
 10
0.0
 20
0.0
 30
0.0
  0
VERTEX
  5
82
330
81
100
AcDbEntity
  8
Capa 1
 62
     7
370
     9
100
AcDbVertex
100
AcDb2dVertex
 10
85.39191557771738
 20
176.8485812485505
 30
0.0
  0
VERTEX
  5
83
330
81
100
AcDbEntity
  8
Capa 1
 62
     7
370
     9
100
AcDbVertex
100
AcDb2dVertex
 10
85.39191557771738
 20
176.2417272784856
 30
0.0
  0
SEQEND
  5
84
330
81
100
AcDbEntity
  8
Capa 1
370
     9
  0
POLYLINE
  5
85
330
3C
100
AcDbEntity
  8
Capa 1
 62
     7
370
     9
100
AcDb2dPolyline
 66
     1
 10
0.0
 20
0.0
 30
0.0
  0
VERTEX
  5
86
330
85
100
AcDbEntity
  8
Capa 1
 62
     7
370
     9
100
AcDbVertex
100
AcDb2dVertex
 10
90.25208723976185
 20
176.2406937491582
 30
0.0
  0
VERTEX
  5
87
330
85
100
AcDbEntity
  8
Capa 1
 62
     7
370
     9
100
AcDbVertex
100
AcDb2dVertex
 10
90.25208723976185
 20
176.8475477192231
 30
0.0
  0
SEQEND
  5
88
330
85
100
AcDbEntity
  8
Capa 1
370
     9
  0
POLYLINE
  5
89
330
3C
100
AcDbEntity
  8
Capa 1
 62
     7
370
     9
100
AcDb2dPolyline
 66
     1
 10
0.0
 20
0.0
 30
0.0
  0
VERTEX
  5
8A
330
89
100
AcDbEntity
  8
Capa 1
 62
     7
370
     9
100
AcDbVertex
100
AcDb2dVertex
 10
86.2011690410626
 20
176.2406937491582
 30
0.0
  0
VERTEX
  5
8B
330
89
100
AcDbEntity
  8
Capa 1
 62
     7
370
     9
100
AcDbVertex
100
AcDb2dVertex
 10
86.2011690410626
 20
173.8093160064767
 30
0.0
  0
SEQEND
  5
8C
330
89
100
AcDbEntity
  8
Capa 1
370
     9
  0
POLYLINE
  5
8D
330
3C
100
AcDbEntity
  8
Capa 1
 62
     7
370
     9
100
AcDb2dPolyline
 66
     1
 10
0.0
 20
0.0
 30
0.0
  0
VERTEX
  5
8E
330
8D
100
AcDbEntity
  8
Capa 1
 62
     7
370
     9
100
AcDbVertex
100
AcDb2dVertex
 10
89.44162799220136
 20
173.810521790692
 30
0.0
  0
VERTEX
  5
8F
330
8D
100
AcDbEntity
  8
Capa 1
 62
     7
370
     9
100
AcDbVertex
100
AcDb2dVertex
 10
89.44162799220136
 20
176.2417272784856
 30
0.0
  0
SEQEND
  5
90
330
8D
100
AcDbEntity
  8
Capa 1
370
     9
  0
SPLINE
  5
91
330
3C
100
AcDbEntity
  8
Capa 1
 62
     7
370
     9
100
AcDbSpline
210
0.0
220
0.0
230
1.0
 70
     8
 71
     3
 72
     8
 73
     4
 74
     0
 42
0.0000000001
 43
0.0000000001
 40
0.0
 40
0.0
 40
0.0
 40
0.0
 40
1.0
 40
1.0
 40
1.0
 40
1.0
 10
87.31514140109951
 20
173.5779776920296
 30
0.0
 10
86.02219621253649
 20
173.4255321162398
 30
0.0
 10
84.86516013052506
 20
172.6896592351392
 30
0.0
 10
84.1768295984843
 20
171.5827493255061
 30
0.0
  0
SPLINE
  5
92
330
3C
100
AcDbEntity
  8
Capa 1
 62
     7
370
     9
100
AcDbSpline
210
0.0
220
0.0
230
1.0
 70
     8
 71
     3
 72
     8
 73
     4
 74
     0
 42
0.0000000001
 43
0.0000000001
 40
0.0
 40
0.0
 40
0.0
 40
0.0
 40
1.0
 40
1.0
 40
1.0
 40
1.0
 10
91.46717321899493
 20
171.5827493255061
 30
0.0
 10
90.7766033734115
 20
172.6896592351392
 30
0.0
 10
89.62421817337332
 20
173.4232928026971
 30
0.0
 10
88.32903367126762
 20
173.5779776920296
 30
0.0
  0
POLYLINE
  5
93
330
3C
100
AcDbEntity
  8
Capa 1
 62
     7
370
     9
100
AcDb2dPolyline
 66
     1
 10
0.0
 20
0.0
 30
0.0
  0
VERTEX
  5
94
330
93
100
AcDbEntity
  8
Capa 1
 62
     7
370
     9
100
AcDbVertex
100
AcDb2dVertex
 10
91.46717321899493
 20
168.9491443444323
 30
0.0
  0
VERTEX
  5
95
330
93
100
AcDbEntity
  8
Capa 1
 62
     7
370
     9
100
AcDbVertex
100
AcDb2dVertex
 10
91.46717321899493
 20
171.5827493255061
 30
0.0
  0
SEQEND
  5
96
330
93
100
AcDbEntity
  8
Capa 1
370
     9
  0
POLYLINE
  5
97
330
3C
100
AcDbEntity
  8
Capa 1
 62
     7
370
     9
100
AcDb2dPolyline
 66
     1
 10
0.0
 20
0.0
 30
0.0
  0
VERTEX
  5
98
330
97
100
AcDbEntity
  8
Capa 1
 62
     7
370
     9
100
AcDbVertex
100
AcDb2dVertex
 10
84.1768295984843
 20
171.5827493255061
 30
0.0
  0
VERTEX
  5
99
330
97
100
AcDbEntity
  8
Capa 1
 62
     7
370
     9
100
AcDbVertex
100
AcDb2dVertex
 10
84.1768295984843
 20
168.9491443444323
 30
0.0
  0
SEQEND
  5
9A
330
97
100
AcDbEntity
  8
Capa 1
370
     9
  0
POLYLINE
  5
9B
330
3C
100
AcDbEntity
  8
Capa 1
 62
     7
370
     9
100
AcDb2dPolyline
 66
     1
 10
0.0
 20
0.0
 30
0.0
  0
VERTEX
  5
9C
330
9B
100
AcDbEntity
  8
Capa 1
 62
     7
370
     9
100
AcDbVertex
100
AcDb2dVertex
 10
119.5979467067432
 20
157.610294093653
 30
0.0
  0
VERTEX
  5
9D
330
9B
100
AcDbEntity
  8
Capa 1
 62
     7
370
     9
100
AcDbVertex
100
AcDb2dVertex
 10
126.4395663442793
 20
157.610294093653
 30
0.0
  0
SEQEND
  5
9E
330
9B
100
AcDbEntity
  8
Capa 1
370
     9
  0
POLYLINE
  5
9F
330
3C
100
AcDbEntity
  8
Capa 1
 62
     7
370
     9
100
AcDb2dPolyline
 66
     1
 10
0.0
 20
0.0
 30
0.0
  0
VERTEX
  5
A0
330
9F
100
AcDbEntity
  8
Capa 1
 62
     7
370
     9
100
AcDbVertex
100
AcDb2dVertex
 10
126.4395663442793
 20
157.610294093653
 30
0.0
  0
VERTEX
  5
A1
330
9F
100
AcDbEntity
  8
Capa 1
 62
     7
370
     9
100
AcDbVertex
100
AcDb2dVertex
 10
129.8019817560499
 20
157.610294093653
 30
0.0
  0
SEQEND
  5
A2
330
9F
100
AcDbEntity
  8
Capa 1
370
     9
  0
POLYLINE
  5
A3
330
3C
100
AcDbEntity
  8
Capa 1
 62
     7
370
     9
100
AcDb2dPolyline
 66
     1
 10
0.0
 20
0.0
 30
0.0
  0
VERTEX
  5
A4
330
A3
100
AcDbEntity
  8
Capa 1
 62
     7
370
     9
100
AcDbVertex
100
AcDb2dVertex
 10
116.233119726542
 20
157.610294093653
 30
0.0
  0
VERTEX
  5
A5
330
A3
100
AcDbEntity
  8
Capa 1
 62
     7
370
     9
100
AcDbVertex
100
AcDb2dVertex
 10
119.5979467067432
 20
157.610294093653
 30
0.0
  0
SEQEND
  5
A6
330
A3
100
AcDbEntity
  8
Capa 1
370
     9
  0
SPLINE
  5
A7
330
3C
100
AcDbEntity
  8
Capa 1
 62
     7
370
     9
100
AcDbSpline
210
0.0
220
0.0
230
1.0
 70
     8
 71
     3
 72
    23
 73
    19
 74
     0
 42
0.0000000001
 43
0.0000000001
 40
0.0
 40
0.0
 40
0.0
 40
0.0
 40
1.0
 40
1.0
 40
1.0
 40
2.0
 40
2.0
 40
2.0
 40
3.0
 40
3.0
 40
3.0
 40
4.0
 40
4.0
 40
4.0
 40
5.0
 40
5.0
 40
5.0
 40
6.0
 40
6.0
 40
6.0
 40
6.0
 10
123.8071671474208
 20
160.7346532503484
 30
0.0
 10
123.7396432313647
 20
160.7461943278376
 30
0.0
 10
123.6745308837393
 20
160.7554960917841
 30
0.0
 10
123.5977052037367
 20
160.7704822670312
 30
0.0
 10
123.4953858003253
 20
160.784434912951
 30
0.0
 10
123.372395810366
 20
160.7914973633548
 30
0.0
 10
123.249061310631
 20
160.7961482453281
 30
0.0
 10
123.125726810896
 20
160.803038440844
 30
0.0
 10
123.0003252525062
 20
160.803038440844
 30
0.0
 10
122.8769907527711
 20
160.7983875588707
 30
0.0
 10
122.7584793898972
 20
160.7961482453281
 30
0.0
 10
122.6420350856781
 20
160.7868464813816
 30
0.0
 10
122.5280023498896
 20
160.7775447174351
 30
0.0
 10
122.4139696141011
 20
160.7682429534886
 30
0.0
 10
122.3002813880884
 20
160.7554960917841
 30
0.0
 10
122.2303459036017
 20
160.7368925638911
 30
0.0
 10
122.2279343351712
 20
160.7368925638911
 30
0.0
 10
122.2234557080858
 20
160.7368925638911
 30
0.0
 10
122.2210441396552
 20
160.7346532503484
 30
0.0
  0
POLYLINE
  5
A8
330
3C
100
AcDbEntity
  8
Capa 1
 62
     7
370
     9
100
AcDb2dPolyline
 66
     1
 10
0.0
 20
0.0
 30
0.0
  0
VERTEX
  5
A9
330
A8
100
AcDbEntity
  8
Capa 1
 62
     7
370
     9
100
AcDbVertex
100
AcDb2dVertex
 10
121.3980102852782
 20
161.5299540677739
 30
0.0
  0
VERTEX
  5
AA
330
A8
100
AcDbEntity
  8
Capa 1
 62
     7
370
     9
100
AcDbVertex
100
AcDb2dVertex
 10
121.3980102852782
 20
161.3682067280376
 30
0.0
  0
SEQEND
  5
AB
330
A8
100
AcDbEntity
  8
Capa 1
370
     9
  0
SPLINE
  5
AC
330
3C
100
AcDbEntity
  8
Capa 1
 62
     7
370
     9
100
AcDbSpline
210
0.0
220
0.0
230
1.0
 70
     8
 71
     3
 72
    53
 73
    49
 74
     0
 42
0.0000000001
 43
0.0000000001
 40
0.0
 40
0.0
 40
0.0
 40
0.0
 40
1.0
 40
1.0
 40
1.0
 40
2.0
 40
2.0
 40
2.0
 40
3.0
 40
3.0
 40
3.0
 40
4.0
 40
4.0
 40
4.0
 40
5.0
 40
5.0
 40
5.0
 40
6.0
 40
6.0
 40
6.0
 40
7.0
 40
7.0
 40
7.0
 40
8.0
 40
8.0
 40
8.0
 40
9.0
 40
9.0
 40
9.0
 40
10.0
 40
10.0
 40
10.0
 40
11.0
 40
11.0
 40
11.0
 40
12.0
 40
12.0
 40
12.0
 40
13.0
 40
13.0
 40
13.0
 40
14.0
 40
14.0
 40
14.0
 40
15.0
 40
15.0
 40
15.0
 40
16.0
 40
16.0
 40
16.0
 40
16.0
 10
121.3980102852782
 20
161.3671731987102
 30
0.0
 10
121.3980102852782
 20
161.3578714347637
 30
0.0
 10
121.4093791078795
 20
161.3508089843599
 30
0.0
 10
121.4279826357725
 20
161.3415072204134
 30
0.0
 10
121.448997732096
 20
161.3356505542249
 30
0.0
 10
121.4817261607967
 20
161.3309996722516
 30
0.0
 10
121.5210002752374
 20
161.3263487902784
 30
0.0
 10
121.560618899454
 20
161.3216979083051
 30
0.0
 10
121.6119508560476
 20
161.3170470263319
 30
0.0
 10
121.6698284983814
 20
161.3170470263319
 30
0.0
 10
121.7280506504909
 20
161.3146354579013
 30
0.0
 10
121.7979861349775
 20
161.3123961443586
 30
0.0
 10
121.8724002465495
 20
161.309984575928
 30
0.0
 10
121.8724002465495
 20
161.309984575928
 30
0.0
 10
122.1163131678132
 20
161.309984575928
 30
0.0
 10
122.1163131678132
 20
161.309984575928
 30
0.0
 10
122.1163131678132
 20
161.309984575928
 30
0.0
 10
122.3977776546387
 20
161.309984575928
 30
0.0
 10
122.3977776546387
 20
161.309984575928
 30
0.0
 10
122.4956184309648
 20
161.3123961443586
 30
0.0
 10
122.5979378343762
 20
161.3123961443586
 30
0.0
 10
122.7026688062183
 20
161.3146354579013
 30
0.0
 10
122.7026688062183
 20
161.3146354579013
 30
0.0
 10
123.0165172119686
 20
161.3146354579013
 30
0.0
 10
123.0165172119686
 20
161.3146354579013
 30
0.0
 10
123.0165172119686
 20
161.3146354579013
 30
0.0
 10
123.33518875458
 20
161.3146354579013
 30
0.0
 10
123.33518875458
 20
161.3146354579013
 30
0.0
 10
123.4371636482157
 20
161.3123961443586
 30
0.0
 10
123.539827561403
 20
161.3123961443586
 30
0.0
 10
123.6373238279533
 20
161.3123961443586
 30
0.0
 10
123.7348200945036
 20
161.309984575928
 30
0.0
 10
123.8302493023991
 20
161.309984575928
 30
0.0
 10
123.9187883147788
 20
161.309984575928
 30
0.0
 10
124.0049157587278
 20
161.309984575928
 30
0.0
 10
124.0882871244705
 20
161.309984575928
 30
0.0
 10
124.1627012360424
 20
161.3123961443586
 30
0.0
 10
124.239526916045
 20
161.3123961443586
 30
0.0
 10
124.307050832101
 20
161.3146354579013
 30
0.0
 10
124.3652729842106
 20
161.3170470263319
 30
0.0
 10
124.4255621949749
 20
161.3192863398745
 30
0.0
 10
124.474482583138
 20
161.3216979083051
 30
0.0
 10
124.5141012073545
 20
161.3263487902784
 30
0.0
 10
124.5557868902259
 20
161.3309996722516
 30
0.0
 10
124.5861037504959
 20
161.3356505542249
 30
0.0
 10
124.6071188468195
 20
161.3415072204134
 30
0.0
 10
124.6277894333673
 20
161.3508089843599
 30
0.0
 10
124.6374357070896
 20
161.3578714347637
 30
0.0
 10
124.6374357070896
 20
161.3671731987102
 30
0.0
  0
POLYLINE
  5
AD
330
3C
100
AcDbEntity
  8
Capa 1
 62
     7
370
     9
100
AcDb2dPolyline
 66
     1
 10
0.0
 20
0.0
 30
0.0
  0
VERTEX
  5
AE
330
AD
100
AcDbEntity
  8
Capa 1
 62
     7
370
     9
100
AcDbVertex
100
AcDb2dVertex
 10
124.6374357070896
 20
161.3671731987102
 30
0.0
  0
VERTEX
  5
AF
330
AD
100
AcDbEntity
  8
Capa 1
 62
     7
370
     9
100
AcDbVertex
100
AcDb2dVertex
 10
124.6374357070896
 20
161.5285760286707
 30
0.0
  0
SEQEND
  5
B0
330
AD
100
AcDbEntity
  8
Capa 1
370
     9
  0
SPLINE
  5
B1
330
3C
100
AcDbEntity
  8
Capa 1
 62
     7
370
     9
100
AcDbSpline
210
0.0
220
0.0
230
1.0
 70
     8
 71
     3
 72
    11
 73
     7
 74
     0
 42
0.0000000001
 43
0.0000000001
 40
0.0
 40
0.0
 40
0.0
 40
0.0
 40
1.0
 40
1.0
 40
1.0
 40
2.0
 40
2.0
 40
2.0
 40
2.0
 10
124.6374357070896
 20
161.5299540677739
 30
0.0
 10
124.7652488339099
 20
161.5113505398809
 30
0.0
 10
124.8930619607303
 20
161.4913689728847
 30
0.0
 10
125.0022715596577
 20
161.4727654449917
 30
0.0
 10
125.0722070441443
 20
161.458812799072
 30
0.0
 10
125.1324962549087
 20
161.4462381922554
 30
0.0
 10
125.1955415438794
 20
161.4322855463357
 30
0.0
  0
SPLINE
  5
B2
330
3C
100
AcDbEntity
  8
Capa 1
 62
     7
370
     9
100
AcDbSpline
210
0.0
220
0.0
230
1.0
 70
     8
 71
     3
 72
    11
 73
     7
 74
     0
 42
0.0000000001
 43
0.0000000001
 40
0.0
 40
0.0
 40
0.0
 40
0.0
 40
1.0
 40
1.0
 40
1.0
 40
2.0
 40
2.0
 40
2.0
 40
2.0
 10
120.842316016919
 20
161.4333190756631
 30
0.0
 10
120.8933034637368
 20
161.4426208396096
 30
0.0
 10
120.9467024789852
 20
161.4519226035561
 30
0.0
 10
121.0025130626642
 20
161.4648417201484
 30
0.0
 10
121.1189573668833
 20
161.4856845615841
 30
0.0
 10
121.2584838260807
 20
161.5099725007777
 30
0.0
 10
121.3980102852782
 20
161.5309875971013
 30
0.0
  0
POLYLINE
  5
B3
330
3C
100
AcDbEntity
  8
Capa 1
 62
     7
370
     9
100
AcDb2dPolyline
 66
     1
 10
0.0
 20
0.0
 30
0.0
  0
VERTEX
  5
B4
330
B3
100
AcDbEntity
  8
Capa 1
 62
     7
370
     9
100
AcDbVertex
100
AcDb2dVertex
 10
124.1327288855482
 20
160.8183691258669
 30
0.0
  0
VERTEX
  5
B5
330
B3
100
AcDbEntity
  8
Capa 1
 62
     7
370
     9
100
AcDbVertex
100
AcDb2dVertex
 10
124.1117137892246
 20
160.8473079470338
 30
0.0
  0
VERTEX
  5
B6
330
B3
100
AcDbEntity
  8
Capa 1
 62
     7
370
     9
100
AcDbVertex
100
AcDb2dVertex
 10
124.0490130100297
 20
160.8798641208465
 30
0.0
  0
VERTEX
  5
B7
330
B3
100
AcDbEntity
  8
Capa 1
 62
     7
370
     9
100
AcDbVertex
100
AcDb2dVertex
 10
123.9466936066182
 20
160.9136260788746
 30
0.0
  0
VERTEX
  5
B8
330
B3
100
AcDbEntity
  8
Capa 1
 62
     7
370
     9
100
AcDbVertex
100
AcDb2dVertex
 10
123.8092342060756
 20
160.9425649000414
 30
0.0
  0
VERTEX
  5
B9
330
B3
100
AcDbEntity
  8
Capa 1
 62
     7
370
     9
100
AcDbVertex
100
AcDb2dVertex
 10
123.6418024550386
 20
160.9682308783382
 30
0.0
  0
VERTEX
  5
BA
330
B3
100
AcDbEntity
  8
Capa 1
 62
     7
370
     9
100
AcDbVertex
100
AcDb2dVertex
 10
123.4488769805928
 20
160.9890737197739
 30
0.0
  0
VERTEX
  5
BB
330
B3
100
AcDbEntity
  8
Capa 1
 62
     7
370
     9
100
AcDbVertex
100
AcDb2dVertex
 10
123.2397595466845
 20
161.0019928363663
 30
0.0
  0
VERTEX
  5
BC
330
B3
100
AcDbEntity
  8
Capa 1
 62
     7
370
     9
100
AcDbVertex
100
AcDb2dVertex
 10
123.0234074074845
 20
161.0044044047968
 30
0.0
  0
VERTEX
  5
BD
330
B3
100
AcDbEntity
  8
Capa 1
 62
     7
370
     9
100
AcDbVertex
100
AcDb2dVertex
 10
122.8025766411992
 20
161.0044044047968
 30
0.0
  0
VERTEX
  5
BE
330
B3
100
AcDbEntity
  8
Capa 1
 62
     7
370
     9
100
AcDbVertex
100
AcDb2dVertex
 10
122.5931146975151
 20
160.9890737197739
 30
0.0
  0
VERTEX
  5
BF
330
B3
100
AcDbEntity
  8
Capa 1
 62
     7
370
     9
100
AcDbVertex
100
AcDb2dVertex
 10
122.4001892230692
 20
160.9682308783382
 30
0.0
  0
VERTEX
  5
C0
330
B3
100
AcDbEntity
  8
Capa 1
 62
     7
370
     9
100
AcDbVertex
100
AcDb2dVertex
 10
122.2327574720323
 20
160.9425649000414
 30
0.0
  0
VERTEX
  5
C1
330
B3
100
AcDbEntity
  8
Capa 1
 62
     7
370
     9
100
AcDbVertex
100
AcDb2dVertex
 10
122.0932310128348
 20
160.9136260788746
 30
0.0
  0
VERTEX
  5
C2
330
B3
100
AcDbEntity
  8
Capa 1
 62
     7
370
     9
100
AcDbVertex
100
AcDb2dVertex
 10
121.9909116094234
 20
160.8798641208465
 30
0.0
  0
VERTEX
  5
C3
330
B3
100
AcDbEntity
  8
Capa 1
 62
     7
370
     9
100
AcDbVertex
100
AcDb2dVertex
 10
121.9282108302285
 20
160.8495472605765
 30
0.0
  0
VERTEX
  5
C4
330
B3
100
AcDbEntity
  8
Capa 1
 62
     7
370
     9
100
AcDbVertex
100
AcDb2dVertex
 10
121.9047841654743
 20
160.8183691258669
 30
0.0
  0
VERTEX
  5
C5
330
B3
100
AcDbEntity
  8
Capa 1
 62
     7
370
     9
100
AcDbVertex
100
AcDb2dVertex
 10
121.9233876933673
 20
160.7914973633548
 30
0.0
  0
VERTEX
  5
C6
330
B3
100
AcDbEntity
  8
Capa 1
 62
     7
370
     9
100
AcDbVertex
100
AcDb2dVertex
 10
121.9860884725622
 20
160.7682429534886
 30
0.0
  0
VERTEX
  5
C7
330
B3
100
AcDbEntity
  8
Capa 1
 62
     7
370
     9
100
AcDbVertex
100
AcDb2dVertex
 10
122.0887523857495
 20
160.7496394255956
 30
0.0
  0
VERTEX
  5
C8
330
B3
100
AcDbEntity
  8
Capa 1
 62
     7
370
     9
100
AcDbVertex
100
AcDb2dVertex
 10
122.2258672765164
 20
160.7322416819179
 30
0.0
  0
VERTEX
  5
C9
330
B3
100
AcDbEntity
  8
Capa 1
 62
     7
370
     9
100
AcDbVertex
100
AcDb2dVertex
 10
122.3932990275533
 20
160.7207006044287
 30
0.0
  0
VERTEX
  5
CA
330
B3
100
AcDbEntity
  8
Capa 1
 62
     7
370
     9
100
AcDbVertex
100
AcDb2dVertex
 10
122.5862245019992
 20
160.7136381540249
 30
0.0
  0
VERTEX
  5
CB
330
B3
100
AcDbEntity
  8
Capa 1
 62
     7
370
     9
100
AcDbVertex
100
AcDb2dVertex
 10
122.7932748772527
 20
160.7089872720516
 30
0.0
  0
VERTEX
  5
CC
330
B3
100
AcDbEntity
  8
Capa 1
 62
     7
370
     9
100
AcDbVertex
100
AcDb2dVertex
 10
123.014105643538
 20
160.7067479585089
 30
0.0
  0
VERTEX
  5
CD
330
B3
100
AcDbEntity
  8
Capa 1
 62
     7
370
     9
100
AcDbVertex
100
AcDb2dVertex
 10
123.2325248413928
 20
160.7089872720516
 30
0.0
  0
VERTEX
  5
CE
330
B3
100
AcDbEntity
  8
Capa 1
 62
     7
370
     9
100
AcDbVertex
100
AcDb2dVertex
 10
123.4419867850768
 20
160.7136381540249
 30
0.0
  0
VERTEX
  5
CF
330
B3
100
AcDbEntity
  8
Capa 1
 62
     7
370
     9
100
AcDbVertex
100
AcDb2dVertex
 10
123.6349122595227
 20
160.7207006044287
 30
0.0
  0
VERTEX
  5
D0
330
B3
100
AcDbEntity
  8
Capa 1
 62
     7
370
     9
100
AcDbVertex
100
AcDb2dVertex
 10
123.8047555789902
 20
160.7300023683752
 30
0.0
  0
VERTEX
  5
D1
330
B3
100
AcDbEntity
  8
Capa 1
 62
     7
370
     9
100
AcDbVertex
100
AcDb2dVertex
 10
123.9442820381877
 20
160.7496394255956
 30
0.0
  0
VERTEX
  5
D2
330
B3
100
AcDbEntity
  8
Capa 1
 62
     7
370
     9
100
AcDbVertex
100
AcDb2dVertex
 10
124.0466014415991
 20
160.7682429534886
 30
0.0
  0
VERTEX
  5
D3
330
B3
100
AcDbEntity
  8
Capa 1
 62
     7
370
     9
100
AcDbVertex
100
AcDb2dVertex
 10
124.109302220794
 20
160.7914973633548
 30
0.0
  0
VERTEX
  5
D4
330
B3
100
AcDbEntity
  8
Capa 1
 62
     7
370
     9
100
AcDbVertex
100
AcDb2dVertex
 10
124.1327288855482
 20
160.8183691258669
 30
0.0
  0
SEQEND
  5
D5
330
B3
100
AcDbEntity
  8
Capa 1
370
     9
  0
POLYLINE
  5
D6
330
3C
100
AcDbEntity
  8
Capa 1
 62
     7
370
     9
100
AcDb2dPolyline
 66
     1
 10
0.0
 20
0.0
 30
0.0
  0
VERTEX
  5
D7
330
D6
100
AcDbEntity
  8
Capa 1
 62
     7
370
     9
100
AcDbVertex
100
AcDb2dVertex
 10
75.67157225362848
 20
168.9491443444323
 30
0.0
  0
VERTEX
  5
D8
330
D6
100
AcDbEntity
  8
Capa 1
 62
     7
370
     9
100
AcDbVertex
100
AcDb2dVertex
 10
99.97243056385075
 20
168.9491443444323
 30
0.0
  0
SEQEND
  5
D9
330
D6
100
AcDbEntity
  8
Capa 1
370
     9
  0
POLYLINE
  5
DA
330
3C
100
AcDbEntity
  8
Capa 1
 62
     7
370
     9
100
AcDb2dPolyline
 66
     1
 10
0.0
 20
0.0
 30
0.0
  0
VERTEX
  5
DB
330
DA
100
AcDbEntity
  8
Capa 1
 62
     7
370
     9
100
AcDbVertex
100
AcDb2dVertex
 10
69.59648686723885
 20
157.610294093653
 30
0.0
  0
VERTEX
  5
DC
330
DA
100
AcDbEntity
  8
Capa 1
 62
     7
370
     9
100
AcDbVertex
100
AcDb2dVertex
 10
106.0452766366977
 20
157.610294093653
 30
0.0
  0
SEQEND
  5
DD
330
DA
100
AcDbEntity
  8
Capa 1
370
     9
  0
POLYLINE
  5
DE
330
3C
100
AcDbEntity
  8
Capa 1
 62
     7
370
     9
100
AcDb2dPolyline
 66
     1
 10
0.0
 20
0.0
 30
0.0
  0
VERTEX
  5
DF
330
DE
100
AcDbEntity
  8
Capa 1
 62
     7
370
     9
100
AcDbVertex
100
AcDb2dVertex
 10
85.39191557771738
 20
173.6058829838691
 30
0.0
  0
VERTEX
  5
E0
330
DE
100
AcDbEntity
  8
Capa 1
 62
     7
370
     9
100
AcDbVertex
100
AcDb2dVertex
 10
90.25208723976185
 20
173.6058829838691
 30
0.0
  0
SEQEND
  5
E1
330
DE
100
AcDbEntity
  8
Capa 1
370
     9
  0
POLYLINE
  5
E2
330
3C
100
AcDbEntity
  8
Capa 1
 62
     7
370
     9
100
AcDb2dPolyline
 66
     1
 10
0.0
 20
0.0
 30
0.0
  0
VERTEX
  5
E3
330
E2
100
AcDbEntity
  8
Capa 1
 62
     7
370
     9
100
AcDbVertex
100
AcDb2dVertex
 10
85.39191557771738
 20
176.2406937491582
 30
0.0
  0
VERTEX
  5
E4
330
E2
100
AcDbEntity
  8
Capa 1
 62
     7
370
     9
100
AcDbVertex
100
AcDb2dVertex
 10
90.25208723976185
 20
176.2406937491582
 30
0.0
  0
SEQEND
  5
E5
330
E2
100
AcDbEntity
  8
Capa 1
370
     9
  0
POLYLINE
  5
E6
330
3C
100
AcDbEntity
  8
Capa 1
 62
     7
370
     9
100
AcDb2dPolyline
 66
     1
 10
0.0
 20
0.0
 30
0.0
  0
VERTEX
  5
E7
330
E6
100
AcDbEntity
  8
Capa 1
 62
     7
370
     9
100
AcDbVertex
100
AcDb2dVertex
 10
85.79654230938999
 20
177.2532079802232
 30
0.0
  0
VERTEX
  5
E8
330
E6
100
AcDbEntity
  8
Capa 1
 62
     7
370
     9
100
AcDbVertex
100
AcDb2dVertex
 10
89.84746050808924
 20
177.2532079802232
 30
0.0
  0
SEQEND
  5
E9
330
E6
100
AcDbEntity
  8
Capa 1
370
     9
  0
POLYLINE
  5
EA
330
3C
100
AcDbEntity
  8
Capa 1
 62
     7
370
     9
100
AcDb2dPolyline
 66
     1
 10
0.0
 20
0.0
 30
0.0
  0
VERTEX
  5
EB
330
EA
100
AcDbEntity
  8
Capa 1
 62
     7
370
     9
100
AcDbVertex
100
AcDb2dVertex
 10
85.39191557771738
 20
173.810521790692
 30
0.0
  0
VERTEX
  5
EC
330
EA
100
AcDbEntity
  8
Capa 1
 62
     7
370
     9
100
AcDbVertex
100
AcDb2dVertex
 10
90.25208723976185
 20
173.810521790692
 30
0.0
  0
SEQEND
  5
ED
330
EA
100
AcDbEntity
  8
Capa 1
370
     9
  0
POLYLINE
  5
EE
330
3C
100
AcDbEntity
  8
Capa 1
 62
     7
370
     9
100
AcDb2dPolyline
 66
     1
 10
0.0
 20
0.0
 30
0.0
  0
VERTEX
  5
EF
330
EE
100
AcDbEntity
  8
Capa 1
 62
     7
370
     9
100
AcDbVertex
100
AcDb2dVertex
 10
85.79654230938999
 20
177.2532079802232
 30
0.0
  0
VERTEX
  5
F0
330
EE
100
AcDbEntity
  8
Capa 1
 62
     7
370
     9
100
AcDbVertex
100
AcDb2dVertex
 10
89.84746050808924
 20
177.2532079802232
 30
0.0
  0
SEQEND
  5
F1
330
EE
100
AcDbEntity
  8
Capa 1
370
     9
  0
POLYLINE
  5
F2
330
3C
100
AcDbEntity
  8
Capa 1
 62
     7
370
     9
100
AcDb2dPolyline
 66
     1
 10
0.0
 20
0.0
 30
0.0
  0
VERTEX
  5
F3
330
F2
100
AcDbEntity
  8
Capa 1
 62
     7
370
     9
100
AcDbVertex
100
AcDb2dVertex
 10
85.39191557771738
 20
173.6058829838691
 30
0.0
  0
VERTEX
  5
F4
330
F2
100
AcDbEntity
  8
Capa 1
 62
     7
370
     9
100
AcDbVertex
100
AcDb2dVertex
 10
90.25208723976185
 20
173.6058829838691
 30
0.0
  0
SEQEND
  5
F5
330
F2
100
AcDbEntity
  8
Capa 1
370
     9
  0
POLYLINE
  5
F6
330
3C
100
AcDbEntity
  8
Capa 1
 62
     7
370
     9
100
AcDb2dPolyline
 66
     1
 10
0.0
 20
0.0
 30
0.0
  0
VERTEX
  5
F7
330
F6
100
AcDbEntity
  8
Capa 1
 62
     7
370
     9
100
AcDbVertex
100
AcDb2dVertex
 10
85.39191557771738
 20
173.810521790692
 30
0.0
  0
VERTEX
  5
F8
330
F6
100
AcDbEntity
  8
Capa 1
 62
     7
370
     9
100
AcDbVertex
100
AcDb2dVertex
 10
90.25208723976185
 20
173.810521790692
 30
0.0
  0
SEQEND
  5
F9
330
F6
100
AcDbEntity
  8
Capa 1
370
     9
  0
POLYLINE
  5
FA
330
3C
100
AcDbEntity
  8
Capa 1
 62
     7
370
     9
100
AcDb2dPolyline
 66
     1
 10
0.0
 20
0.0
 30
0.0
  0
VERTEX
  5
FB
330
FA
100
AcDbEntity
  8
Capa 1
 62
     7
370
     9
100
AcDbVertex
100
AcDb2dVertex
 10
85.39191557771738
 20
176.2406937491582
 30
0.0
  0
VERTEX
  5
FC
330
FA
100
AcDbEntity
  8
Capa 1
 62
     7
370
     9
100
AcDbVertex
100
AcDb2dVertex
 10
90.25208723976185
 20
176.2406937491582
 30
0.0
  0
SEQEND
  5
FD
330
FA
100
AcDbEntity
  8
Capa 1
370
     9
  0
POLYLINE
  5
FE
330
3C
100
AcDbEntity
  8
Capa 1
 62
     7
370
     9
100
AcDb2dPolyline
 66
     1
 10
0.0
 20
0.0
 30
0.0
  0
VERTEX
  5
FF
330
FE
100
AcDbEntity
  8
Capa 1
 62
     7
370
     9
100
AcDbVertex
100
AcDb2dVertex
 10
84.26536861086392
 20
171.5827493255061
 30
0.0
  0
VERTEX
  5
100
330
FE
100
AcDbEntity
  8
Capa 1
 62
     7
370
     9
100
AcDbVertex
100
AcDb2dVertex
 10
91.46596743477964
 20
171.5827493255061
 30
0.0
  0
SEQEND
  5
101
330
FE
100
AcDbEntity
  8
Capa 1
370
     9
  0
POLYLINE
  5
102
330
3C
100
AcDbEntity
  8
Capa 1
 62
     7
370
     9
100
AcDb2dPolyline
 66
     1
 10
0.0
 20
0.0
 30
0.0
  0
VERTEX
  5
103
330
102
100
AcDbEntity
  8
Capa 1
 62
     7
370
     9
100
AcDbVertex
100
AcDb2dVertex
 10
84.1768295984843
 20
171.5827493255061
 30
0.0
  0
VERTEX
  5
104
330
102
100
AcDbEntity
  8
Capa 1
 62
     7
370
     9
100
AcDbVertex
100
AcDb2dVertex
 10
84.26536861086392
 20
171.5827493255061
 30
0.0
  0
SEQEND
  5
105
330
102
100
AcDbEntity
  8
Capa 1
370
     9
  0
POLYLINE
  5
106
330
3C
100
AcDbEntity
  8
Capa 1
 62
     7
370
     9
100
AcDb2dPolyline
 66
     1
 10
0.0
 20
0.0
 30
0.0
  0
VERTEX
  5
107
330
106
100
AcDbEntity
  8
Capa 1
 62
     7
370
     9
100
AcDbVertex
100
AcDb2dVertex
 10
87.31514140109951
 20
173.5779776920296
 30
0.0
  0
VERTEX
  5
108
330
106
100
AcDbEntity
  8
Capa 1
 62
     7
370
     9
100
AcDbVertex
100
AcDb2dVertex
 10
88.32662210283705
 20
173.5779776920296
 30
0.0
  0
SEQEND
  5
109
330
106
100
AcDbEntity
  8
Capa 1
370
     9
  0
POLYLINE
  5
10A
330
3C
100
AcDbEntity
  8
Capa 1
 62
     7
370
     9
100
AcDb2dPolyline
 66
     1
 10
0.0
 20
0.0
 30
0.0
  0
VERTEX
  5
10B
330
10A
100
AcDbEntity
  8
Capa 1
 62
     7
370
     9
100
AcDbVertex
100
AcDb2dVertex
 10
85.39191557771738
 20
177.2532079802232
 30
0.0
  0
VERTEX
  5
10C
330
10A
100
AcDbEntity
  8
Capa 1
 62
     7
370
     9
100
AcDbVertex
100
AcDb2dVertex
 10
63.05149014666323
 20
177.2532079802232
 30
0.0
  0
SEQEND
  5
10D
330
10A
100
AcDbEntity
  8
Capa 1
370
     9
  0
POLYLINE
  5
10E
330
3C
100
AcDbEntity
  8
Capa 1
 62
     7
370
     9
100
AcDb2dPolyline
 66
     1
 10
0.0
 20
0.0
 30
0.0
  0
VERTEX
  5
10F
330
10E
100
AcDbEntity
  8
Capa 1
 62
     7
370
     9
100
AcDbVertex
100
AcDb2dVertex
 10
69.19168788067834
 20
157.610294093653
 30
0.0
  0
VERTEX
  5
110
330
10E
100
AcDbEntity
  8
Capa 1
 62
     7
370
     9
100
AcDbVertex
100
AcDb2dVertex
 10
63.05028436244795
 20
157.610294093653
 30
0.0
  0
SEQEND
  5
111
330
10E
100
AcDbEntity
  8
Capa 1
370
     9
  0
POLYLINE
  5
112
330
3C
100
AcDbEntity
  8
Capa 1
 62
     7
370
     9
100
AcDb2dPolyline
 66
     1
 10
0.0
 20
0.0
 30
0.0
  0
VERTEX
  5
113
330
112
100
AcDbEntity
  8
Capa 1
 62
     7
370
     9
100
AcDbVertex
100
AcDb2dVertex
 10
63.45732266255111
 20
177.2532079802232
 30
0.0
  0
VERTEX
  5
114
330
112
100
AcDbEntity
  8
Capa 1
 62
     7
370
     9
100
AcDbVertex
100
AcDb2dVertex
 10
63.45732266255111
 20
157.610294093653
 30
0.0
  0
SEQEND
  5
115
330
112
100
AcDbEntity
  8
Capa 1
370
     9
  0
POLYLINE
  5
116
330
3C
100
AcDbEntity
  8
Capa 1
 62
     7
370
     9
100
AcDb2dPolyline
 66
     1
 10
0.0
 20
0.0
 30
0.0
  0
VERTEX
  5
117
330
116
100
AcDbEntity
  8
Capa 1
 62
     7
370
     9
100
AcDbVertex
100
AcDb2dVertex
 10
63.45732266255111
 20
196.8962941216812
 30
0.0
  0
VERTEX
  5
118
330
116
100
AcDbEntity
  8
Capa 1
 62
     7
370
     9
100
AcDbVertex
100
AcDb2dVertex
 10
63.45732266255111
 20
181.4729359690625
 30
0.0
  0
SEQEND
  5
119
330
116
100
AcDbEntity
  8
Capa 1
370
     9
  0
POLYLINE
  5
11A
330
3C
100
AcDbEntity
  8
Capa 1
370
     0
100
AcDb2dPolyline
 66
     1
 10
0.0
 20
0.0
 30
0.0
  0
VERTEX
  5
11B
330
11A
100
AcDbEntity
  8
Capa 1
370
     0
100
AcDbVertex
100
AcDb2dVertex
 10
62.13164904528746
 20
182.4156869705287
 30
0.0
  0
VERTEX
  5
11C
330
11A
100
AcDbEntity
  8
Capa 1
370
     0
100
AcDbVertex
100
AcDb2dVertex
 10
63.51537255977277
 20
177.2532079802232
 30
0.0
  0
VERTEX
  5
11D
330
11A
100
AcDbEntity
  8
Capa 1
370
     0
100
AcDbVertex
100
AcDb2dVertex
 10
64.89909607425808
 20
182.4156869705287
 30
0.0
  0
VERTEX
  5
11E
330
11A
100
AcDbEntity
  8
Capa 1
370
     0
100
AcDbVertex
100
AcDb2dVertex
 10
62.13164904528746
 20
182.4156869705287
 30
0.0
  0
SEQEND
  5
11F
330
11A
100
AcDbEntity
  8
Capa 1
370
     0
  0
HATCH
  5
120
330
3C
100
AcDbEntity
  8
Capa 1
 62
     7
100
AcDbHatch
 10
0.0
 20
0.0
 30
0.0
210
0.0
220
0.0
230
1.0
  2
SOLID
 70
     1
 71
     0
 91
        1
 92
        1
 93
        3
 72
     1
 10
62.13164904528746
 20
182.4156869705287
 11
63.51537255977277
 21
177.2532079802232
 72
     1
 10
63.51537255977277
 20
177.2532079802232
 11
64.89909607425808
 21
182.4156869705287
 72
     1
 10
64.89909607425808
 20
182.4156869705287
 11
62.13164904528746
 21
182.4156869705287
 97
        0
 75
     2
 76
     1
 98
        0
  0
POLYLINE
  5
121
330
3C
100
AcDbEntity
  8
Capa 1
 62
     7
370
     9
100
AcDb2dPolyline
 66
     1
 10
0.0
 20
0.0
 30
0.0
  0
VERTEX
  5
122
330
121
100
AcDbEntity
  8
Capa 1
 62
     7
370
     9
100
AcDbVertex
100
AcDb2dVertex
 10
63.45732266255111
 20
149.1596415482609
 30
0.0
  0
VERTEX
  5
123
330
121
100
AcDbEntity
  8
Capa 1
 62
     7
370
     9
100
AcDbVertex
100
AcDb2dVertex
 10
63.45732266255111
 20
153.3909106145894
 30
0.0
  0
SEQEND
  5
124
330
121
100
AcDbEntity
  8
Capa 1
370
     9
  0
POLYLINE
  5
125
330
3C
100
AcDbEntity
  8
Capa 1
370
     0
100
AcDb2dPolyline
 66
     1
 10
0.0
 20
0.0
 30
0.0
  0
VERTEX
  5
126
330
125
100
AcDbEntity
  8
Capa 1
370
     0
100
AcDbVertex
100
AcDb2dVertex
 10
64.78265177003898
 20
152.4478151033474
 30
0.0
  0
VERTEX
  5
127
330
125
100
AcDbEntity
  8
Capa 1
370
     0
100
AcDbVertex
100
AcDb2dVertex
 10
63.39910051044156
 20
157.610294093653
 30
0.0
  0
VERTEX
  5
128
330
125
100
AcDbEntity
  8
Capa 1
370
     0
100
AcDbVertex
100
AcDb2dVertex
 10
62.01554925084415
 20
152.4478151033474
 30
0.0
  0
VERTEX
  5
129
330
125
100
AcDbEntity
  8
Capa 1
370
     0
100
AcDbVertex
100
AcDb2dVertex
 10
64.78265177003898
 20
152.4478151033474
 30
0.0
  0
SEQEND
  5
12A
330
125
100
AcDbEntity
  8
Capa 1
370
     0
  0
HATCH
  5
12B
330
3C
100
AcDbEntity
  8
Capa 1
 62
     7
100
AcDbHatch
 10
0.0
 20
0.0
 30
0.0
210
0.0
220
0.0
230
1.0
  2
SOLID
 70
     1
 71
     0
 91
        1
 92
        1
 93
        3
 72
     1
 10
64.78265177003898
 20
152.4478151033474
 11
63.39910051044156
 21
157.610294093653
 72
     1
 10
63.39910051044156
 20
157.610294093653
 11
62.01554925084415
 21
152.4478151033474
 72
     1
 10
62.01554925084415
 20
152.4478151033474
 11
64.78265177003898
 21
152.4478151033474
 97
        0
 75
     2
 76
     1
 98
        0
  0
ENDBLK
  5
3F
330
3C
100
AcDbEntity
  8
0
100
AcDbBlockEnd
  0
BLOCK
  5
12F
330
12D
100
AcDbEntity
  8
0
100
AcDbBlockBegin
  2
block 3
 70
     0
 71
     0
 10
0.0
 20
0.0
 30
0.0
  3
block 3
  1

  0
POLYLINE
  5
131
330
12D
100
AcDbEntity
  8
Capa 1
370
     0
100
AcDb2dPolyline
 66
     1
 10
0.0
 20
0.0
 30
0.0
  0
VERTEX
  5
132
330
131
100
AcDbEntity
  8
Capa 1
370
     0
100
AcDbVertex
100
AcDb2dVertex
 10
38.77733134406517
 20
212.8882656592515
 30
0.0
  0
VERTEX
  5
133
330
131
100
AcDbEntity
  8
Capa 1
370
     0
100
AcDbVertex
100
AcDb2dVertex
 10
169.7089606549507
 20
212.8882656592515
 30
0.0
  0
VERTEX
  5
134
330
131
100
AcDbEntity
  8
Capa 1
370
     0
100
AcDbVertex
100
AcDb2dVertex
 10
169.7089606549507
 20
83.55567847272381
 30
0.0
  0
VERTEX
  5
135
330
131
100
AcDbEntity
  8
Capa 1
370
     0
100
AcDbVertex
100
AcDb2dVertex
 10
38.77733134406517
 20
83.55567847272381
 30
0.0
  0
VERTEX
  5
136
330
131
100
AcDbEntity
  8
Capa 1
370
     0
100
AcDbVertex
100
AcDb2dVertex
 10
38.77733134406517
 20
212.8882656592515
 30
0.0
  0
SEQEND
  5
137
330
131
100
AcDbEntity
  8
Capa 1
370
     0
  0
POLYLINE
  5
138
330
12D
100
AcDbEntity
  8
Capa 1
 62
     7
370
     9
100
AcDb2dPolyline
 66
     1
 10
0.0
 20
0.0
 30
0.0
  0
VERTEX
  5
139
330
138
100
AcDbEntity
  8
Capa 1
 62
     7
370
     9
100
AcDbVertex
100
AcDb2dVertex
 10
121.3980102852782
 20
124.8183033393826
 30
0.0
  0
VERTEX
  5
13A
330
138
100
AcDbEntity
  8
Capa 1
 62
     7
370
     9
100
AcDbVertex
100
AcDb2dVertex
 10
121.3980102852782
 20
121.4744914555049
 30
0.0
  0
SEQEND
  5
13B
330
138
100
AcDbEntity
  8
Capa 1
370
     9
  0
SPLINE
  5
13C
330
12D
100
AcDbEntity
  8
Capa 1
 62
     7
370
     9
100
AcDbSpline
210
0.0
220
0.0
230
1.0
 70
     8
 71
     3
 72
    53
 73
    49
 74
     0
 42
0.0000000001
 43
0.0000000001
 40
0.0
 40
0.0
 40
0.0
 40
0.0
 40
1.0
 40
1.0
 40
1.0
 40
2.0
 40
2.0
 40
2.0
 40
3.0
 40
3.0
 40
3.0
 40
4.0
 40
4.0
 40
4.0
 40
5.0
 40
5.0
 40
5.0
 40
6.0
 40
6.0
 40
6.0
 40
7.0
 40
7.0
 40
7.0
 40
8.0
 40
8.0
 40
8.0
 40
9.0
 40
9.0
 40
9.0
 40
10.0
 40
10.0
 40
10.0
 40
11.0
 40
11.0
 40
11.0
 40
12.0
 40
12.0
 40
12.0
 40
13.0
 40
13.0
 40
13.0
 40
14.0
 40
14.0
 40
14.0
 40
15.0
 40
15.0
 40
15.0
 40
16.0
 40
16.0
 40
16.0
 40
16.0
 10
121.3980102852782
 20
121.4744914555049
 30
0.0
 10
121.3980102852782
 20
121.3694159738871
 30
0.0
 10
121.4093791078795
 20
121.2626179433903
 30
0.0
 10
121.4279826357725
 20
121.1602985399788
 30
0.0
 10
121.448997732096
 20
121.0559120779126
 30
0.0
 10
121.4817261607967
 20
120.9535926745011
 30
0.0
 10
121.5210002752374
 20
120.855751898175
 30
0.0
 10
121.560618899454
 20
120.7582556316247
 30
0.0
 10
121.6119508560476
 20
120.6652379921597
 30
0.0
 10
121.6698284983814
 20
120.5766989797801
 30
0.0
 10
121.7280506504909
 20
120.4885044771763
 30
0.0
 10
121.7979861349775
 20
120.4047886016578
 30
0.0
 10
121.8724002465495
 20
120.3303744900859
 30
0.0
 10
121.9468143581215
 20
120.2559603785139
 30
0.0
 10
122.0281186652094
 20
120.1860248940273
 30
0.0
 10
122.1163131678132
 20
120.1302143103483
 30
0.0
 10
122.2048521801928
 20
120.069925099584
 30
0.0
 10
122.3002813880884
 20
120.0161815745598
 30
0.0
 10
122.3977776546387
 20
119.9789745187738
 30
0.0
 10
122.4956184309648
 20
119.9369443261266
 30
0.0
 10
122.5979378343762
 20
119.9069719756324
 30
0.0
 10
122.7026688062183
 20
119.8859568793088
 30
0.0
 10
122.8070552682845
 20
119.865286292761
 30
0.0
 10
122.9117862401265
 20
119.8559845288145
 30
0.0
 10
123.0165172119686
 20
119.8559845288145
 30
0.0
 10
123.1233152424654
 20
119.8559845288145
 30
0.0
 10
123.230457782738
 20
119.865286292761
 30
0.0
 10
123.33518875458
 20
119.8859568793088
 30
0.0
 10
123.4371636482157
 20
119.9069719756324
 30
0.0
 10
123.539827561403
 20
119.9348772674718
 30
0.0
 10
123.6373238279533
 20
119.9789745187738
 30
0.0
 10
123.7348200945036
 20
120.0161815745598
 30
0.0
 10
123.8302493023991
 20
120.069925099584
 30
0.0
 10
123.9187883147788
 20
120.1278027419177
 30
0.0
 10
124.0049157587278
 20
120.1860248940273
 30
0.0
 10
124.0882871244705
 20
120.2532043003075
 30
0.0
 10
124.1627012360424
 20
120.3303744900859
 30
0.0
 10
124.239526916045
 20
120.4047886016578
 30
0.0
 10
124.307050832101
 20
120.4857483989699
 30
0.0
 10
124.3652729842106
 20
120.5742874113495
 30
0.0
 10
124.4255621949749
 20
120.6624819139534
 30
0.0
 10
124.474482583138
 20
120.7582556316247
 30
0.0
 10
124.5141012073545
 20
120.855751898175
 30
0.0
 10
124.5557868902259
 20
120.9535926745011
 30
0.0
 10
124.5861037504959
 20
121.0531559997062
 30
0.0
 10
124.6071188468195
 20
121.1582314813241
 30
0.0
 10
124.6277894333673
 20
121.2605508847355
 30
0.0
 10
124.6374357070896
 20
121.3694159738871
 30
0.0
 10
124.6374357070896
 20
121.4744914555049
 30
0.0
  0
POLYLINE
  5
13D
330
12D
100
AcDbEntity
  8
Capa 1
 62
     7
370
     9
100
AcDb2dPolyline
 66
     1
 10
0.0
 20
0.0
 30
0.0
  0
VERTEX
  5
13E
330
13D
100
AcDbEntity
  8
Capa 1
 62
     7
370
     9
100
AcDbVertex
100
AcDb2dVertex
 10
124.6374357070896
 20
121.4744914555049
 30
0.0
  0
VERTEX
  5
13F
330
13D
100
AcDbEntity
  8
Capa 1
 62
     7
370
     9
100
AcDbVertex
100
AcDb2dVertex
 10
124.6374357070896
 20
124.8183033393826
 30
0.0
  0
SEQEND
  5
140
330
13D
100
AcDbEntity
  8
Capa 1
370
     9
  0
SPLINE
  5
141
330
12D
100
AcDbEntity
  8
Capa 1
 62
     7
370
     9
100
AcDbSpline
210
0.0
220
0.0
230
1.0
 70
     8
 71
     3
 72
    95
 73
    91
 74
     0
 42
0.0000000001
 43
0.0000000001
 40
0.0
 40
0.0
 40
0.0
 40
0.0
 40
1.0
 40
1.0
 40
1.0
 40
2.0
 40
2.0
 40
2.0
 40
3.0
 40
3.0
 40
3.0
 40
4.0
 40
4.0
 40
4.0
 40
5.0
 40
5.0
 40
5.0
 40
6.0
 40
6.0
 40
6.0
 40
7.0
 40
7.0
 40
7.0
 40
8.0
 40
8.0
 40
8.0
 40
9.0
 40
9.0
 40
9.0
 40
10.0
 40
10.0
 40
10.0
 40
11.0
 40
11.0
 40
11.0
 40
12.0
 40
12.0
 40
12.0
 40
13.0
 40
13.0
 40
13.0
 40
14.0
 40
14.0
 40
14.0
 40
15.0
 40
15.0
 40
15.0
 40
16.0
 40
16.0
 40
16.0
 40
17.0
 40
17.0
 40
17.0
 40
18.0
 40
18.0
 40
18.0
 40
19.0
 40
19.0
 40
19.0
 40
20.0
 40
20.0
 40
20.0
 40
21.0
 40
21.0
 40
21.0
 40
22.0
 40
22.0
 40
22.0
 40
23.0
 40
23.0
 40
23.0
 40
24.0
 40
24.0
 40
24.0
 40
25.0
 40
25.0
 40
25.0
 40
26.0
 40
26.0
 40
26.0
 40
27.0
 40
27.0
 40
27.0
 40
28.0
 40
28.0
 40
28.0
 40
29.0
 40
29.0
 40
29.0
 40
30.0
 40
30.0
 40
30.0
 40
30.0
 10
124.6374357070896
 20
124.8183033393826
 30
0.0
 10
124.8837601967838
 20
124.9905582272806
 30
0.0
 10
125.0977007675532
 20
125.1951970341036
 30
0.0
 10
125.278912909622
 20
125.4322197598513
 30
0.0
 10
125.3698634904322
 20
125.5531426911558
 30
0.0
 10
125.4511677975201
 20
125.6809558179762
 30
0.0
 10
125.5207587722309
 20
125.8111805132271
 30
0.0
 10
125.5906942567176
 20
125.9414052084781
 30
0.0
 10
125.6489164088271
 20
126.0788646090207
 30
0.0
 10
125.6978367969902
 20
126.220458126873
 30
0.0
 10
125.7464126753774
 20
126.362396154501
 30
0.0
 10
125.7812081627328
 20
126.5067457505596
 30
0.0
 10
125.8094579643481
 20
126.6528178954972
 30
0.0
 10
125.8370187464118
 20
126.8016461186411
 30
0.0
 10
125.8511436472195
 20
126.950474341785
 30
0.0
 10
125.85355521565
 20
127.099302564929
 30
0.0
 10
125.8556222743048
 20
127.2481307880729
 30
0.0
 10
125.8466650201341
 20
127.401782148078
 30
0.0
 10
125.82323835538
 20
127.550610371222
 30
0.0
 10
125.8022232590564
 20
127.6973715357111
 30
0.0
 10
125.7698393401316
 20
127.8434436806487
 30
0.0
 10
125.7253975790539
 20
127.9877932767073
 30
0.0
 10
125.6792332690972
 20
128.1297313043353
 30
0.0
 10
125.6234226854182
 20
128.2713248221876
 30
0.0
 10
125.5579658280169
 20
128.4043055956449
 30
0.0
 10
125.4907864217367
 20
128.5390089179812
 30
0.0
 10
125.4139607417341
 20
128.6692336132321
 30
0.0
 10
125.3278332977851
 20
128.787744976106
 30
0.0
 10
125.2396387951813
 20
128.911079475841
 30
0.0
 10
125.1417980188552
 20
129.0247677018538
 30
0.0
 10
125.0370670470131
 20
129.1343218105569
 30
0.0
 10
124.9326805849469
 20
129.2414643508295
 30
0.0
 10
124.8186478491583
 20
129.3389606173799
 30
0.0
 10
124.6977249178539
 20
129.4274996297595
 30
0.0
 10
124.57921355498
 20
129.5156941323633
 30
0.0
 10
124.4489888597291
 20
129.5949313807964
 30
0.0
 10
124.3163525960475
 20
129.6645223555072
 30
0.0
 10
124.1813047639354
 20
129.7344578399939
 30
0.0
 10
124.0441898731685
 20
129.7923354823276
 30
0.0
 10
123.9022518455405
 20
129.8412558704907
 30
0.0
 10
123.7606583276883
 20
129.8853531217926
 30
0.0
 10
123.6142416729749
 20
129.9204931189238
 30
0.0
 10
123.465413449831
 20
129.9435752739022
 30
0.0
 10
123.3165852266871
 20
129.9690689973111
 30
0.0
 10
123.1677570035431
 20
129.9783707612576
 30
0.0
 10
123.0189287803992
 20
129.9783707612576
 30
0.0
 10
122.8676889888246
 20
129.9783707612576
 30
0.0
 10
122.7188607656807
 20
129.9690689973111
 30
0.0
 10
122.5700325425368
 20
129.9435752739022
 30
0.0
 10
122.4212043193928
 20
129.9204931189238
 30
0.0
 10
122.2747876646794
 20
129.8853531217926
 30
0.0
 10
122.1328496370514
 20
129.8412558704907
 30
0.0
 10
121.9909116094234
 20
129.7923354823276
 30
0.0
 10
121.8537967186565
 20
129.7344578399939
 30
0.0
 10
121.7187488865444
 20
129.6645223555072
 30
0.0
 10
121.5864571326387
 20
129.5949313807964
 30
0.0
 10
121.4562324373877
 20
129.5156941323633
 30
0.0
 10
121.3373765647381
 20
129.4274996297595
 30
0.0
 10
121.2143865747788
 20
129.3389606173799
 30
0.0
 10
121.1048324660756
 20
129.2414643508295
 30
0.0
 10
120.9980344355788
 20
129.1343218105569
 30
0.0
 10
120.8933034637368
 20
129.0247677018538
 30
0.0
 10
120.7954626874107
 20
128.911079475841
 30
0.0
 10
120.7096797532374
 20
128.787744976106
 30
0.0
 10
120.619073682203
 20
128.6668220448015
 30
0.0
 10
120.5446595706311
 20
128.5390089179812
 30
0.0
 10
120.4792027132298
 20
128.4043055956449
 30
0.0
 10
120.4120233069495
 20
128.2713248221876
 30
0.0
 10
120.3562127232706
 20
128.1297313043353
 30
0.0
 10
120.3117709621929
 20
127.9857262180525
 30
0.0
 10
120.2656066522362
 20
127.8434436806487
 30
0.0
 10
120.2328782235355
 20
127.6973715357111
 30
0.0
 10
120.211863127212
 20
127.550610371222
 30
0.0
 10
120.1911925406642
 20
127.401782148078
 30
0.0
 10
120.1815462669419
 20
127.2481307880729
 30
0.0
 10
120.1839578353725
 20
127.099302564929
 30
0.0
 10
120.1863694038031
 20
126.950474341785
 30
0.0
 10
120.2001497948349
 20
126.8016461186411
 30
0.0
 10
120.223576459589
 20
126.6528178954972
 30
0.0
 10
120.2514817514285
 20
126.5067457505596
 30
0.0
 10
120.2886888072145
 20
126.3599845860704
 30
0.0
 10
120.3376091953776
 20
126.2183910682182
 30
0.0
 10
120.3861850737648
 20
126.0788646090207
 30
0.0
 10
120.446818794305
 20
125.9414052084781
 30
0.0
 10
120.5164097690158
 20
125.8111805132271
 30
0.0
 10
120.5863452535024
 20
125.6788887593214
 30
0.0
 10
120.6676495605903
 20
125.5531426911558
 30
0.0
 10
120.7582556316247
 20
125.4322197598513
 30
0.0
 10
120.9374007150387
 20
125.1951970341036
 30
0.0
 10
121.1513412858081
 20
124.9905582272806
 30
0.0
 10
121.3980102852782
 20
124.8183033393826
 30
0.0
  0
POLYLINE
  5
142
330
12D
100
AcDbEntity
  8
Capa 1
 62
     7
370
     9
100
AcDb2dPolyline
 66
     1
 10
0.0
 20
0.0
 30
0.0
  0
VERTEX
  5
143
330
142
100
AcDbEntity
  8
Capa 1
 62
     7
370
     9
100
AcDbVertex
100
AcDb2dVertex
 10
124.1327288855482
 20
116.3120124651993
 30
0.0
  0
VERTEX
  5
144
330
142
100
AcDbEntity
  8
Capa 1
 62
     7
370
     9
100
AcDbVertex
100
AcDb2dVertex
 10
124.1254941802565
 20
116.4208775543509
 30
0.0
  0
VERTEX
  5
145
330
142
100
AcDbEntity
  8
Capa 1
 62
     7
370
     9
100
AcDbVertex
100
AcDb2dVertex
 10
124.1117137892246
 20
116.5280200946235
 30
0.0
  0
VERTEX
  5
146
330
142
100
AcDbEntity
  8
Capa 1
 62
     7
370
     9
100
AcDbVertex
100
AcDb2dVertex
 10
124.0813969289545
 20
116.6327510664656
 30
0.0
  0
VERTEX
  5
147
330
142
100
AcDbEntity
  8
Capa 1
 62
     7
370
     9
100
AcDbVertex
100
AcDb2dVertex
 10
124.0490130100297
 20
116.735070469877
 30
0.0
  0
VERTEX
  5
148
330
142
100
AcDbEntity
  8
Capa 1
 62
     7
370
     9
100
AcDbVertex
100
AcDb2dVertex
 10
124.0025041902972
 20
116.8329112462032
 30
0.0
  0
VERTEX
  5
149
330
142
100
AcDbEntity
  8
Capa 1
 62
     7
370
     9
100
AcDbVertex
100
AcDb2dVertex
 10
123.9466936066182
 20
116.9259288856681
 30
0.0
  0
VERTEX
  5
14A
330
142
100
AcDbEntity
  8
Capa 1
 62
     7
370
     9
100
AcDbVertex
100
AcDb2dVertex
 10
123.8815812589928
 20
117.0141233882719
 30
0.0
  0
VERTEX
  5
14B
330
142
100
AcDbEntity
  8
Capa 1
 62
     7
370
     9
100
AcDbVertex
100
AcDb2dVertex
 10
123.8092342060756
 20
117.0954276953598
 30
0.0
  0
VERTEX
  5
14C
330
142
100
AcDbEntity
  8
Capa 1
 62
     7
370
     9
100
AcDbVertex
100
AcDb2dVertex
 10
123.7279298989877
 20
117.1698418069318
 30
0.0
  0
VERTEX
  5
14D
330
142
100
AcDbEntity
  8
Capa 1
 62
     7
370
     9
100
AcDbVertex
100
AcDb2dVertex
 10
123.6418024550386
 20
117.2349541545573
 30
0.0
  0
VERTEX
  5
14E
330
142
100
AcDbEntity
  8
Capa 1
 62
     7
370
     9
100
AcDbVertex
100
AcDb2dVertex
 10
123.5487848155737
 20
117.2886976795815
 30
0.0
  0
VERTEX
  5
14F
330
142
100
AcDbEntity
  8
Capa 1
 62
     7
370
     9
100
AcDbVertex
100
AcDb2dVertex
 10
123.4488769805928
 20
117.3372735579687
 30
0.0
  0
VERTEX
  5
150
330
142
100
AcDbEntity
  8
Capa 1
 62
     7
370
     9
100
AcDbVertex
100
AcDb2dVertex
 10
123.3465575771813
 20
117.3744806137547
 30
0.0
  0
VERTEX
  5
151
330
142
100
AcDbEntity
  8
Capa 1
 62
     7
370
     9
100
AcDbVertex
100
AcDb2dVertex
 10
123.2397595466845
 20
117.4023859055942
 30
0.0
  0
VERTEX
  5
152
330
142
100
AcDbEntity
  8
Capa 1
 62
     7
370
     9
100
AcDbVertex
100
AcDb2dVertex
 10
123.1326170064119
 20
117.4189223748324
 30
0.0
  0
VERTEX
  5
153
330
142
100
AcDbEntity
  8
Capa 1
 62
     7
370
     9
100
AcDbVertex
100
AcDb2dVertex
 10
123.0234074074845
 20
117.4254680605726
 30
0.0
  0
VERTEX
  5
154
330
142
100
AcDbEntity
  8
Capa 1
 62
     7
370
     9
100
AcDbVertex
100
AcDb2dVertex
 10
122.9117862401265
 20
117.4209894334872
 30
0.0
  0
VERTEX
  5
155
330
142
100
AcDbEntity
  8
Capa 1
 62
     7
370
     9
100
AcDbVertex
100
AcDb2dVertex
 10
122.8025766411992
 20
117.4047974740248
 30
0.0
  0
VERTEX
  5
156
330
142
100
AcDbEntity
  8
Capa 1
 62
     7
370
     9
100
AcDbVertex
100
AcDb2dVertex
 10
122.6978456693571
 20
117.3768921821853
 30
0.0
  0
VERTEX
  5
157
330
142
100
AcDbEntity
  8
Capa 1
 62
     7
370
     9
100
AcDbVertex
100
AcDb2dVertex
 10
122.5931146975151
 20
117.3417521850541
 30
0.0
  0
VERTEX
  5
158
330
142
100
AcDbEntity
  8
Capa 1
 62
     7
370
     9
100
AcDbVertex
100
AcDb2dVertex
 10
122.4932068625342
 20
117.2952433653216
 30
0.0
  0
VERTEX
  5
159
330
142
100
AcDbEntity
  8
Capa 1
 62
     7
370
     9
100
AcDbVertex
100
AcDb2dVertex
 10
122.4001892230692
 20
117.2394327816426
 30
0.0
  0
VERTEX
  5
15A
330
142
100
AcDbEntity
  8
Capa 1
 62
     7
370
     9
100
AcDbVertex
100
AcDb2dVertex
 10
122.3140617791202
 20
117.1743204340171
 30
0.0
  0
VERTEX
  5
15B
330
142
100
AcDbEntity
  8
Capa 1
 62
     7
370
     9
100
AcDbVertex
100
AcDb2dVertex
 10
122.2327574720323
 20
117.0999063224452
 30
0.0
  0
VERTEX
  5
15C
330
142
100
AcDbEntity
  8
Capa 1
 62
     7
370
     9
100
AcDbVertex
100
AcDb2dVertex
 10
122.1583433604603
 20
117.0210135837879
 30
0.0
  0
VERTEX
  5
15D
330
142
100
AcDbEntity
  8
Capa 1
 62
     7
370
     9
100
AcDbVertex
100
AcDb2dVertex
 10
122.0932310128348
 20
116.9324745714082
 30
0.0
  0
VERTEX
  5
15E
330
142
100
AcDbEntity
  8
Capa 1
 62
     7
370
     9
100
AcDbVertex
100
AcDb2dVertex
 10
122.0374204291559
 20
116.8394569319433
 30
0.0
  0
VERTEX
  5
15F
330
142
100
AcDbEntity
  8
Capa 1
 62
     7
370
     9
100
AcDbVertex
100
AcDb2dVertex
 10
121.9909116094234
 20
116.741960665393
 30
0.0
  0
VERTEX
  5
160
330
142
100
AcDbEntity
  8
Capa 1
 62
     7
370
     9
100
AcDbVertex
100
AcDb2dVertex
 10
121.9537045536374
 20
116.6396412619815
 30
0.0
  0
VERTEX
  5
161
330
142
100
AcDbEntity
  8
Capa 1
 62
     7
370
     9
100
AcDbVertex
100
AcDb2dVertex
 10
121.9282108302285
 20
116.5352547999153
 30
0.0
  0
VERTEX
  5
162
330
142
100
AcDbEntity
  8
Capa 1
 62
     7
370
     9
100
AcDbVertex
100
AcDb2dVertex
 10
121.9096073023355
 20
116.4281122596426
 30
0.0
  0
VERTEX
  5
163
330
142
100
AcDbEntity
  8
Capa 1
 62
     7
370
     9
100
AcDbVertex
100
AcDb2dVertex
 10
121.9047841654743
 20
116.3185581509395
 30
0.0
  0
VERTEX
  5
164
330
142
100
AcDbEntity
  8
Capa 1
 62
     7
370
     9
100
AcDbVertex
100
AcDb2dVertex
 10
121.9096073023355
 20
116.2096930617879
 30
0.0
  0
VERTEX
  5
165
330
142
100
AcDbEntity
  8
Capa 1
 62
     7
370
     9
100
AcDbVertex
100
AcDb2dVertex
 10
121.9233876933673
 20
116.1025505215153
 30
0.0
  0
VERTEX
  5
166
330
142
100
AcDbEntity
  8
Capa 1
 62
     7
370
     9
100
AcDbVertex
100
AcDb2dVertex
 10
121.9488814167763
 20
115.9957524910185
 30
0.0
  0
VERTEX
  5
167
330
142
100
AcDbEntity
  8
Capa 1
 62
     7
370
     9
100
AcDbVertex
100
AcDb2dVertex
 10
121.9860884725622
 20
115.893433087607
 30
0.0
  0
VERTEX
  5
168
330
142
100
AcDbEntity
  8
Capa 1
 62
     7
370
     9
100
AcDbVertex
100
AcDb2dVertex
 10
122.0329418020705
 20
115.7931807428503
 30
0.0
  0
VERTEX
  5
169
330
142
100
AcDbEntity
  8
Capa 1
 62
     7
370
     9
100
AcDbVertex
100
AcDb2dVertex
 10
122.0887523857495
 20
115.7001631033853
 30
0.0
  0
VERTEX
  5
16A
330
142
100
AcDbEntity
  8
Capa 1
 62
     7
370
     9
100
AcDbVertex
100
AcDb2dVertex
 10
122.1514531649444
 20
115.6116240910057
 30
0.0
  0
VERTEX
  5
16B
330
142
100
AcDbEntity
  8
Capa 1
 62
     7
370
     9
100
AcDbVertex
100
AcDb2dVertex
 10
122.2258672765164
 20
115.5279082154873
 30
0.0
  0
VERTEX
  5
16C
330
142
100
AcDbEntity
  8
Capa 1
 62
     7
370
     9
100
AcDbVertex
100
AcDb2dVertex
 10
122.3047600151737
 20
115.4534941039153
 30
0.0
  0
VERTEX
  5
16D
330
142
100
AcDbEntity
  8
Capa 1
 62
     7
370
     9
100
AcDbVertex
100
AcDb2dVertex
 10
122.3932990275533
 20
115.3883817562898
 30
0.0
  0
VERTEX
  5
16E
330
142
100
AcDbEntity
  8
Capa 1
 62
     7
370
     9
100
AcDbVertex
100
AcDb2dVertex
 10
122.4863166670183
 20
115.3325711726108
 30
0.0
  0
VERTEX
  5
16F
330
142
100
AcDbEntity
  8
Capa 1
 62
     7
370
     9
100
AcDbVertex
100
AcDb2dVertex
 10
122.5862245019992
 20
115.2839952942236
 30
0.0
  0
VERTEX
  5
170
330
142
100
AcDbEntity
  8
Capa 1
 62
     7
370
     9
100
AcDbVertex
100
AcDb2dVertex
 10
122.6885439054106
 20
115.2467882384376
 30
0.0
  0
VERTEX
  5
171
330
142
100
AcDbEntity
  8
Capa 1
 62
     7
370
     9
100
AcDbVertex
100
AcDb2dVertex
 10
122.7932748772527
 20
115.2209500052529
 30
0.0
  0
VERTEX
  5
172
330
142
100
AcDbEntity
  8
Capa 1
 62
     7
370
     9
100
AcDbVertex
100
AcDb2dVertex
 10
122.90248447618
 20
115.2023464773599
 30
0.0
  0
VERTEX
  5
173
330
142
100
AcDbEntity
  8
Capa 1
 62
     7
370
     9
100
AcDbVertex
100
AcDb2dVertex
 10
123.014105643538
 20
115.1978678502745
 30
0.0
  0
VERTEX
  5
174
330
142
100
AcDbEntity
  8
Capa 1
 62
     7
370
     9
100
AcDbVertex
100
AcDb2dVertex
 10
123.1233152424654
 20
115.2023464773599
 30
0.0
  0
VERTEX
  5
175
330
142
100
AcDbEntity
  8
Capa 1
 62
     7
370
     9
100
AcDbVertex
100
AcDb2dVertex
 10
123.2325248413928
 20
115.2188829465981
 30
0.0
  0
VERTEX
  5
176
330
142
100
AcDbEntity
  8
Capa 1
 62
     7
370
     9
100
AcDbVertex
100
AcDb2dVertex
 10
123.3372558132348
 20
115.244376670007
 30
0.0
  0
VERTEX
  5
177
330
142
100
AcDbEntity
  8
Capa 1
 62
     7
370
     9
100
AcDbVertex
100
AcDb2dVertex
 10
123.4419867850768
 20
115.281583725793
 30
0.0
  0
VERTEX
  5
178
330
142
100
AcDbEntity
  8
Capa 1
 62
     7
370
     9
100
AcDbVertex
100
AcDb2dVertex
 10
123.5418946200577
 20
115.3280925455255
 30
0.0
  0
VERTEX
  5
179
330
142
100
AcDbEntity
  8
Capa 1
 62
     7
370
     9
100
AcDbVertex
100
AcDb2dVertex
 10
123.6349122595227
 20
115.3839031292045
 30
0.0
  0
VERTEX
  5
17A
330
142
100
AcDbEntity
  8
Capa 1
 62
     7
370
     9
100
AcDbVertex
100
AcDb2dVertex
 10
123.7234512719023
 20
115.4490154768299
 30
0.0
  0
VERTEX
  5
17B
330
142
100
AcDbEntity
  8
Capa 1
 62
     7
370
     9
100
AcDbVertex
100
AcDb2dVertex
 10
123.8047555789902
 20
115.5234295884019
 30
0.0
  0
VERTEX
  5
17C
330
142
100
AcDbEntity
  8
Capa 1
 62
     7
370
     9
100
AcDbVertex
100
AcDb2dVertex
 10
123.8791696905622
 20
115.6023223270592
 30
0.0
  0
VERTEX
  5
17D
330
142
100
AcDbEntity
  8
Capa 1
 62
     7
370
     9
100
AcDbVertex
100
AcDb2dVertex
 10
123.9442820381877
 20
115.6908613394389
 30
0.0
  0
VERTEX
  5
17E
330
142
100
AcDbEntity
  8
Capa 1
 62
     7
370
     9
100
AcDbVertex
100
AcDb2dVertex
 10
124.0000926218666
 20
115.7862905473344
 30
0.0
  0
VERTEX
  5
17F
330
142
100
AcDbEntity
  8
Capa 1
 62
     7
370
     9
100
AcDbVertex
100
AcDb2dVertex
 10
124.0466014415991
 20
115.8841313236605
 30
0.0
  0
VERTEX
  5
180
330
142
100
AcDbEntity
  8
Capa 1
 62
     7
370
     9
100
AcDbVertex
100
AcDb2dVertex
 10
124.0813969289545
 20
115.986450727072
 30
0.0
  0
VERTEX
  5
181
330
142
100
AcDbEntity
  8
Capa 1
 62
     7
370
     9
100
AcDbVertex
100
AcDb2dVertex
 10
124.109302220794
 20
116.0932487575688
 30
0.0
  0
VERTEX
  5
182
330
142
100
AcDbEntity
  8
Capa 1
 62
     7
370
     9
100
AcDbVertex
100
AcDb2dVertex
 10
124.1254941802565
 20
116.2024583564962
 30
0.0
  0
VERTEX
  5
183
330
142
100
AcDbEntity
  8
Capa 1
 62
     7
370
     9
100
AcDbVertex
100
AcDb2dVertex
 10
124.1327288855482
 20
116.3120124651993
 30
0.0
  0
SEQEND
  5
184
330
142
100
AcDbEntity
  8
Capa 1
370
     9
  0
POLYLINE
  5
185
330
12D
100
AcDbEntity
  8
Capa 1
 62
     7
370
     9
100
AcDb2dPolyline
 66
     1
 10
0.0
 20
0.0
 30
0.0
  0
VERTEX
  5
186
330
185
100
AcDbEntity
  8
Capa 1
 62
     7
370
     9
100
AcDbVertex
100
AcDb2dVertex
 10
124.1327288855482
 20
133.9295533798638
 30
0.0
  0
VERTEX
  5
187
330
185
100
AcDbEntity
  8
Capa 1
 62
     7
370
     9
100
AcDbVertex
100
AcDb2dVertex
 10
124.1254941802565
 20
134.0384184690154
 30
0.0
  0
VERTEX
  5
188
330
185
100
AcDbEntity
  8
Capa 1
 62
     7
370
     9
100
AcDbVertex
100
AcDb2dVertex
 10
124.1117137892246
 20
134.145561009288
 30
0.0
  0
VERTEX
  5
189
330
185
100
AcDbEntity
  8
Capa 1
 62
     7
370
     9
100
AcDbVertex
100
AcDb2dVertex
 10
124.0813969289545
 20
134.2502919811301
 30
0.0
  0
VERTEX
  5
18A
330
185
100
AcDbEntity
  8
Capa 1
 62
     7
370
     9
100
AcDbVertex
100
AcDb2dVertex
 10
124.0466014415991
 20
134.3546784431963
 30
0.0
  0
VERTEX
  5
18B
330
185
100
AcDbEntity
  8
Capa 1
 62
     7
370
     9
100
AcDbVertex
100
AcDb2dVertex
 10
124.0000926218666
 20
134.4525192195224
 30
0.0
  0
VERTEX
  5
18C
330
185
100
AcDbEntity
  8
Capa 1
 62
     7
370
     9
100
AcDbVertex
100
AcDb2dVertex
 10
123.9442820381877
 20
134.5455368589874
 30
0.0
  0
VERTEX
  5
18D
330
185
100
AcDbEntity
  8
Capa 1
 62
     7
370
     9
100
AcDbVertex
100
AcDb2dVertex
 10
123.8791696905622
 20
134.6316643029364
 30
0.0
  0
VERTEX
  5
18E
330
185
100
AcDbEntity
  8
Capa 1
 62
     7
370
     9
100
AcDbVertex
100
AcDb2dVertex
 10
123.8047555789902
 20
134.7153801784549
 30
0.0
  0
VERTEX
  5
18F
330
185
100
AcDbEntity
  8
Capa 1
 62
     7
370
     9
100
AcDbVertex
100
AcDb2dVertex
 10
123.7258628403329
 20
134.7897942900269
 30
0.0
  0
VERTEX
  5
190
330
185
100
AcDbEntity
  8
Capa 1
 62
     7
370
     9
100
AcDbVertex
100
AcDb2dVertex
 10
123.6373238279533
 20
134.8524950692218
 30
0.0
  0
VERTEX
  5
191
330
185
100
AcDbEntity
  8
Capa 1
 62
     7
370
     9
100
AcDbVertex
100
AcDb2dVertex
 10
123.5418946200577
 20
134.9107172213313
 30
0.0
  0
VERTEX
  5
192
330
185
100
AcDbEntity
  8
Capa 1
 62
     7
370
     9
100
AcDbVertex
100
AcDb2dVertex
 10
123.4443983535074
 20
134.9572260410638
 30
0.0
  0
VERTEX
  5
193
330
185
100
AcDbEntity
  8
Capa 1
 62
     7
370
     9
100
AcDbVertex
100
AcDb2dVertex
 10
123.3396673816654
 20
134.9944330968498
 30
0.0
  0
VERTEX
  5
194
330
185
100
AcDbEntity
  8
Capa 1
 62
     7
370
     9
100
AcDbVertex
100
AcDb2dVertex
 10
123.2325248413928
 20
135.0223383886893
 30
0.0
  0
VERTEX
  5
195
330
185
100
AcDbEntity
  8
Capa 1
 62
     7
370
     9
100
AcDbVertex
100
AcDb2dVertex
 10
123.125726810896
 20
135.0385303481517
 30
0.0
  0
VERTEX
  5
196
330
185
100
AcDbEntity
  8
Capa 1
 62
     7
370
     9
100
AcDbVertex
100
AcDb2dVertex
 10
123.0165172119686
 20
135.043008975237
 30
0.0
  0
VERTEX
  5
197
330
185
100
AcDbEntity
  8
Capa 1
 62
     7
370
     9
100
AcDbVertex
100
AcDb2dVertex
 10
122.9048960446106
 20
135.0364632894969
 30
0.0
  0
VERTEX
  5
198
330
185
100
AcDbEntity
  8
Capa 1
 62
     7
370
     9
100
AcDbVertex
100
AcDb2dVertex
 10
122.7932748772527
 20
135.0199268202587
 30
0.0
  0
VERTEX
  5
199
330
185
100
AcDbEntity
  8
Capa 1
 62
     7
370
     9
100
AcDbVertex
100
AcDb2dVertex
 10
122.6909554738412
 20
134.9944330968498
 30
0.0
  0
VERTEX
  5
19A
330
185
100
AcDbEntity
  8
Capa 1
 62
     7
370
     9
100
AcDbVertex
100
AcDb2dVertex
 10
122.5886360704297
 20
134.9572260410638
 30
0.0
  0
VERTEX
  5
19B
330
185
100
AcDbEntity
  8
Capa 1
 62
     7
370
     9
100
AcDbVertex
100
AcDb2dVertex
 10
122.4883837256731
 20
134.9083056529007
 30
0.0
  0
VERTEX
  5
19C
330
185
100
AcDbEntity
  8
Capa 1
 62
     7
370
     9
100
AcDbVertex
100
AcDb2dVertex
 10
122.3953660862081
 20
134.8524950692218
 30
0.0
  0
VERTEX
  5
19D
330
185
100
AcDbEntity
  8
Capa 1
 62
     7
370
     9
100
AcDbVertex
100
AcDb2dVertex
 10
122.3071715836043
 20
134.7853156629415
 30
0.0
  0
VERTEX
  5
19E
330
185
100
AcDbEntity
  8
Capa 1
 62
     7
370
     9
100
AcDbVertex
100
AcDb2dVertex
 10
122.2258672765164
 20
134.7109015513695
 30
0.0
  0
VERTEX
  5
19F
330
185
100
AcDbEntity
  8
Capa 1
 62
     7
370
     9
100
AcDbVertex
100
AcDb2dVertex
 10
122.1535202235992
 20
134.6292527345059
 30
0.0
  0
VERTEX
  5
1A0
330
185
100
AcDbEntity
  8
Capa 1
 62
     7
370
     9
100
AcDbVertex
100
AcDb2dVertex
 10
122.0887523857495
 20
134.5434698003326
 30
0.0
  0
VERTEX
  5
1A1
330
185
100
AcDbEntity
  8
Capa 1
 62
     7
370
     9
100
AcDbVertex
100
AcDb2dVertex
 10
122.0329418020705
 20
134.4476960826613
 30
0.0
  0
VERTEX
  5
1A2
330
185
100
AcDbEntity
  8
Capa 1
 62
     7
370
     9
100
AcDbVertex
100
AcDb2dVertex
 10
121.9860884725622
 20
134.3481327574562
 30
0.0
  0
VERTEX
  5
1A3
330
185
100
AcDbEntity
  8
Capa 1
 62
     7
370
     9
100
AcDbVertex
100
AcDb2dVertex
 10
121.9512929852068
 20
134.2458133540447
 30
0.0
  0
VERTEX
  5
1A4
330
185
100
AcDbEntity
  8
Capa 1
 62
     7
370
     9
100
AcDbVertex
100
AcDb2dVertex
 10
121.9233876933673
 20
134.1407378724269
 30
0.0
  0
VERTEX
  5
1A5
330
185
100
AcDbEntity
  8
Capa 1
 62
     7
370
     9
100
AcDbVertex
100
AcDb2dVertex
 10
121.9096073023355
 20
134.0318727832753
 30
0.0
  0
VERTEX
  5
1A6
330
185
100
AcDbEntity
  8
Capa 1
 62
     7
370
     9
100
AcDbVertex
100
AcDb2dVertex
 10
121.9047841654743
 20
133.9223186745721
 30
0.0
  0
VERTEX
  5
1A7
330
185
100
AcDbEntity
  8
Capa 1
 62
     7
370
     9
100
AcDbVertex
100
AcDb2dVertex
 10
121.9096073023355
 20
133.8151761342995
 30
0.0
  0
VERTEX
  5
1A8
330
185
100
AcDbEntity
  8
Capa 1
 62
     7
370
     9
100
AcDbVertex
100
AcDb2dVertex
 10
121.9257992617979
 20
133.7063110451479
 30
0.0
  0
VERTEX
  5
1A9
330
185
100
AcDbEntity
  8
Capa 1
 62
     7
370
     9
100
AcDbVertex
100
AcDb2dVertex
 10
121.9537045536374
 20
133.6012355635301
 30
0.0
  0
VERTEX
  5
1AA
330
185
100
AcDbEntity
  8
Capa 1
 62
     7
370
     9
100
AcDbVertex
100
AcDb2dVertex
 10
121.9909116094234
 20
133.4989161601186
 30
0.0
  0
VERTEX
  5
1AB
330
185
100
AcDbEntity
  8
Capa 1
 62
     7
370
     9
100
AcDbVertex
100
AcDb2dVertex
 10
122.0374204291559
 20
133.4014198935683
 30
0.0
  0
VERTEX
  5
1AC
330
185
100
AcDbEntity
  8
Capa 1
 62
     7
370
     9
100
AcDbVertex
100
AcDb2dVertex
 10
122.0932310128348
 20
133.3084022541033
 30
0.0
  0
VERTEX
  5
1AD
330
185
100
AcDbEntity
  8
Capa 1
 62
     7
370
     9
100
AcDbVertex
100
AcDb2dVertex
 10
122.1583433604603
 20
133.2198632417237
 30
0.0
  0
VERTEX
  5
1AE
330
185
100
AcDbEntity
  8
Capa 1
 62
     7
370
     9
100
AcDbVertex
100
AcDb2dVertex
 10
122.2303459036017
 20
133.1409705030664
 30
0.0
  0
VERTEX
  5
1AF
330
185
100
AcDbEntity
  8
Capa 1
 62
     7
370
     9
100
AcDbVertex
100
AcDb2dVertex
 10
122.3119947204654
 20
133.0665563914944
 30
0.0
  0
VERTEX
  5
1B0
330
185
100
AcDbEntity
  8
Capa 1
 62
     7
370
     9
100
AcDbVertex
100
AcDb2dVertex
 10
122.4001892230692
 20
133.001444043869
 30
0.0
  0
VERTEX
  5
1B1
330
185
100
AcDbEntity
  8
Capa 1
 62
     7
370
     9
100
AcDbVertex
100
AcDb2dVertex
 10
122.4932068625342
 20
132.94563346019
 30
0.0
  0
VERTEX
  5
1B2
330
185
100
AcDbEntity
  8
Capa 1
 62
     7
370
     9
100
AcDbVertex
100
AcDb2dVertex
 10
122.5931146975151
 20
132.8991246404575
 30
0.0
  0
VERTEX
  5
1B3
330
185
100
AcDbEntity
  8
Capa 1
 62
     7
370
     9
100
AcDbVertex
100
AcDb2dVertex
 10
122.693022532496
 20
132.8619175846715
 30
0.0
  0
VERTEX
  5
1B4
330
185
100
AcDbEntity
  8
Capa 1
 62
     7
370
     9
100
AcDbVertex
100
AcDb2dVertex
 10
122.8025766411992
 20
132.8364238612626
 30
0.0
  0
VERTEX
  5
1B5
330
185
100
AcDbEntity
  8
Capa 1
 62
     7
370
     9
100
AcDbVertex
100
AcDb2dVertex
 10
122.909374671696
 20
132.8198873920244
 30
0.0
  0
VERTEX
  5
1B6
330
185
100
AcDbEntity
  8
Capa 1
 62
     7
370
     9
100
AcDbVertex
100
AcDb2dVertex
 10
123.0209958390539
 20
132.8178203333696
 30
0.0
  0
VERTEX
  5
1B7
330
185
100
AcDbEntity
  8
Capa 1
 62
     7
370
     9
100
AcDbVertex
100
AcDb2dVertex
 10
123.1305499477571
 20
132.8198873920244
 30
0.0
  0
VERTEX
  5
1B8
330
185
100
AcDbEntity
  8
Capa 1
 62
     7
370
     9
100
AcDbVertex
100
AcDb2dVertex
 10
123.2373479782539
 20
132.8364238612626
 30
0.0
  0
VERTEX
  5
1B9
330
185
100
AcDbEntity
  8
Capa 1
 62
     7
370
     9
100
AcDbVertex
100
AcDb2dVertex
 10
123.3441460087507
 20
132.8643291531021
 30
0.0
  0
VERTEX
  5
1BA
330
185
100
AcDbEntity
  8
Capa 1
 62
     7
370
     9
100
AcDbVertex
100
AcDb2dVertex
 10
123.4488769805928
 20
132.901536208888
 30
0.0
  0
VERTEX
  5
1BB
330
185
100
AcDbEntity
  8
Capa 1
 62
     7
370
     9
100
AcDbVertex
100
AcDb2dVertex
 10
123.5467177569189
 20
132.94563346019
 30
0.0
  0
VERTEX
  5
1BC
330
185
100
AcDbEntity
  8
Capa 1
 62
     7
370
     9
100
AcDbVertex
100
AcDb2dVertex
 10
123.6397353963839
 20
133.0038556122995
 30
0.0
  0
VERTEX
  5
1BD
330
185
100
AcDbEntity
  8
Capa 1
 62
     7
370
     9
100
AcDbVertex
100
AcDb2dVertex
 10
123.7279298989877
 20
133.0710350185798
 30
0.0
  0
VERTEX
  5
1BE
330
185
100
AcDbEntity
  8
Capa 1
 62
     7
370
     9
100
AcDbVertex
100
AcDb2dVertex
 10
123.8071671474208
 20
133.143382071497
 30
0.0
  0
VERTEX
  5
1BF
330
185
100
AcDbEntity
  8
Capa 1
 62
     7
370
     9
100
AcDbVertex
100
AcDb2dVertex
 10
123.8815812589928
 20
133.2246863785849
 30
0.0
  0
VERTEX
  5
1C0
330
185
100
AcDbEntity
  8
Capa 1
 62
     7
370
     9
100
AcDbVertex
100
AcDb2dVertex
 10
123.9442820381877
 20
133.3108138225339
 30
0.0
  0
VERTEX
  5
1C1
330
185
100
AcDbEntity
  8
Capa 1
 62
     7
370
     9
100
AcDbVertex
100
AcDb2dVertex
 10
124.0000926218666
 20
133.4058985206536
 30
0.0
  0
VERTEX
  5
1C2
330
185
100
AcDbEntity
  8
Capa 1
 62
     7
370
     9
100
AcDbVertex
100
AcDb2dVertex
 10
124.0466014415991
 20
133.5037392969797
 30
0.0
  0
VERTEX
  5
1C3
330
185
100
AcDbEntity
  8
Capa 1
 62
     7
370
     9
100
AcDbVertex
100
AcDb2dVertex
 10
124.0813969289545
 20
133.6060587003912
 30
0.0
  0
VERTEX
  5
1C4
330
185
100
AcDbEntity
  8
Capa 1
 62
     7
370
     9
100
AcDbVertex
100
AcDb2dVertex
 10
124.109302220794
 20
133.7107896722333
 30
0.0
  0
VERTEX
  5
1C5
330
185
100
AcDbEntity
  8
Capa 1
 62
     7
370
     9
100
AcDbVertex
100
AcDb2dVertex
 10
124.1254941802565
 20
133.8199992711606
 30
0.0
  0
VERTEX
  5
1C6
330
185
100
AcDbEntity
  8
Capa 1
 62
     7
370
     9
100
AcDbVertex
100
AcDb2dVertex
 10
124.1327288855482
 20
133.9295533798638
 30
0.0
  0
SEQEND
  5
1C7
330
185
100
AcDbEntity
  8
Capa 1
370
     9
  0
SPLINE
  5
1C8
330
12D
100
AcDbEntity
  8
Capa 1
 62
     7
370
     9
100
AcDbSpline
210
0.0
220
0.0
230
1.0
 70
     8
 71
     3
 72
    56
 73
    52
 74
     0
 42
0.0000000001
 43
0.0000000001
 40
0.0
 40
0.0
 40
0.0
 40
0.0
 40
1.0
 40
1.0
 40
1.0
 40
2.0
 40
2.0
 40
2.0
 40
3.0
 40
3.0
 40
3.0
 40
4.0
 40
4.0
 40
4.0
 40
5.0
 40
5.0
 40
5.0
 40
6.0
 40
6.0
 40
6.0
 40
7.0
 40
7.0
 40
7.0
 40
8.0
 40
8.0
 40
8.0
 40
9.0
 40
9.0
 40
9.0
 40
10.0
 40
10.0
 40
10.0
 40
11.0
 40
11.0
 40
11.0
 40
12.0
 40
12.0
 40
12.0
 40
13.0
 40
13.0
 40
13.0
 40
14.0
 40
14.0
 40
14.0
 40
15.0
 40
15.0
 40
15.0
 40
16.0
 40
16.0
 40
16.0
 40
17.0
 40
17.0
 40
17.0
 40
17.0
 10
119.5979467067432
 20
113.5352636722822
 30
0.0
 10
119.4608318159763
 20
113.7512713017064
 30
0.0
 10
119.3257839838642
 20
113.970035009337
 30
0.0
 10
119.1979708570438
 20
114.1912102853981
 30
0.0
 10
119.0677461617929
 20
114.4116965419077
 30
0.0
 10
118.9423446034031
 20
114.6328718179688
 30
0.0
 10
118.8214216720986
 20
114.8581812113395
 30
0.0
 10
118.5795758094897
 20
115.3119005860631
 30
0.0
 10
118.3515103379127
 20
115.7676870194414
 30
0.0
 10
118.1423929040044
 20
116.2375983536274
 30
0.0
 10
118.0352503637318
 20
116.4722095109446
 30
0.0
 10
117.9353425287509
 20
116.7092322366923
 30
0.0
 10
117.8375017524248
 20
116.9465994722159
 30
0.0
 10
117.742417054305
 20
117.1815551393089
 30
0.0
 10
117.6493994148401
 20
117.4209894334872
 30
0.0
 10
117.5608604024604
 20
117.6607682374413
 30
0.0
 10
117.3865384559076
 20
118.1372252573674
 30
0.0
 10
117.2284084688172
 20
118.6209169825853
 30
0.0
 10
117.0864704411891
 20
119.1046087078031
 30
0.0
 10
116.8053504641395
 20
120.0812939221852
 30
0.0
 10
116.5910653835942
 20
121.0717595275992
 30
0.0
 10
116.449471865742
 20
122.0791061120272
 30
0.0
 10
116.37505775417
 20
122.581401365138
 30
0.0
 10
116.3237257975764
 20
123.0881752453342
 30
0.0
 10
116.288930310221
 20
123.5997722623915
 30
0.0
 10
116.251723254435
 20
124.1113692794488
 30
0.0
 10
116.233119726542
 20
124.6229662965061
 30
0.0
 10
116.233119726542
 20
125.1321517451329
 30
0.0
 10
116.2355312949726
 20
126.1484555837316
 30
0.0
 10
116.307533838114
 20
127.1599362854691
 30
0.0
 10
116.449471865742
 20
128.1624597330359
 30
0.0
 10
116.5214744088834
 20
128.6647549861468
 30
0.0
 10
116.6096689114872
 20
129.1622271023964
 30
0.0
 10
116.7168114517598
 20
129.6600437284219
 30
0.0
 10
116.7681434083535
 20
129.9111913549773
 30
0.0
 10
116.8284326191178
 20
130.1575158446716
 30
0.0
 10
116.8911333983127
 20
130.4062519027964
 30
0.0
 10
116.9541786872834
 20
130.6525763924907
 30
0.0
 10
117.0189465251331
 20
130.9016569603913
 30
0.0
 10
117.0912935780503
 20
131.1483259598614
 30
0.0
 10
117.3772366919611
 20
132.13431293819
 30
0.0
 10
117.730703721928
 20
133.0896385464728
 30
0.0
 10
118.1468715310897
 20
134.0153363140371
 30
0.0
 10
118.3563334747738
 20
134.4783574527071
 30
0.0
 10
118.5816428681445
 20
134.9341438860855
 30
0.0
 10
118.8234887307534
 20
135.3826956141721
 30
0.0
 10
118.9447561718337
 20
135.605937948888
 30
0.0
 10
119.0677461617929
 20
135.8291802836039
 30
0.0
 10
119.1979708570438
 20
136.050355559665
 30
0.0
 10
119.3257839838642
 20
136.2687747575198
 30
0.0
 10
119.4608318159763
 20
136.4875384651504
 30
0.0
 10
119.5979467067432
 20
136.7035460945746
 30
0.0
  0
SPLINE
  5
1C9
330
12D
100
AcDbEntity
  8
Capa 1
 62
     7
370
     9
100
AcDbSpline
210
0.0
220
0.0
230
1.0
 70
     8
 71
     3
 72
    56
 73
    52
 74
     0
 42
0.0000000001
 43
0.0000000001
 40
0.0
 40
0.0
 40
0.0
 40
0.0
 40
1.0
 40
1.0
 40
1.0
 40
2.0
 40
2.0
 40
2.0
 40
3.0
 40
3.0
 40
3.0
 40
4.0
 40
4.0
 40
4.0
 40
5.0
 40
5.0
 40
5.0
 40
6.0
 40
6.0
 40
6.0
 40
7.0
 40
7.0
 40
7.0
 40
8.0
 40
8.0
 40
8.0
 40
9.0
 40
9.0
 40
9.0
 40
10.0
 40
10.0
 40
10.0
 40
11.0
 40
11.0
 40
11.0
 40
12.0
 40
12.0
 40
12.0
 40
13.0
 40
13.0
 40
13.0
 40
14.0
 40
14.0
 40
14.0
 40
15.0
 40
15.0
 40
15.0
 40
16.0
 40
16.0
 40
16.0
 40
17.0
 40
17.0
 40
17.0
 40
17.0
 10
126.4395663442793
 20
136.7059576630051
 30
0.0
 10
126.5766812350462
 20
136.4896055238052
 30
0.0
 10
126.7093174987277
 20
136.2687747575198
 30
0.0
 10
126.8395421939787
 20
136.0475994814587
 30
0.0
 10
126.967355320799
 20
135.8271132249491
 30
0.0
 10
127.0931013889647
 20
135.6038708902332
 30
0.0
 10
127.2136798104933
 20
135.3778724773109
 30
0.0
 10
127.4579372415328
 20
134.9293207492243
 30
0.0
 10
127.6835911446793
 20
134.4690556887606
 30
0.0
 10
127.8951201470181
 20
134.0012114132294
 30
0.0
 10
127.9998511188602
 20
133.7666002559122
 30
0.0
 10
128.1021705222716
 20
133.5316445888193
 30
0.0
 10
128.1975997301672
 20
133.2942773532957
 30
0.0
 10
128.2950959967175
 20
133.0551875688932
 30
0.0
 10
128.3857020677519
 20
132.8198873920244
 30
0.0
 10
128.4742410801315
 20
132.5807976076218
 30
0.0
 10
128.6509745951149
 20
132.1015845094894
 30
0.0
 10
128.8091045822054
 20
131.6199598429263
 30
0.0
 10
128.9486310414028
 20
131.1317894906231
 30
0.0
 10
129.2325070966588
 20
130.1575158446716
 30
0.0
 10
129.4440360989977
 20
129.1691172979124
 30
0.0
 10
129.5859741266257
 20
128.1624597330359
 30
0.0
 10
129.6579766697671
 20
127.6601644799251
 30
0.0
 10
129.7113756850155
 20
127.1506345215226
 30
0.0
 10
129.7485827408015
 20
126.6390375044653
 30
0.0
 10
129.7833782281569
 20
126.127440487408
 30
0.0
 10
129.8019817560499
 20
125.6158434703507
 30
0.0
 10
129.8019817560499
 20
125.1066580217239
 30
0.0
 10
129.8019817560499
 20
124.0903541831252
 30
0.0
 10
129.7299792129085
 20
123.0809405400425
 30
0.0
 10
129.5859741266257
 20
122.0763500338208
 30
0.0
 10
129.5160386421391
 20
121.57405478071
 30
0.0
 10
129.4274996297595
 20
121.0765826644604
 30
0.0
 10
129.3207015992627
 20
120.5787660384349
 30
0.0
 10
129.2697141524448
 20
120.3303744900859
 30
0.0
 10
129.2090804319047
 20
120.0812939221852
 30
0.0
 10
129.1463796527098
 20
119.8325578640604
 30
0.0
 10
129.0836788735149
 20
119.5862333743661
 30
0.0
 10
129.0161549574589
 20
119.3371528064655
 30
0.0
 10
128.9438079045417
 20
119.0904838069954
 30
0.0
 10
128.6578647906308
 20
118.1072529068732
 30
0.0
 10
128.3068093290946
 20
117.1512382790388
 30
0.0
 10
127.8882299515022
 20
116.2255405114745
 30
0.0
 10
127.6811795762487
 20
115.7604523141497
 30
0.0
 10
127.4555256731022
 20
115.3074219589777
 30
0.0
 10
127.2136798104933
 20
114.8609372895459
 30
0.0
 10
127.0931013889647
 20
114.6328718179688
 30
0.0
 10
126.967355320799
 20
114.4116965419077
 30
0.0
 10
126.8371306255481
 20
114.1912102853981
 30
0.0
 10
126.7093174987277
 20
113.970035009337
 30
0.0
 10
126.5766812350462
 20
113.7512713017064
 30
0.0
 10
126.4395663442793
 20
113.5352636722822
 30
0.0
  0
SPLINE
  5
1CA
330
12D
100
AcDbEntity
  8
Capa 1
 62
     7
370
     9
100
AcDbSpline
210
0.0
220
0.0
230
1.0
 70
     8
 71
     3
 72
    41
 73
    37
 74
     0
 42
0.0000000001
 43
0.0000000001
 40
0.0
 40
0.0
 40
0.0
 40
0.0
 40
1.0
 40
1.0
 40
1.0
 40
2.0
 40
2.0
 40
2.0
 40
3.0
 40
3.0
 40
3.0
 40
4.0
 40
4.0
 40
4.0
 40
5.0
 40
5.0
 40
5.0
 40
6.0
 40
6.0
 40
6.0
 40
7.0
 40
7.0
 40
7.0
 40
8.0
 40
8.0
 40
8.0
 40
9.0
 40
9.0
 40
9.0
 40
10.0
 40
10.0
 40
10.0
 40
11.0
 40
11.0
 40
11.0
 40
12.0
 40
12.0
 40
12.0
 40
12.0
 10
126.4395663442793
 20
113.5352636722822
 30
0.0
 10
126.25594263378
 20
113.2469089899408
 30
0.0
 10
126.03959049458
 20
112.9864595994389
 30
0.0
 10
125.7908544364551
 20
112.7539155007765
 30
0.0
 10
125.6675199367201
 20
112.6378157063332
 30
0.0
 10
125.5348836730386
 20
112.5261945389752
 30
0.0
 10
125.3977687822717
 20
112.4259421942185
 30
0.0
 10
125.260309381729
 20
112.3260343592377
 30
0.0
 10
125.1163042954462
 20
112.2350837784275
 30
0.0
 10
124.9698876407329
 20
112.1541239811154
 30
0.0
 10
124.8210594175889
 20
112.0724751642517
 30
0.0
 10
124.6674080575838
 20
111.9980610526797
 30
0.0
 10
124.5092780704934
 20
111.9374273321396
 30
0.0
 10
124.3511480834029
 20
111.8750710627205
 30
0.0
 10
124.1885394692272
 20
111.8237391061269
 30
0.0
 10
124.0235192866208
 20
111.7820534232555
 30
0.0
 10
123.6955459800628
 20
111.6935144108759
 30
0.0
 10
123.360682477989
 20
111.6538957866593
 30
0.0
 10
123.0165172119686
 20
111.6538957866593
 30
0.0
 10
122.674419004603
 20
111.6538957866593
 30
0.0
 10
122.3395555025291
 20
111.6935144108759
 30
0.0
 10
122.011926705747
 20
111.7820534232555
 30
0.0
 10
121.8469065231406
 20
111.8237391061269
 30
0.0
 10
121.683953399189
 20
111.8771381213753
 30
0.0
 10
121.5282349805291
 20
111.940183410346
 30
0.0
 10
121.3676934250081
 20
112.0004726211103
 30
0.0
 10
121.2143865747788
 20
112.0748867326823
 30
0.0
 10
121.0655583516349
 20
112.1561910397701
 30
0.0
 10
120.9187971871457
 20
112.2378398566339
 30
0.0
 10
120.7747921008629
 20
112.3281014178924
 30
0.0
 10
120.637677210096
 20
112.4283537626491
 30
0.0
 10
120.5002178095534
 20
112.5261945389752
 30
0.0
 10
120.3675815458718
 20
112.6378157063332
 30
0.0
 10
120.2445915559126
 20
112.7539155007765
 30
0.0
 10
119.9979225564425
 20
112.9864595994389
 30
0.0
 10
119.7819149270183
 20
113.2469089899408
 30
0.0
 10
119.5979467067432
 20
113.5352636722822
 30
0.0
  0
SPLINE
  5
1CB
330
12D
100
AcDbEntity
  8
Capa 1
 62
     7
370
     9
100
AcDbSpline
210
0.0
220
0.0
230
1.0
 70
     8
 71
     3
 72
    41
 73
    37
 74
     0
 42
0.0000000001
 43
0.0000000001
 40
0.0
 40
0.0
 40
0.0
 40
0.0
 40
1.0
 40
1.0
 40
1.0
 40
2.0
 40
2.0
 40
2.0
 40
3.0
 40
3.0
 40
3.0
 40
4.0
 40
4.0
 40
4.0
 40
5.0
 40
5.0
 40
5.0
 40
6.0
 40
6.0
 40
6.0
 40
7.0
 40
7.0
 40
7.0
 40
8.0
 40
8.0
 40
8.0
 40
9.0
 40
9.0
 40
9.0
 40
10.0
 40
10.0
 40
10.0
 40
11.0
 40
11.0
 40
11.0
 40
12.0
 40
12.0
 40
12.0
 40
12.0
 10
119.5979467067432
 20
136.7059576630051
 30
0.0
 10
119.7819149270183
 20
136.9943123453465
 30
0.0
 10
119.9979225564425
 20
137.2547617358484
 30
0.0
 10
120.242179987482
 20
137.4873058345109
 30
0.0
 10
120.3675815458718
 20
137.60375013873
 30
0.0
 10
120.5002178095534
 20
137.7126152278815
 30
0.0
 10
120.637677210096
 20
137.8128675726382
 30
0.0
 10
120.7768591595177
 20
137.9127754076191
 30
0.0
 10
120.9187971871457
 20
138.0037259884293
 30
0.0
 10
121.0676254102897
 20
138.0846857857414
 30
0.0
 10
121.2143865747788
 20
138.1663346026051
 30
0.0
 10
121.3676934250081
 20
138.2383371457465
 30
0.0
 10
121.5258234120986
 20
138.3013824347172
 30
0.0
 10
121.683953399189
 20
138.3637387041363
 30
0.0
 10
121.8489735817954
 20
138.4174822291605
 30
0.0
 10
122.011926705747
 20
138.4595124218077
 30
0.0
 10
122.3395555025291
 20
138.5404722191197
 30
0.0
 10
122.6768305730336
 20
138.5869810388522
 30
0.0
 10
123.0189287803992
 20
138.5869810388522
 30
0.0
 10
123.360682477989
 20
138.5869810388522
 30
0.0
 10
123.6955459800628
 20
138.5404722191197
 30
0.0
 10
124.0255863452756
 20
138.4595124218077
 30
0.0
 10
124.1885394692272
 20
138.4174822291605
 30
0.0
 10
124.3535596518335
 20
138.3637387041363
 30
0.0
 10
124.5092780704934
 20
138.3013824347172
 30
0.0
 10
124.6698196260144
 20
138.2383371457465
 30
0.0
 10
124.8210594175889
 20
138.1663346026051
 30
0.0
 10
124.9698876407329
 20
138.0846857857414
 30
0.0
 10
125.1187158638768
 20
138.0037259884293
 30
0.0
 10
125.260309381729
 20
137.9127754076191
 30
0.0
 10
125.3977687822717
 20
137.8128675726382
 30
0.0
 10
125.5372952414692
 20
137.7126152278815
 30
0.0
 10
125.6695869953749
 20
137.60375013873
 30
0.0
 10
125.7929214951099
 20
137.4873058345109
 30
0.0
 10
126.03959049458
 20
137.2547617358484
 30
0.0
 10
126.25594263378
 20
136.9943123453465
 30
0.0
 10
126.4395663442793
 20
136.7059576630051
 30
0.0
  0
SPLINE
  5
1CC
330
12D
100
AcDbEntity
  8
Capa 1
 62
     7
370
     9
100
AcDbSpline
210
0.0
220
0.0
230
1.0
 70
    11
 71
     3
 72
    17
 73
    13
 74
     0
 42
0.0000000001
 43
0.0000000001
 40
0.0
 40
0.0
 40
0.0
 40
0.0
 40
1.0
 40
1.0
 40
1.0
 40
2.0
 40
2.0
 40
2.0
 40
3.0
 40
3.0
 40
3.0
 40
4.0
 40
4.0
 40
4.0
 40
4.0
 10
106.0452766366977
 20
125.1207829225316
 30
0.0
 10
106.0452766366977
 20
135.1852915126409
 30
0.0
 10
97.88539034207756
 20
143.3450055523731
 30
0.0
 10
87.82312106551096
 20
143.3450055523731
 30
0.0
 10
77.75757894607429
 20
143.3450055523731
 30
0.0
 10
69.59648686723885
 20
135.1852915126409
 30
0.0
 10
69.59648686723885
 20
125.1207829225316
 30
0.0
 10
69.59648686723885
 20
115.0535182542159
 30
0.0
 10
77.75757894607429
 20
106.8958712731385
 30
0.0
 10
87.82312106551096
 20
106.8958712731385
 30
0.0
 10
97.88539034207756
 20
106.8958712731385
 30
0.0
 10
106.0452766366977
 20
115.0535182542159
 30
0.0
 10
106.0452766366977
 20
125.1207829225316
 30
0.0
  0
SPLINE
  5
1CD
330
12D
100
AcDbEntity
  8
Capa 1
 62
     7
370
     9
100
AcDbSpline
210
0.0
220
0.0
230
1.0
 70
    11
 71
     3
 72
    17
 73
    13
 74
     0
 42
0.0000000001
 43
0.0000000001
 40
0.0
 40
0.0
 40
0.0
 40
0.0
 40
1.0
 40
1.0
 40
1.0
 40
2.0
 40
2.0
 40
2.0
 40
3.0
 40
3.0
 40
3.0
 40
4.0
 40
4.0
 40
4.0
 40
4.0
 10
90.25208723976185
 20
125.1207829225316
 30
0.0
 10
90.25208723976185
 20
126.4623039894819
 30
0.0
 10
89.16378085802175
 20
127.5530219396525
 30
0.0
 10
87.82088175196829
 20
127.5530219396525
 30
0.0
 10
86.4802219594575
 20
127.5530219396525
 30
0.0
 10
85.39191557771738
 20
126.4623039894819
 30
0.0
 10
85.39191557771738
 20
125.1207829225316
 30
0.0
 10
85.39191557771738
 20
123.7813289142361
 30
0.0
 10
86.4802219594575
 20
122.6902664542896
 30
0.0
 10
87.82088175196829
 20
122.6902664542896
 30
0.0
 10
89.16378085802175
 20
122.6902664542896
 30
0.0
 10
90.25208723976185
 20
123.7813289142361
 30
0.0
 10
90.25208723976185
 20
125.1207829225316
 30
0.0
  0
SPLINE
  5
1CE
330
12D
100
AcDbEntity
  8
Capa 1
 62
     7
370
     9
100
AcDbSpline
210
0.0
220
0.0
230
1.0
 70
    11
 71
     3
 72
    17
 73
    13
 74
     0
 42
0.0000000001
 43
0.0000000001
 40
0.0
 40
0.0
 40
0.0
 40
0.0
 40
1.0
 40
1.0
 40
1.0
 40
2.0
 40
2.0
 40
2.0
 40
3.0
 40
3.0
 40
3.0
 40
4.0
 40
4.0
 40
4.0
 40
4.0
 10
90.25208723976185
 20
125.1207829225316
 30
0.0
 10
90.25208723976185
 20
126.4623039894819
 30
0.0
 10
89.16378085802175
 20
127.5530219396525
 30
0.0
 10
87.82088175196829
 20
127.5530219396525
 30
0.0
 10
86.4802219594575
 20
127.5530219396525
 30
0.0
 10
85.39191557771738
 20
126.4623039894819
 30
0.0
 10
85.39191557771738
 20
125.1207829225316
 30
0.0
 10
85.39191557771738
 20
123.7813289142361
 30
0.0
 10
86.4802219594575
 20
122.6902664542896
 30
0.0
 10
87.82088175196829
 20
122.6902664542896
 30
0.0
 10
89.16378085802175
 20
122.6902664542896
 30
0.0
 10
90.25208723976185
 20
123.7813289142361
 30
0.0
 10
90.25208723976185
 20
125.1207829225316
 30
0.0
  0
SPLINE
  5
1CF
330
12D
100
AcDbEntity
  8
Capa 1
 62
     7
370
     9
100
AcDbSpline
210
0.0
220
0.0
230
1.0
 70
    11
 71
     3
 72
    17
 73
    13
 74
     0
 42
0.0000000001
 43
0.0000000001
 40
0.0
 40
0.0
 40
0.0
 40
0.0
 40
1.0
 40
1.0
 40
1.0
 40
2.0
 40
2.0
 40
2.0
 40
3.0
 40
3.0
 40
3.0
 40
4.0
 40
4.0
 40
4.0
 40
4.0
 10
91.46717321899493
 20
125.1207829225316
 30
0.0
 10
91.46717321899493
 20
127.1344425620602
 30
0.0
 10
89.8335078621695
 20
128.7643183113519
 30
0.0
 10
87.82208753618356
 20
128.7643183113519
 30
0.0
 10
85.80946142598235
 20
128.7643183113519
 30
0.0
 10
84.17579606915692
 20
127.1344425620602
 30
0.0
 10
84.17579606915692
 20
125.1207829225316
 30
0.0
 10
84.17579606915692
 20
123.1043672047966
 30
0.0
 10
85.80946142598235
 20
121.4744914555049
 30
0.0
 10
87.82208753618356
 20
121.4744914555049
 30
0.0
 10
89.8335078621695
 20
121.4744914555049
 30
0.0
 10
91.46717321899493
 20
123.1043672047966
 30
0.0
 10
91.46717321899493
 20
125.1207829225316
 30
0.0
  0
POLYLINE
  5
1D0
330
12D
100
AcDbEntity
  8
Capa 1
 62
     7
370
     9
100
AcDb2dPolyline
 66
     1
 10
0.0
 20
0.0
 30
0.0
  0
VERTEX
  5
1D1
330
1D0
100
AcDbEntity
  8
Capa 1
 62
     7
370
     9
100
AcDbVertex
100
AcDb2dVertex
 10
116.233119726542
 20
125.1207829225316
 30
0.0
  0
VERTEX
  5
1D2
330
1D0
100
AcDbEntity
  8
Capa 1
 62
     7
370
     9
100
AcDbVertex
100
AcDb2dVertex
 10
116.233119726542
 20
125.1207829225316
 30
0.0
  0
SEQEND
  5
1D3
330
1D0
100
AcDbEntity
  8
Capa 1
370
     9
  0
POLYLINE
  5
1D4
330
12D
100
AcDbEntity
  8
Capa 1
 62
     7
370
     9
100
AcDb2dPolyline
 66
     1
 10
0.0
 20
0.0
 30
0.0
  0
VERTEX
  5
1D5
330
1D4
100
AcDbEntity
  8
Capa 1
 62
     7
370
     9
100
AcDbVertex
100
AcDb2dVertex
 10
129.8019817560499
 20
125.1207829225316
 30
0.0
  0
VERTEX
  5
1D6
330
1D4
100
AcDbEntity
  8
Capa 1
 62
     7
370
     9
100
AcDbVertex
100
AcDb2dVertex
 10
129.8019817560499
 20
125.1207829225316
 30
0.0
  0
SEQEND
  5
1D7
330
1D4
100
AcDbEntity
  8
Capa 1
370
     9
  0
POLYLINE
  5
1D8
330
12D
100
AcDbEntity
  8
Capa 1
 62
     7
370
     9
100
AcDb2dPolyline
 66
     1
 10
0.0
 20
0.0
 30
0.0
  0
VERTEX
  5
1D9
330
1D8
100
AcDbEntity
  8
Capa 1
 62
     7
370
     9
100
AcDbVertex
100
AcDb2dVertex
 10
116.233119726542
 20
124.7159839359711
 30
0.0
  0
VERTEX
  5
1DA
330
1D8
100
AcDbEntity
  8
Capa 1
 62
     7
370
     9
100
AcDbVertex
100
AcDb2dVertex
 10
116.233119726542
 20
104.2707067815716
 30
0.0
  0
SEQEND
  5
1DB
330
1D8
100
AcDbEntity
  8
Capa 1
370
     9
  0
POLYLINE
  5
1DC
330
12D
100
AcDbEntity
  8
Capa 1
 62
     7
370
     9
100
AcDb2dPolyline
 66
     1
 10
0.0
 20
0.0
 30
0.0
  0
VERTEX
  5
1DD
330
1DC
100
AcDbEntity
  8
Capa 1
 62
     7
370
     9
100
AcDbVertex
100
AcDb2dVertex
 10
129.8019817560499
 20
124.7159839359711
 30
0.0
  0
VERTEX
  5
1DE
330
1DC
100
AcDbEntity
  8
Capa 1
 62
     7
370
     9
100
AcDbVertex
100
AcDb2dVertex
 10
129.8019817560499
 20
104.2707067815716
 30
0.0
  0
SEQEND
  5
1DF
330
1DC
100
AcDbEntity
  8
Capa 1
370
     9
  0
POLYLINE
  5
1E0
330
12D
100
AcDbEntity
  8
Capa 1
 62
     7
370
     9
100
AcDb2dPolyline
 66
     1
 10
0.0
 20
0.0
 30
0.0
  0
VERTEX
  5
1E1
330
1E0
100
AcDbEntity
  8
Capa 1
 62
     7
370
     9
100
AcDbVertex
100
AcDb2dVertex
 10
112.0145975219179
 20
104.6755057681321
 30
0.0
  0
VERTEX
  5
1E2
330
1E0
100
AcDbEntity
  8
Capa 1
 62
     7
370
     9
100
AcDbVertex
100
AcDb2dVertex
 10
106.9988796961015
 20
104.6755057681321
 30
0.0
  0
SEQEND
  5
1E3
330
1E0
100
AcDbEntity
  8
Capa 1
370
     9
  0
POLYLINE
  5
1E4
330
12D
100
AcDbEntity
  8
Capa 1
370
     0
100
AcDb2dPolyline
 66
     1
 10
0.0
 20
0.0
 30
0.0
  0
VERTEX
  5
1E5
330
1E4
100
AcDbEntity
  8
Capa 1
370
     0
100
AcDbVertex
100
AcDb2dVertex
 10
111.0706407362364
 20
106.00083487562
 30
0.0
  0
VERTEX
  5
1E6
330
1E4
100
AcDbEntity
  8
Capa 1
370
     0
100
AcDbVertex
100
AcDb2dVertex
 10
116.233119726542
 20
104.6169391062468
 30
0.0
  0
VERTEX
  5
1E7
330
1E4
100
AcDbEntity
  8
Capa 1
370
     0
100
AcDbVertex
100
AcDb2dVertex
 10
111.0706407362364
 20
103.2337323564252
 30
0.0
  0
VERTEX
  5
1E8
330
1E4
100
AcDbEntity
  8
Capa 1
370
     0
100
AcDbVertex
100
AcDb2dVertex
 10
111.0706407362364
 20
106.00083487562
 30
0.0
  0
SEQEND
  5
1E9
330
1E4
100
AcDbEntity
  8
Capa 1
370
     0
  0
HATCH
  5
1EA
330
12D
100
AcDbEntity
  8
Capa 1
 62
     7
100
AcDbHatch
 10
0.0
 20
0.0
 30
0.0
210
0.0
220
0.0
230
1.0
  2
SOLID
 70
     1
 71
     0
 91
        1
 92
        1
 93
        3
 72
     1
 10
111.0706407362364
 20
106.00083487562
 11
116.233119726542
 21
104.6169391062468
 72
     1
 10
116.233119726542
 20
104.6169391062468
 11
111.0706407362364
 21
103.2337323564252
 72
     1
 10
111.0706407362364
 20
103.2337323564252
 11
111.0706407362364
 21
106.00083487562
 97
        0
 75
     2
 76
     1
 98
        0
  0
POLYLINE
  5
1EB
330
12D
100
AcDbEntity
  8
Capa 1
 62
     7
370
     9
100
AcDb2dPolyline
 66
     1
 10
0.0
 20
0.0
 30
0.0
  0
VERTEX
  5
1EC
330
1EB
100
AcDbEntity
  8
Capa 1
 62
     7
370
     9
100
AcDbVertex
100
AcDb2dVertex
 10
116.233119726542
 20
104.6755057681321
 30
0.0
  0
VERTEX
  5
1ED
330
1EB
100
AcDbEntity
  8
Capa 1
 62
     7
370
     9
100
AcDbVertex
100
AcDb2dVertex
 10
129.8019817560499
 20
104.6755057681321
 30
0.0
  0
SEQEND
  5
1EE
330
1EB
100
AcDbEntity
  8
Capa 1
370
     9
  0
POLYLINE
  5
1EF
330
12D
100
AcDbEntity
  8
Capa 1
 62
     7
370
     9
100
AcDb2dPolyline
 66
     1
 10
0.0
 20
0.0
 30
0.0
  0
VERTEX
  5
1F0
330
1EF
100
AcDbEntity
  8
Capa 1
 62
     7
370
     9
100
AcDbVertex
100
AcDb2dVertex
 10
134.0225710193288
 20
104.6755057681321
 30
0.0
  0
VERTEX
  5
1F1
330
1EF
100
AcDbEntity
  8
Capa 1
 62
     7
370
     9
100
AcDbVertex
100
AcDb2dVertex
 10
164.813821250663
 20
104.6755057681321
 30
0.0
  0
SEQEND
  5
1F2
330
1EF
100
AcDbEntity
  8
Capa 1
370
     9
  0
POLYLINE
  5
1F3
330
12D
100
AcDbEntity
  8
Capa 1
370
     0
100
AcDb2dPolyline
 66
     1
 10
0.0
 20
0.0
 30
0.0
  0
VERTEX
  5
1F4
330
1F3
100
AcDbEntity
  8
Capa 1
370
     0
100
AcDbVertex
100
AcDb2dVertex
 10
134.9644607463555
 20
103.3474205824379
 30
0.0
  0
VERTEX
  5
1F5
330
1F3
100
AcDbEntity
  8
Capa 1
370
     0
100
AcDbVertex
100
AcDb2dVertex
 10
129.8019817560499
 20
104.7313163518111
 30
0.0
  0
VERTEX
  5
1F6
330
1F3
100
AcDbEntity
  8
Capa 1
370
     0
100
AcDbVertex
100
AcDb2dVertex
 10
134.9644607463555
 20
106.1172791798391
 30
0.0
  0
VERTEX
  5
1F7
330
1F3
100
AcDbEntity
  8
Capa 1
370
     0
100
AcDbVertex
100
AcDb2dVertex
 10
134.9644607463555
 20
103.3474205824379
 30
0.0
  0
SEQEND
  5
1F8
330
1F3
100
AcDbEntity
  8
Capa 1
370
     0
  0
HATCH
  5
1F9
330
12D
100
AcDbEntity
  8
Capa 1
 62
     7
100
AcDbHatch
 10
0.0
 20
0.0
 30
0.0
210
0.0
220
0.0
230
1.0
  2
SOLID
 70
     1
 71
     0
 91
        1
 92
        1
 93
        3
 72
     1
 10
134.9644607463555
 20
103.3474205824379
 11
129.8019817560499
 21
104.7313163518111
 72
     1
 10
129.8019817560499
 20
104.7313163518111
 11
134.9644607463555
 21
106.1172791798391
 72
     1
 10
134.9644607463555
 20
106.1172791798391
 11
134.9644607463555
 21
103.3474205824379
 97
        0
 75
     2
 76
     1
 98
        0
  0
ENDBLK
  5
130
330
12D
100
AcDbEntity
  8
0
100
AcDbBlockEnd
  0
BLOCK
  5
1FD
330
1FB
100
AcDbEntity
  8
0
100
AcDbBlockBegin
  2
block 4
 70
     0
 71
     0
 10
0.0
 20
0.0
 30
0.0
  3
block 4
  1

  0
POLYLINE
  5
1FF
330
1FB
100
AcDbEntity
  8
Capa 1
370
     0
100
AcDb2dPolyline
 66
     1
 10
0.0
 20
0.0
 30
0.0
  0
VERTEX
  5
200
330
1FF
100
AcDbEntity
  8
Capa 1
370
     0
100
AcDbVertex
100
AcDb2dVertex
 10
38.77733134406517
 20
212.8882656592515
 30
0.0
  0
VERTEX
  5
201
330
1FF
100
AcDbEntity
  8
Capa 1
370
     0
100
AcDbVertex
100
AcDb2dVertex
 10
169.7089606549507
 20
212.8882656592515
 30
0.0
  0
VERTEX
  5
202
330
1FF
100
AcDbEntity
  8
Capa 1
370
     0
100
AcDbVertex
100
AcDb2dVertex
 10
169.7089606549507
 20
83.55567847272381
 30
0.0
  0
VERTEX
  5
203
330
1FF
100
AcDbEntity
  8
Capa 1
370
     0
100
AcDbVertex
100
AcDb2dVertex
 10
38.77733134406517
 20
83.55567847272381
 30
0.0
  0
VERTEX
  5
204
330
1FF
100
AcDbEntity
  8
Capa 1
370
     0
100
AcDbVertex
100
AcDb2dVertex
 10
38.77733134406517
 20
212.8882656592515
 30
0.0
  0
SEQEND
  5
205
330
1FF
100
AcDbEntity
  8
Capa 1
370
     0
  0
POLYLINE
  5
206
330
1FB
100
AcDbEntity
  8
Capa 1
 62
     7
370
     9
100
AcDb2dPolyline
 66
     1
 10
0.0
 20
0.0
 30
0.0
  0
VERTEX
  5
207
330
206
100
AcDbEntity
  8
Capa 1
 62
     7
370
     9
100
AcDbVertex
100
AcDb2dVertex
 10
72.23818782804386
 20
109.5375722339435
 30
0.0
  0
VERTEX
  5
208
330
206
100
AcDbEntity
  8
Capa 1
 62
     7
370
     9
100
AcDbVertex
100
AcDb2dVertex
 10
51.69283058377565
 20
88.98997567613257
 30
0.0
  0
SEQEND
  5
209
330
206
100
AcDbEntity
  8
Capa 1
370
     9
  0
POLYLINE
  5
20A
330
1FB
100
AcDbEntity
  8
Capa 1
370
     0
100
AcDb2dPolyline
 66
     1
 10
0.0
 20
0.0
 30
0.0
  0
VERTEX
  5
20B
330
20A
100
AcDbEntity
  8
Capa 1
370
     0
100
AcDbVertex
100
AcDb2dVertex
 10
70.63346129238532
 20
109.8073233883919
 30
0.0
  0
VERTEX
  5
20C
330
20A
100
AcDbEntity
  8
Capa 1
370
     0
100
AcDbVertex
100
AcDb2dVertex
 10
75.26229463998264
 20
112.4796857192428
 30
0.0
  0
VERTEX
  5
20D
330
20A
100
AcDbEntity
  8
Capa 1
370
     0
100
AcDbVertex
100
AcDb2dVertex
 10
72.59044907379545
 20
107.8494743325422
 30
0.0
  0
VERTEX
  5
20E
330
20A
100
AcDbEntity
  8
Capa 1
370
     0
100
AcDbVertex
100
AcDb2dVertex
 10
70.63346129238532
 20
109.8073233883919
 30
0.0
  0
SEQEND
  5
20F
330
20A
100
AcDbEntity
  8
Capa 1
370
     0
  0
HATCH
  5
210
330
1FB
100
AcDbEntity
  8
Capa 1
 62
     7
100
AcDbHatch
 10
0.0
 20
0.0
 30
0.0
210
0.0
220
0.0
230
1.0
  2
SOLID
 70
     1
 71
     0
 91
        1
 92
        1
 93
        3
 72
     1
 10
70.63346129238532
 20
109.8073233883919
 11
75.26229463998264
 21
112.4796857192428
 72
     1
 10
75.26229463998264
 20
112.4796857192428
 11
72.59044907379545
 21
107.8494743325422
 72
     1
 10
72.59044907379545
 20
107.8494743325422
 11
70.63346129238532
 21
109.8073233883919
 97
        0
 75
     2
 76
     1
 98
        0
  0
POLYLINE
  5
211
330
1FB
100
AcDbEntity
  8
Capa 1
 62
     7
370
     9
100
AcDb2dPolyline
 66
     1
 10
0.0
 20
0.0
 30
0.0
  0
VERTEX
  5
212
330
211
100
AcDbEntity
  8
Capa 1
 62
     7
370
     9
100
AcDbVertex
100
AcDb2dVertex
 10
75.2216424864387
 20
112.5213714021141
 30
0.0
  0
VERTEX
  5
213
330
211
100
AcDbEntity
  8
Capa 1
 62
     7
370
     9
100
AcDbVertex
100
AcDb2dVertex
 10
100.4225325859284
 20
137.721916991828
 30
0.0
  0
SEQEND
  5
214
330
211
100
AcDbEntity
  8
Capa 1
370
     9
  0
ENDBLK
  5
1FE
330
1FB
100
AcDbEntity
  8
0
100
AcDbBlockEnd
  0
ENDSEC
  0
SECTION
  2
ENTITIES
  0
INSERT
  5
3D
330
1F
100
AcDbEntity
  8
Capa 1
100
AcDbBlockReference
  2
block 2
 10
0.0
 20
0.0
 30
0.0
  0
MTEXT
  5
12C
330
1F
100
AcDbEntity
  8
Capa 1
 62
     7
100
AcDbMText
 10
61.05402246659704
 20
164.7521540007955
 30
0.0
 40
2.398890470823883
 41
0.0
 71
     7
 72
     1
  1
\fArial|b1|i0|c0|p34;\W1;48.5
 11
-4.371139000186241E-8
 21
0.999999999999999
 31
0.0
 73
     1
 44
1.0
  0
INSERT
  5
12E
330
1F
100
AcDbEntity
  8
Capa 1
100
AcDbBlockReference
  2
block 3
 10
0.0
 20
0.0
 30
0.0
  0
MTEXT
  5
1FA
330
1F
100
AcDbEntity
  8
Capa 1
 62
     7
100
AcDbMText
 10
139.7521131005949
 20
106.1910042718595
 30
0.0
 40
2.398890470823883
 41
0.0
 71
     7
 72
     1
  1
\fArial|b1|i0|c0|p34;\W1;33.5
 73
     1
 44
1.0
  0
INSERT
  5
1FC
330
1F
100
AcDbEntity
  8
Capa 1
100
AcDbBlockReference
  2
block 4
 10
0.0
 20
0.0
 30
0.0
  0
MTEXT
  5
215
330
1F
100
AcDbEntity
  8
Capa 1
 62
     7
100
AcDbMText
 10
57.21049915292708
 20
97.43528831999986
 30
0.0
 40
2.398890470823883
 41
0.0
 71
     7
 72
     1
  1
\fArial|b1|i0|c0|p34;\W1;\U+00D890
 11
0.7071067657322372
 21
0.7071067966408575
 31
0.0
 73
     1
 44
1.0
  0
ENDSEC
  0
SECTION
  2
OBJECTS
  0
DICTIONARY
  5
C
330
0
100
AcDbDictionary
281
     1
  3
ACAD_GROUP
350
D
  3
ACAD_LAYOUT
350
1A
  3
ACAD_MLINESTYLE
350
17
  3
ACAD_PLOTSETTINGS
350
19
  3
ACAD_PLOTSTYLENAME
350
E
  3
ACAD_TABLESTYLE
350
216
  3
ACAD_VISUALSTYLE
350
2A
  0
DICTIONARY
  5
D
102
{ACAD_REACTORS
330
C
102
}
330
C
100
AcDbDictionary
281
     1
  0
DICTIONARY
  5
1A
102
{ACAD_REACTORS
330
C
102
}
330
C
100
AcDbDictionary
281
     1
  3
Layout1
350
1E
  3
Layout2
350
26
  3
Model
350
22
  0
DICTIONARY
  5
17
102
{ACAD_REACTORS
330
C
102
}
330
C
100
AcDbDictionary
281
     1
  3
Standard
350
18
  0
DICTIONARY
  5
19
102
{ACAD_REACTORS
330
C
102
}
330
C
100
AcDbDictionary
281
     1
  0
ACDBDICTIONARYWDFLT
  5
E
102
{ACAD_REACTORS
330
C
102
}
330
C
100
AcDbDictionary
281
     1
  3
Normal
350
F
100
AcDbDictionaryWithDefault
340
F
  0
DICTIONARY
  5
216
102
{ACAD_REACTORS
330
C
102
}
330
C
100
AcDbDictionary
281
     1
  0
DICTIONARY
  5
2A
102
{ACAD_REACTORS
330
C
102
}
330
C
100
AcDbDictionary
281
     1
  3
2dWireframe
350
2F
  3
3D Hidden
350
31
  3
3dWireframe
350
30
  3
Basic
350
32
  3
Brighten
350
36
  3
ColorChange
350
3A
  3
Conceptual
350
34
  3
Dim
350
35
  3
Facepattern
350
39
  3
Flat
350
2B
  3
FlatWithEdges
350
2C
  3
Gouraud
350
2D
  3
GouraudWithEdges
350
2E
  3
Linepattern
350
38
  3
Realistic
350
33
  3
Thicken
350
37
  0
LAYOUT
  5
1E
102
{ACAD_REACTORS
330
1A
102
}
330
1A
100
AcDbPlotSettings
  1

  2
none_device
  4

  6

 40
0.0
 41
0.0
 42
0.0
 43
0.0
 44
0.0
 45
0.0
 46
0.0
 47
0.0
 48
0.0
 49
0.0
140
0.0
141
0.0
142
1.0
143
1.0
 70
   688
 72
     0
 73
     0
 74
     5
  7

 75
    16
 76
     0
 77
     2
 78
   300
147
1.0
148
0.0
149
0.0
100
AcDbLayout
  1
Layout1
 70
     1
 71
     1
 10
0.0
 20
0.0
 11
12.0
 21
9.0
 12
0.0
 22
0.0
 32
0.0
 14
1.000000000000000E+20
 24
1.000000000000000E+20
 34
1.000000000000000E+20
 15
-1.000000000000000E+20
 25
-1.000000000000000E+20
 35
-1.000000000000000E+20
146
0.0
 13
0.0
 23
0.0
 33
0.0
 16
1.0
 26
0.0
 36
0.0
 17
0.0
 27
1.0
 37
0.0
 76
     0
330
1B
  0
LAYOUT
  5
26
102
{ACAD_REACTORS
330
1A
102
}
330
1A
100
AcDbPlotSettings
  1

  2
none_device
  4

  6

 40
0.0
 41
0.0
 42
0.0
 43
0.0
 44
0.0
 45
0.0
 46
0.0
 47
0.0
 48
0.0
 49
0.0
140
0.0
141
0.0
142
1.0
143
1.0
 70
   688
 72
     0
 73
     0
 74
     5
  7

 75
    16
 76
     0
 77
     2
 78
   300
147
1.0
148
0.0
149
0.0
100
AcDbLayout
  1
Layout2
 70
     1
 71
     2
 10
0.0
 20
0.0
 11
0.0
 21
0.0
 12
0.0
 22
0.0
 32
0.0
 14
0.0
 24
0.0
 34
0.0
 15
0.0
 25
0.0
 35
0.0
146
0.0
 13
0.0
 23
0.0
 33
0.0
 16
1.0
 26
0.0
 36
0.0
 17
0.0
 27
1.0
 37
0.0
 76
     0
330
23
  0
LAYOUT
  5
22
102
{ACAD_REACTORS
330
1A
102
}
330
1A
100
AcDbPlotSettings
  1

  2
none_device
  4

  6

 40
0.0
 41
0.0
 42
0.0
 43
0.0
 44
0.0
 45
0.0
 46
0.0
 47
0.0
 48
0.0
 49
0.0
140
0.0
141
0.0
142
1.0
143
1.0
 70
  1712
 72
     0
 73
     0
 74
     0
  7

 75
     0
 76
     0
 77
     2
 78
   300
147
1.0
148
0.0
149
0.0
100
AcDbLayout
  1
Model
 70
     1
 71
     0
 10
0.0
 20
0.0
 11
12.0
 21
9.0
 12
0.0
 22
0.0
 32
0.0
 14
1.000000000000000E+20
 24
1.000000000000000E+20
 34
1.000000000000000E+20
 15
-1.000000000000000E+20
 25
-1.000000000000000E+20
 35
-1.000000000000000E+20
146
0.0
 13
0.0
 23
0.0
 33
0.0
 16
1.0
 26
0.0
 36
0.0
 17
0.0
 27
1.0
 37
0.0
 76
     0
330
1F
331
29
  0
MLINESTYLE
  5
18
102
{ACAD_REACTORS
330
17
102
}
330
17
100
AcDbMlineStyle
  2
Standard
 70
     0
  3

 62
   256
 51
90.0
 52
90.0
 71
     2
 49
0.5
 62
   256
  6
BYLAYER
 49
-0.5
 62
   256
  6
BYLAYER
  0
ACDBPLACEHOLDER
  5
F
102
{ACAD_REACTORS
330
E
102
}
330
E
  0
VISUALSTYLE
  5
2F
102
{ACAD_REACTORS
330
2A
102
}
330
2A
100
AcDbVisualStyle
  2
2dWireframe
 70
     4
 71
     0
 72
     2
 73
     0
 90
        0
 40
-0.6
 41
-30.0
 62
     5
 63
     7
421
 16777215
 74
     1
 91
        4
 64
     7
 65
   257
 75
     1
175
     1
 42
1.0
 92
        0
 66
   257
 43
1.0
 76
     1
 77
     6
 78
     2
 67
     7
 79
     5
170
     0
171
     0
290
     0
174
     0
 93
        1
 44
0.0
173
     0
291
     0
 45
0.0
1001
ACAD
1000
AcDbSavedByObjectVersion
1070
     0
  0
VISUALSTYLE
  5
31
102
{ACAD_REACTORS
330
2A
102
}
330
2A
100
AcDbVisualStyle
  2
3D Hidden
 70
     6
 71
     1
 72
     2
 73
     2
 90
        0
 40
-0.6
 41
-30.0
 62
     5
 63
     7
421
 16777215
 74
     2
 91
        2
 64
     7
 65
   257
 75
     2
175
     1
 42
40.0
 92
        0
 66
   257
 43
1.0
 76
     1
 77
     6
 78
     2
 67
     7
 79
     3
170
     0
171
     0
290
     0
174
     0
 93
        1
 44
0.0
173
     0
291
     0
 45
0.0
1001
ACAD
1000
AcDbSavedByObjectVersion
1070
     0
  0
VISUALSTYLE
  5
30
102
{ACAD_REACTORS
330
2A
102
}
330
2A
100
AcDbVisualStyle
  2
3dWireframe
 70
     5
 71
     0
 72
     2
 73
     0
 90
        0
 40
-0.6
 41
-30.0
 62
     5
 63
     7
421
 16777215
 74
     1
 91
        4
 64
     7
 65
   257
 75
     1
175
     1
 42
1.0
 92
        0
 66
   257
 43
1.0
 76
     1
 77
     6
 78
     2
 67
     7
 79
     5
170
     0
171
     0
290
     0
174
     0
 93
        1
 44
0.0
173
     0
291
     0
 45
0.0
1001
ACAD
1000
AcDbSavedByObjectVersion
1070
     0
  0
VISUALSTYLE
  5
32
102
{ACAD_REACTORS
330
2A
102
}
330
2A
100
AcDbVisualStyle
  2
Basic
 70
     7
 71
     1
 72
     0
 73
     1
 90
        0
 40
-0.6
 41
-30.0
 62
     5
 63
     7
421
 16777215
 74
     0
 91
        4
 64
     7
 65
   257
 75
     1
175
     1
 42
1.0
 92
        8
 66
     7
 43
1.0
 76
     1
 77
     6
 78
     2
 67
     7
 79
     5
170
     0
171
     0
290
     0
174
     0
 93
        1
 44
0.0
173
     0
291
     1
 45
0.0
1001
ACAD
1000
AcDbSavedByObjectVersion
1070
     0
  0
VISUALSTYLE
  5
36
102
{ACAD_REACTORS
330
2A
102
}
330
2A
100
AcDbVisualStyle
  2
Brighten
 70
    12
 71
     2
 72
     2
 73
     0
 90
        0
 40
-0.6
 41
-30.0
 62
     5
 63
     7
421
 16777215
 74
     1
 91
        4
 64
     7
 65
   257
 75
     1
175
     1
 42
1.0
 92
        8
 66
     7
 43
1.0
 76
     1
 77
     6
 78
     2
 67
     7
 79
     5
170
     0
171
     0
290
     0
174
     0
 93
        1
 44
50.0
173
     0
291
     1
 45
0.0
1001
ACAD
1000
AcDbSavedByObjectVersion
1070
     0
  0
VISUALSTYLE
  5
3A
102
{ACAD_REACTORS
330
2A
102
}
330
2A
100
AcDbVisualStyle
  2
ColorChange
 70
    16
 71
     2
 72
     2
 73
     3
 90
        0
 40
-0.6
 41
-30.0
 62
     5
 63
     8
421
  8421504
 74
     1
 91
        4
 64
     7
 65
   257
 75
     1
175
     1
 42
1.0
 92
        8
 66
     8
424
  8421504
 43
1.0
 76
     1
 77
     6
 78
     2
 67
     7
 79
     5
170
     0
171
     0
290
     0
174
     0
 93
        1
 44
0.0
173
     0
291
     1
 45
0.0
1001
ACAD
1000
AcDbSavedByObjectVersion
1070
     0
  0
VISUALSTYLE
  5
34
102
{ACAD_REACTORS
330
2A
102
}
330
2A
100
AcDbVisualStyle
  2
Conceptual
 70
     9
 71
     3
 72
     2
 73
     0
 90
        0
 40
-0.6
 41
-30.0
 62
     5
 63
     7
421
 16777215
 74
     2
 91
        2
 64
     7
 65
   257
 75
     1
175
     1
 42
40.0
 92
        8
 66
     7
 43
1.0
 76
     1
 77
     6
 78
     2
 67
     7
 79
     3
170
     0
171
     0
290
     0
174
     0
 93
        1
 44
0.0
173
     0
291
     0
 45
0.0
1001
ACAD
1000
AcDbSavedByObjectVersion
1070
     0
  0
VISUALSTYLE
  5
35
102
{ACAD_REACTORS
330
2A
102
}
330
2A
100
AcDbVisualStyle
  2
Dim
 70
    11
 71
     2
 72
     2
 73
     0
 90
        0
 40
-0.6
 41
-30.0
 62
     5
 63
     7
421
 16777215
 74
     1
 91
        4
 64
     7
 65
   257
 75
     1
175
     1
 42
1.0
 92
        8
 66
     7
 43
1.0
 76
     1
 77
     6
 78
     2
 67
     7
 79
     5
170
     0
171
     0
290
     0
174
     0
 93
        1
 44
-50.0
173
     0
291
     1
 45
0.0
1001
ACAD
1000
AcDbSavedByObjectVersion
1070
     0
  0
VISUALSTYLE
  5
39
102
{ACAD_REACTORS
330
2A
102
}
330
2A
100
AcDbVisualStyle
  2
Facepattern
 70
    15
 71
     2
 72
     2
 73
     0
 90
        0
 40
-0.6
 41
-30.0
 62
     5
 63
     7
421
 16777215
 74
     1
 91
        4
 64
     7
 65
   257
 75
     1
175
     1
 42
1.0
 92
        8
 66
     7
 43
1.0
 76
     1
 77
     6
 78
     2
 67
     7
 79
     5
170
     0
171
     0
290
     0
174
     0
 93
        1
 44
0.0
173
     0
291
     1
 45
0.0
1001
ACAD
1000
AcDbSavedByObjectVersion
1070
     0
  0
VISUALSTYLE
  5
2B
102
{ACAD_REACTORS
330
2A
102
}
330
2A
100
AcDbVisualStyle
  2
Flat
 70
     0
 71
     2
 72
     1
 73
     1
 90
        2
 40
-0.6
 41
30.0
 62
     5
 63
     7
421
 16777215
 74
     0
 91
        4
 64
     7
 65
   257
 75
     1
175
     1
 42
1.0
 92
        8
 66
     7
 43
1.0
 76
     1
 77
     6
 78
     2
 67
     7
 79
     5
170
     0
171
     0
290
     0
174
     0
 93
       13
 44
0.0
173
     0
291
     1
 45
0.0
1001
ACAD
1000
AcDbSavedByObjectVersion
1070
     0
  0
VISUALSTYLE
  5
2C
102
{ACAD_REACTORS
330
2A
102
}
330
2A
100
AcDbVisualStyle
  2
FlatWithEdges
 70
     1
 71
     2
 72
     1
 73
     1
 90
        2
 40
-0.6
 41
30.0
 62
     5
 63
     7
421
 16777215
 74
     1
 91
        4
 64
     7
 65
   257
 75
     1
175
     1
 42
1.0
 92
        0
 66
   257
 43
1.0
 76
     1
 77
     6
 78
     2
 67
     7
 79
     5
170
     0
171
     0
290
     0
174
     0
 93
       13
 44
0.0
173
     0
291
     1
 45
0.0
1001
ACAD
1000
AcDbSavedByObjectVersion
1070
     0
  0
VISUALSTYLE
  5
2D
102
{ACAD_REACTORS
330
2A
102
}
330
2A
100
AcDbVisualStyle
  2
Gouraud
 70
     2
 71
     2
 72
     2
 73
     1
 90
        2
 40
-0.6
 41
30.0
 62
     5
 63
     7
421
 16777215
 74
     0
 91
        4
 64
     7
 65
   257
 75
     1
175
     1
 42
1.0
 92
        0
 66
     7
 43
1.0
 76
     1
 77
     6
 78
     2
 67
     7
 79
     5
170
     0
171
     0
290
     0
174
     0
 93
       13
 44
0.0
173
     0
291
     1
 45
0.0
1001
ACAD
1000
AcDbSavedByObjectVersion
1070
     0
  0
VISUALSTYLE
  5
2E
102
{ACAD_REACTORS
330
2A
102
}
330
2A
100
AcDbVisualStyle
  2
GouraudWithEdges
 70
     3
 71
     2
 72
     2
 73
     1
 90
        2
 40
-0.6
 41
30.0
 62
     5
 63
     7
421
 16777215
 74
     1
 91
        4
 64
     7
 65
   257
 75
     1
175
     1
 42
1.0
 92
        0
 66
   257
 43
1.0
 76
     1
 77
     6
 78
     2
 67
     7
 79
     5
170
     0
171
     0
290
     0
174
     0
 93
       13
 44
0.0
173
     0
291
     1
 45
0.0
1001
ACAD
1000
AcDbSavedByObjectVersion
1070
     0
  0
VISUALSTYLE
  5
38
102
{ACAD_REACTORS
330
2A
102
}
330
2A
100
AcDbVisualStyle
  2
Linepattern
 70
    14
 71
     2
 72
     2
 73
     0
 90
        0
 40
-0.6
 41
-30.0
 62
     5
 63
     7
421
 16777215
 74
     1
 91
        4
 64
     7
 65
   257
 75
     7
175
     7
 42
1.0
 92
        8
 66
     7
 43
1.0
 76
     1
 77
     6
 78
     2
 67
     7
 79
     5
170
     0
171
     0
290
     0
174
     0
 93
        1
 44
0.0
173
     0
291
     1
 45
0.0
1001
ACAD
1000
AcDbSavedByObjectVersion
1070
     0
  0
VISUALSTYLE
  5
33
102
{ACAD_REACTORS
330
2A
102
}
330
2A
100
AcDbVisualStyle
  2
Realistic
 70
     8
 71
     2
 72
     2
 73
     0
 90
        0
 40
-0.6
 41
-30.0
 62
     5
 63
     7
421
 16777215
 74
     1
 91
        0
 64
     7
 65
   257
 75
     1
175
     1
 42
1.0
 92
        8
 66
     8
424
  7895160
 43
1.0
 76
     1
 77
     6
 78
     2
 67
     7
 79
     5
170
     0
171
     0
290
     0
174
     0
 93
       13
 44
0.0
173
     0
291
     0
 45
0.0
1001
ACAD
1000
AcDbSavedByObjectVersion
1070
     0
  0
VISUALSTYLE
  5
37
102
{ACAD_REACTORS
330
2A
102
}
330
2A
100
AcDbVisualStyle
  2
Thicken
 70
    13
 71
     2
 72
     2
 73
     0
 90
        0
 40
-0.6
 41
-30.0
 62
     5
 63
     7
421
 16777215
 74
     1
 91
        4
 64
     7
 65
   257
 75
     1
175
     1
 42
1.0
 92
       12
 66
     7
 43
1.0
 76
     1
 77
     6
 78
     2
 67
     7
 79
     5
170
     0
171
     0
290
     0
174
     0
 93
        1
 44
0.0
173
     0
291
     1
 45
0.0
1001
ACAD
1000
AcDbSavedByObjectVersion
1070
     0
  0
ENDSEC
  0
EOF
