  0
SECTION
  2
HEADER
  9
$ACADVER
  1
AC1018
  9
$ACADMAINTVER
 70
     0
  9
$DWGCODEPAGE
  3
ASCII
  9
$INSBASE
 10
0.0
 20
0.0
 30
0.0
  9
$EXTMIN
 10
1.000000000000000E+20
 20
1.000000000000000E+20
 30
1.000000000000000E+20
  9
$EXTMAX
 10
-1.000000000000000E+20
 20
-1.000000000000000E+20
 30
-1.000000000000000E+20
  9
$LIMMIN
 10
0.0
 20
0.0
  9
$LIMMAX
 10
12.0
 20
9.0
  9
$ORTHOMODE
 70
     0
  9
$REGENMODE
 70
     1
  9
$FILLMODE
 70
     1
  9
$QTEXTMODE
 70
     0
  9
$MIRRTEXT
 70
     1
  9
$LTSCALE
 40
1.0
  9
$ATTMODE
 70
     1
  9
$TEXTSIZE
 40
0.2
  9
$TRACEWID
 40
0.05
  9
$TEXTSTYLE
  7
Standard
  9
$CLAYER
  8
0
  9
$CELTYPE
  6
ByLayer
  9
$CECOLOR
 62
   256
  9
$CELTSCALE
 40
1.0
  9
$DISPSILH
 70
     0
  9
$DIMSCALE
 40
1.0
  9
$DIMASZ
 40
0.18
  9
$DIMEXO
 40
0.0625
  9
$DIMDLI
 40
0.38
  9
$DIMRND
 40
0.0
  9
$DIMDLE
 40
0.0
  9
$DIMEXE
 40
0.18
  9
$DIMTP
 40
0.0
  9
$DIMTM
 40
0.0
  9
$DIMTXT
 40
0.18
  9
$DIMCEN
 40
0.09
  9
$DIMTSZ
 40
0.0
  9
$DIMTOL
 70
     0
  9
$DIMLIM
 70
     0
  9
$DIMTIH
 70
     1
  9
$DIMTOH
 70
     1
  9
$DIMSE1
 70
     0
  9
$DIMSE2
 70
     0
  9
$DIMTAD
 70
     0
  9
$DIMZIN
 70
     0
  9
$DIMBLK
  1

  9
$DIMASO
 70
     1
  9
$DIMSHO
 70
     1
  9
$DIMPOST
  1

  9
$DIMAPOST
  1

  9
$DIMALT
 70
     0
  9
$DIMALTD
 70
     2
  9
$DIMALTF
 40
25.4
  9
$DIMLFAC
 40
1.0
  9
$DIMTOFL
 70
     0
  9
$DIMTVP
 40
0.0
  9
$DIMTIX
 70
     0
  9
$DIMSOXD
 70
     0
  9
$DIMSAH
 70
     0
  9
$DIMBLK1
  1

  9
$DIMBLK2
  1

  9
$DIMSTYLE
  2
Standard
  9
$DIMCLRD
 70
     0
  9
$DIMCLRE
 70
     0
  9
$DIMCLRT
 70
     0
  9
$DIMTFAC
 40
1.0
  9
$DIMGAP
 40
0.09
  9
$DIMJUST
 70
     0
  9
$DIMSD1
 70
     0
  9
$DIMSD2
 70
     0
  9
$DIMTOLJ
 70
     1
  9
$DIMTZIN
 70
     0
  9
$DIMALTZ
 70
     0
  9
$DIMALTTZ
 70
     0
  9
$DIMUPT
 70
     0
  9
$DIMDEC
 70
     4
  9
$DIMTDEC
 70
     4
  9
$DIMALTU
 70
     2
  9
$DIMALTTD
 70
     2
  9
$DIMTXSTY
  7
Standard
  9
$DIMAUNIT
 70
     0
  9
$DIMADEC
 70
     0
  9
$DIMALTRND
 40
0.0
  9
$DIMAZIN
 70
     0
  9
$DIMDSEP
 70
    46
  9
$DIMATFIT
 70
     3
  9
$DIMFRAC
 70
     0
  9
$DIMLDRBLK
  1

  9
$DIMLUNIT
 70
     2
  9
$DIMLWD
 70
    -2
  9
$DIMLWE
 70
    -2
  9
$DIMTMOVE
 70
     0
  9
$LUNITS
 70
     2
  9
$LUPREC
 70
     4
  9
$SKETCHINC
 40
0.1
  9
$FILLETRAD
 40
0.5
  9
$AUNITS
 70
     0
  9
$AUPREC
 70
     0
  9
$MENU
  1
.
  9
$ELEVATION
 40
0.0
  9
$PELEVATION
 40
0.0
  9
$THICKNESS
 40
0.0
  9
$LIMCHECK
 70
     0
  9
$CHAMFERA
 40
0.5
  9
$CHAMFERB
 40
0.5
  9
$CHAMFERC
 40
1.0
  9
$CHAMFERD
 40
0.0
  9
$SKPOLY
 70
     0
  9
$TDCREATE
 40
2456966.967714294
  9
$TDUCREATE
 40
2456966.926047627
  9
$TDUPDATE
 40
2456966.967714306
  9
$TDUUPDATE
 40
2456966.926047639
  9
$TDINDWG
 40
0.0000000116
  9
$TDUSRTIMER
 40
0.0000000116
  9
$USRTIMER
 70
     1
  9
$ANGBASE
 50
0.0
  9
$ANGDIR
 70
     0
  9
$PDMODE
 70
     0
  9
$PDSIZE
 40
0.0
  9
$PLINEWID
 40
0.0
  9
$SPLFRAME
 70
     0
  9
$SPLINETYPE
 70
     6
  9
$SPLINESEGS
 70
     8
  9
$HANDSEED
  5
398
  9
$SURFTAB1
 70
     6
  9
$SURFTAB2
 70
     6
  9
$SURFTYPE
 70
     6
  9
$SURFU
 70
     6
  9
$SURFV
 70
     6
  9
$UCSBASE
  2

  9
$UCSNAME
  2

  9
$UCSORG
 10
0.0
 20
0.0
 30
0.0
  9
$UCSXDIR
 10
1.0
 20
0.0
 30
0.0
  9
$UCSYDIR
 10
0.0
 20
1.0
 30
0.0
  9
$UCSORTHOREF
  2

  9
$UCSORTHOVIEW
 70
     0
  9
$UCSORGTOP
 10
0.0
 20
0.0
 30
0.0
  9
$UCSORGBOTTOM
 10
0.0
 20
0.0
 30
0.0
  9
$UCSORGLEFT
 10
0.0
 20
0.0
 30
0.0
  9
$UCSORGRIGHT
 10
0.0
 20
0.0
 30
0.0
  9
$UCSORGFRONT
 10
0.0
 20
0.0
 30
0.0
  9
$UCSORGBACK
 10
0.0
 20
0.0
 30
0.0
  9
$PUCSBASE
  2

  9
$PUCSNAME
  2

  9
$PUCSORG
 10
0.0
 20
0.0
 30
0.0
  9
$PUCSXDIR
 10
1.0
 20
0.0
 30
0.0
  9
$PUCSYDIR
 10
0.0
 20
1.0
 30
0.0
  9
$PUCSORTHOREF
  2

  9
$PUCSORTHOVIEW
 70
     0
  9
$PUCSORGTOP
 10
0.0
 20
0.0
 30
0.0
  9
$PUCSORGBOTTOM
 10
0.0
 20
0.0
 30
0.0
  9
$PUCSORGLEFT
 10
0.0
 20
0.0
 30
0.0
  9
$PUCSORGRIGHT
 10
0.0
 20
0.0
 30
0.0
  9
$PUCSORGFRONT
 10
0.0
 20
0.0
 30
0.0
  9
$PUCSORGBACK
 10
0.0
 20
0.0
 30
0.0
  9
$USERI1
 70
     0
  9
$USERI2
 70
     0
  9
$USERI3
 70
     0
  9
$USERI4
 70
     0
  9
$USERI5
 70
     0
  9
$USERR1
 40
0.0
  9
$USERR2
 40
0.0
  9
$USERR3
 40
0.0
  9
$USERR4
 40
0.0
  9
$USERR5
 40
0.0
  9
$WORLDVIEW
 70
     1
  9
$SHADEDGE
 70
     3
  9
$SHADEDIF
 70
    70
  9
$TILEMODE
 70
     1
  9
$MAXACTVP
 70
    64
  9
$PINSBASE
 10
0.0
 20
0.0
 30
0.0
  9
$PLIMCHECK
 70
     0
  9
$PEXTMIN
 10
1.000000000000000E+20
 20
1.000000000000000E+20
 30
1.000000000000000E+20
  9
$PEXTMAX
 10
-1.000000000000000E+20
 20
-1.000000000000000E+20
 30
-1.000000000000000E+20
  9
$PLIMMIN
 10
0.0
 20
0.0
  9
$PLIMMAX
 10
12.0
 20
9.0
  9
$UNITMODE
 70
     0
  9
$VISRETAIN
 70
     1
  9
$PLINEGEN
 70
     0
  9
$PSLTSCALE
 70
     1
  9
$TREEDEPTH
 70
  3020
  9
$CMLSTYLE
  2
Standard
  9
$CMLJUST
 70
     0
  9
$CMLSCALE
 40
1.0
  9
$PROXYGRAPHICS
 70
     1
  9
$MEASUREMENT
 70
     0
  9
$CELWEIGHT
370
    -1
  9
$ENDCAPS
280
     0
  9
$JOINSTYLE
280
     0
  9
$LWDISPLAY
290
     1
  9
$INSUNITS
 70
     1
  9
$HYPERLINKBASE
  1

  9
$STYLESHEET
  1

  9
$XEDIT
290
     1
  9
$CEPSNTYPE
380
     0
  9
$PSTYLEMODE
290
     1
  9
$FINGERPRINTGUID
  2
{B4AB69A7-6ABF-4BF7-85E1-20B13719405A}
  9
$VERSIONGUID
  2
{FAEB1C32-E019-11D5-929B-00C0DF256EC4}
  9
$EXTNAMES
290
     1
  9
$PSVPSCALE
 40
0.0
  9
$OLESTARTUP
290
     0
  9
$SORTENTS
280
   127
  9
$INDEXCTL
280
     0
  9
$HIDETEXT
280
     1
  9
$XCLIPFRAME
290
     0
  9
$HALOGAP
280
     0
  9
$OBSCOLOR
 70
   257
  9
$OBSLTYPE
280
     0
  9
$INTERSECTIONDISPLAY
280
     0
  9
$INTERSECTIONCOLOR
 70
   257
  9
$DIMASSOC
280
     2
  9
$PROJECTNAME
  1

  0
ENDSEC
  0
SECTION
  2
CLASSES
  0
CLASS
  1
ACDBDICTIONARYWDFLT
  2
AcDbDictionaryWithDefault
  3
ObjectDBX Classes
 90
        0
 91
        3
280
     0
281
     0
  0
CLASS
  1
VISUALSTYLE
  2
AcDbVisualStyle
  3
ObjectDBX Classes
 90
     4095
 91
        3
280
     0
281
     0
  0
ENDSEC
  0
SECTION
  2
TABLES
  0
TABLE
  2
VPORT
  5
8
330
0
100
AcDbSymbolTable
 70
     1
  0
VPORT
  5
29
330
8
100
AcDbSymbolTableRecord
100
AcDbViewportTableRecord
  2
*Active
 70
     0
 10
0.0
 20
0.0
 11
1.0
 21
1.0
 12
0.0
 22
0.0
 13
0.0
 23
0.0
 14
0.5
 24
0.5
 15
0.5
 25
0.5
 16
0.0
 26
0.0
 36
1.0
 17
105.0008952513716
 27
148.5000775824991
 37
0.0
 40
297.0001551649982
 41
0.7070763662937379
 42
50.0
 43
0.0
 44
0.0
 50
0.0
 51
0.0
 71
     0
 72
   100
 73
     1
 74
     3
 75
     0
 76
     0
 77
     0
 78
     0
281
     0
 65
     1
110
0.0
120
0.0
130
0.0
111
1.0
121
0.0
131
0.0
112
0.0
122
1.0
132
0.0
 79
     0
146
0.0
  0
ENDTAB
  0
TABLE
  2
LTYPE
  5
5
330
0
100
AcDbSymbolTable
 70
     1
  0
LTYPE
  5
14
330
5
100
AcDbSymbolTableRecord
100
AcDbLinetypeTableRecord
  2
ByBlock
 70
     0
  3

 72
    65
 73
     0
 40
0.0
  0
LTYPE
  5
15
330
5
100
AcDbSymbolTableRecord
100
AcDbLinetypeTableRecord
  2
ByLayer
 70
     0
  3

 72
    65
 73
     0
 40
0.0
  0
LTYPE
  5
16
330
5
100
AcDbSymbolTableRecord
100
AcDbLinetypeTableRecord
  2
Continuous
 70
     0
  3
Solid line
 72
    65
 73
     0
 40
0.0
  0
ENDTAB
  0
TABLE
  2
LAYER
  5
2
330
0
100
AcDbSymbolTable
 70
     2
  0
LAYER
  5
10
330
2
100
AcDbSymbolTableRecord
100
AcDbLayerTableRecord
  2
0
 70
     0
 62
     7
  6
Continuous
370
    -3
390
F
  0
LAYER
  5
3B
330
2
100
AcDbSymbolTableRecord
100
AcDbLayerTableRecord
  2
Capa 1
 70
     0
 62
     7
  6
Continuous
370
    -3
390
F
  0
ENDTAB
  0
TABLE
  2
STYLE
  5
3
330
0
100
AcDbSymbolTable
 70
     1
  0
STYLE
  5
11
330
3
100
AcDbSymbolTableRecord
100
AcDbTextStyleTableRecord
  2
Standard
 70
     0
 40
0.0
 41
1.0
 50
0.0
 71
     0
 42
0.2
  3
txt
  4

  0
ENDTAB
  0
TABLE
  2
VIEW
  5
6
330
0
100
AcDbSymbolTable
 70
     0
  0
ENDTAB
  0
TABLE
  2
UCS
  5
7
330
0
100
AcDbSymbolTable
 70
     0
  0
ENDTAB
  0
TABLE
  2
APPID
  5
9
330
0
100
AcDbSymbolTable
 70
     1
  0
APPID
  5
12
330
9
100
AcDbSymbolTableRecord
100
AcDbRegAppTableRecord
  2
ACAD
 70
     0
  0
ENDTAB
  0
TABLE
  2
DIMSTYLE
  5
A
330
0
100
AcDbSymbolTable
 70
     1
100
AcDbDimStyleTable
  0
DIMSTYLE
105
27
330
A
100
AcDbSymbolTableRecord
100
AcDbDimStyleTableRecord
  2
Standard
 70
     0
340
11
  0
ENDTAB
  0
TABLE
  2
BLOCK_RECORD
  5
1
330
0
100
AcDbSymbolTable
 70
     7
  0
BLOCK_RECORD
  5
1F
330
1
100
AcDbSymbolTableRecord
100
AcDbBlockTableRecord
  2
*Model_Space
340
22
  0
BLOCK_RECORD
  5
1B
330
1
100
AcDbSymbolTableRecord
100
AcDbBlockTableRecord
  2
*Paper_Space
340
1E
  0
BLOCK_RECORD
  5
23
330
1
100
AcDbSymbolTableRecord
100
AcDbBlockTableRecord
  2
*Paper_Space0
340
26
  0
BLOCK_RECORD
  5
64
330
1
100
AcDbSymbolTableRecord
100
AcDbBlockTableRecord
  2
block 2
340
0
102
{BLKREFS
331
65
102
}
  0
BLOCK_RECORD
  5
DB
330
1
100
AcDbSymbolTableRecord
100
AcDbBlockTableRecord
  2
block 3
340
0
102
{BLKREFS
331
DC
102
}
  0
BLOCK_RECORD
  5
F2
330
1
100
AcDbSymbolTableRecord
100
AcDbBlockTableRecord
  2
block 4
340
0
102
{BLKREFS
331
F3
102
}
  0
BLOCK_RECORD
  5
111
330
1
100
AcDbSymbolTableRecord
100
AcDbBlockTableRecord
  2
block 5
340
0
102
{BLKREFS
331
112
102
}
  0
BLOCK_RECORD
  5
144
330
1
100
AcDbSymbolTableRecord
100
AcDbBlockTableRecord
  2
block 6
340
0
102
{BLKREFS
331
145
102
}
  0
BLOCK_RECORD
  5
163
330
1
100
AcDbSymbolTableRecord
100
AcDbBlockTableRecord
  2
block 7
340
0
102
{BLKREFS
331
164
102
}
  0
ENDTAB
  0
ENDSEC
  0
SECTION
  2
BLOCKS
  0
BLOCK
  5
20
330
1F
100
AcDbEntity
  8
0
100
AcDbBlockBegin
  2
*Model_Space
 70
     0
 71
     0
 10
0.0
 20
0.0
 30
0.0
  3
*Model_Space
  1

  0
ENDBLK
  5
21
330
1F
100
AcDbEntity
  8
0
100
AcDbBlockEnd
  0
BLOCK
  5
1C
330
1B
100
AcDbEntity
 67
     1
  8
0
100
AcDbBlockBegin
  2
*Paper_Space
 70
     0
 71
     0
 10
0.0
 20
0.0
 30
0.0
  3
*Paper_Space
  1

  0
ENDBLK
  5
1D
330
1B
100
AcDbEntity
 67
     1
  8
0
100
AcDbBlockEnd
  0
BLOCK
  5
24
330
23
100
AcDbEntity
  8
0
100
AcDbBlockBegin
  2
*Paper_Space0
 70
     0
 71
     0
 10
0.0
 20
0.0
 30
0.0
  3
*Paper_Space0
  1

  0
ENDBLK
  5
25
330
23
100
AcDbEntity
  8
0
100
AcDbBlockEnd
  0
BLOCK
  5
66
330
64
100
AcDbEntity
  8
0
100
AcDbBlockBegin
  2
block 2
 70
     0
 71
     0
 10
0.0
 20
0.0
 30
0.0
  3
block 2
  1

  0
POLYLINE
  5
68
330
64
100
AcDbEntity
  8
Capa 1
370
     0
100
AcDb2dPolyline
 66
     1
 10
0.0
 20
0.0
 30
0.0
  0
VERTEX
  5
69
330
68
100
AcDbEntity
  8
Capa 1
370
     0
100
AcDbVertex
100
AcDb2dVertex
 10
40.28972925981036
 20
199.1883176600531
 30
0.0
  0
VERTEX
  5
6A
330
68
100
AcDbEntity
  8
Capa 1
370
     0
100
AcDbVertex
100
AcDb2dVertex
 10
156.5107911441995
 20
199.1883176600531
 30
0.0
  0
VERTEX
  5
6B
330
68
100
AcDbEntity
  8
Capa 1
370
     0
100
AcDbVertex
100
AcDb2dVertex
 10
144.5163387900801
 20
92.08367346278217
 30
0.0
  0
VERTEX
  5
6C
330
68
100
AcDbEntity
  8
Capa 1
370
     0
100
AcDbVertex
100
AcDb2dVertex
 10
40.28972925981036
 20
92.08367346278217
 30
0.0
  0
VERTEX
  5
6D
330
68
100
AcDbEntity
  8
Capa 1
370
     0
100
AcDbVertex
100
AcDb2dVertex
 10
40.28972925981036
 20
199.1883176600531
 30
0.0
  0
SEQEND
  5
6E
330
68
100
AcDbEntity
  8
Capa 1
370
     0
  0
POLYLINE
  5
6F
330
64
100
AcDbEntity
  8
Capa 1
 62
     7
370
     9
100
AcDb2dPolyline
 66
     1
 10
0.0
 20
0.0
 30
0.0
  0
VERTEX
  5
70
330
6F
100
AcDbEntity
  8
Capa 1
 62
     7
370
     9
100
AcDbVertex
100
AcDb2dVertex
 10
113.8797734480784
 20
198.8334725909831
 30
0.0
  0
VERTEX
  5
71
330
6F
100
AcDbEntity
  8
Capa 1
 62
     7
370
     9
100
AcDbVertex
100
AcDb2dVertex
 10
114.0230895148096
 20
198.8334725909831
 30
0.0
  0
SEQEND
  5
72
330
6F
100
AcDbEntity
  8
Capa 1
370
     9
  0
ENDBLK
  5
67
330
64
100
AcDbEntity
  8
0
100
AcDbBlockEnd
  0
BLOCK
  5
DD
330
DB
100
AcDbEntity
  8
0
100
AcDbBlockBegin
  2
block 3
 70
     0
 71
     0
 10
0.0
 20
0.0
 30
0.0
  3
block 3
  1

  0
POLYLINE
  5
DF
330
DB
100
AcDbEntity
  8
Capa 1
370
     0
100
AcDb2dPolyline
 66
     1
 10
0.0
 20
0.0
 30
0.0
  0
VERTEX
  5
E0
330
DF
100
AcDbEntity
  8
Capa 1
370
     0
100
AcDbVertex
100
AcDb2dVertex
 10
40.28972925981036
 20
199.1883176600531
 30
0.0
  0
VERTEX
  5
E1
330
DF
100
AcDbEntity
  8
Capa 1
370
     0
100
AcDbVertex
100
AcDb2dVertex
 10
156.5107911441995
 20
199.1883176600531
 30
0.0
  0
VERTEX
  5
E2
330
DF
100
AcDbEntity
  8
Capa 1
370
     0
100
AcDbVertex
100
AcDb2dVertex
 10
144.5163387900801
 20
92.08367346278217
 30
0.0
  0
VERTEX
  5
E3
330
DF
100
AcDbEntity
  8
Capa 1
370
     0
100
AcDbVertex
100
AcDb2dVertex
 10
40.28972925981036
 20
92.08367346278217
 30
0.0
  0
VERTEX
  5
E4
330
DF
100
AcDbEntity
  8
Capa 1
370
     0
100
AcDbVertex
100
AcDb2dVertex
 10
40.28972925981036
 20
199.1883176600531
 30
0.0
  0
SEQEND
  5
E5
330
DF
100
AcDbEntity
  8
Capa 1
370
     0
  0
POLYLINE
  5
E6
330
DB
100
AcDbEntity
  8
Capa 1
 62
     7
370
     9
100
AcDb2dPolyline
 66
     1
 10
0.0
 20
0.0
 30
0.0
  0
VERTEX
  5
E7
330
E6
100
AcDbEntity
  8
Capa 1
 62
     7
370
     9
100
AcDbVertex
100
AcDb2dVertex
 10
113.8163836493319
 20
198.8334725909831
 30
0.0
  0
VERTEX
  5
E8
330
E6
100
AcDbEntity
  8
Capa 1
 62
     7
370
     9
100
AcDbVertex
100
AcDb2dVertex
 10
113.8522126660147
 20
198.8334725909831
 30
0.0
  0
SEQEND
  5
E9
330
E6
100
AcDbEntity
  8
Capa 1
370
     9
  0
ENDBLK
  5
DE
330
DB
100
AcDbEntity
  8
0
100
AcDbBlockEnd
  0
BLOCK
  5
F4
330
F2
100
AcDbEntity
  8
0
100
AcDbBlockBegin
  2
block 4
 70
     0
 71
     0
 10
0.0
 20
0.0
 30
0.0
  3
block 4
  1

  0
POLYLINE
  5
F6
330
F2
100
AcDbEntity
  8
Capa 1
370
     0
100
AcDb2dPolyline
 66
     1
 10
0.0
 20
0.0
 30
0.0
  0
VERTEX
  5
F7
330
F6
100
AcDbEntity
  8
Capa 1
370
     0
100
AcDbVertex
100
AcDb2dVertex
 10
40.28972925981036
 20
199.1883176600531
 30
0.0
  0
VERTEX
  5
F8
330
F6
100
AcDbEntity
  8
Capa 1
370
     0
100
AcDbVertex
100
AcDb2dVertex
 10
156.5107911441995
 20
199.1883176600531
 30
0.0
  0
VERTEX
  5
F9
330
F6
100
AcDbEntity
  8
Capa 1
370
     0
100
AcDbVertex
100
AcDb2dVertex
 10
144.5163387900801
 20
92.08367346278217
 30
0.0
  0
VERTEX
  5
FA
330
F6
100
AcDbEntity
  8
Capa 1
370
     0
100
AcDbVertex
100
AcDb2dVertex
 10
40.28972925981036
 20
92.08367346278217
 30
0.0
  0
VERTEX
  5
FB
330
F6
100
AcDbEntity
  8
Capa 1
370
     0
100
AcDbVertex
100
AcDb2dVertex
 10
40.28972925981036
 20
199.1883176600531
 30
0.0
  0
SEQEND
  5
FC
330
F6
100
AcDbEntity
  8
Capa 1
370
     0
  0
POLYLINE
  5
FD
330
F2
100
AcDbEntity
  8
Capa 1
 62
     7
370
     9
100
AcDb2dPolyline
 66
     1
 10
0.0
 20
0.0
 30
0.0
  0
VERTEX
  5
FE
330
FD
100
AcDbEntity
  8
Capa 1
 62
     7
370
     9
100
AcDbVertex
100
AcDb2dVertex
 10
113.8797734480784
 20
198.8334725909831
 30
0.0
  0
VERTEX
  5
FF
330
FD
100
AcDbEntity
  8
Capa 1
 62
     7
370
     9
100
AcDbVertex
100
AcDb2dVertex
 10
113.8522126660147
 20
198.8334725909831
 30
0.0
  0
SEQEND
  5
100
330
FD
100
AcDbEntity
  8
Capa 1
370
     9
  0
ENDBLK
  5
F5
330
F2
100
AcDbEntity
  8
0
100
AcDbBlockEnd
  0
BLOCK
  5
113
330
111
100
AcDbEntity
  8
0
100
AcDbBlockBegin
  2
block 5
 70
     0
 71
     0
 10
0.0
 20
0.0
 30
0.0
  3
block 5
  1

  0
POLYLINE
  5
115
330
111
100
AcDbEntity
  8
Capa 1
370
     0
100
AcDb2dPolyline
 66
     1
 10
0.0
 20
0.0
 30
0.0
  0
VERTEX
  5
116
330
115
100
AcDbEntity
  8
Capa 1
370
     0
100
AcDbVertex
100
AcDb2dVertex
 10
40.28972925981036
 20
199.1883176600531
 30
0.0
  0
VERTEX
  5
117
330
115
100
AcDbEntity
  8
Capa 1
370
     0
100
AcDbVertex
100
AcDb2dVertex
 10
156.5107911441995
 20
199.1883176600531
 30
0.0
  0
VERTEX
  5
118
330
115
100
AcDbEntity
  8
Capa 1
370
     0
100
AcDbVertex
100
AcDb2dVertex
 10
144.5163387900801
 20
92.08367346278217
 30
0.0
  0
VERTEX
  5
119
330
115
100
AcDbEntity
  8
Capa 1
370
     0
100
AcDbVertex
100
AcDb2dVertex
 10
40.28972925981036
 20
92.08367346278217
 30
0.0
  0
VERTEX
  5
11A
330
115
100
AcDbEntity
  8
Capa 1
370
     0
100
AcDbVertex
100
AcDb2dVertex
 10
40.28972925981036
 20
199.1883176600531
 30
0.0
  0
SEQEND
  5
11B
330
115
100
AcDbEntity
  8
Capa 1
370
     0
  0
POLYLINE
  5
11C
330
111
100
AcDbEntity
  8
Capa 1
 62
     7
370
     9
100
AcDb2dPolyline
 66
     1
 10
0.0
 20
0.0
 30
0.0
  0
VERTEX
  5
11D
330
11C
100
AcDbEntity
  8
Capa 1
 62
     7
370
     9
100
AcDbVertex
100
AcDb2dVertex
 10
113.6399946441243
 20
198.8334725909831
 30
0.0
  0
VERTEX
  5
11E
330
11C
100
AcDbEntity
  8
Capa 1
 62
     7
370
     9
100
AcDbVertex
100
AcDb2dVertex
 10
113.735079342244
 20
198.8334725909831
 30
0.0
  0
SEQEND
  5
11F
330
11C
100
AcDbEntity
  8
Capa 1
370
     9
  0
ENDBLK
  5
114
330
111
100
AcDbEntity
  8
0
100
AcDbBlockEnd
  0
BLOCK
  5
146
330
144
100
AcDbEntity
  8
0
100
AcDbBlockBegin
  2
block 6
 70
     0
 71
     0
 10
0.0
 20
0.0
 30
0.0
  3
block 6
  1

  0
POLYLINE
  5
148
330
144
100
AcDbEntity
  8
Capa 1
370
     0
100
AcDb2dPolyline
 66
     1
 10
0.0
 20
0.0
 30
0.0
  0
VERTEX
  5
149
330
148
100
AcDbEntity
  8
Capa 1
370
     0
100
AcDbVertex
100
AcDb2dVertex
 10
40.28972925981036
 20
199.1883176600531
 30
0.0
  0
VERTEX
  5
14A
330
148
100
AcDbEntity
  8
Capa 1
370
     0
100
AcDbVertex
100
AcDb2dVertex
 10
156.5107911441995
 20
199.1883176600531
 30
0.0
  0
VERTEX
  5
14B
330
148
100
AcDbEntity
  8
Capa 1
370
     0
100
AcDbVertex
100
AcDb2dVertex
 10
144.5163387900801
 20
92.08367346278217
 30
0.0
  0
VERTEX
  5
14C
330
148
100
AcDbEntity
  8
Capa 1
370
     0
100
AcDbVertex
100
AcDb2dVertex
 10
40.28972925981036
 20
92.08367346278217
 30
0.0
  0
VERTEX
  5
14D
330
148
100
AcDbEntity
  8
Capa 1
370
     0
100
AcDbVertex
100
AcDb2dVertex
 10
40.28972925981036
 20
199.1883176600531
 30
0.0
  0
SEQEND
  5
14E
330
148
100
AcDbEntity
  8
Capa 1
370
     0
  0
POLYLINE
  5
14F
330
144
100
AcDbEntity
  8
Capa 1
 62
     7
370
     9
100
AcDb2dPolyline
 66
     1
 10
0.0
 20
0.0
 30
0.0
  0
VERTEX
  5
150
330
14F
100
AcDbEntity
  8
Capa 1
 62
     7
370
     9
100
AcDbVertex
100
AcDb2dVertex
 10
52.39166866397817
 20
198.8334725909831
 30
0.0
  0
VERTEX
  5
151
330
14F
100
AcDbEntity
  8
Capa 1
 62
     7
370
     9
100
AcDbVertex
100
AcDb2dVertex
 10
52.48744238164951
 20
198.8334725909831
 30
0.0
  0
SEQEND
  5
152
330
14F
100
AcDbEntity
  8
Capa 1
370
     9
  0
ENDBLK
  5
147
330
144
100
AcDbEntity
  8
0
100
AcDbBlockEnd
  0
BLOCK
  5
165
330
163
100
AcDbEntity
  8
0
100
AcDbBlockBegin
  2
block 7
 70
     0
 71
     0
 10
0.0
 20
0.0
 30
0.0
  3
block 7
  1

  0
POLYLINE
  5
167
330
163
100
AcDbEntity
  8
Capa 1
370
     0
100
AcDb2dPolyline
 66
     1
 10
0.0
 20
0.0
 30
0.0
  0
VERTEX
  5
168
330
167
100
AcDbEntity
  8
Capa 1
370
     0
100
AcDbVertex
100
AcDb2dVertex
 10
40.28972925981036
 20
199.1883176600531
 30
0.0
  0
VERTEX
  5
169
330
167
100
AcDbEntity
  8
Capa 1
370
     0
100
AcDbVertex
100
AcDb2dVertex
 10
156.5107911441995
 20
199.1883176600531
 30
0.0
  0
VERTEX
  5
16A
330
167
100
AcDbEntity
  8
Capa 1
370
     0
100
AcDbVertex
100
AcDb2dVertex
 10
156.5107911441995
 20
92.08367346278217
 30
0.0
  0
VERTEX
  5
16B
330
167
100
AcDbEntity
  8
Capa 1
370
     0
100
AcDbVertex
100
AcDb2dVertex
 10
40.28972925981036
 20
92.08367346278217
 30
0.0
  0
VERTEX
  5
16C
330
167
100
AcDbEntity
  8
Capa 1
370
     0
100
AcDbVertex
100
AcDb2dVertex
 10
40.28972925981036
 20
199.1883176600531
 30
0.0
  0
SEQEND
  5
16D
330
167
100
AcDbEntity
  8
Capa 1
370
     0
  0
SPLINE
  5
16E
330
163
100
AcDbEntity
  8
Capa 1
 62
     7
370
     9
100
AcDbSpline
210
0.0
220
0.0
230
1.0
 70
     8
 71
     3
 72
    11
 73
     7
 74
     0
 42
0.0000000001
 43
0.0000000001
 40
0.0
 40
0.0
 40
0.0
 40
0.0
 40
1.0
 40
1.0
 40
1.0
 40
2.0
 40
2.0
 40
2.0
 40
2.0
 10
99.10995034014503
 20
182.4782154948357
 30
0.0
 10
99.7245557801654
 20
182.7235064552026
 30
0.0
 10
100.0235902655565
 20
183.4221722805172
 30
0.0
 10
99.7782993051896
 20
184.0374667400892
 30
0.0
 10
99.65565382500617
 20
184.3433914209962
 30
0.0
 10
99.41449698194886
 20
184.5852372836051
 30
0.0
 10
99.10995034014503
 20
184.7065047246853
 30
0.0
  0
SPLINE
  5
16F
330
163
100
AcDbEntity
  8
Capa 1
 62
     7
370
     9
100
AcDbSpline
210
0.0
220
0.0
230
1.0
 70
     8
 71
     3
 72
     8
 73
     4
 74
     0
 42
0.0000000001
 43
0.0000000001
 40
0.0
 40
0.0
 40
0.0
 40
0.0
 40
1.0
 40
1.0
 40
1.0
 40
1.0
 10
99.10995034014503
 20
184.7065047246853
 30
0.0
 10
88.80910804383959
 20
188.8268416432075
 30
0.0
 10
77.31832898193417
 20
188.8268416432075
 30
0.0
 10
67.01817570518031
 20
184.7065047246853
 30
0.0
  0
SPLINE
  5
170
330
163
100
AcDbEntity
  8
Capa 1
 62
     7
370
     9
100
AcDbSpline
210
0.0
220
0.0
230
1.0
 70
     8
 71
     3
 72
    11
 73
     7
 74
     0
 42
0.0000000001
 43
0.0000000001
 40
0.0
 40
0.0
 40
0.0
 40
0.0
 40
1.0
 40
1.0
 40
1.0
 40
2.0
 40
2.0
 40
2.0
 40
2.0
 10
67.01817570518031
 20
184.7065047246853
 30
0.0
 10
66.40150320650518
 20
184.4612137643185
 30
0.0
 10
66.10384676021728
 20
183.7611698999007
 30
0.0
 10
66.34913772058415
 20
183.1458754403287
 30
0.0
 10
66.47040516166442
 20
182.8427068376281
 30
0.0
 10
66.7136290633765
 20
182.599482935916
 30
0.0
 10
67.01817570518031
 20
182.4782154948357
 30
0.0
  0
SPLINE
  5
171
330
163
100
AcDbEntity
  8
Capa 1
 62
     7
370
     9
100
AcDbSpline
210
0.0
220
0.0
230
1.0
 70
     8
 71
     3
 72
     8
 73
     4
 74
     0
 42
0.0000000001
 43
0.0000000001
 40
0.0
 40
0.0
 40
0.0
 40
0.0
 40
1.0
 40
1.0
 40
1.0
 40
1.0
 10
67.01817570518031
 20
182.4782154948357
 30
0.0
 10
77.31763996238259
 20
178.3578785763136
 30
0.0
 10
88.808419024288
 20
178.3578785763136
 30
0.0
 10
99.10995034014503
 20
182.4782154948357
 30
0.0
  0
POLYLINE
  5
172
330
163
100
AcDbEntity
  8
Capa 1
 62
     7
370
     9
100
AcDb2dPolyline
 66
     1
 10
0.0
 20
0.0
 30
0.0
  0
VERTEX
  5
173
330
172
100
AcDbEntity
  8
Capa 1
 62
     7
370
     9
100
AcDbVertex
100
AcDb2dVertex
 10
84.50342486593907
 20
169.8884502481405
 30
0.0
  0
VERTEX
  5
174
330
172
100
AcDbEntity
  8
Capa 1
 62
     7
370
     9
100
AcDbVertex
100
AcDb2dVertex
 10
84.50342486593907
 20
171.8087477384284
 30
0.0
  0
SEQEND
  5
175
330
172
100
AcDbEntity
  8
Capa 1
370
     9
  0
POLYLINE
  5
176
330
163
100
AcDbEntity
  8
Capa 1
 62
     7
370
     9
100
AcDb2dPolyline
 66
     1
 10
0.0
 20
0.0
 30
0.0
  0
VERTEX
  5
177
330
176
100
AcDbEntity
  8
Capa 1
 62
     7
370
     9
100
AcDbVertex
100
AcDb2dVertex
 10
84.50342486593907
 20
171.8087477384284
 30
0.0
  0
VERTEX
  5
178
330
176
100
AcDbEntity
  8
Capa 1
 62
     7
370
     9
100
AcDbVertex
100
AcDb2dVertex
 10
81.6233231402831
 20
171.8087477384284
 30
0.0
  0
SEQEND
  5
179
330
176
100
AcDbEntity
  8
Capa 1
370
     9
  0
POLYLINE
  5
17A
330
163
100
AcDbEntity
  8
Capa 1
 62
     7
370
     9
100
AcDb2dPolyline
 66
     1
 10
0.0
 20
0.0
 30
0.0
  0
VERTEX
  5
17B
330
17A
100
AcDbEntity
  8
Capa 1
 62
     7
370
     9
100
AcDbVertex
100
AcDb2dVertex
 10
81.6233231402831
 20
171.8087477384284
 30
0.0
  0
VERTEX
  5
17C
330
17A
100
AcDbEntity
  8
Capa 1
 62
     7
370
     9
100
AcDbVertex
100
AcDb2dVertex
 10
81.6233231402831
 20
169.8884502481405
 30
0.0
  0
SEQEND
  5
17D
330
17A
100
AcDbEntity
  8
Capa 1
370
     9
  0
POLYLINE
  5
17E
330
163
100
AcDbEntity
  8
Capa 1
 62
     7
370
     9
100
AcDb2dPolyline
 66
     1
 10
0.0
 20
0.0
 30
0.0
  0
VERTEX
  5
17F
330
17E
100
AcDbEntity
  8
Capa 1
 62
     7
370
     9
100
AcDbVertex
100
AcDb2dVertex
 10
81.6233231402831
 20
169.8884502481405
 30
0.0
  0
VERTEX
  5
180
330
17E
100
AcDbEntity
  8
Capa 1
 62
     7
370
     9
100
AcDbVertex
100
AcDb2dVertex
 10
84.50342486593907
 20
169.8884502481405
 30
0.0
  0
SEQEND
  5
181
330
17E
100
AcDbEntity
  8
Capa 1
370
     9
  0
POLYLINE
  5
182
330
163
100
AcDbEntity
  8
Capa 1
 62
     7
370
     9
100
AcDb2dPolyline
 66
     1
 10
0.0
 20
0.0
 30
0.0
  0
VERTEX
  5
183
330
182
100
AcDbEntity
  8
Capa 1
 62
     7
370
     9
100
AcDbVertex
100
AcDb2dVertex
 10
52.10365849141257
 20
198.8334725909831
 30
0.0
  0
VERTEX
  5
184
330
182
100
AcDbEntity
  8
Capa 1
 62
     7
370
     9
100
AcDbVertex
100
AcDb2dVertex
 10
52.39166866397817
 20
198.8334725909831
 30
0.0
  0
SEQEND
  5
185
330
182
100
AcDbEntity
  8
Capa 1
370
     9
  0
POLYLINE
  5
186
330
163
100
AcDbEntity
  8
Capa 1
 62
     7
370
     9
100
AcDb2dPolyline
 66
     1
 10
0.0
 20
0.0
 30
0.0
  0
VERTEX
  5
187
330
186
100
AcDbEntity
  8
Capa 1
 62
     7
370
     9
100
AcDbVertex
100
AcDb2dVertex
 10
52.10365849141257
 20
198.8334725909831
 30
0.0
  0
VERTEX
  5
188
330
186
100
AcDbEntity
  8
Capa 1
 62
     7
370
     9
100
AcDbVertex
100
AcDb2dVertex
 10
52.10365849141257
 20
168.3519366480896
 30
0.0
  0
SEQEND
  5
189
330
186
100
AcDbEntity
  8
Capa 1
370
     9
  0
POLYLINE
  5
18A
330
163
100
AcDbEntity
  8
Capa 1
 62
     7
370
     9
100
AcDb2dPolyline
 66
     1
 10
0.0
 20
0.0
 30
0.0
  0
VERTEX
  5
18B
330
18A
100
AcDbEntity
  8
Capa 1
 62
     7
370
     9
100
AcDbVertex
100
AcDb2dVertex
 10
52.10365849141257
 20
168.3526256676412
 30
0.0
  0
VERTEX
  5
18C
330
18A
100
AcDbEntity
  8
Capa 1
 62
     7
370
     9
100
AcDbVertex
100
AcDb2dVertex
 10
52.39166866397817
 20
168.3526256676412
 30
0.0
  0
SEQEND
  5
18D
330
18A
100
AcDbEntity
  8
Capa 1
370
     9
  0
POLYLINE
  5
18E
330
163
100
AcDbEntity
  8
Capa 1
 62
     7
370
     9
100
AcDb2dPolyline
 66
     1
 10
0.0
 20
0.0
 30
0.0
  0
VERTEX
  5
18F
330
18E
100
AcDbEntity
  8
Capa 1
 62
     7
370
     9
100
AcDbVertex
100
AcDb2dVertex
 10
52.5597894345667
 20
198.6887784851487
 30
0.0
  0
VERTEX
  5
190
330
18E
100
AcDbEntity
  8
Capa 1
 62
     7
370
     9
100
AcDbVertex
100
AcDb2dVertex
 10
52.5597894345667
 20
198.9767886577143
 30
0.0
  0
SEQEND
  5
191
330
18E
100
AcDbEntity
  8
Capa 1
370
     9
  0
POLYLINE
  5
192
330
163
100
AcDbEntity
  8
Capa 1
 62
     7
370
     9
100
AcDb2dPolyline
 66
     1
 10
0.0
 20
0.0
 30
0.0
  0
VERTEX
  5
193
330
192
100
AcDbEntity
  8
Capa 1
 62
     7
370
     9
100
AcDbVertex
100
AcDb2dVertex
 10
52.5597894345667
 20
198.9767886577143
 30
0.0
  0
VERTEX
  5
194
330
192
100
AcDbEntity
  8
Capa 1
 62
     7
370
     9
100
AcDbVertex
100
AcDb2dVertex
 10
113.5669585716555
 20
198.9767886577143
 30
0.0
  0
SEQEND
  5
195
330
192
100
AcDbEntity
  8
Capa 1
370
     9
  0
POLYLINE
  5
196
330
163
100
AcDbEntity
  8
Capa 1
 62
     7
370
     9
100
AcDb2dPolyline
 66
     1
 10
0.0
 20
0.0
 30
0.0
  0
VERTEX
  5
197
330
196
100
AcDbEntity
  8
Capa 1
 62
     7
370
     9
100
AcDbVertex
100
AcDb2dVertex
 10
113.5669585716555
 20
198.9767886577143
 30
0.0
  0
VERTEX
  5
198
330
196
100
AcDbEntity
  8
Capa 1
 62
     7
370
     9
100
AcDbVertex
100
AcDb2dVertex
 10
113.5669585716555
 20
198.6887784851487
 30
0.0
  0
SEQEND
  5
199
330
196
100
AcDbEntity
  8
Capa 1
370
     9
  0
POLYLINE
  5
19A
330
163
100
AcDbEntity
  8
Capa 1
 62
     7
370
     9
100
AcDb2dPolyline
 66
     1
 10
0.0
 20
0.0
 30
0.0
  0
VERTEX
  5
19B
330
19A
100
AcDbEntity
  8
Capa 1
 62
     7
370
     9
100
AcDbVertex
100
AcDb2dVertex
 10
52.5597894345667
 20
168.2086205813584
 30
0.0
  0
VERTEX
  5
19C
330
19A
100
AcDbEntity
  8
Capa 1
 62
     7
370
     9
100
AcDbVertex
100
AcDb2dVertex
 10
52.5597894345667
 20
168.496630753924
 30
0.0
  0
SEQEND
  5
19D
330
19A
100
AcDbEntity
  8
Capa 1
370
     9
  0
POLYLINE
  5
19E
330
163
100
AcDbEntity
  8
Capa 1
 62
     7
370
     9
100
AcDb2dPolyline
 66
     1
 10
0.0
 20
0.0
 30
0.0
  0
VERTEX
  5
19F
330
19E
100
AcDbEntity
  8
Capa 1
 62
     7
370
     9
100
AcDbVertex
100
AcDb2dVertex
 10
113.5669585716555
 20
168.2086205813584
 30
0.0
  0
VERTEX
  5
1A0
330
19E
100
AcDbEntity
  8
Capa 1
 62
     7
370
     9
100
AcDbVertex
100
AcDb2dVertex
 10
52.5604784541183
 20
168.2086205813584
 30
0.0
  0
SEQEND
  5
1A1
330
19E
100
AcDbEntity
  8
Capa 1
370
     9
  0
POLYLINE
  5
1A2
330
163
100
AcDbEntity
  8
Capa 1
 62
     7
370
     9
100
AcDb2dPolyline
 66
     1
 10
0.0
 20
0.0
 30
0.0
  0
VERTEX
  5
1A3
330
1A2
100
AcDbEntity
  8
Capa 1
 62
     7
370
     9
100
AcDbVertex
100
AcDb2dVertex
 10
113.5669585716555
 20
168.496630753924
 30
0.0
  0
VERTEX
  5
1A4
330
1A2
100
AcDbEntity
  8
Capa 1
 62
     7
370
     9
100
AcDbVertex
100
AcDb2dVertex
 10
113.5669585716555
 20
168.2086205813584
 30
0.0
  0
SEQEND
  5
1A5
330
1A2
100
AcDbEntity
  8
Capa 1
370
     9
  0
SPLINE
  5
1A6
330
163
100
AcDbEntity
  8
Capa 1
 62
     7
370
     9
100
AcDbSpline
210
0.0
220
0.0
230
1.0
 70
     8
 71
     3
 72
     8
 73
     4
 74
     0
 42
0.0000000001
 43
0.0000000001
 40
0.0
 40
0.0
 40
0.0
 40
0.0
 40
1.0
 40
1.0
 40
1.0
 40
1.0
 10
113.5669585716555
 20
168.2086205813584
 30
0.0
 10
113.7268111076249
 20
168.2086205813584
 30
0.0
 10
113.8549687442211
 20
168.3367782179546
 30
0.0
 10
113.8549687442211
 20
168.496630753924
 30
0.0
  0
SPLINE
  5
1A7
330
163
100
AcDbEntity
  8
Capa 1
 62
     7
370
     9
100
AcDbSpline
210
0.0
220
0.0
230
1.0
 70
     8
 71
     3
 72
     8
 73
     4
 74
     0
 42
0.0000000001
 43
0.0000000001
 40
0.0
 40
0.0
 40
0.0
 40
0.0
 40
1.0
 40
1.0
 40
1.0
 40
1.0
 10
113.6399946441243
 20
198.8134910239869
 30
0.0
 10
113.6179460184733
 20
198.8265823954671
 30
0.0
 10
113.593141314616
 20
198.8334725909831
 30
0.0
 10
113.5669585716555
 20
198.8334725909831
 30
0.0
  0
SPLINE
  5
1A8
330
163
100
AcDbEntity
  8
Capa 1
 62
     7
370
     9
100
AcDbSpline
210
0.0
220
0.0
230
1.0
 70
     8
 71
     3
 72
     8
 73
     4
 74
     0
 42
0.0000000001
 43
0.0000000001
 40
0.0
 40
0.0
 40
0.0
 40
0.0
 40
1.0
 40
1.0
 40
1.0
 40
1.0
 10
113.8549687442211
 20
198.6887784851487
 30
0.0
 10
113.8549687442211
 20
198.8451859233601
 30
0.0
 10
113.7268111076249
 20
198.9767886577143
 30
0.0
 10
113.5669585716555
 20
198.9767886577143
 30
0.0
  0
POLYLINE
  5
1A9
330
163
100
AcDbEntity
  8
Capa 1
 62
     7
370
     9
100
AcDb2dPolyline
 66
     1
 10
0.0
 20
0.0
 30
0.0
  0
VERTEX
  5
1AA
330
1A9
100
AcDbEntity
  8
Capa 1
 62
     7
370
     9
100
AcDbVertex
100
AcDb2dVertex
 10
113.8549687442211
 20
171.4725061972513
 30
0.0
  0
VERTEX
  5
1AB
330
1A9
100
AcDbEntity
  8
Capa 1
 62
     7
370
     9
100
AcDbVertex
100
AcDb2dVertex
 10
113.8549687442211
 20
168.5924044715954
 30
0.0
  0
SEQEND
  5
1AC
330
1A9
100
AcDbEntity
  8
Capa 1
370
     9
  0
POLYLINE
  5
1AD
330
163
100
AcDbEntity
  8
Capa 1
 62
     7
370
     9
100
AcDb2dPolyline
 66
     1
 10
0.0
 20
0.0
 30
0.0
  0
VERTEX
  5
1AE
330
1AD
100
AcDbEntity
  8
Capa 1
 62
     7
370
     9
100
AcDbVertex
100
AcDb2dVertex
 10
113.8549687442211
 20
168.5924044715954
 30
0.0
  0
VERTEX
  5
1AF
330
1AD
100
AcDbEntity
  8
Capa 1
 62
     7
370
     9
100
AcDbVertex
100
AcDb2dVertex
 10
113.8549687442211
 20
168.496630753924
 30
0.0
  0
SEQEND
  5
1B0
330
1AD
100
AcDbEntity
  8
Capa 1
370
     9
  0
SPLINE
  5
1B1
330
163
100
AcDbEntity
  8
Capa 1
 62
     7
370
     9
100
AcDbSpline
210
0.0
220
0.0
230
1.0
 70
     8
 71
     3
 72
     8
 73
     4
 74
     0
 42
0.0000000001
 43
0.0000000001
 40
0.0
 40
0.0
 40
0.0
 40
0.0
 40
1.0
 40
1.0
 40
1.0
 40
1.0
 10
52.48744238164951
 20
168.3719182150858
 30
0.0
 10
52.51018002685205
 20
168.3595158631572
 30
0.0
 10
52.5336066916062
 20
168.3519366480896
 30
0.0
 10
52.55910041501511
 20
168.3519366480896
 30
0.0
  0
SPLINE
  5
1B2
330
163
100
AcDbEntity
  8
Capa 1
 62
     7
370
     9
100
AcDbSpline
210
0.0
220
0.0
230
1.0
 70
     8
 71
     3
 72
     8
 73
     4
 74
     0
 42
0.0000000001
 43
0.0000000001
 40
0.0
 40
0.0
 40
0.0
 40
0.0
 40
1.0
 40
1.0
 40
1.0
 40
1.0
 10
52.31036435689028
 20
168.3526256676412
 30
0.0
 10
52.36135180370811
 20
168.2637421454858
 30
0.0
 10
52.45712552137945
 20
168.2086205813584
 30
0.0
 10
52.5604784541183
 20
168.2086205813584
 30
0.0
  0
SPLINE
  5
1B3
330
163
100
AcDbEntity
  8
Capa 1
 62
     7
370
     9
100
AcDbSpline
210
0.0
220
0.0
230
1.0
 70
     8
 71
     3
 72
     8
 73
     4
 74
     0
 42
0.0000000001
 43
0.0000000001
 40
0.0
 40
0.0
 40
0.0
 40
0.0
 40
1.0
 40
1.0
 40
1.0
 40
1.0
 10
52.5597894345667
 20
198.9767886577143
 30
0.0
 10
52.45643650182785
 20
198.9767886577143
 30
0.0
 10
52.36066278415652
 20
198.9216670935869
 30
0.0
 10
52.30967533733869
 20
198.8327835714315
 30
0.0
  0
SPLINE
  5
1B4
330
163
100
AcDbEntity
  8
Capa 1
 62
     7
370
     9
100
AcDbSpline
210
0.0
220
0.0
230
1.0
 70
     8
 71
     3
 72
     8
 73
     4
 74
     0
 42
0.0000000001
 43
0.0000000001
 40
0.0
 40
0.0
 40
0.0
 40
0.0
 40
1.0
 40
1.0
 40
1.0
 40
1.0
 10
52.5597894345667
 20
198.8334725909831
 30
0.0
 10
52.53429571115779
 20
198.8334725909831
 30
0.0
 10
52.50880198774887
 20
198.8265823954671
 30
0.0
 10
52.4881314012011
 20
198.8134910239869
 30
0.0
  0
POLYLINE
  5
1B5
330
163
100
AcDbEntity
  8
Capa 1
 62
     7
370
     9
100
AcDb2dPolyline
 66
     1
 10
0.0
 20
0.0
 30
0.0
  0
VERTEX
  5
1B6
330
1B5
100
AcDbEntity
  8
Capa 1
 62
     7
370
     9
100
AcDbVertex
100
AcDb2dVertex
 10
113.735079342244
 20
195.7115250027182
 30
0.0
  0
VERTEX
  5
1B7
330
1B5
100
AcDbEntity
  8
Capa 1
 62
     7
370
     9
100
AcDbVertex
100
AcDb2dVertex
 10
113.8549687442211
 20
195.7115250027182
 30
0.0
  0
SEQEND
  5
1B8
330
1B5
100
AcDbEntity
  8
Capa 1
370
     9
  0
SPLINE
  5
1B9
330
163
100
AcDbEntity
  8
Capa 1
 62
     7
370
     9
100
AcDbSpline
210
0.0
220
0.0
230
1.0
 70
     8
 71
     3
 72
     8
 73
     4
 74
     0
 42
0.0000000001
 43
0.0000000001
 40
0.0
 40
0.0
 40
0.0
 40
0.0
 40
1.0
 40
1.0
 40
1.0
 40
1.0
 10
113.5669585716555
 20
168.3526256676412
 30
0.0
 10
113.593141314616
 20
168.3526256676412
 30
0.0
 10
113.6179460184733
 20
168.3595158631572
 30
0.0
 10
113.6399946441243
 20
168.3726072346374
 30
0.0
  0
POLYLINE
  5
1BA
330
163
100
AcDbEntity
  8
Capa 1
 62
     7
370
     9
100
AcDb2dPolyline
 66
     1
 10
0.0
 20
0.0
 30
0.0
  0
VERTEX
  5
1BB
330
1BA
100
AcDbEntity
  8
Capa 1
 62
     7
370
     9
100
AcDbVertex
100
AcDb2dVertex
 10
113.8549687442211
 20
171.4725061972513
 30
0.0
  0
VERTEX
  5
1BC
330
1BA
100
AcDbEntity
  8
Capa 1
 62
     7
370
     9
100
AcDbVertex
100
AcDb2dVertex
 10
113.735079342244
 20
171.4725061972513
 30
0.0
  0
SEQEND
  5
1BD
330
1BA
100
AcDbEntity
  8
Capa 1
370
     9
  0
POLYLINE
  5
1BE
330
163
100
AcDbEntity
  8
Capa 1
 62
     7
370
     9
100
AcDb2dPolyline
 66
     1
 10
0.0
 20
0.0
 30
0.0
  0
VERTEX
  5
1BF
330
1BE
100
AcDbEntity
  8
Capa 1
 62
     7
370
     9
100
AcDbVertex
100
AcDb2dVertex
 10
113.8549687442211
 20
195.7115250027182
 30
0.0
  0
VERTEX
  5
1C0
330
1BE
100
AcDbEntity
  8
Capa 1
 62
     7
370
     9
100
AcDbVertex
100
AcDb2dVertex
 10
113.8549687442211
 20
198.6887784851487
 30
0.0
  0
SEQEND
  5
1C1
330
1BE
100
AcDbEntity
  8
Capa 1
370
     9
  0
POLYLINE
  5
1C2
330
163
100
AcDbEntity
  8
Capa 1
 62
     7
370
     9
100
AcDb2dPolyline
 66
     1
 10
0.0
 20
0.0
 30
0.0
  0
VERTEX
  5
1C3
330
1C2
100
AcDbEntity
  8
Capa 1
 62
     7
370
     9
100
AcDbVertex
100
AcDb2dVertex
 10
52.5597894345667
 20
198.6887784851487
 30
0.0
  0
VERTEX
  5
1C4
330
1C2
100
AcDbEntity
  8
Capa 1
 62
     7
370
     9
100
AcDbVertex
100
AcDb2dVertex
 10
52.4881314012011
 20
198.6887784851487
 30
0.0
  0
SEQEND
  5
1C5
330
1C2
100
AcDbEntity
  8
Capa 1
370
     9
  0
POLYLINE
  5
1C6
330
163
100
AcDbEntity
  8
Capa 1
 62
     7
370
     9
100
AcDb2dPolyline
 66
     1
 10
0.0
 20
0.0
 30
0.0
  0
VERTEX
  5
1C7
330
1C6
100
AcDbEntity
  8
Capa 1
 62
     7
370
     9
100
AcDbVertex
100
AcDb2dVertex
 10
52.48744238164951
 20
168.496630753924
 30
0.0
  0
VERTEX
  5
1C8
330
1C6
100
AcDbEntity
  8
Capa 1
 62
     7
370
     9
100
AcDbVertex
100
AcDb2dVertex
 10
52.55910041501511
 20
168.496630753924
 30
0.0
  0
SEQEND
  5
1C9
330
1C6
100
AcDbEntity
  8
Capa 1
370
     9
  0
POLYLINE
  5
1CA
330
163
100
AcDbEntity
  8
Capa 1
 62
     7
370
     9
100
AcDb2dPolyline
 66
     1
 10
0.0
 20
0.0
 30
0.0
  0
VERTEX
  5
1CB
330
1CA
100
AcDbEntity
  8
Capa 1
 62
     7
370
     9
100
AcDbVertex
100
AcDb2dVertex
 10
113.8549687442211
 20
171.2926720942857
 30
0.0
  0
VERTEX
  5
1CC
330
1CA
100
AcDbEntity
  8
Capa 1
 62
     7
370
     9
100
AcDbVertex
100
AcDb2dVertex
 10
113.8797734480784
 20
171.2926720942857
 30
0.0
  0
SEQEND
  5
1CD
330
1CA
100
AcDbEntity
  8
Capa 1
370
     9
  0
POLYLINE
  5
1CE
330
163
100
AcDbEntity
  8
Capa 1
 62
     7
370
     9
100
AcDb2dPolyline
 66
     1
 10
0.0
 20
0.0
 30
0.0
  0
VERTEX
  5
1CF
330
1CE
100
AcDbEntity
  8
Capa 1
 62
     7
370
     9
100
AcDbVertex
100
AcDb2dVertex
 10
113.8797734480784
 20
168.7122938735724
 30
0.0
  0
VERTEX
  5
1D0
330
1CE
100
AcDbEntity
  8
Capa 1
 62
     7
370
     9
100
AcDbVertex
100
AcDb2dVertex
 10
113.8549687442211
 20
168.7122938735724
 30
0.0
  0
SEQEND
  5
1D1
330
1CE
100
AcDbEntity
  8
Capa 1
370
     9
  0
POLYLINE
  5
1D2
330
163
100
AcDbEntity
  8
Capa 1
 62
     7
370
     9
100
AcDb2dPolyline
 66
     1
 10
0.0
 20
0.0
 30
0.0
  0
VERTEX
  5
1D3
330
1D2
100
AcDbEntity
  8
Capa 1
 62
     7
370
     9
100
AcDbVertex
100
AcDb2dVertex
 10
113.735079342244
 20
177.4125437515289
 30
0.0
  0
VERTEX
  5
1D4
330
1D2
100
AcDbEntity
  8
Capa 1
 62
     7
370
     9
100
AcDbVertex
100
AcDb2dVertex
 10
113.8811514871816
 20
177.4125437515289
 30
0.0
  0
SEQEND
  5
1D5
330
1D2
100
AcDbEntity
  8
Capa 1
370
     9
  0
POLYLINE
  5
1D6
330
163
100
AcDbEntity
  8
Capa 1
 62
     7
370
     9
100
AcDb2dPolyline
 66
     1
 10
0.0
 20
0.0
 30
0.0
  0
VERTEX
  5
1D7
330
1D6
100
AcDbEntity
  8
Capa 1
 62
     7
370
     9
100
AcDbVertex
100
AcDb2dVertex
 10
113.8797734480784
 20
174.4125526238958
 30
0.0
  0
VERTEX
  5
1D8
330
1D6
100
AcDbEntity
  8
Capa 1
 62
     7
370
     9
100
AcDbVertex
100
AcDb2dVertex
 10
113.735079342244
 20
174.4125526238958
 30
0.0
  0
SEQEND
  5
1D9
330
1D6
100
AcDbEntity
  8
Capa 1
370
     9
  0
POLYLINE
  5
1DA
330
163
100
AcDbEntity
  8
Capa 1
 62
     7
370
     9
100
AcDb2dPolyline
 66
     1
 10
0.0
 20
0.0
 30
0.0
  0
VERTEX
  5
1DB
330
1DA
100
AcDbEntity
  8
Capa 1
 62
     7
370
     9
100
AcDbVertex
100
AcDb2dVertex
 10
113.8797734480784
 20
180.532424281139
 30
0.0
  0
VERTEX
  5
1DC
330
1DA
100
AcDbEntity
  8
Capa 1
 62
     7
370
     9
100
AcDbVertex
100
AcDb2dVertex
 10
113.735079342244
 20
180.532424281139
 30
0.0
  0
SEQEND
  5
1DD
330
1DA
100
AcDbEntity
  8
Capa 1
370
     9
  0
POLYLINE
  5
1DE
330
163
100
AcDbEntity
  8
Capa 1
 62
     7
370
     9
100
AcDb2dPolyline
 66
     1
 10
0.0
 20
0.0
 30
0.0
  0
VERTEX
  5
1DF
330
1DE
100
AcDbEntity
  8
Capa 1
 62
     7
370
     9
100
AcDbVertex
100
AcDb2dVertex
 10
113.735079342244
 20
183.532415408772
 30
0.0
  0
VERTEX
  5
1E0
330
1DE
100
AcDbEntity
  8
Capa 1
 62
     7
370
     9
100
AcDbVertex
100
AcDb2dVertex
 10
113.8811514871816
 20
183.532415408772
 30
0.0
  0
SEQEND
  5
1E1
330
1DE
100
AcDbEntity
  8
Capa 1
370
     9
  0
POLYLINE
  5
1E2
330
163
100
AcDbEntity
  8
Capa 1
 62
     7
370
     9
100
AcDb2dPolyline
 66
     1
 10
0.0
 20
0.0
 30
0.0
  0
VERTEX
  5
1E3
330
1E2
100
AcDbEntity
  8
Capa 1
 62
     7
370
     9
100
AcDbVertex
100
AcDb2dVertex
 10
113.735079342244
 20
189.6522870660152
 30
0.0
  0
VERTEX
  5
1E4
330
1E2
100
AcDbEntity
  8
Capa 1
 62
     7
370
     9
100
AcDbVertex
100
AcDb2dVertex
 10
113.8811514871816
 20
189.6522870660152
 30
0.0
  0
SEQEND
  5
1E5
330
1E2
100
AcDbEntity
  8
Capa 1
370
     9
  0
POLYLINE
  5
1E6
330
163
100
AcDbEntity
  8
Capa 1
 62
     7
370
     9
100
AcDb2dPolyline
 66
     1
 10
0.0
 20
0.0
 30
0.0
  0
VERTEX
  5
1E7
330
1E6
100
AcDbEntity
  8
Capa 1
 62
     7
370
     9
100
AcDbVertex
100
AcDb2dVertex
 10
113.8797734480784
 20
186.6516069188305
 30
0.0
  0
VERTEX
  5
1E8
330
1E6
100
AcDbEntity
  8
Capa 1
 62
     7
370
     9
100
AcDbVertex
100
AcDb2dVertex
 10
113.735079342244
 20
186.6516069188305
 30
0.0
  0
SEQEND
  5
1E9
330
1E6
100
AcDbEntity
  8
Capa 1
370
     9
  0
POLYLINE
  5
1EA
330
163
100
AcDbEntity
  8
Capa 1
 62
     7
370
     9
100
AcDb2dPolyline
 66
     1
 10
0.0
 20
0.0
 30
0.0
  0
VERTEX
  5
1EB
330
1EA
100
AcDbEntity
  8
Capa 1
 62
     7
370
     9
100
AcDbVertex
100
AcDb2dVertex
 10
113.8797734480784
 20
192.7728566151769
 30
0.0
  0
VERTEX
  5
1EC
330
1EA
100
AcDbEntity
  8
Capa 1
 62
     7
370
     9
100
AcDbVertex
100
AcDb2dVertex
 10
113.735079342244
 20
192.7728566151769
 30
0.0
  0
SEQEND
  5
1ED
330
1EA
100
AcDbEntity
  8
Capa 1
370
     9
  0
POLYLINE
  5
1EE
330
163
100
AcDbEntity
  8
Capa 1
 62
     7
370
     9
100
AcDb2dPolyline
 66
     1
 10
0.0
 20
0.0
 30
0.0
  0
VERTEX
  5
1EF
330
1EE
100
AcDbEntity
  8
Capa 1
 62
     7
370
     9
100
AcDbVertex
100
AcDb2dVertex
 10
113.8549687442211
 20
195.7728477428099
 30
0.0
  0
VERTEX
  5
1F0
330
1EE
100
AcDbEntity
  8
Capa 1
 62
     7
370
     9
100
AcDbVertex
100
AcDb2dVertex
 10
113.8797734480784
 20
195.7728477428099
 30
0.0
  0
SEQEND
  5
1F1
330
1EE
100
AcDbEntity
  8
Capa 1
370
     9
  0
POLYLINE
  5
1F2
330
163
100
AcDbEntity
  8
Capa 1
 62
     7
370
     9
100
AcDb2dPolyline
 66
     1
 10
0.0
 20
0.0
 30
0.0
  0
VERTEX
  5
1F3
330
1F2
100
AcDbEntity
  8
Capa 1
 62
     7
370
     9
100
AcDbVertex
100
AcDb2dVertex
 10
51.73020989444953
 20
168.8328722951011
 30
0.0
  0
VERTEX
  5
1F4
330
1F2
100
AcDbEntity
  8
Capa 1
 62
     7
370
     9
100
AcDbVertex
100
AcDb2dVertex
 10
52.10434751096417
 20
168.8328722951011
 30
0.0
  0
SEQEND
  5
1F5
330
1F2
100
AcDbEntity
  8
Capa 1
370
     9
  0
SPLINE
  5
1F6
330
163
100
AcDbEntity
  8
Capa 1
 62
     7
370
     9
100
AcDbSpline
210
0.0
220
0.0
230
1.0
 70
     8
 71
     3
 72
     8
 73
     4
 74
     0
 42
0.0000000001
 43
0.0000000001
 40
0.0
 40
0.0
 40
0.0
 40
0.0
 40
1.0
 40
1.0
 40
1.0
 40
1.0
 10
51.25754248205718
 20
169.3124299030093
 30
0.0
 10
51.256164442954
 20
169.0485354147495
 30
0.0
 10
51.46631540618966
 20
168.8342503342043
 30
0.0
 10
51.73020989444953
 20
168.8328722951011
 30
0.0
  0
POLYLINE
  5
1F7
330
163
100
AcDbEntity
  8
Capa 1
 62
     7
370
     9
100
AcDb2dPolyline
 66
     1
 10
0.0
 20
0.0
 30
0.0
  0
VERTEX
  5
1F8
330
1F7
100
AcDbEntity
  8
Capa 1
 62
     7
370
     9
100
AcDbVertex
100
AcDb2dVertex
 10
51.25754248205718
 20
197.8722903165117
 30
0.0
  0
VERTEX
  5
1F9
330
1F7
100
AcDbEntity
  8
Capa 1
 62
     7
370
     9
100
AcDbVertex
100
AcDb2dVertex
 10
51.25754248205718
 20
169.3131189225609
 30
0.0
  0
SEQEND
  5
1FA
330
1F7
100
AcDbEntity
  8
Capa 1
370
     9
  0
SPLINE
  5
1FB
330
163
100
AcDbEntity
  8
Capa 1
 62
     7
370
     9
100
AcDbSpline
210
0.0
220
0.0
230
1.0
 70
     8
 71
     3
 72
     8
 73
     4
 74
     0
 42
0.0000000001
 43
0.0000000001
 40
0.0
 40
0.0
 40
0.0
 40
0.0
 40
1.0
 40
1.0
 40
1.0
 40
1.0
 10
51.73020989444953
 20
198.3525369439716
 30
0.0
 10
51.46631540618966
 20
198.3497808657652
 30
0.0
 10
51.256164442954
 20
198.13549578522
 30
0.0
 10
51.25754248205718
 20
197.8729793360633
 30
0.0
  0
POLYLINE
  5
1FC
330
163
100
AcDbEntity
  8
Capa 1
 62
     7
370
     9
100
AcDb2dPolyline
 66
     1
 10
0.0
 20
0.0
 30
0.0
  0
VERTEX
  5
1FD
330
1FC
100
AcDbEntity
  8
Capa 1
 62
     7
370
     9
100
AcDbVertex
100
AcDb2dVertex
 10
52.10365849141257
 20
198.3525369439716
 30
0.0
  0
VERTEX
  5
1FE
330
1FC
100
AcDbEntity
  8
Capa 1
 62
     7
370
     9
100
AcDbVertex
100
AcDb2dVertex
 10
51.72952087489794
 20
198.3525369439716
 30
0.0
  0
SEQEND
  5
1FF
330
1FC
100
AcDbEntity
  8
Capa 1
370
     9
  0
POLYLINE
  5
200
330
163
100
AcDbEntity
  8
Capa 1
 62
     7
370
     9
100
AcDb2dPolyline
 66
     1
 10
0.0
 20
0.0
 30
0.0
  0
VERTEX
  5
201
330
200
100
AcDbEntity
  8
Capa 1
 62
     7
370
     9
100
AcDbVertex
100
AcDb2dVertex
 10
51.73020989444953
 20
168.8328722951011
 30
0.0
  0
VERTEX
  5
202
330
200
100
AcDbEntity
  8
Capa 1
 62
     7
370
     9
100
AcDbVertex
100
AcDb2dVertex
 10
51.70471617104062
 20
168.8328722951011
 30
0.0
  0
SEQEND
  5
203
330
200
100
AcDbEntity
  8
Capa 1
370
     9
  0
SPLINE
  5
204
330
163
100
AcDbEntity
  8
Capa 1
 62
     7
370
     9
100
AcDbSpline
210
0.0
220
0.0
230
1.0
 70
     8
 71
     3
 72
     8
 73
     4
 74
     0
 42
0.0000000001
 43
0.0000000001
 40
0.0
 40
0.0
 40
0.0
 40
0.0
 40
1.0
 40
1.0
 40
1.0
 40
1.0
 10
51.23204875864827
 20
169.3124299030093
 30
0.0
 10
51.23067071954508
 20
169.0485354147495
 30
0.0
 10
51.44219972188393
 20
168.8342503342043
 30
0.0
 10
51.70471617104062
 20
168.8328722951011
 30
0.0
  0
POLYLINE
  5
205
330
163
100
AcDbEntity
  8
Capa 1
 62
     7
370
     9
100
AcDb2dPolyline
 66
     1
 10
0.0
 20
0.0
 30
0.0
  0
VERTEX
  5
206
330
205
100
AcDbEntity
  8
Capa 1
 62
     7
370
     9
100
AcDbVertex
100
AcDb2dVertex
 10
51.23204875864827
 20
197.8722903165117
 30
0.0
  0
VERTEX
  5
207
330
205
100
AcDbEntity
  8
Capa 1
 62
     7
370
     9
100
AcDbVertex
100
AcDb2dVertex
 10
51.23204875864827
 20
169.3131189225609
 30
0.0
  0
SEQEND
  5
208
330
205
100
AcDbEntity
  8
Capa 1
370
     9
  0
POLYLINE
  5
209
330
163
100
AcDbEntity
  8
Capa 1
 62
     7
370
     9
100
AcDb2dPolyline
 66
     1
 10
0.0
 20
0.0
 30
0.0
  0
VERTEX
  5
20A
330
209
100
AcDbEntity
  8
Capa 1
 62
     7
370
     9
100
AcDbVertex
100
AcDb2dVertex
 10
51.70471617104062
 20
198.3525369439716
 30
0.0
  0
VERTEX
  5
20B
330
209
100
AcDbEntity
  8
Capa 1
 62
     7
370
     9
100
AcDbVertex
100
AcDb2dVertex
 10
51.73020989444953
 20
198.3525369439716
 30
0.0
  0
SEQEND
  5
20C
330
209
100
AcDbEntity
  8
Capa 1
370
     9
  0
SPLINE
  5
20D
330
163
100
AcDbEntity
  8
Capa 1
 62
     7
370
     9
100
AcDbSpline
210
0.0
220
0.0
230
1.0
 70
     8
 71
     3
 72
     8
 73
     4
 74
     0
 42
0.0000000001
 43
0.0000000001
 40
0.0
 40
0.0
 40
0.0
 40
0.0
 40
1.0
 40
1.0
 40
1.0
 40
1.0
 10
51.70471617104062
 20
198.3525369439716
 30
0.0
 10
51.44219972188393
 20
198.3497808657652
 30
0.0
 10
51.23067071954508
 20
198.13549578522
 30
0.0
 10
51.23204875864827
 20
197.8729793360633
 30
0.0
  0
POLYLINE
  5
20E
330
163
100
AcDbEntity
  8
Capa 1
 62
     7
370
     9
100
AcDb2dPolyline
 66
     1
 10
0.0
 20
0.0
 30
0.0
  0
VERTEX
  5
20F
330
20E
100
AcDbEntity
  8
Capa 1
 62
     7
370
     9
100
AcDbVertex
100
AcDb2dVertex
 10
52.31932161106098
 20
198.8334725909831
 30
0.0
  0
VERTEX
  5
210
330
20E
100
AcDbEntity
  8
Capa 1
 62
     7
370
     9
100
AcDbVertex
100
AcDb2dVertex
 10
48.59241485649802
 20
198.8334725909831
 30
0.0
  0
SEQEND
  5
211
330
20E
100
AcDbEntity
  8
Capa 1
370
     9
  0
POLYLINE
  5
212
330
163
100
AcDbEntity
  8
Capa 1
 62
     7
370
     9
100
AcDb2dPolyline
 66
     1
 10
0.0
 20
0.0
 30
0.0
  0
VERTEX
  5
213
330
212
100
AcDbEntity
  8
Capa 1
 62
     7
370
     9
100
AcDbVertex
100
AcDb2dVertex
 10
52.31932161106098
 20
168.2086205813584
 30
0.0
  0
VERTEX
  5
214
330
212
100
AcDbEntity
  8
Capa 1
 62
     7
370
     9
100
AcDbVertex
100
AcDb2dVertex
 10
48.59241485649802
 20
168.2086205813584
 30
0.0
  0
SEQEND
  5
215
330
212
100
AcDbEntity
  8
Capa 1
370
     9
  0
POLYLINE
  5
216
330
163
100
AcDbEntity
  8
Capa 1
 62
     7
370
     9
100
AcDb2dPolyline
 66
     1
 10
0.0
 20
0.0
 30
0.0
  0
VERTEX
  5
217
330
216
100
AcDbEntity
  8
Capa 1
 62
     7
370
     9
100
AcDbVertex
100
AcDb2dVertex
 10
48.83219366045216
 20
196.3323316187029
 30
0.0
  0
VERTEX
  5
218
330
216
100
AcDbEntity
  8
Capa 1
 62
     7
370
     9
100
AcDbVertex
100
AcDb2dVertex
 10
48.83219366045216
 20
170.7097615536386
 30
0.0
  0
SEQEND
  5
219
330
216
100
AcDbEntity
  8
Capa 1
370
     9
  0
POLYLINE
  5
21A
330
163
100
AcDbEntity
  8
Capa 1
370
     0
100
AcDb2dPolyline
 66
     1
 10
0.0
 20
0.0
 30
0.0
  0
VERTEX
  5
21B
330
21A
100
AcDbEntity
  8
Capa 1
370
     0
100
AcDbVertex
100
AcDb2dVertex
 10
48.04671137163689
 20
195.7735367623615
 30
0.0
  0
VERTEX
  5
21C
330
21A
100
AcDbEntity
  8
Capa 1
370
     0
100
AcDbVertex
100
AcDb2dVertex
 10
48.86664463803177
 20
198.8327835714315
 30
0.0
  0
VERTEX
  5
21D
330
21A
100
AcDbEntity
  8
Capa 1
370
     0
100
AcDbVertex
100
AcDb2dVertex
 10
49.68657790442666
 20
195.7735367623615
 30
0.0
  0
VERTEX
  5
21E
330
21A
100
AcDbEntity
  8
Capa 1
370
     0
100
AcDbVertex
100
AcDb2dVertex
 10
48.04671137163689
 20
195.7735367623615
 30
0.0
  0
SEQEND
  5
21F
330
21A
100
AcDbEntity
  8
Capa 1
370
     0
  0
HATCH
  5
220
330
163
100
AcDbEntity
  8
Capa 1
 62
     7
100
AcDbHatch
 10
0.0
 20
0.0
 30
0.0
210
0.0
220
0.0
230
1.0
  2
SOLID
 70
     1
 71
     0
 91
        1
 92
        1
 93
        3
 72
     1
 10
48.04671137163689
 20
195.7735367623615
 11
48.86664463803177
 21
198.8327835714315
 72
     1
 10
48.86664463803177
 20
198.8327835714315
 11
49.68657790442666
 21
195.7735367623615
 72
     1
 10
49.68657790442666
 20
195.7735367623615
 11
48.04671137163689
 21
195.7735367623615
 97
        0
 75
     2
 76
     1
 98
        0
  0
POLYLINE
  5
221
330
163
100
AcDbEntity
  8
Capa 1
370
     0
100
AcDb2dPolyline
 66
     1
 10
0.0
 20
0.0
 30
0.0
  0
VERTEX
  5
222
330
221
100
AcDbEntity
  8
Capa 1
370
     0
100
AcDbVertex
100
AcDb2dVertex
 10
48.04671137163689
 20
171.2678673904284
 30
0.0
  0
VERTEX
  5
223
330
221
100
AcDbEntity
  8
Capa 1
370
     0
100
AcDbVertex
100
AcDb2dVertex
 10
48.86664463803177
 20
168.2086205813584
 30
0.0
  0
VERTEX
  5
224
330
221
100
AcDbEntity
  8
Capa 1
370
     0
100
AcDbVertex
100
AcDb2dVertex
 10
49.68657790442666
 20
171.2678673904284
 30
0.0
  0
VERTEX
  5
225
330
221
100
AcDbEntity
  8
Capa 1
370
     0
100
AcDbVertex
100
AcDb2dVertex
 10
48.04671137163689
 20
171.2678673904284
 30
0.0
  0
SEQEND
  5
226
330
221
100
AcDbEntity
  8
Capa 1
370
     0
  0
HATCH
  5
227
330
163
100
AcDbEntity
  8
Capa 1
 62
     7
100
AcDbHatch
 10
0.0
 20
0.0
 30
0.0
210
0.0
220
0.0
230
1.0
  2
SOLID
 70
     1
 71
     0
 91
        1
 92
        1
 93
        3
 72
     1
 10
48.04671137163689
 20
171.2678673904284
 11
48.86664463803177
 21
168.2086205813584
 72
     1
 10
48.86664463803177
 20
168.2086205813584
 11
49.68657790442666
 21
171.2678673904284
 72
     1
 10
49.68657790442666
 20
171.2678673904284
 11
48.04671137163689
 21
171.2678673904284
 97
        0
 75
     2
 76
     1
 98
        0
  0
MTEXT
  5
228
330
163
100
AcDbEntity
  8
Capa 1
 62
     7
100
AcDbMText
 10
47.55337337269678
 20
177.5131406060613
 30
0.0
 40
2.398890470823883
 41
0.0
 71
     7
 72
     1
  1
\fArial|b1|i0|c0|p34;\W1;127.6
 11
-4.371139000186241E-8
 21
0.999999999999999
 31
0.0
 73
     1
 44
1.0
  0
POLYLINE
  5
229
330
163
100
AcDbEntity
  8
Capa 1
 62
     7
370
     9
100
AcDb2dPolyline
 66
     1
 10
0.0
 20
0.0
 30
0.0
  0
VERTEX
  5
22A
330
229
100
AcDbEntity
  8
Capa 1
 62
     7
370
     9
100
AcDbVertex
100
AcDb2dVertex
 10
114.0230895148096
 20
103.7515305494468
 30
0.0
  0
VERTEX
  5
22B
330
229
100
AcDbEntity
  8
Capa 1
 62
     7
370
     9
100
AcDbVertex
100
AcDb2dVertex
 10
114.0230895148096
 20
124.7032370742666
 30
0.0
  0
SEQEND
  5
22C
330
229
100
AcDbEntity
  8
Capa 1
370
     9
  0
SPLINE
  5
22D
330
163
100
AcDbEntity
  8
Capa 1
 62
     7
370
     9
100
AcDbSpline
210
0.0
220
0.0
230
1.0
 70
     8
 71
     3
 72
    17
 73
    13
 74
     0
 42
0.0000000001
 43
0.0000000001
 40
0.0
 40
0.0
 40
0.0
 40
0.0
 40
1.0
 40
1.0
 40
1.0
 40
2.0
 40
2.0
 40
2.0
 40
3.0
 40
3.0
 40
3.0
 40
4.0
 40
4.0
 40
4.0
 40
4.0
 10
114.0230895148096
 20
124.7032370742666
 30
0.0
 10
114.0230895148096
 20
124.9691986211813
 30
0.0
 10
113.8081154147128
 20
125.1827946821749
 30
0.0
 10
113.5435319069013
 20
125.1827946821749
 30
0.0
 10
113.2789483990899
 20
125.1827946821749
 30
0.0
 10
113.0639742989931
 20
124.9691986211813
 30
0.0
 10
113.0639742989931
 20
124.7032370742666
 30
0.0
 10
113.0639742989931
 20
124.437275527352
 30
0.0
 10
113.2789483990899
 20
124.2250575054615
 30
0.0
 10
113.5435319069013
 20
124.2250575054615
 30
0.0
 10
113.6565311133625
 20
124.2250575054615
 30
0.0
 10
113.7653962025141
 20
124.2636426003507
 30
0.0
 10
113.8522126660147
 20
124.3366786728195
 30
0.0
  0
POLYLINE
  5
22E
330
163
100
AcDbEntity
  8
Capa 1
 62
     7
370
     9
100
AcDb2dPolyline
 66
     1
 10
0.0
 20
0.0
 30
0.0
  0
VERTEX
  5
22F
330
22E
100
AcDbEntity
  8
Capa 1
 62
     7
370
     9
100
AcDbVertex
100
AcDb2dVertex
 10
113.8797734480784
 20
103.7515305494468
 30
0.0
  0
VERTEX
  5
230
330
22E
100
AcDbEntity
  8
Capa 1
 62
     7
370
     9
100
AcDbVertex
100
AcDb2dVertex
 10
113.8797734480784
 20
124.7032370742666
 30
0.0
  0
SEQEND
  5
231
330
22E
100
AcDbEntity
  8
Capa 1
370
     9
  0
POLYLINE
  5
232
330
163
100
AcDbEntity
  8
Capa 1
 62
     7
370
     9
100
AcDb2dPolyline
 66
     1
 10
0.0
 20
0.0
 30
0.0
  0
VERTEX
  5
233
330
232
100
AcDbEntity
  8
Capa 1
 62
     7
370
     9
100
AcDbVertex
100
AcDb2dVertex
 10
113.8797734480784
 20
103.7515305494468
 30
0.0
  0
VERTEX
  5
234
330
232
100
AcDbEntity
  8
Capa 1
 62
     7
370
     9
100
AcDbVertex
100
AcDb2dVertex
 10
114.0230895148096
 20
103.7515305494468
 30
0.0
  0
SEQEND
  5
235
330
232
100
AcDbEntity
  8
Capa 1
370
     9
  0
SPLINE
  5
236
330
163
100
AcDbEntity
  8
Capa 1
 62
     7
370
     9
100
AcDbSpline
210
0.0
220
0.0
230
1.0
 70
     8
 71
     3
 72
    17
 73
    13
 74
     0
 42
0.0000000001
 43
0.0000000001
 40
0.0
 40
0.0
 40
0.0
 40
0.0
 40
1.0
 40
1.0
 40
1.0
 40
2.0
 40
2.0
 40
2.0
 40
3.0
 40
3.0
 40
3.0
 40
4.0
 40
4.0
 40
4.0
 40
4.0
 10
113.8797734480784
 20
124.7032370742666
 30
0.0
 10
113.8797734480784
 20
124.8892723531966
 30
0.0
 10
113.7295671858313
 20
125.0408566545469
 30
0.0
 10
113.5435319069013
 20
125.0408566545469
 30
0.0
 10
113.3574966279714
 20
125.0408566545469
 30
0.0
 10
113.2072903657243
 20
124.8892723531966
 30
0.0
 10
113.2072903657243
 20
124.7032370742666
 30
0.0
 10
113.2072903657243
 20
124.5185798344399
 30
0.0
 10
113.3574966279714
 20
124.3669955330896
 30
0.0
 10
113.5435319069013
 20
124.3669955330896
 30
0.0
 10
113.6220801357829
 20
124.3669955330896
 30
0.0
 10
113.6992503255612
 20
124.3959343542564
 30
0.0
 10
113.7598840461013
 20
124.4469218010743
 30
0.0
  0
POLYLINE
  5
237
330
163
100
AcDbEntity
  8
Capa 1
 62
     7
370
     9
100
AcDb2dPolyline
 66
     1
 10
0.0
 20
0.0
 30
0.0
  0
VERTEX
  5
238
330
237
100
AcDbEntity
  8
Capa 1
 62
     7
370
     9
100
AcDbVertex
100
AcDb2dVertex
 10
113.7598840461013
 20
124.4469218010743
 30
0.0
  0
VERTEX
  5
239
330
237
100
AcDbEntity
  8
Capa 1
 62
     7
370
     9
100
AcDbVertex
100
AcDb2dVertex
 10
113.8522126660147
 20
124.3366786728195
 30
0.0
  0
SEQEND
  5
23A
330
237
100
AcDbEntity
  8
Capa 1
370
     9
  0
POLYLINE
  5
23B
330
163
100
AcDbEntity
  8
Capa 1
 62
     7
370
     9
100
AcDb2dPolyline
 66
     1
 10
0.0
 20
0.0
 30
0.0
  0
VERTEX
  5
23C
330
23B
100
AcDbEntity
  8
Capa 1
 62
     7
370
     9
100
AcDbVertex
100
AcDb2dVertex
 10
113.5669585716555
 20
124.1506433938896
 30
0.0
  0
VERTEX
  5
23D
330
23B
100
AcDbEntity
  8
Capa 1
 62
     7
370
     9
100
AcDbVertex
100
AcDb2dVertex
 10
112.9675115617701
 20
124.1506433938896
 30
0.0
  0
SEQEND
  5
23E
330
23B
100
AcDbEntity
  8
Capa 1
370
     9
  0
POLYLINE
  5
23F
330
163
100
AcDbEntity
  8
Capa 1
 62
     7
370
     9
100
AcDb2dPolyline
 66
     1
 10
0.0
 20
0.0
 30
0.0
  0
VERTEX
  5
240
330
23F
100
AcDbEntity
  8
Capa 1
 62
     7
370
     9
100
AcDbVertex
100
AcDb2dVertex
 10
112.4879539538619
 20
125.0615272410946
 30
0.0
  0
VERTEX
  5
241
330
23F
100
AcDbEntity
  8
Capa 1
 62
     7
370
     9
100
AcDbVertex
100
AcDb2dVertex
 10
52.5597894345667
 20
125.0615272410946
 30
0.0
  0
SEQEND
  5
242
330
23F
100
AcDbEntity
  8
Capa 1
370
     9
  0
SPLINE
  5
243
330
163
100
AcDbEntity
  8
Capa 1
 62
     7
370
     9
100
AcDbSpline
210
0.0
220
0.0
230
1.0
 70
     8
 71
     3
 72
     8
 73
     4
 74
     0
 42
0.0000000001
 43
0.0000000001
 40
0.0
 40
0.0
 40
0.0
 40
0.0
 40
1.0
 40
1.0
 40
1.0
 40
1.0
 10
112.9675115617701
 20
124.5833476722896
 30
0.0
 10
112.9675115617701
 20
124.8493092192042
 30
0.0
 10
112.7525374616733
 20
125.0629052801978
 30
0.0
 10
112.4879539538619
 20
125.0629052801978
 30
0.0
  0
POLYLINE
  5
244
330
163
100
AcDbEntity
  8
Capa 1
 62
     7
370
     9
100
AcDb2dPolyline
 66
     1
 10
0.0
 20
0.0
 30
0.0
  0
VERTEX
  5
245
330
244
100
AcDbEntity
  8
Capa 1
 62
     7
370
     9
100
AcDbVertex
100
AcDb2dVertex
 10
112.9675115617701
 20
124.1506433938896
 30
0.0
  0
VERTEX
  5
246
330
244
100
AcDbEntity
  8
Capa 1
 62
     7
370
     9
100
AcDbVertex
100
AcDb2dVertex
 10
112.9675115617701
 20
124.5833476722896
 30
0.0
  0
SEQEND
  5
247
330
244
100
AcDbEntity
  8
Capa 1
370
     9
  0
POLYLINE
  5
248
330
163
100
AcDbEntity
  8
Capa 1
 62
     7
370
     9
100
AcDb2dPolyline
 66
     1
 10
0.0
 20
0.0
 30
0.0
  0
VERTEX
  5
249
330
248
100
AcDbEntity
  8
Capa 1
 62
     7
370
     9
100
AcDbVertex
100
AcDb2dVertex
 10
113.5669585716555
 20
124.1506433938896
 30
0.0
  0
VERTEX
  5
24A
330
248
100
AcDbEntity
  8
Capa 1
 62
     7
370
     9
100
AcDbVertex
100
AcDb2dVertex
 10
113.8549687442211
 20
124.1506433938896
 30
0.0
  0
SEQEND
  5
24B
330
248
100
AcDbEntity
  8
Capa 1
370
     9
  0
POLYLINE
  5
24C
330
163
100
AcDbEntity
  8
Capa 1
 62
     7
370
     9
100
AcDb2dPolyline
 66
     1
 10
0.0
 20
0.0
 30
0.0
  0
VERTEX
  5
24D
330
24C
100
AcDbEntity
  8
Capa 1
 62
     7
370
     9
100
AcDbVertex
100
AcDb2dVertex
 10
113.8549687442211
 20
103.7515305494468
 30
0.0
  0
VERTEX
  5
24E
330
24C
100
AcDbEntity
  8
Capa 1
 62
     7
370
     9
100
AcDbVertex
100
AcDb2dVertex
 10
113.5669585716555
 20
103.7515305494468
 30
0.0
  0
SEQEND
  5
24F
330
24C
100
AcDbEntity
  8
Capa 1
370
     9
  0
POLYLINE
  5
250
330
163
100
AcDbEntity
  8
Capa 1
 62
     7
370
     9
100
AcDb2dPolyline
 66
     1
 10
0.0
 20
0.0
 30
0.0
  0
VERTEX
  5
251
330
250
100
AcDbEntity
  8
Capa 1
 62
     7
370
     9
100
AcDbVertex
100
AcDb2dVertex
 10
113.8549687442211
 20
103.7515305494468
 30
0.0
  0
VERTEX
  5
252
330
250
100
AcDbEntity
  8
Capa 1
 62
     7
370
     9
100
AcDbVertex
100
AcDb2dVertex
 10
113.8549687442211
 20
124.1506433938896
 30
0.0
  0
SEQEND
  5
253
330
250
100
AcDbEntity
  8
Capa 1
370
     9
  0
POLYLINE
  5
254
330
163
100
AcDbEntity
  8
Capa 1
 62
     7
370
     9
100
AcDb2dPolyline
 66
     1
 10
0.0
 20
0.0
 30
0.0
  0
VERTEX
  5
255
330
254
100
AcDbEntity
  8
Capa 1
 62
     7
370
     9
100
AcDbVertex
100
AcDb2dVertex
 10
52.5597894345667
 20
103.7515305494468
 30
0.0
  0
VERTEX
  5
256
330
254
100
AcDbEntity
  8
Capa 1
 62
     7
370
     9
100
AcDbVertex
100
AcDb2dVertex
 10
52.2717792620011
 20
103.7515305494468
 30
0.0
  0
SEQEND
  5
257
330
254
100
AcDbEntity
  8
Capa 1
370
     9
  0
POLYLINE
  5
258
330
163
100
AcDbEntity
  8
Capa 1
 62
     7
370
     9
100
AcDb2dPolyline
 66
     1
 10
0.0
 20
0.0
 30
0.0
  0
VERTEX
  5
259
330
258
100
AcDbEntity
  8
Capa 1
 62
     7
370
     9
100
AcDbVertex
100
AcDb2dVertex
 10
52.2717792620011
 20
125.0615272410946
 30
0.0
  0
VERTEX
  5
25A
330
258
100
AcDbEntity
  8
Capa 1
 62
     7
370
     9
100
AcDbVertex
100
AcDb2dVertex
 10
52.2717792620011
 20
103.7515305494468
 30
0.0
  0
SEQEND
  5
25B
330
258
100
AcDbEntity
  8
Capa 1
370
     9
  0
POLYLINE
  5
25C
330
163
100
AcDbEntity
  8
Capa 1
 62
     7
370
     9
100
AcDb2dPolyline
 66
     1
 10
0.0
 20
0.0
 30
0.0
  0
VERTEX
  5
25D
330
25C
100
AcDbEntity
  8
Capa 1
 62
     7
370
     9
100
AcDbVertex
100
AcDb2dVertex
 10
52.2717792620011
 20
125.0615272410946
 30
0.0
  0
VERTEX
  5
25E
330
25C
100
AcDbEntity
  8
Capa 1
 62
     7
370
     9
100
AcDbVertex
100
AcDb2dVertex
 10
52.5597894345667
 20
125.0615272410946
 30
0.0
  0
SEQEND
  5
25F
330
25C
100
AcDbEntity
  8
Capa 1
370
     9
  0
POLYLINE
  5
260
330
163
100
AcDbEntity
  8
Capa 1
 62
     7
370
     9
100
AcDb2dPolyline
 66
     1
 10
0.0
 20
0.0
 30
0.0
  0
VERTEX
  5
261
330
260
100
AcDbEntity
  8
Capa 1
 62
     7
370
     9
100
AcDbVertex
100
AcDb2dVertex
 10
52.5597894345667
 20
103.4635203768812
 30
0.0
  0
VERTEX
  5
262
330
260
100
AcDbEntity
  8
Capa 1
 62
     7
370
     9
100
AcDbVertex
100
AcDb2dVertex
 10
52.5597894345667
 20
103.7515305494468
 30
0.0
  0
SEQEND
  5
263
330
260
100
AcDbEntity
  8
Capa 1
370
     9
  0
POLYLINE
  5
264
330
163
100
AcDbEntity
  8
Capa 1
 62
     7
370
     9
100
AcDb2dPolyline
 66
     1
 10
0.0
 20
0.0
 30
0.0
  0
VERTEX
  5
265
330
264
100
AcDbEntity
  8
Capa 1
 62
     7
370
     9
100
AcDbVertex
100
AcDb2dVertex
 10
113.5669585716555
 20
103.4635203768812
 30
0.0
  0
VERTEX
  5
266
330
264
100
AcDbEntity
  8
Capa 1
 62
     7
370
     9
100
AcDbVertex
100
AcDb2dVertex
 10
52.5604784541183
 20
103.4635203768812
 30
0.0
  0
SEQEND
  5
267
330
264
100
AcDbEntity
  8
Capa 1
370
     9
  0
POLYLINE
  5
268
330
163
100
AcDbEntity
  8
Capa 1
 62
     7
370
     9
100
AcDb2dPolyline
 66
     1
 10
0.0
 20
0.0
 30
0.0
  0
VERTEX
  5
269
330
268
100
AcDbEntity
  8
Capa 1
 62
     7
370
     9
100
AcDbVertex
100
AcDb2dVertex
 10
113.5669585716555
 20
103.7515305494468
 30
0.0
  0
VERTEX
  5
26A
330
268
100
AcDbEntity
  8
Capa 1
 62
     7
370
     9
100
AcDbVertex
100
AcDb2dVertex
 10
113.5669585716555
 20
103.4648984159844
 30
0.0
  0
SEQEND
  5
26B
330
268
100
AcDbEntity
  8
Capa 1
370
     9
  0
POLYLINE
  5
26C
330
163
100
AcDbEntity
  8
Capa 1
 62
     7
370
     9
100
AcDb2dPolyline
 66
     1
 10
0.0
 20
0.0
 30
0.0
  0
VERTEX
  5
26D
330
26C
100
AcDbEntity
  8
Capa 1
 62
     7
370
     9
100
AcDbVertex
100
AcDb2dVertex
 10
52.24766357769538
 20
124.5833476722896
 30
0.0
  0
VERTEX
  5
26E
330
26C
100
AcDbEntity
  8
Capa 1
 62
     7
370
     9
100
AcDbVertex
100
AcDb2dVertex
 10
52.24766357769538
 20
103.7515305494468
 30
0.0
  0
SEQEND
  5
26F
330
26C
100
AcDbEntity
  8
Capa 1
370
     9
  0
POLYLINE
  5
270
330
163
100
AcDbEntity
  8
Capa 1
 62
     7
370
     9
100
AcDb2dPolyline
 66
     1
 10
0.0
 20
0.0
 30
0.0
  0
VERTEX
  5
271
330
270
100
AcDbEntity
  8
Capa 1
 62
     7
370
     9
100
AcDbVertex
100
AcDb2dVertex
 10
52.24766357769538
 20
125.0615272410946
 30
0.0
  0
VERTEX
  5
272
330
270
100
AcDbEntity
  8
Capa 1
 62
     7
370
     9
100
AcDbVertex
100
AcDb2dVertex
 10
52.24766357769538
 20
124.5833476722896
 30
0.0
  0
SEQEND
  5
273
330
270
100
AcDbEntity
  8
Capa 1
370
     9
  0
POLYLINE
  5
274
330
163
100
AcDbEntity
  8
Capa 1
 62
     7
370
     9
100
AcDb2dPolyline
 66
     1
 10
0.0
 20
0.0
 30
0.0
  0
VERTEX
  5
275
330
274
100
AcDbEntity
  8
Capa 1
 62
     7
370
     9
100
AcDbVertex
100
AcDb2dVertex
 10
52.10365849141257
 20
124.5833476722896
 30
0.0
  0
VERTEX
  5
276
330
274
100
AcDbEntity
  8
Capa 1
 62
     7
370
     9
100
AcDbVertex
100
AcDb2dVertex
 10
52.10365849141257
 20
125.0629052801978
 30
0.0
  0
SEQEND
  5
277
330
274
100
AcDbEntity
  8
Capa 1
370
     9
  0
POLYLINE
  5
278
330
163
100
AcDbEntity
  8
Capa 1
 62
     7
370
     9
100
AcDb2dPolyline
 66
     1
 10
0.0
 20
0.0
 30
0.0
  0
VERTEX
  5
279
330
278
100
AcDbEntity
  8
Capa 1
 62
     7
370
     9
100
AcDbVertex
100
AcDb2dVertex
 10
52.10365849141257
 20
124.5833476722896
 30
0.0
  0
VERTEX
  5
27A
330
278
100
AcDbEntity
  8
Capa 1
 62
     7
370
     9
100
AcDbVertex
100
AcDb2dVertex
 10
52.10365849141257
 20
103.7515305494468
 30
0.0
  0
SEQEND
  5
27B
330
278
100
AcDbEntity
  8
Capa 1
370
     9
  0
POLYLINE
  5
27C
330
163
100
AcDbEntity
  8
Capa 1
 62
     7
370
     9
100
AcDb2dPolyline
 66
     1
 10
0.0
 20
0.0
 30
0.0
  0
VERTEX
  5
27D
330
27C
100
AcDbEntity
  8
Capa 1
 62
     7
370
     9
100
AcDbVertex
100
AcDb2dVertex
 10
52.10365849141257
 20
125.0615272410946
 30
0.0
  0
VERTEX
  5
27E
330
27C
100
AcDbEntity
  8
Capa 1
 62
     7
370
     9
100
AcDbVertex
100
AcDb2dVertex
 10
52.24766357769538
 20
125.0615272410946
 30
0.0
  0
SEQEND
  5
27F
330
27C
100
AcDbEntity
  8
Capa 1
370
     9
  0
SPLINE
  5
280
330
163
100
AcDbEntity
  8
Capa 1
 62
     7
370
     9
100
AcDbSpline
210
0.0
220
0.0
230
1.0
 70
     8
 71
     3
 72
     8
 73
     4
 74
     0
 42
0.0000000001
 43
0.0000000001
 40
0.0
 40
0.0
 40
0.0
 40
0.0
 40
1.0
 40
1.0
 40
1.0
 40
1.0
 10
52.10365849141257
 20
103.7515305494468
 30
0.0
 10
52.10365849141257
 20
103.5930560525806
 30
0.0
 10
52.23181612800875
 20
103.4648984159844
 30
0.0
 10
52.39166866397817
 20
103.4648984159844
 30
0.0
  0
SPLINE
  5
281
330
163
100
AcDbEntity
  8
Capa 1
 62
     7
370
     9
100
AcDbSpline
210
0.0
220
0.0
230
1.0
 70
     8
 71
     3
 72
     8
 73
     4
 74
     0
 42
0.0000000001
 43
0.0000000001
 40
0.0
 40
0.0
 40
0.0
 40
0.0
 40
1.0
 40
1.0
 40
1.0
 40
1.0
 10
52.24766357769538
 20
103.7515305494468
 30
0.0
 10
52.24766357769538
 20
103.6716042814621
 30
0.0
 10
52.31105337644187
 20
103.6068364436124
 30
0.0
 10
52.39166866397817
 20
103.6068364436124
 30
0.0
  0
POLYLINE
  5
282
330
163
100
AcDbEntity
  8
Capa 1
 62
     7
370
     9
100
AcDb2dPolyline
 66
     1
 10
0.0
 20
0.0
 30
0.0
  0
VERTEX
  5
283
330
282
100
AcDbEntity
  8
Capa 1
 62
     7
370
     9
100
AcDbVertex
100
AcDb2dVertex
 10
52.5597894345667
 20
103.6068364436124
 30
0.0
  0
VERTEX
  5
284
330
282
100
AcDbEntity
  8
Capa 1
 62
     7
370
     9
100
AcDbVertex
100
AcDb2dVertex
 10
52.4881314012011
 20
103.6068364436124
 30
0.0
  0
SEQEND
  5
285
330
282
100
AcDbEntity
  8
Capa 1
370
     9
  0
POLYLINE
  5
286
330
163
100
AcDbEntity
  8
Capa 1
 62
     7
370
     9
100
AcDb2dPolyline
 66
     1
 10
0.0
 20
0.0
 30
0.0
  0
VERTEX
  5
287
330
286
100
AcDbEntity
  8
Capa 1
 62
     7
370
     9
100
AcDbVertex
100
AcDb2dVertex
 10
52.39166866397817
 20
103.6068364436124
 30
0.0
  0
VERTEX
  5
288
330
286
100
AcDbEntity
  8
Capa 1
 62
     7
370
     9
100
AcDbVertex
100
AcDb2dVertex
 10
52.48744238164951
 20
103.6068364436124
 30
0.0
  0
SEQEND
  5
289
330
286
100
AcDbEntity
  8
Capa 1
370
     9
  0
POLYLINE
  5
28A
330
163
100
AcDbEntity
  8
Capa 1
 62
     7
370
     9
100
AcDb2dPolyline
 66
     1
 10
0.0
 20
0.0
 30
0.0
  0
VERTEX
  5
28B
330
28A
100
AcDbEntity
  8
Capa 1
 62
     7
370
     9
100
AcDbVertex
100
AcDb2dVertex
 10
113.6399946441243
 20
103.6068364436124
 30
0.0
  0
VERTEX
  5
28C
330
28A
100
AcDbEntity
  8
Capa 1
 62
     7
370
     9
100
AcDbVertex
100
AcDb2dVertex
 10
113.5669585716555
 20
103.6068364436124
 30
0.0
  0
SEQEND
  5
28D
330
28A
100
AcDbEntity
  8
Capa 1
370
     9
  0
POLYLINE
  5
28E
330
163
100
AcDbEntity
  8
Capa 1
 62
     7
370
     9
100
AcDb2dPolyline
 66
     1
 10
0.0
 20
0.0
 30
0.0
  0
VERTEX
  5
28F
330
28E
100
AcDbEntity
  8
Capa 1
 62
     7
370
     9
100
AcDbVertex
100
AcDb2dVertex
 10
113.6399946441243
 20
103.6068364436124
 30
0.0
  0
VERTEX
  5
290
330
28E
100
AcDbEntity
  8
Capa 1
 62
     7
370
     9
100
AcDbVertex
100
AcDb2dVertex
 10
113.735079342244
 20
103.6068364436124
 30
0.0
  0
SEQEND
  5
291
330
28E
100
AcDbEntity
  8
Capa 1
370
     9
  0
POLYLINE
  5
292
330
163
100
AcDbEntity
  8
Capa 1
 62
     7
370
     9
100
AcDb2dPolyline
 66
     1
 10
0.0
 20
0.0
 30
0.0
  0
VERTEX
  5
293
330
292
100
AcDbEntity
  8
Capa 1
 62
     7
370
     9
100
AcDbVertex
100
AcDb2dVertex
 10
52.48744238164951
 20
103.6068364436124
 30
0.0
  0
VERTEX
  5
294
330
292
100
AcDbEntity
  8
Capa 1
 62
     7
370
     9
100
AcDbVertex
100
AcDb2dVertex
 10
52.48744238164951
 20
103.4635203768812
 30
0.0
  0
SEQEND
  5
295
330
292
100
AcDbEntity
  8
Capa 1
370
     9
  0
POLYLINE
  5
296
330
163
100
AcDbEntity
  8
Capa 1
 62
     7
370
     9
100
AcDb2dPolyline
 66
     1
 10
0.0
 20
0.0
 30
0.0
  0
VERTEX
  5
297
330
296
100
AcDbEntity
  8
Capa 1
 62
     7
370
     9
100
AcDbVertex
100
AcDb2dVertex
 10
52.39166866397817
 20
103.4635203768812
 30
0.0
  0
VERTEX
  5
298
330
296
100
AcDbEntity
  8
Capa 1
 62
     7
370
     9
100
AcDbVertex
100
AcDb2dVertex
 10
52.48744238164951
 20
103.4635203768812
 30
0.0
  0
SEQEND
  5
299
330
296
100
AcDbEntity
  8
Capa 1
370
     9
  0
POLYLINE
  5
29A
330
163
100
AcDbEntity
  8
Capa 1
 62
     7
370
     9
100
AcDb2dPolyline
 66
     1
 10
0.0
 20
0.0
 30
0.0
  0
VERTEX
  5
29B
330
29A
100
AcDbEntity
  8
Capa 1
 62
     7
370
     9
100
AcDbVertex
100
AcDb2dVertex
 10
52.48744238164951
 20
103.4635203768812
 30
0.0
  0
VERTEX
  5
29C
330
29A
100
AcDbEntity
  8
Capa 1
 62
     7
370
     9
100
AcDbVertex
100
AcDb2dVertex
 10
52.55910041501511
 20
103.4635203768812
 30
0.0
  0
SEQEND
  5
29D
330
29A
100
AcDbEntity
  8
Capa 1
370
     9
  0
POLYLINE
  5
29E
330
163
100
AcDbEntity
  8
Capa 1
 62
     7
370
     9
100
AcDb2dPolyline
 66
     1
 10
0.0
 20
0.0
 30
0.0
  0
VERTEX
  5
29F
330
29E
100
AcDbEntity
  8
Capa 1
 62
     7
370
     9
100
AcDbVertex
100
AcDb2dVertex
 10
113.5669585716555
 20
103.4635203768812
 30
0.0
  0
VERTEX
  5
2A0
330
29E
100
AcDbEntity
  8
Capa 1
 62
     7
370
     9
100
AcDbVertex
100
AcDb2dVertex
 10
113.6399946441243
 20
103.4635203768812
 30
0.0
  0
SEQEND
  5
2A1
330
29E
100
AcDbEntity
  8
Capa 1
370
     9
  0
POLYLINE
  5
2A2
330
163
100
AcDbEntity
  8
Capa 1
 62
     7
370
     9
100
AcDb2dPolyline
 66
     1
 10
0.0
 20
0.0
 30
0.0
  0
VERTEX
  5
2A3
330
2A2
100
AcDbEntity
  8
Capa 1
 62
     7
370
     9
100
AcDbVertex
100
AcDb2dVertex
 10
113.6399946441243
 20
103.4635203768812
 30
0.0
  0
VERTEX
  5
2A4
330
2A2
100
AcDbEntity
  8
Capa 1
 62
     7
370
     9
100
AcDbVertex
100
AcDb2dVertex
 10
113.735079342244
 20
103.4635203768812
 30
0.0
  0
SEQEND
  5
2A5
330
2A2
100
AcDbEntity
  8
Capa 1
370
     9
  0
SPLINE
  5
2A6
330
163
100
AcDbEntity
  8
Capa 1
 62
     7
370
     9
100
AcDbSpline
210
0.0
220
0.0
230
1.0
 70
    11
 71
     3
 72
    17
 73
    13
 74
     0
 42
0.0000000001
 43
0.0000000001
 40
0.0
 40
0.0
 40
0.0
 40
0.0
 40
1.0
 40
1.0
 40
1.0
 40
2.0
 40
2.0
 40
2.0
 40
3.0
 40
3.0
 40
3.0
 40
4.0
 40
4.0
 40
4.0
 40
4.0
 10
113.8439444313956
 20
124.7032370742666
 30
0.0
 10
113.8439444313956
 20
124.8686017666488
 30
0.0
 10
113.7088965992835
 20
125.0036495987609
 30
0.0
 10
113.5435319069013
 20
125.0036495987609
 30
0.0
 10
113.3781672145192
 20
125.0036495987609
 30
0.0
 10
113.2431193824071
 20
124.8686017666488
 30
0.0
 10
113.2431193824071
 20
124.7032370742666
 30
0.0
 10
113.2431193824071
 20
124.5378723818845
 30
0.0
 10
113.3781672145192
 20
124.4042025888755
 30
0.0
 10
113.5435319069013
 20
124.4042025888755
 30
0.0
 10
113.7088965992835
 20
124.4042025888755
 30
0.0
 10
113.8439444313956
 20
124.5378723818845
 30
0.0
 10
113.8439444313956
 20
124.7032370742666
 30
0.0
  0
POLYLINE
  5
2A7
330
163
100
AcDbEntity
  8
Capa 1
 62
     7
370
     9
100
AcDb2dPolyline
 66
     1
 10
0.0
 20
0.0
 30
0.0
  0
VERTEX
  5
2A8
330
2A7
100
AcDbEntity
  8
Capa 1
 62
     7
370
     9
100
AcDbVertex
100
AcDb2dVertex
 10
112.2233704460504
 20
125.0615272410946
 30
0.0
  0
VERTEX
  5
2A9
330
2A7
100
AcDbEntity
  8
Capa 1
 62
     7
370
     9
100
AcDbVertex
100
AcDb2dVertex
 10
112.2233704460504
 20
125.1841727212781
 30
0.0
  0
SEQEND
  5
2AA
330
2A7
100
AcDbEntity
  8
Capa 1
370
     9
  0
POLYLINE
  5
2AB
330
163
100
AcDbEntity
  8
Capa 1
 62
     7
370
     9
100
AcDb2dPolyline
 66
     1
 10
0.0
 20
0.0
 30
0.0
  0
VERTEX
  5
2AC
330
2AB
100
AcDbEntity
  8
Capa 1
 62
     7
370
     9
100
AcDbVertex
100
AcDb2dVertex
 10
52.46332669734377
 20
125.0615272410946
 30
0.0
  0
VERTEX
  5
2AD
330
2AB
100
AcDbEntity
  8
Capa 1
 62
     7
370
     9
100
AcDbVertex
100
AcDb2dVertex
 10
52.46332669734377
 20
125.1841727212781
 30
0.0
  0
SEQEND
  5
2AE
330
2AB
100
AcDbEntity
  8
Capa 1
370
     9
  0
POLYLINE
  5
2AF
330
163
100
AcDbEntity
  8
Capa 1
 62
     7
370
     9
100
AcDb2dPolyline
 66
     1
 10
0.0
 20
0.0
 30
0.0
  0
VERTEX
  5
2B0
330
2AF
100
AcDbEntity
  8
Capa 1
 62
     7
370
     9
100
AcDbVertex
100
AcDb2dVertex
 10
52.46332669734377
 20
125.1827946821749
 30
0.0
  0
VERTEX
  5
2B1
330
2AF
100
AcDbEntity
  8
Capa 1
 62
     7
370
     9
100
AcDbVertex
100
AcDb2dVertex
 10
112.2233704460504
 20
125.1827946821749
 30
0.0
  0
SEQEND
  5
2B2
330
2AF
100
AcDbEntity
  8
Capa 1
370
     9
  0
POLYLINE
  5
2B3
330
163
100
AcDbEntity
  8
Capa 1
 62
     7
370
     9
100
AcDb2dPolyline
 66
     1
 10
0.0
 20
0.0
 30
0.0
  0
VERTEX
  5
2B4
330
2B3
100
AcDbEntity
  8
Capa 1
 62
     7
370
     9
100
AcDbVertex
100
AcDb2dVertex
 10
112.8834511764759
 20
125.0408566545469
 30
0.0
  0
VERTEX
  5
2B5
330
2B3
100
AcDbEntity
  8
Capa 1
 62
     7
370
     9
100
AcDbVertex
100
AcDb2dVertex
 10
112.638160216109
 20
125.0408566545469
 30
0.0
  0
SEQEND
  5
2B6
330
2B3
100
AcDbEntity
  8
Capa 1
370
     9
  0
POLYLINE
  5
2B7
330
163
100
AcDbEntity
  8
Capa 1
 62
     7
370
     9
100
AcDb2dPolyline
 66
     1
 10
0.0
 20
0.0
 30
0.0
  0
VERTEX
  5
2B8
330
2B7
100
AcDbEntity
  8
Capa 1
 62
     7
370
     9
100
AcDbVertex
100
AcDb2dVertex
 10
112.8834511764759
 20
125.0408566545469
 30
0.0
  0
VERTEX
  5
2B9
330
2B7
100
AcDbEntity
  8
Capa 1
 62
     7
370
     9
100
AcDbVertex
100
AcDb2dVertex
 10
113.2004001702083
 20
125.0408566545469
 30
0.0
  0
SEQEND
  5
2BA
330
2B7
100
AcDbEntity
  8
Capa 1
370
     9
  0
POLYLINE
  5
2BB
330
163
100
AcDbEntity
  8
Capa 1
 62
     7
370
     9
100
AcDb2dPolyline
 66
     1
 10
0.0
 20
0.0
 30
0.0
  0
VERTEX
  5
2BC
330
2BB
100
AcDbEntity
  8
Capa 1
 62
     7
370
     9
100
AcDbVertex
100
AcDb2dVertex
 10
113.5435319069013
 20
125.1827946821749
 30
0.0
  0
VERTEX
  5
2BD
330
2BB
100
AcDbEntity
  8
Capa 1
 62
     7
370
     9
100
AcDbVertex
100
AcDb2dVertex
 10
112.8834511764759
 20
125.1827946821749
 30
0.0
  0
SEQEND
  5
2BE
330
2BB
100
AcDbEntity
  8
Capa 1
370
     9
  0
POLYLINE
  5
2BF
330
163
100
AcDbEntity
  8
Capa 1
 62
     7
370
     9
100
AcDb2dPolyline
 66
     1
 10
0.0
 20
0.0
 30
0.0
  0
VERTEX
  5
2C0
330
2BF
100
AcDbEntity
  8
Capa 1
 62
     7
370
     9
100
AcDbVertex
100
AcDb2dVertex
 10
112.8834511764759
 20
125.1827946821749
 30
0.0
  0
VERTEX
  5
2C1
330
2BF
100
AcDbEntity
  8
Capa 1
 62
     7
370
     9
100
AcDbVertex
100
AcDb2dVertex
 10
112.2233704460504
 20
125.1827946821749
 30
0.0
  0
SEQEND
  5
2C2
330
2BF
100
AcDbEntity
  8
Capa 1
370
     9
  0
POLYLINE
  5
2C3
330
163
100
AcDbEntity
  8
Capa 1
 62
     7
370
     9
100
AcDb2dPolyline
 66
     1
 10
0.0
 20
0.0
 30
0.0
  0
VERTEX
  5
2C4
330
2C3
100
AcDbEntity
  8
Capa 1
 62
     7
370
     9
100
AcDbVertex
100
AcDb2dVertex
 10
52.46332669734377
 20
125.1827946821749
 30
0.0
  0
VERTEX
  5
2C5
330
2C3
100
AcDbEntity
  8
Capa 1
 62
     7
370
     9
100
AcDbVertex
100
AcDb2dVertex
 10
52.43645493483167
 20
125.1827946821749
 30
0.0
  0
SEQEND
  5
2C6
330
2C3
100
AcDbEntity
  8
Capa 1
370
     9
  0
POLYLINE
  5
2C7
330
163
100
AcDbEntity
  8
Capa 1
 62
     7
370
     9
100
AcDb2dPolyline
 66
     1
 10
0.0
 20
0.0
 30
0.0
  0
VERTEX
  5
2C8
330
2C7
100
AcDbEntity
  8
Capa 1
 62
     7
370
     9
100
AcDbVertex
100
AcDb2dVertex
 10
112.8834511764759
 20
125.1827946821749
 30
0.0
  0
VERTEX
  5
2C9
330
2C7
100
AcDbEntity
  8
Capa 1
 62
     7
370
     9
100
AcDbVertex
100
AcDb2dVertex
 10
112.8834511764759
 20
125.0394786154437
 30
0.0
  0
SEQEND
  5
2CA
330
2C7
100
AcDbEntity
  8
Capa 1
370
     9
  0
POLYLINE
  5
2CB
330
163
100
AcDbEntity
  8
Capa 1
 62
     7
370
     9
100
AcDb2dPolyline
 66
     1
 10
0.0
 20
0.0
 30
0.0
  0
VERTEX
  5
2CC
330
2CB
100
AcDbEntity
  8
Capa 1
 62
     7
370
     9
100
AcDbVertex
100
AcDb2dVertex
 10
52.2717792620011
 20
125.0284543026182
 30
0.0
  0
VERTEX
  5
2CD
330
2CB
100
AcDbEntity
  8
Capa 1
 62
     7
370
     9
100
AcDbVertex
100
AcDb2dVertex
 10
52.2545537732113
 20
125.0256982244118
 30
0.0
  0
VERTEX
  5
2CE
330
2CB
100
AcDbEntity
  8
Capa 1
 62
     7
370
     9
100
AcDbVertex
100
AcDb2dVertex
 10
52.22974906935397
 20
125.0215641071023
 30
0.0
  0
SEQEND
  5
2CF
330
2CB
100
AcDbEntity
  8
Capa 1
370
     9
  0
SPLINE
  5
2D0
330
163
100
AcDbEntity
  8
Capa 1
 62
     7
370
     9
100
AcDbSpline
210
0.0
220
0.0
230
1.0
 70
     8
 71
     3
 72
     8
 73
     4
 74
     0
 42
0.0000000001
 43
0.0000000001
 40
0.0
 40
0.0
 40
0.0
 40
0.0
 40
1.0
 40
1.0
 40
1.0
 40
1.0
 10
52.43714395438327
 20
125.1827946821749
 30
0.0
 10
52.35790670595015
 20
125.1827946821749
 30
0.0
 10
52.28073651617181
 20
125.175904486659
 30
0.0
 10
52.20287730684187
 20
125.1621240956271
 30
0.0
  0
POLYLINE
  5
2D1
330
163
100
AcDbEntity
  8
Capa 1
 62
     7
370
     9
100
AcDb2dPolyline
 66
     1
 10
0.0
 20
0.0
 30
0.0
  0
VERTEX
  5
2D2
330
2D1
100
AcDbEntity
  8
Capa 1
 62
     7
370
     9
100
AcDbVertex
100
AcDb2dVertex
 10
51.73020989444953
 20
124.9347476436017
 30
0.0
  0
VERTEX
  5
2D3
330
2D1
100
AcDbEntity
  8
Capa 1
 62
     7
370
     9
100
AcDbVertex
100
AcDb2dVertex
 10
51.25754248205718
 20
124.8493092192042
 30
0.0
  0
SEQEND
  5
2D4
330
2D1
100
AcDbEntity
  8
Capa 1
370
     9
  0
POLYLINE
  5
2D5
330
163
100
AcDbEntity
  8
Capa 1
 62
     7
370
     9
100
AcDb2dPolyline
 66
     1
 10
0.0
 20
0.0
 30
0.0
  0
VERTEX
  5
2D6
330
2D5
100
AcDbEntity
  8
Capa 1
 62
     7
370
     9
100
AcDbVertex
100
AcDb2dVertex
 10
52.10365849141257
 20
124.9995154814513
 30
0.0
  0
VERTEX
  5
2D7
330
2D5
100
AcDbEntity
  8
Capa 1
 62
     7
370
     9
100
AcDbVertex
100
AcDb2dVertex
 10
51.72952087489794
 20
124.9333696044985
 30
0.0
  0
SEQEND
  5
2D8
330
2D5
100
AcDbEntity
  8
Capa 1
370
     9
  0
POLYLINE
  5
2D9
330
163
100
AcDbEntity
  8
Capa 1
 62
     7
370
     9
100
AcDb2dPolyline
 66
     1
 10
0.0
 20
0.0
 30
0.0
  0
VERTEX
  5
2DA
330
2D9
100
AcDbEntity
  8
Capa 1
 62
     7
370
     9
100
AcDbVertex
100
AcDb2dVertex
 10
52.20356632639346
 20
125.1621240956271
 30
0.0
  0
VERTEX
  5
2DB
330
2D9
100
AcDbEntity
  8
Capa 1
 62
     7
370
     9
100
AcDbVertex
100
AcDb2dVertex
 10
51.70402715148902
 20
125.0753076321265
 30
0.0
  0
SEQEND
  5
2DC
330
2D9
100
AcDbEntity
  8
Capa 1
370
     9
  0
POLYLINE
  5
2DD
330
163
100
AcDbEntity
  8
Capa 1
 62
     7
370
     9
100
AcDb2dPolyline
 66
     1
 10
0.0
 20
0.0
 30
0.0
  0
VERTEX
  5
2DE
330
2DD
100
AcDbEntity
  8
Capa 1
 62
     7
370
     9
100
AcDbVertex
100
AcDb2dVertex
 10
51.23204875864827
 20
124.9912472468322
 30
0.0
  0
VERTEX
  5
2DF
330
2DD
100
AcDbEntity
  8
Capa 1
 62
     7
370
     9
100
AcDbVertex
100
AcDb2dVertex
 10
51.70471617104062
 20
125.0753076321265
 30
0.0
  0
SEQEND
  5
2E0
330
2DD
100
AcDbEntity
  8
Capa 1
370
     9
  0
POLYLINE
  5
2E1
330
163
100
AcDbEntity
  8
Capa 1
 62
     7
370
     9
100
AcDb2dPolyline
 66
     1
 10
0.0
 20
0.0
 30
0.0
  0
VERTEX
  5
2E2
330
2E1
100
AcDbEntity
  8
Capa 1
 62
     7
370
     9
100
AcDbVertex
100
AcDb2dVertex
 10
51.25754248205718
 20
124.8493092192042
 30
0.0
  0
VERTEX
  5
2E3
330
2E1
100
AcDbEntity
  8
Capa 1
 62
     7
370
     9
100
AcDbVertex
100
AcDb2dVertex
 10
51.23204875864827
 20
124.9926252859354
 30
0.0
  0
SEQEND
  5
2E4
330
2E1
100
AcDbEntity
  8
Capa 1
370
     9
  0
SPLINE
  5
2E5
330
163
100
AcDbEntity
  8
Capa 1
 62
     7
370
     9
100
AcDbSpline
210
0.0
220
0.0
230
1.0
 70
     8
 71
     3
 72
     8
 73
     4
 74
     0
 42
0.0000000001
 43
0.0000000001
 40
0.0
 40
0.0
 40
0.0
 40
0.0
 40
1.0
 40
1.0
 40
1.0
 40
1.0
 10
113.7598840461013
 20
124.4469218010743
 30
0.0
 10
113.8356761967765
 20
124.5103115998208
 30
0.0
 10
113.8797734480784
 20
124.6040182588373
 30
0.0
 10
113.8797734480784
 20
124.7032370742666
 30
0.0
  0
POLYLINE
  5
2E6
330
163
100
AcDbEntity
  8
Capa 1
 62
     7
370
     9
100
AcDb2dPolyline
 66
     1
 10
0.0
 20
0.0
 30
0.0
  0
VERTEX
  5
2E7
330
2E6
100
AcDbEntity
  8
Capa 1
 62
     7
370
     9
100
AcDbVertex
100
AcDb2dVertex
 10
113.8522126660147
 20
124.3366786728195
 30
0.0
  0
VERTEX
  5
2E8
330
2E6
100
AcDbEntity
  8
Capa 1
 62
     7
370
     9
100
AcDbVertex
100
AcDb2dVertex
 10
113.8811514871816
 20
124.3614833766768
 30
0.0
  0
SEQEND
  5
2E9
330
2E6
100
AcDbEntity
  8
Capa 1
370
     9
  0
POLYLINE
  5
2EA
330
163
100
AcDbEntity
  8
Capa 1
 62
     7
370
     9
100
AcDb2dPolyline
 66
     1
 10
0.0
 20
0.0
 30
0.0
  0
VERTEX
  5
2EB
330
2EA
100
AcDbEntity
  8
Capa 1
 62
     7
370
     9
100
AcDbVertex
100
AcDb2dVertex
 10
52.10365849141257
 20
103.5117517454927
 30
0.0
  0
VERTEX
  5
2EC
330
2EA
100
AcDbEntity
  8
Capa 1
 62
     7
370
     9
100
AcDbVertex
100
AcDb2dVertex
 10
52.10365849141257
 20
92.8636435951847
 30
0.0
  0
SEQEND
  5
2ED
330
2EA
100
AcDbEntity
  8
Capa 1
370
     9
  0
POLYLINE
  5
2EE
330
163
100
AcDbEntity
  8
Capa 1
 62
     7
370
     9
100
AcDb2dPolyline
 66
     1
 10
0.0
 20
0.0
 30
0.0
  0
VERTEX
  5
2EF
330
2EE
100
AcDbEntity
  8
Capa 1
 62
     7
370
     9
100
AcDbVertex
100
AcDb2dVertex
 10
114.0230895148096
 20
103.5117517454927
 30
0.0
  0
VERTEX
  5
2F0
330
2EE
100
AcDbEntity
  8
Capa 1
 62
     7
370
     9
100
AcDbVertex
100
AcDb2dVertex
 10
114.0230895148096
 20
92.8636435951847
 30
0.0
  0
SEQEND
  5
2F1
330
2EE
100
AcDbEntity
  8
Capa 1
370
     9
  0
POLYLINE
  5
2F2
330
163
100
AcDbEntity
  8
Capa 1
 62
     7
370
     9
100
AcDb2dPolyline
 66
     1
 10
0.0
 20
0.0
 30
0.0
  0
VERTEX
  5
2F3
330
2F2
100
AcDbEntity
  8
Capa 1
 62
     7
370
     9
100
AcDbVertex
100
AcDb2dVertex
 10
54.60411044414117
 20
93.10342239913884
 30
0.0
  0
VERTEX
  5
2F4
330
2F2
100
AcDbEntity
  8
Capa 1
 62
     7
370
     9
100
AcDbVertex
100
AcDb2dVertex
 10
111.5233265816326
 20
93.10342239913884
 30
0.0
  0
SEQEND
  5
2F5
330
2F2
100
AcDbEntity
  8
Capa 1
370
     9
  0
POLYLINE
  5
2F6
330
163
100
AcDbEntity
  8
Capa 1
370
     0
100
AcDb2dPolyline
 66
     1
 10
0.0
 20
0.0
 30
0.0
  0
VERTEX
  5
2F7
330
2F6
100
AcDbEntity
  8
Capa 1
370
     0
100
AcDbVertex
100
AcDb2dVertex
 10
55.16290530048256
 20
92.31794011032358
 30
0.0
  0
VERTEX
  5
2F8
330
2F6
100
AcDbEntity
  8
Capa 1
370
     0
100
AcDbVertex
100
AcDb2dVertex
 10
52.10365849141257
 20
93.13787337671845
 30
0.0
  0
VERTEX
  5
2F9
330
2F6
100
AcDbEntity
  8
Capa 1
370
     0
100
AcDbVertex
100
AcDb2dVertex
 10
55.16290530048256
 20
93.95780664311333
 30
0.0
  0
VERTEX
  5
2FA
330
2F6
100
AcDbEntity
  8
Capa 1
370
     0
100
AcDbVertex
100
AcDb2dVertex
 10
55.16290530048256
 20
92.31794011032358
 30
0.0
  0
SEQEND
  5
2FB
330
2F6
100
AcDbEntity
  8
Capa 1
370
     0
  0
HATCH
  5
2FC
330
163
100
AcDbEntity
  8
Capa 1
 62
     7
100
AcDbHatch
 10
0.0
 20
0.0
 30
0.0
210
0.0
220
0.0
230
1.0
  2
SOLID
 70
     1
 71
     0
 91
        1
 92
        1
 93
        3
 72
     1
 10
55.16290530048256
 20
92.31794011032358
 11
52.10365849141257
 21
93.13787337671845
 72
     1
 10
52.10365849141257
 20
93.13787337671845
 11
55.16290530048256
 21
93.95780664311333
 72
     1
 10
55.16290530048256
 20
93.95780664311333
 11
55.16290530048256
 21
92.31794011032358
 97
        0
 75
     2
 76
     1
 98
        0
  0
POLYLINE
  5
2FD
330
163
100
AcDbEntity
  8
Capa 1
370
     0
100
AcDb2dPolyline
 66
     1
 10
0.0
 20
0.0
 30
0.0
  0
VERTEX
  5
2FE
330
2FD
100
AcDbEntity
  8
Capa 1
370
     0
100
AcDbVertex
100
AcDb2dVertex
 10
110.9638427057396
 20
92.31794011032358
 30
0.0
  0
VERTEX
  5
2FF
330
2FD
100
AcDbEntity
  8
Capa 1
370
     0
100
AcDbVertex
100
AcDb2dVertex
 10
114.0230895148096
 20
93.13787337671845
 30
0.0
  0
VERTEX
  5
300
330
2FD
100
AcDbEntity
  8
Capa 1
370
     0
100
AcDbVertex
100
AcDb2dVertex
 10
110.9638427057396
 20
93.95780664311333
 30
0.0
  0
VERTEX
  5
301
330
2FD
100
AcDbEntity
  8
Capa 1
370
     0
100
AcDbVertex
100
AcDb2dVertex
 10
110.9638427057396
 20
92.31794011032358
 30
0.0
  0
SEQEND
  5
302
330
2FD
100
AcDbEntity
  8
Capa 1
370
     0
  0
HATCH
  5
303
330
163
100
AcDbEntity
  8
Capa 1
 62
     7
100
AcDbHatch
 10
0.0
 20
0.0
 30
0.0
210
0.0
220
0.0
230
1.0
  2
SOLID
 70
     1
 71
     0
 91
        1
 92
        1
 93
        3
 72
     1
 10
110.9638427057396
 20
92.31794011032358
 11
114.0230895148096
 21
93.13787337671845
 72
     1
 10
114.0230895148096
 20
93.13787337671845
 11
110.9638427057396
 21
93.95780664311333
 72
     1
 10
110.9638427057396
 20
93.95780664311333
 11
110.9638427057396
 21
92.31794011032358
 97
        0
 75
     2
 76
     1
 98
        0
  0
MTEXT
  5
304
330
163
100
AcDbEntity
  8
Capa 1
 62
     7
100
AcDbMText
 10
76.00023457973803
 20
94.28577994967128
 30
0.0
 40
2.398890470823883
 41
0.0
 71
     7
 72
     1
  1
\fArial|b1|i0|c0|p34;\W1;258
 73
     1
 44
1.0
  0
POLYLINE
  5
305
330
163
100
AcDbEntity
  8
Capa 1
 62
     7
370
     9
100
AcDb2dPolyline
 66
     1
 10
0.0
 20
0.0
 30
0.0
  0
VERTEX
  5
306
330
305
100
AcDbEntity
  8
Capa 1
 62
     7
370
     9
100
AcDbVertex
100
AcDb2dVertex
 10
134.128680030274
 20
198.8334725909831
 30
0.0
  0
VERTEX
  5
307
330
305
100
AcDbEntity
  8
Capa 1
 62
     7
370
     9
100
AcDbVertex
100
AcDb2dVertex
 10
134.128680030274
 20
198.5440843793143
 30
0.0
  0
SEQEND
  5
308
330
305
100
AcDbEntity
  8
Capa 1
370
     9
  0
POLYLINE
  5
309
330
163
100
AcDbEntity
  8
Capa 1
 62
     7
370
     9
100
AcDb2dPolyline
 66
     1
 10
0.0
 20
0.0
 30
0.0
  0
VERTEX
  5
30A
330
309
100
AcDbEntity
  8
Capa 1
 62
     7
370
     9
100
AcDbVertex
100
AcDb2dVertex
 10
134.128680030274
 20
198.8334725909831
 30
0.0
  0
VERTEX
  5
30B
330
309
100
AcDbEntity
  8
Capa 1
 62
     7
370
     9
100
AcDbVertex
100
AcDb2dVertex
 10
134.2485694322511
 20
198.8334725909831
 30
0.0
  0
SEQEND
  5
30C
330
309
100
AcDbEntity
  8
Capa 1
370
     9
  0
SPLINE
  5
30D
330
163
100
AcDbEntity
  8
Capa 1
 62
     7
370
     9
100
AcDbSpline
210
0.0
220
0.0
230
1.0
 70
     8
 71
     3
 72
     8
 73
     4
 74
     0
 42
0.0000000001
 43
0.0000000001
 40
0.0
 40
0.0
 40
0.0
 40
0.0
 40
1.0
 40
1.0
 40
1.0
 40
1.0
 10
134.2485694322511
 20
168.8328722951011
 30
0.0
 10
134.2485694322511
 20
168.567599767738
 30
0.0
 10
134.4635435323479
 20
168.3533146871928
 30
0.0
 10
134.7295050792625
 20
168.3533146871928
 30
0.0
  0
POLYLINE
  5
30E
330
163
100
AcDbEntity
  8
Capa 1
 62
     7
370
     9
100
AcDb2dPolyline
 66
     1
 10
0.0
 20
0.0
 30
0.0
  0
VERTEX
  5
30F
330
30E
100
AcDbEntity
  8
Capa 1
 62
     7
370
     9
100
AcDbVertex
100
AcDb2dVertex
 10
134.7295050792625
 20
168.3526256676412
 30
0.0
  0
VERTEX
  5
310
330
30E
100
AcDbEntity
  8
Capa 1
 62
     7
370
     9
100
AcDbVertex
100
AcDb2dVertex
 10
155.5613222021053
 20
168.3526256676412
 30
0.0
  0
SEQEND
  5
311
330
30E
100
AcDbEntity
  8
Capa 1
370
     9
  0
SPLINE
  5
312
330
163
100
AcDbEntity
  8
Capa 1
 62
     7
370
     9
100
AcDbSpline
210
0.0
220
0.0
230
1.0
 70
     8
 71
     3
 72
     8
 73
     4
 74
     0
 42
0.0000000001
 43
0.0000000001
 40
0.0
 40
0.0
 40
0.0
 40
0.0
 40
1.0
 40
1.0
 40
1.0
 40
1.0
 10
134.7295050792625
 20
198.8334725909831
 30
0.0
 10
134.4649215714511
 20
198.8334725909831
 30
0.0
 10
134.2485694322511
 20
198.6178094713347
 30
0.0
 10
134.2485694322511
 20
198.3525369439716
 30
0.0
  0
POLYLINE
  5
313
330
163
100
AcDbEntity
  8
Capa 1
 62
     7
370
     9
100
AcDb2dPolyline
 66
     1
 10
0.0
 20
0.0
 30
0.0
  0
VERTEX
  5
314
330
313
100
AcDbEntity
  8
Capa 1
 62
     7
370
     9
100
AcDbVertex
100
AcDb2dVertex
 10
134.7295050792625
 20
198.8334725909831
 30
0.0
  0
VERTEX
  5
315
330
313
100
AcDbEntity
  8
Capa 1
 62
     7
370
     9
100
AcDbVertex
100
AcDb2dVertex
 10
155.5613222021053
 20
198.8334725909831
 30
0.0
  0
SEQEND
  5
316
330
313
100
AcDbEntity
  8
Capa 1
370
     9
  0
POLYLINE
  5
317
330
163
100
AcDbEntity
  8
Capa 1
 62
     7
370
     9
100
AcDb2dPolyline
 66
     1
 10
0.0
 20
0.0
 30
0.0
  0
VERTEX
  5
318
330
317
100
AcDbEntity
  8
Capa 1
 62
     7
370
     9
100
AcDbVertex
100
AcDb2dVertex
 10
155.5613222021053
 20
198.8334725909831
 30
0.0
  0
VERTEX
  5
319
330
317
100
AcDbEntity
  8
Capa 1
 62
     7
370
     9
100
AcDbVertex
100
AcDb2dVertex
 10
155.8493323746709
 20
198.8334725909831
 30
0.0
  0
SEQEND
  5
31A
330
317
100
AcDbEntity
  8
Capa 1
370
     9
  0
POLYLINE
  5
31B
330
163
100
AcDbEntity
  8
Capa 1
 62
     7
370
     9
100
AcDb2dPolyline
 66
     1
 10
0.0
 20
0.0
 30
0.0
  0
VERTEX
  5
31C
330
31B
100
AcDbEntity
  8
Capa 1
 62
     7
370
     9
100
AcDbVertex
100
AcDb2dVertex
 10
155.8493323746709
 20
198.8334725909831
 30
0.0
  0
VERTEX
  5
31D
330
31B
100
AcDbEntity
  8
Capa 1
 62
     7
370
     9
100
AcDbVertex
100
AcDb2dVertex
 10
155.8493323746709
 20
168.3519366480896
 30
0.0
  0
SEQEND
  5
31E
330
31B
100
AcDbEntity
  8
Capa 1
370
     9
  0
POLYLINE
  5
31F
330
163
100
AcDbEntity
  8
Capa 1
 62
     7
370
     9
100
AcDb2dPolyline
 66
     1
 10
0.0
 20
0.0
 30
0.0
  0
VERTEX
  5
320
330
31F
100
AcDbEntity
  8
Capa 1
 62
     7
370
     9
100
AcDbVertex
100
AcDb2dVertex
 10
155.5613222021053
 20
168.3526256676412
 30
0.0
  0
VERTEX
  5
321
330
31F
100
AcDbEntity
  8
Capa 1
 62
     7
370
     9
100
AcDbVertex
100
AcDb2dVertex
 10
155.8493323746709
 20
168.3526256676412
 30
0.0
  0
SEQEND
  5
322
330
31F
100
AcDbEntity
  8
Capa 1
370
     9
  0
POLYLINE
  5
323
330
163
100
AcDbEntity
  8
Capa 1
 62
     7
370
     9
100
AcDb2dPolyline
 66
     1
 10
0.0
 20
0.0
 30
0.0
  0
VERTEX
  5
324
330
323
100
AcDbEntity
  8
Capa 1
 62
     7
370
     9
100
AcDbVertex
100
AcDb2dVertex
 10
134.2485694322511
 20
198.6887784851487
 30
0.0
  0
VERTEX
  5
325
330
323
100
AcDbEntity
  8
Capa 1
 62
     7
370
     9
100
AcDbVertex
100
AcDb2dVertex
 10
134.2485694322511
 20
198.3532259635232
 30
0.0
  0
SEQEND
  5
326
330
323
100
AcDbEntity
  8
Capa 1
370
     9
  0
POLYLINE
  5
327
330
163
100
AcDbEntity
  8
Capa 1
 62
     7
370
     9
100
AcDb2dPolyline
 66
     1
 10
0.0
 20
0.0
 30
0.0
  0
VERTEX
  5
328
330
327
100
AcDbEntity
  8
Capa 1
 62
     7
370
     9
100
AcDbVertex
100
AcDb2dVertex
 10
134.2485694322511
 20
168.2086205813584
 30
0.0
  0
VERTEX
  5
329
330
327
100
AcDbEntity
  8
Capa 1
 62
     7
370
     9
100
AcDbVertex
100
AcDb2dVertex
 10
134.2485694322511
 20
168.496630753924
 30
0.0
  0
SEQEND
  5
32A
330
327
100
AcDbEntity
  8
Capa 1
370
     9
  0
POLYLINE
  5
32B
330
163
100
AcDbEntity
  8
Capa 1
 62
     7
370
     9
100
AcDb2dPolyline
 66
     1
 10
0.0
 20
0.0
 30
0.0
  0
VERTEX
  5
32C
330
32B
100
AcDbEntity
  8
Capa 1
 62
     7
370
     9
100
AcDbVertex
100
AcDb2dVertex
 10
155.5613222021053
 20
168.3526256676412
 30
0.0
  0
VERTEX
  5
32D
330
32B
100
AcDbEntity
  8
Capa 1
 62
     7
370
     9
100
AcDbVertex
100
AcDb2dVertex
 10
155.5613222021053
 20
168.2086205813584
 30
0.0
  0
SEQEND
  5
32E
330
32B
100
AcDbEntity
  8
Capa 1
370
     9
  0
POLYLINE
  5
32F
330
163
100
AcDbEntity
  8
Capa 1
 62
     7
370
     9
100
AcDb2dPolyline
 66
     1
 10
0.0
 20
0.0
 30
0.0
  0
VERTEX
  5
330
330
32F
100
AcDbEntity
  8
Capa 1
 62
     7
370
     9
100
AcDbVertex
100
AcDb2dVertex
 10
155.5613222021053
 20
168.2086205813584
 30
0.0
  0
VERTEX
  5
331
330
32F
100
AcDbEntity
  8
Capa 1
 62
     7
370
     9
100
AcDbVertex
100
AcDb2dVertex
 10
134.2485694322511
 20
168.2086205813584
 30
0.0
  0
SEQEND
  5
332
330
32F
100
AcDbEntity
  8
Capa 1
370
     9
  0
POLYLINE
  5
333
330
163
100
AcDbEntity
  8
Capa 1
 62
     7
370
     9
100
AcDb2dPolyline
 66
     1
 10
0.0
 20
0.0
 30
0.0
  0
VERTEX
  5
334
330
333
100
AcDbEntity
  8
Capa 1
 62
     7
370
     9
100
AcDbVertex
100
AcDb2dVertex
 10
155.5613222021053
 20
198.9767886577143
 30
0.0
  0
VERTEX
  5
335
330
333
100
AcDbEntity
  8
Capa 1
 62
     7
370
     9
100
AcDbVertex
100
AcDb2dVertex
 10
155.5613222021053
 20
198.8327835714315
 30
0.0
  0
SEQEND
  5
336
330
333
100
AcDbEntity
  8
Capa 1
370
     9
  0
POLYLINE
  5
337
330
163
100
AcDbEntity
  8
Capa 1
 62
     7
370
     9
100
AcDb2dPolyline
 66
     1
 10
0.0
 20
0.0
 30
0.0
  0
VERTEX
  5
338
330
337
100
AcDbEntity
  8
Capa 1
 62
     7
370
     9
100
AcDbVertex
100
AcDb2dVertex
 10
134.2485694322511
 20
198.6887784851487
 30
0.0
  0
VERTEX
  5
339
330
337
100
AcDbEntity
  8
Capa 1
 62
     7
370
     9
100
AcDbVertex
100
AcDb2dVertex
 10
134.2485694322511
 20
198.9767886577143
 30
0.0
  0
SEQEND
  5
33A
330
337
100
AcDbEntity
  8
Capa 1
370
     9
  0
POLYLINE
  5
33B
330
163
100
AcDbEntity
  8
Capa 1
 62
     7
370
     9
100
AcDb2dPolyline
 66
     1
 10
0.0
 20
0.0
 30
0.0
  0
VERTEX
  5
33C
330
33B
100
AcDbEntity
  8
Capa 1
 62
     7
370
     9
100
AcDbVertex
100
AcDb2dVertex
 10
134.2485694322511
 20
198.9767886577143
 30
0.0
  0
VERTEX
  5
33D
330
33B
100
AcDbEntity
  8
Capa 1
 62
     7
370
     9
100
AcDbVertex
100
AcDb2dVertex
 10
155.5627002412085
 20
198.9767886577143
 30
0.0
  0
SEQEND
  5
33E
330
33B
100
AcDbEntity
  8
Capa 1
370
     9
  0
POLYLINE
  5
33F
330
163
100
AcDbEntity
  8
Capa 1
 62
     7
370
     9
100
AcDb2dPolyline
 66
     1
 10
0.0
 20
0.0
 30
0.0
  0
VERTEX
  5
340
330
33F
100
AcDbEntity
  8
Capa 1
 62
     7
370
     9
100
AcDbVertex
100
AcDb2dVertex
 10
134.2485694322511
 20
168.8328722951011
 30
0.0
  0
VERTEX
  5
341
330
33F
100
AcDbEntity
  8
Capa 1
 62
     7
370
     9
100
AcDbVertex
100
AcDb2dVertex
 10
134.2485694322511
 20
168.4973197734756
 30
0.0
  0
SEQEND
  5
342
330
33F
100
AcDbEntity
  8
Capa 1
370
     9
  0
SPLINE
  5
343
330
163
100
AcDbEntity
  8
Capa 1
 62
     7
370
     9
100
AcDbSpline
210
0.0
220
0.0
230
1.0
 70
     8
 71
     3
 72
     8
 73
     4
 74
     0
 42
0.0000000001
 43
0.0000000001
 40
0.0
 40
0.0
 40
0.0
 40
0.0
 40
1.0
 40
1.0
 40
1.0
 40
1.0
 10
155.8107472797817
 20
198.8334725909831
 30
0.0
 10
155.7583817938607
 20
198.9223561131385
 30
0.0
 10
155.6632970957409
 20
198.9774776772659
 30
0.0
 10
155.5613222021053
 20
198.9774776772659
 30
0.0
  0
SPLINE
  5
344
330
163
100
AcDbEntity
  8
Capa 1
 62
     7
370
     9
100
AcDbSpline
210
0.0
220
0.0
230
1.0
 70
     8
 71
     3
 72
     8
 73
     4
 74
     0
 42
0.0000000001
 43
0.0000000001
 40
0.0
 40
0.0
 40
0.0
 40
0.0
 40
1.0
 40
1.0
 40
1.0
 40
1.0
 10
155.5613222021053
 20
168.2086205813584
 30
0.0
 10
155.6632970957409
 20
168.2086205813584
 30
0.0
 10
155.7583817938607
 20
168.2637421454858
 30
0.0
 10
155.8107472797817
 20
168.3526256676412
 30
0.0
  0
POLYLINE
  5
345
330
163
100
AcDbEntity
  8
Capa 1
 62
     7
370
     9
100
AcDb2dPolyline
 66
     1
 10
0.0
 20
0.0
 30
0.0
  0
VERTEX
  5
346
330
345
100
AcDbEntity
  8
Capa 1
 62
     7
370
     9
100
AcDbVertex
100
AcDb2dVertex
 10
134.2375451194256
 20
198.3525369439716
 30
0.0
  0
VERTEX
  5
347
330
345
100
AcDbEntity
  8
Capa 1
 62
     7
370
     9
100
AcDbVertex
100
AcDb2dVertex
 10
134.3794831470536
 20
198.3525369439716
 30
0.0
  0
SEQEND
  5
348
330
345
100
AcDbEntity
  8
Capa 1
370
     9
  0
SPLINE
  5
349
330
163
100
AcDbEntity
  8
Capa 1
 62
     7
370
     9
100
AcDbSpline
210
0.0
220
0.0
230
1.0
 70
     8
 71
     3
 72
     8
 73
     4
 74
     0
 42
0.0000000001
 43
0.0000000001
 40
0.0
 40
0.0
 40
0.0
 40
0.0
 40
1.0
 40
1.0
 40
1.0
 40
1.0
 10
134.4621654932447
 20
197.8722903165117
 30
0.0
 10
134.4883482362052
 20
198.0376550088939
 30
0.0
 10
134.4580313759351
 20
198.2050867599309
 30
0.0
 10
134.3794831470536
 20
198.35184792442
 30
0.0
  0
SPLINE
  5
34A
330
163
100
AcDbEntity
  8
Capa 1
 62
     7
370
     9
100
AcDbSpline
210
0.0
220
0.0
230
1.0
 70
     8
 71
     3
 72
     8
 73
     4
 74
     0
 42
0.0000000001
 43
0.0000000001
 40
0.0
 40
0.0
 40
0.0
 40
0.0
 40
1.0
 40
1.0
 40
1.0
 40
1.0
 10
134.3202274656167
 20
197.8722903165117
 30
0.0
 10
134.3464102085772
 20
198.0376550088939
 30
0.0
 10
134.3160933483071
 20
198.2050867599309
 30
0.0
 10
134.2375451194256
 20
198.35184792442
 30
0.0
  0
SPLINE
  5
34B
330
163
100
AcDbEntity
  8
Capa 1
 62
     7
370
     9
100
AcDbSpline
210
0.0
220
0.0
230
1.0
 70
     8
 71
     3
 72
     8
 73
     4
 74
     0
 42
0.0000000001
 43
0.0000000001
 40
0.0
 40
0.0
 40
0.0
 40
0.0
 40
1.0
 40
1.0
 40
1.0
 40
1.0
 10
134.2375451194256
 20
168.8328722951011
 30
0.0
 10
134.3160933483071
 20
168.9796334595902
 30
0.0
 10
134.3464102085772
 20
169.1477542301788
 30
0.0
 10
134.3202274656167
 20
169.3124299030093
 30
0.0
  0
POLYLINE
  5
34C
330
163
100
AcDbEntity
  8
Capa 1
 62
     7
370
     9
100
AcDb2dPolyline
 66
     1
 10
0.0
 20
0.0
 30
0.0
  0
VERTEX
  5
34D
330
34C
100
AcDbEntity
  8
Capa 1
 62
     7
370
     9
100
AcDbVertex
100
AcDb2dVertex
 10
134.2375451194256
 20
168.8328722951011
 30
0.0
  0
VERTEX
  5
34E
330
34C
100
AcDbEntity
  8
Capa 1
 62
     7
370
     9
100
AcDbVertex
100
AcDb2dVertex
 10
134.1479725777186
 20
168.8328722951011
 30
0.0
  0
SEQEND
  5
34F
330
34C
100
AcDbEntity
  8
Capa 1
370
     9
  0
POLYLINE
  5
350
330
163
100
AcDbEntity
  8
Capa 1
 62
     7
370
     9
100
AcDb2dPolyline
 66
     1
 10
0.0
 20
0.0
 30
0.0
  0
VERTEX
  5
351
330
350
100
AcDbEntity
  8
Capa 1
 62
     7
370
     9
100
AcDbVertex
100
AcDb2dVertex
 10
134.1493506168218
 20
198.3525369439716
 30
0.0
  0
VERTEX
  5
352
330
350
100
AcDbEntity
  8
Capa 1
 62
     7
370
     9
100
AcDbVertex
100
AcDb2dVertex
 10
134.2375451194256
 20
198.3525369439716
 30
0.0
  0
SEQEND
  5
353
330
350
100
AcDbEntity
  8
Capa 1
370
     9
  0
POLYLINE
  5
354
330
163
100
AcDbEntity
  8
Capa 1
 62
     7
370
     9
100
AcDb2dPolyline
 66
     1
 10
0.0
 20
0.0
 30
0.0
  0
VERTEX
  5
355
330
354
100
AcDbEntity
  8
Capa 1
 62
     7
370
     9
100
AcDbVertex
100
AcDb2dVertex
 10
134.3202274656167
 20
197.8722903165117
 30
0.0
  0
VERTEX
  5
356
330
354
100
AcDbEntity
  8
Capa 1
 62
     7
370
     9
100
AcDbVertex
100
AcDb2dVertex
 10
134.3202274656167
 20
169.3131189225609
 30
0.0
  0
SEQEND
  5
357
330
354
100
AcDbEntity
  8
Capa 1
370
     9
  0
POLYLINE
  5
358
330
163
100
AcDbEntity
  8
Capa 1
 62
     7
370
     9
100
AcDb2dPolyline
 66
     1
 10
0.0
 20
0.0
 30
0.0
  0
VERTEX
  5
359
330
358
100
AcDbEntity
  8
Capa 1
 62
     7
370
     9
100
AcDbVertex
100
AcDb2dVertex
 10
134.4621654932447
 20
197.8722903165117
 30
0.0
  0
VERTEX
  5
35A
330
358
100
AcDbEntity
  8
Capa 1
 62
     7
370
     9
100
AcDbVertex
100
AcDb2dVertex
 10
134.4621654932447
 20
169.3131189225609
 30
0.0
  0
SEQEND
  5
35B
330
358
100
AcDbEntity
  8
Capa 1
370
     9
  0
SPLINE
  5
35C
330
163
100
AcDbEntity
  8
Capa 1
 62
     7
370
     9
100
AcDbSpline
210
0.0
220
0.0
230
1.0
 70
     8
 71
     3
 72
     8
 73
     4
 74
     0
 42
0.0000000001
 43
0.0000000001
 40
0.0
 40
0.0
 40
0.0
 40
0.0
 40
1.0
 40
1.0
 40
1.0
 40
1.0
 10
134.3794831470536
 20
168.8328722951011
 30
0.0
 10
134.4580313759351
 20
168.9796334595902
 30
0.0
 10
134.4883482362052
 20
169.1477542301788
 30
0.0
 10
134.4621654932447
 20
169.3124299030093
 30
0.0
  0
POLYLINE
  5
35D
330
163
100
AcDbEntity
  8
Capa 1
 62
     7
370
     9
100
AcDb2dPolyline
 66
     1
 10
0.0
 20
0.0
 30
0.0
  0
VERTEX
  5
35E
330
35D
100
AcDbEntity
  8
Capa 1
 62
     7
370
     9
100
AcDbVertex
100
AcDb2dVertex
 10
134.3794831470536
 20
168.8328722951011
 30
0.0
  0
VERTEX
  5
35F
330
35D
100
AcDbEntity
  8
Capa 1
 62
     7
370
     9
100
AcDbVertex
100
AcDb2dVertex
 10
134.2375451194256
 20
168.8328722951011
 30
0.0
  0
SEQEND
  5
360
330
35D
100
AcDbEntity
  8
Capa 1
370
     9
  0
POLYLINE
  5
361
330
163
100
AcDbEntity
  8
Capa 1
 62
     7
370
     9
100
AcDb2dPolyline
 66
     1
 10
0.0
 20
0.0
 30
0.0
  0
VERTEX
  5
362
330
361
100
AcDbEntity
  8
Capa 1
 62
     7
370
     9
100
AcDbVertex
100
AcDb2dVertex
 10
134.1493506168218
 20
168.8328722951011
 30
0.0
  0
VERTEX
  5
363
330
361
100
AcDbEntity
  8
Capa 1
 62
     7
370
     9
100
AcDbVertex
100
AcDb2dVertex
 10
134.128680030274
 20
168.8328722951011
 30
0.0
  0
SEQEND
  5
364
330
361
100
AcDbEntity
  8
Capa 1
370
     9
  0
POLYLINE
  5
365
330
163
100
AcDbEntity
  8
Capa 1
 62
     7
370
     9
100
AcDb2dPolyline
 66
     1
 10
0.0
 20
0.0
 30
0.0
  0
VERTEX
  5
366
330
365
100
AcDbEntity
  8
Capa 1
 62
     7
370
     9
100
AcDbVertex
100
AcDb2dVertex
 10
134.128680030274
 20
198.3525369439716
 30
0.0
  0
VERTEX
  5
367
330
365
100
AcDbEntity
  8
Capa 1
 62
     7
370
     9
100
AcDbVertex
100
AcDb2dVertex
 10
134.128680030274
 20
168.8335613146527
 30
0.0
  0
SEQEND
  5
368
330
365
100
AcDbEntity
  8
Capa 1
370
     9
  0
POLYLINE
  5
369
330
163
100
AcDbEntity
  8
Capa 1
 62
     7
370
     9
100
AcDb2dPolyline
 66
     1
 10
0.0
 20
0.0
 30
0.0
  0
VERTEX
  5
36A
330
369
100
AcDbEntity
  8
Capa 1
 62
     7
370
     9
100
AcDbVertex
100
AcDb2dVertex
 10
134.128680030274
 20
198.3525369439716
 30
0.0
  0
VERTEX
  5
36B
330
369
100
AcDbEntity
  8
Capa 1
 62
     7
370
     9
100
AcDbVertex
100
AcDb2dVertex
 10
134.1493506168218
 20
198.3525369439716
 30
0.0
  0
SEQEND
  5
36C
330
369
100
AcDbEntity
  8
Capa 1
370
     9
  0
POLYLINE
  5
36D
330
163
100
AcDbEntity
  8
Capa 1
 62
     7
370
     9
100
AcDb2dPolyline
 66
     1
 10
0.0
 20
0.0
 30
0.0
  0
VERTEX
  5
36E
330
36D
100
AcDbEntity
  8
Capa 1
 62
     7
370
     9
100
AcDbVertex
100
AcDb2dVertex
 10
134.128680030274
 20
198.5447733988659
 30
0.0
  0
VERTEX
  5
36F
330
36D
100
AcDbEntity
  8
Capa 1
 62
     7
370
     9
100
AcDbVertex
100
AcDb2dVertex
 10
134.128680030274
 20
198.3525369439716
 30
0.0
  0
SEQEND
  5
370
330
36D
100
AcDbEntity
  8
Capa 1
370
     9
  0
POLYLINE
  5
371
330
163
100
AcDbEntity
  8
Capa 1
 62
     7
370
     9
100
AcDb2dPolyline
 66
     1
 10
0.0
 20
0.0
 30
0.0
  0
VERTEX
  5
372
330
371
100
AcDbEntity
  8
Capa 1
 62
     7
370
     9
100
AcDbVertex
100
AcDb2dVertex
 10
134.128680030274
 20
168.8328722951011
 30
0.0
  0
VERTEX
  5
373
330
371
100
AcDbEntity
  8
Capa 1
 62
     7
370
     9
100
AcDbVertex
100
AcDb2dVertex
 10
134.128680030274
 20
168.6413248597584
 30
0.0
  0
SEQEND
  5
374
330
371
100
AcDbEntity
  8
Capa 1
370
     9
  0
SPLINE
  5
375
330
163
100
AcDbEntity
  8
Capa 1
 62
     7
370
     9
100
AcDbSpline
210
0.0
220
0.0
230
1.0
 70
     8
 71
     3
 72
     8
 73
     4
 74
     0
 42
0.0000000001
 43
0.0000000001
 40
0.0
 40
0.0
 40
0.0
 40
0.0
 40
1.0
 40
1.0
 40
1.0
 40
1.0
 10
134.128680030274
 20
168.6413248597584
 30
0.0
 10
134.128680030274
 20
168.5483072202935
 30
0.0
 10
134.1727772815759
 20
168.4608017372412
 30
0.0
 10
134.2485694322511
 20
168.407058212217
 30
0.0
  0
SPLINE
  5
376
330
163
100
AcDbEntity
  8
Capa 1
 62
     7
370
     9
100
AcDbSpline
210
0.0
220
0.0
230
1.0
 70
     8
 71
     3
 72
     8
 73
     4
 74
     0
 42
0.0000000001
 43
0.0000000001
 40
0.0
 40
0.0
 40
0.0
 40
0.0
 40
1.0
 40
1.0
 40
1.0
 40
1.0
 10
134.2761302143148
 20
168.3891437038756
 30
0.0
 10
134.3188494265135
 20
168.3650280195699
 30
0.0
 10
134.367080795125
 20
168.3526256676412
 30
0.0
 10
134.4166902028396
 20
168.3526256676412
 30
0.0
  0
SPLINE
  5
377
330
163
100
AcDbEntity
  8
Capa 1
 62
     7
370
     9
100
AcDbSpline
210
0.0
220
0.0
230
1.0
 70
     8
 71
     3
 72
     8
 73
     4
 74
     0
 42
0.0000000001
 43
0.0000000001
 40
0.0
 40
0.0
 40
0.0
 40
0.0
 40
1.0
 40
1.0
 40
1.0
 40
1.0
 10
134.2485694322511
 20
198.7776620073041
 30
0.0
 10
134.1727772815759
 20
198.7239184822799
 30
0.0
 10
134.128680030274
 20
198.6364129992276
 30
0.0
 10
134.128680030274
 20
198.5447733988659
 30
0.0
  0
POLYLINE
  5
378
330
163
100
AcDbEntity
  8
Capa 1
 62
     7
370
     9
100
AcDb2dPolyline
 66
     1
 10
0.0
 20
0.0
 30
0.0
  0
VERTEX
  5
379
330
378
100
AcDbEntity
  8
Capa 1
 62
     7
370
     9
100
AcDbVertex
100
AcDb2dVertex
 10
155.8493323746709
 20
186.2609328330777
 30
0.0
  0
VERTEX
  5
37A
330
378
100
AcDbEntity
  8
Capa 1
 62
     7
370
     9
100
AcDbVertex
100
AcDb2dVertex
 10
155.8493323746709
 20
186.2609328330777
 30
0.0
  0
SEQEND
  5
37B
330
378
100
AcDbEntity
  8
Capa 1
370
     9
  0
POLYLINE
  5
37C
330
163
100
AcDbEntity
  8
Capa 1
 62
     7
370
     9
100
AcDb2dPolyline
 66
     1
 10
0.0
 20
0.0
 30
0.0
  0
VERTEX
  5
37D
330
37C
100
AcDbEntity
  8
Capa 1
 62
     7
370
     9
100
AcDbVertex
100
AcDb2dVertex
 10
155.8493323746709
 20
186.0211540291235
 30
0.0
  0
VERTEX
  5
37E
330
37C
100
AcDbEntity
  8
Capa 1
 62
     7
370
     9
100
AcDbVertex
100
AcDb2dVertex
 10
155.8493323746709
 20
158.0104421982402
 30
0.0
  0
SEQEND
  5
37F
330
37C
100
AcDbEntity
  8
Capa 1
370
     9
  0
POLYLINE
  5
380
330
163
100
AcDbEntity
  8
Capa 1
 62
     7
370
     9
100
AcDb2dPolyline
 66
     1
 10
0.0
 20
0.0
 30
0.0
  0
VERTEX
  5
381
330
380
100
AcDbEntity
  8
Capa 1
 62
     7
370
     9
100
AcDbVertex
100
AcDb2dVertex
 10
134.128680030274
 20
168.4008570362527
 30
0.0
  0
VERTEX
  5
382
330
380
100
AcDbEntity
  8
Capa 1
 62
     7
370
     9
100
AcDbVertex
100
AcDb2dVertex
 10
134.128680030274
 20
158.0104421982402
 30
0.0
  0
SEQEND
  5
383
330
380
100
AcDbEntity
  8
Capa 1
370
     9
  0
POLYLINE
  5
384
330
163
100
AcDbEntity
  8
Capa 1
 62
     7
370
     9
100
AcDb2dPolyline
 66
     1
 10
0.0
 20
0.0
 30
0.0
  0
VERTEX
  5
385
330
384
100
AcDbEntity
  8
Capa 1
 62
     7
370
     9
100
AcDbVertex
100
AcDb2dVertex
 10
153.3481914023907
 20
158.2515990412975
 30
0.0
  0
VERTEX
  5
386
330
384
100
AcDbEntity
  8
Capa 1
 62
     7
370
     9
100
AcDbVertex
100
AcDb2dVertex
 10
136.628442963451
 20
158.2515990412975
 30
0.0
  0
SEQEND
  5
387
330
384
100
AcDbEntity
  8
Capa 1
370
     9
  0
POLYLINE
  5
388
330
163
100
AcDbEntity
  8
Capa 1
370
     0
100
AcDb2dPolyline
 66
     1
 10
0.0
 20
0.0
 30
0.0
  0
VERTEX
  5
389
330
388
100
AcDbEntity
  8
Capa 1
370
     0
100
AcDbVertex
100
AcDb2dVertex
 10
152.7900855656009
 20
159.038459369216
 30
0.0
  0
VERTEX
  5
38A
330
388
100
AcDbEntity
  8
Capa 1
370
     0
100
AcDbVertex
100
AcDb2dVertex
 10
155.8493323746709
 20
158.2171480637179
 30
0.0
  0
VERTEX
  5
38B
330
388
100
AcDbEntity
  8
Capa 1
370
     0
100
AcDbVertex
100
AcDb2dVertex
 10
152.7900855656009
 20
157.3985928364262
 30
0.0
  0
VERTEX
  5
38C
330
388
100
AcDbEntity
  8
Capa 1
370
     0
100
AcDbVertex
100
AcDb2dVertex
 10
152.7900855656009
 20
159.038459369216
 30
0.0
  0
SEQEND
  5
38D
330
388
100
AcDbEntity
  8
Capa 1
370
     0
  0
HATCH
  5
38E
330
163
100
AcDbEntity
  8
Capa 1
 62
     7
100
AcDbHatch
 10
0.0
 20
0.0
 30
0.0
210
0.0
220
0.0
230
1.0
  2
SOLID
 70
     1
 71
     0
 91
        1
 92
        1
 93
        3
 72
     1
 10
152.7900855656009
 20
159.038459369216
 11
155.8493323746709
 21
158.2171480637179
 72
     1
 10
155.8493323746709
 20
158.2171480637179
 11
152.7900855656009
 21
157.3985928364262
 72
     1
 10
152.7900855656009
 20
157.3985928364262
 11
152.7900855656009
 21
159.038459369216
 97
        0
 75
     2
 76
     1
 98
        0
  0
POLYLINE
  5
38F
330
163
100
AcDbEntity
  8
Capa 1
370
     0
100
AcDb2dPolyline
 66
     1
 10
0.0
 20
0.0
 30
0.0
  0
VERTEX
  5
390
330
38F
100
AcDbEntity
  8
Capa 1
370
     0
100
AcDbVertex
100
AcDb2dVertex
 10
137.187926839344
 20
159.038459369216
 30
0.0
  0
VERTEX
  5
391
330
38F
100
AcDbEntity
  8
Capa 1
370
     0
100
AcDbVertex
100
AcDb2dVertex
 10
134.128680030274
 20
158.2171480637179
 30
0.0
  0
VERTEX
  5
392
330
38F
100
AcDbEntity
  8
Capa 1
370
     0
100
AcDbVertex
100
AcDb2dVertex
 10
137.187926839344
 20
157.3985928364262
 30
0.0
  0
VERTEX
  5
393
330
38F
100
AcDbEntity
  8
Capa 1
370
     0
100
AcDbVertex
100
AcDb2dVertex
 10
137.187926839344
 20
159.038459369216
 30
0.0
  0
SEQEND
  5
394
330
38F
100
AcDbEntity
  8
Capa 1
370
     0
  0
HATCH
  5
395
330
163
100
AcDbEntity
  8
Capa 1
 62
     7
100
AcDbHatch
 10
0.0
 20
0.0
 30
0.0
210
0.0
220
0.0
230
1.0
  2
SOLID
 70
     1
 71
     0
 91
        1
 92
        1
 93
        3
 72
     1
 10
137.187926839344
 20
159.038459369216
 11
134.128680030274
 21
158.2171480637179
 72
     1
 10
134.128680030274
 20
158.2171480637179
 11
137.187926839344
 21
157.3985928364262
 72
     1
 10
137.187926839344
 20
157.3985928364262
 11
137.187926839344
 21
159.038459369216
 97
        0
 75
     2
 76
     1
 98
        0
  0
ENDBLK
  5
166
330
163
100
AcDbEntity
  8
0
100
AcDbBlockEnd
  0
ENDSEC
  0
SECTION
  2
ENTITIES
  0
POLYLINE
  5
3C
330
1F
100
AcDbEntity
  8
Capa 1
 62
     7
370
     9
100
AcDb2dPolyline
 66
     1
 10
0.0
 20
0.0
 30
0.0
  0
VERTEX
  5
3D
330
3C
100
AcDbEntity
  8
Capa 1
 62
     7
370
     9
100
AcDbVertex
100
AcDb2dVertex
 10
113.8439444313956
 20
174.3512298838041
 30
0.0
  0
VERTEX
  5
3E
330
3C
100
AcDbEntity
  8
Capa 1
 62
     7
370
     9
100
AcDbVertex
100
AcDb2dVertex
 10
113.8439444313956
 20
174.4118636043442
 30
0.0
  0
SEQEND
  5
3F
330
3C
100
AcDbEntity
  8
Capa 1
370
     9
  0
POLYLINE
  5
40
330
1F
100
AcDbEntity
  8
Capa 1
 62
     7
370
     9
100
AcDb2dPolyline
 66
     1
 10
0.0
 20
0.0
 30
0.0
  0
VERTEX
  5
41
330
40
100
AcDbEntity
  8
Capa 1
 62
     7
370
     9
100
AcDbVertex
100
AcDb2dVertex
 10
113.8439444313956
 20
177.4125437515289
 30
0.0
  0
VERTEX
  5
42
330
40
100
AcDbEntity
  8
Capa 1
 62
     7
370
     9
100
AcDbVertex
100
AcDb2dVertex
 10
113.8439444313956
 20
177.4717994329658
 30
0.0
  0
SEQEND
  5
43
330
40
100
AcDbEntity
  8
Capa 1
370
     9
  0
POLYLINE
  5
44
330
1F
100
AcDbEntity
  8
Capa 1
 62
     7
370
     9
100
AcDb2dPolyline
 66
     1
 10
0.0
 20
0.0
 30
0.0
  0
VERTEX
  5
45
330
44
100
AcDbEntity
  8
Capa 1
 62
     7
370
     9
100
AcDbVertex
100
AcDb2dVertex
 10
113.8439444313956
 20
180.4724795801504
 30
0.0
  0
VERTEX
  5
46
330
44
100
AcDbEntity
  8
Capa 1
 62
     7
370
     9
100
AcDbVertex
100
AcDb2dVertex
 10
113.8439444313956
 20
180.5317352615874
 30
0.0
  0
SEQEND
  5
47
330
44
100
AcDbEntity
  8
Capa 1
370
     9
  0
POLYLINE
  5
48
330
1F
100
AcDbEntity
  8
Capa 1
 62
     7
370
     9
100
AcDb2dPolyline
 66
     1
 10
0.0
 20
0.0
 30
0.0
  0
VERTEX
  5
49
330
48
100
AcDbEntity
  8
Capa 1
 62
     7
370
     9
100
AcDbVertex
100
AcDb2dVertex
 10
113.8439444313956
 20
183.532415408772
 30
0.0
  0
VERTEX
  5
4A
330
48
100
AcDbEntity
  8
Capa 1
 62
     7
370
     9
100
AcDbVertex
100
AcDb2dVertex
 10
113.8439444313956
 20
183.591671090209
 30
0.0
  0
SEQEND
  5
4B
330
48
100
AcDbEntity
  8
Capa 1
370
     9
  0
POLYLINE
  5
4C
330
1F
100
AcDbEntity
  8
Capa 1
 62
     7
370
     9
100
AcDb2dPolyline
 66
     1
 10
0.0
 20
0.0
 30
0.0
  0
VERTEX
  5
4D
330
4C
100
AcDbEntity
  8
Capa 1
 62
     7
370
     9
100
AcDbVertex
100
AcDb2dVertex
 10
113.8439444313956
 20
186.5923512373936
 30
0.0
  0
VERTEX
  5
4E
330
4C
100
AcDbEntity
  8
Capa 1
 62
     7
370
     9
100
AcDbVertex
100
AcDb2dVertex
 10
113.8439444313956
 20
186.6516069188305
 30
0.0
  0
SEQEND
  5
4F
330
4C
100
AcDbEntity
  8
Capa 1
370
     9
  0
POLYLINE
  5
50
330
1F
100
AcDbEntity
  8
Capa 1
 62
     7
370
     9
100
AcDb2dPolyline
 66
     1
 10
0.0
 20
0.0
 30
0.0
  0
VERTEX
  5
51
330
50
100
AcDbEntity
  8
Capa 1
 62
     7
370
     9
100
AcDbVertex
100
AcDb2dVertex
 10
113.8439444313956
 20
189.6522870660152
 30
0.0
  0
VERTEX
  5
52
330
50
100
AcDbEntity
  8
Capa 1
 62
     7
370
     9
100
AcDbVertex
100
AcDb2dVertex
 10
113.8439444313956
 20
189.7115427474521
 30
0.0
  0
SEQEND
  5
53
330
50
100
AcDbEntity
  8
Capa 1
370
     9
  0
POLYLINE
  5
54
330
1F
100
AcDbEntity
  8
Capa 1
 62
     7
370
     9
100
AcDb2dPolyline
 66
     1
 10
0.0
 20
0.0
 30
0.0
  0
VERTEX
  5
55
330
54
100
AcDbEntity
  8
Capa 1
 62
     7
370
     9
100
AcDbVertex
100
AcDb2dVertex
 10
113.8439444313956
 20
192.7122228946367
 30
0.0
  0
VERTEX
  5
56
330
54
100
AcDbEntity
  8
Capa 1
 62
     7
370
     9
100
AcDbVertex
100
AcDb2dVertex
 10
113.8439444313956
 20
192.7728566151769
 30
0.0
  0
SEQEND
  5
57
330
54
100
AcDbEntity
  8
Capa 1
370
     9
  0
POLYLINE
  5
58
330
1F
100
AcDbEntity
  8
Capa 1
 62
     7
370
     9
100
AcDb2dPolyline
 66
     1
 10
0.0
 20
0.0
 30
0.0
  0
VERTEX
  5
59
330
58
100
AcDbEntity
  8
Capa 1
 62
     7
370
     9
100
AcDbVertex
100
AcDb2dVertex
 10
114.0230895148096
 20
168.3526256676412
 30
0.0
  0
VERTEX
  5
5A
330
58
100
AcDbEntity
  8
Capa 1
 62
     7
370
     9
100
AcDbVertex
100
AcDb2dVertex
 10
113.8797734480784
 20
168.3526256676412
 30
0.0
  0
SEQEND
  5
5B
330
58
100
AcDbEntity
  8
Capa 1
370
     9
  0
POLYLINE
  5
5C
330
1F
100
AcDbEntity
  8
Capa 1
 62
     7
370
     9
100
AcDb2dPolyline
 66
     1
 10
0.0
 20
0.0
 30
0.0
  0
VERTEX
  5
5D
330
5C
100
AcDbEntity
  8
Capa 1
 62
     7
370
     9
100
AcDbVertex
100
AcDb2dVertex
 10
114.0230895148096
 20
198.8334725909831
 30
0.0
  0
VERTEX
  5
5E
330
5C
100
AcDbEntity
  8
Capa 1
 62
     7
370
     9
100
AcDbVertex
100
AcDb2dVertex
 10
114.0230895148096
 20
168.3519366480896
 30
0.0
  0
SEQEND
  5
5F
330
5C
100
AcDbEntity
  8
Capa 1
370
     9
  0
POLYLINE
  5
60
330
1F
100
AcDbEntity
  8
Capa 1
 62
     7
370
     9
100
AcDb2dPolyline
 66
     1
 10
0.0
 20
0.0
 30
0.0
  0
VERTEX
  5
61
330
60
100
AcDbEntity
  8
Capa 1
 62
     7
370
     9
100
AcDbVertex
100
AcDb2dVertex
 10
113.8797734480784
 20
198.8334725909831
 30
0.0
  0
VERTEX
  5
62
330
60
100
AcDbEntity
  8
Capa 1
 62
     7
370
     9
100
AcDbVertex
100
AcDb2dVertex
 10
113.8797734480784
 20
168.3519366480896
 30
0.0
  0
SEQEND
  5
63
330
60
100
AcDbEntity
  8
Capa 1
370
     9
  0
INSERT
  5
65
330
1F
100
AcDbEntity
  8
Capa 1
100
AcDbBlockReference
  2
block 2
 10
0.0
 20
0.0
 30
0.0
  0
POLYLINE
  5
73
330
1F
100
AcDbEntity
  8
Capa 1
 62
     7
370
     9
100
AcDb2dPolyline
 66
     1
 10
0.0
 20
0.0
 30
0.0
  0
VERTEX
  5
74
330
73
100
AcDbEntity
  8
Capa 1
 62
     7
370
     9
100
AcDbVertex
100
AcDb2dVertex
 10
114.0230895148096
 20
195.8327924437984
 30
0.0
  0
VERTEX
  5
75
330
73
100
AcDbEntity
  8
Capa 1
 62
     7
370
     9
100
AcDbVertex
100
AcDb2dVertex
 10
113.8797734480784
 20
195.8327924437984
 30
0.0
  0
SEQEND
  5
76
330
73
100
AcDbEntity
  8
Capa 1
370
     9
  0
POLYLINE
  5
77
330
1F
100
AcDbEntity
  8
Capa 1
 62
     7
370
     9
100
AcDb2dPolyline
 66
     1
 10
0.0
 20
0.0
 30
0.0
  0
VERTEX
  5
78
330
77
100
AcDbEntity
  8
Capa 1
 62
     7
370
     9
100
AcDbVertex
100
AcDb2dVertex
 10
114.0230895148096
 20
192.7122228946367
 30
0.0
  0
VERTEX
  5
79
330
77
100
AcDbEntity
  8
Capa 1
 62
     7
370
     9
100
AcDbVertex
100
AcDb2dVertex
 10
113.8797734480784
 20
192.7122228946367
 30
0.0
  0
SEQEND
  5
7A
330
77
100
AcDbEntity
  8
Capa 1
370
     9
  0
POLYLINE
  5
7B
330
1F
100
AcDbEntity
  8
Capa 1
 62
     7
370
     9
100
AcDb2dPolyline
 66
     1
 10
0.0
 20
0.0
 30
0.0
  0
VERTEX
  5
7C
330
7B
100
AcDbEntity
  8
Capa 1
 62
     7
370
     9
100
AcDbVertex
100
AcDb2dVertex
 10
114.0230895148096
 20
177.4724884525174
 30
0.0
  0
VERTEX
  5
7D
330
7B
100
AcDbEntity
  8
Capa 1
 62
     7
370
     9
100
AcDbVertex
100
AcDb2dVertex
 10
113.8797734480784
 20
177.4724884525174
 30
0.0
  0
SEQEND
  5
7E
330
7B
100
AcDbEntity
  8
Capa 1
370
     9
  0
POLYLINE
  5
7F
330
1F
100
AcDbEntity
  8
Capa 1
 62
     7
370
     9
100
AcDb2dPolyline
 66
     1
 10
0.0
 20
0.0
 30
0.0
  0
VERTEX
  5
80
330
7F
100
AcDbEntity
  8
Capa 1
 62
     7
370
     9
100
AcDbVertex
100
AcDb2dVertex
 10
114.0230895148096
 20
183.5923601097605
 30
0.0
  0
VERTEX
  5
81
330
7F
100
AcDbEntity
  8
Capa 1
 62
     7
370
     9
100
AcDbVertex
100
AcDb2dVertex
 10
113.8797734480784
 20
183.5923601097605
 30
0.0
  0
SEQEND
  5
82
330
7F
100
AcDbEntity
  8
Capa 1
370
     9
  0
POLYLINE
  5
83
330
1F
100
AcDbEntity
  8
Capa 1
 62
     7
370
     9
100
AcDb2dPolyline
 66
     1
 10
0.0
 20
0.0
 30
0.0
  0
VERTEX
  5
84
330
83
100
AcDbEntity
  8
Capa 1
 62
     7
370
     9
100
AcDbVertex
100
AcDb2dVertex
 10
114.0230895148096
 20
171.3526167952743
 30
0.0
  0
VERTEX
  5
85
330
83
100
AcDbEntity
  8
Capa 1
 62
     7
370
     9
100
AcDbVertex
100
AcDb2dVertex
 10
113.8797734480784
 20
171.3526167952743
 30
0.0
  0
SEQEND
  5
86
330
83
100
AcDbEntity
  8
Capa 1
370
     9
  0
POLYLINE
  5
87
330
1F
100
AcDbEntity
  8
Capa 1
 62
     7
370
     9
100
AcDb2dPolyline
 66
     1
 10
0.0
 20
0.0
 30
0.0
  0
VERTEX
  5
88
330
87
100
AcDbEntity
  8
Capa 1
 62
     7
370
     9
100
AcDbVertex
100
AcDb2dVertex
 10
114.0230895148096
 20
189.7115427474521
 30
0.0
  0
VERTEX
  5
89
330
87
100
AcDbEntity
  8
Capa 1
 62
     7
370
     9
100
AcDbVertex
100
AcDb2dVertex
 10
113.8797734480784
 20
189.7115427474521
 30
0.0
  0
SEQEND
  5
8A
330
87
100
AcDbEntity
  8
Capa 1
370
     9
  0
POLYLINE
  5
8B
330
1F
100
AcDbEntity
  8
Capa 1
 62
     7
370
     9
100
AcDb2dPolyline
 66
     1
 10
0.0
 20
0.0
 30
0.0
  0
VERTEX
  5
8C
330
8B
100
AcDbEntity
  8
Capa 1
 62
     7
370
     9
100
AcDbVertex
100
AcDb2dVertex
 10
114.0230895148096
 20
186.5923512373936
 30
0.0
  0
VERTEX
  5
8D
330
8B
100
AcDbEntity
  8
Capa 1
 62
     7
370
     9
100
AcDbVertex
100
AcDb2dVertex
 10
113.8797734480784
 20
186.5923512373936
 30
0.0
  0
SEQEND
  5
8E
330
8B
100
AcDbEntity
  8
Capa 1
370
     9
  0
POLYLINE
  5
8F
330
1F
100
AcDbEntity
  8
Capa 1
 62
     7
370
     9
100
AcDb2dPolyline
 66
     1
 10
0.0
 20
0.0
 30
0.0
  0
VERTEX
  5
90
330
8F
100
AcDbEntity
  8
Capa 1
 62
     7
370
     9
100
AcDbVertex
100
AcDb2dVertex
 10
114.0230895148096
 20
174.3512298838041
 30
0.0
  0
VERTEX
  5
91
330
8F
100
AcDbEntity
  8
Capa 1
 62
     7
370
     9
100
AcDbVertex
100
AcDb2dVertex
 10
113.8797734480784
 20
174.3512298838041
 30
0.0
  0
SEQEND
  5
92
330
8F
100
AcDbEntity
  8
Capa 1
370
     9
  0
POLYLINE
  5
93
330
1F
100
AcDbEntity
  8
Capa 1
 62
     7
370
     9
100
AcDb2dPolyline
 66
     1
 10
0.0
 20
0.0
 30
0.0
  0
VERTEX
  5
94
330
93
100
AcDbEntity
  8
Capa 1
 62
     7
370
     9
100
AcDbVertex
100
AcDb2dVertex
 10
114.0230895148096
 20
180.4724795801504
 30
0.0
  0
VERTEX
  5
95
330
93
100
AcDbEntity
  8
Capa 1
 62
     7
370
     9
100
AcDbVertex
100
AcDb2dVertex
 10
113.8797734480784
 20
180.4724795801504
 30
0.0
  0
SEQEND
  5
96
330
93
100
AcDbEntity
  8
Capa 1
370
     9
  0
POLYLINE
  5
97
330
1F
100
AcDbEntity
  8
Capa 1
 62
     7
370
     9
100
AcDb2dPolyline
 66
     1
 10
0.0
 20
0.0
 30
0.0
  0
VERTEX
  5
98
330
97
100
AcDbEntity
  8
Capa 1
 62
     7
370
     9
100
AcDbVertex
100
AcDb2dVertex
 10
113.8549687442211
 20
171.3526167952743
 30
0.0
  0
VERTEX
  5
99
330
97
100
AcDbEntity
  8
Capa 1
 62
     7
370
     9
100
AcDbVertex
100
AcDb2dVertex
 10
113.8797734480784
 20
171.3526167952743
 30
0.0
  0
SEQEND
  5
9A
330
97
100
AcDbEntity
  8
Capa 1
370
     9
  0
POLYLINE
  5
9B
330
1F
100
AcDbEntity
  8
Capa 1
 62
     7
370
     9
100
AcDb2dPolyline
 66
     1
 10
0.0
 20
0.0
 30
0.0
  0
VERTEX
  5
9C
330
9B
100
AcDbEntity
  8
Capa 1
 62
     7
370
     9
100
AcDbVertex
100
AcDb2dVertex
 10
113.735079342244
 20
174.3512298838041
 30
0.0
  0
VERTEX
  5
9D
330
9B
100
AcDbEntity
  8
Capa 1
 62
     7
370
     9
100
AcDbVertex
100
AcDb2dVertex
 10
113.8522126660147
 20
174.3512298838041
 30
0.0
  0
SEQEND
  5
9E
330
9B
100
AcDbEntity
  8
Capa 1
370
     9
  0
POLYLINE
  5
9F
330
1F
100
AcDbEntity
  8
Capa 1
 62
     7
370
     9
100
AcDb2dPolyline
 66
     1
 10
0.0
 20
0.0
 30
0.0
  0
VERTEX
  5
A0
330
9F
100
AcDbEntity
  8
Capa 1
 62
     7
370
     9
100
AcDbVertex
100
AcDb2dVertex
 10
113.8522126660147
 20
174.3512298838041
 30
0.0
  0
VERTEX
  5
A1
330
9F
100
AcDbEntity
  8
Capa 1
 62
     7
370
     9
100
AcDbVertex
100
AcDb2dVertex
 10
113.8522126660147
 20
171.4725061972513
 30
0.0
  0
SEQEND
  5
A2
330
9F
100
AcDbEntity
  8
Capa 1
370
     9
  0
POLYLINE
  5
A3
330
1F
100
AcDbEntity
  8
Capa 1
 62
     7
370
     9
100
AcDb2dPolyline
 66
     1
 10
0.0
 20
0.0
 30
0.0
  0
VERTEX
  5
A4
330
A3
100
AcDbEntity
  8
Capa 1
 62
     7
370
     9
100
AcDbVertex
100
AcDb2dVertex
 10
113.735079342244
 20
180.4724795801504
 30
0.0
  0
VERTEX
  5
A5
330
A3
100
AcDbEntity
  8
Capa 1
 62
     7
370
     9
100
AcDbVertex
100
AcDb2dVertex
 10
113.8522126660147
 20
180.4724795801504
 30
0.0
  0
SEQEND
  5
A6
330
A3
100
AcDbEntity
  8
Capa 1
370
     9
  0
POLYLINE
  5
A7
330
1F
100
AcDbEntity
  8
Capa 1
 62
     7
370
     9
100
AcDb2dPolyline
 66
     1
 10
0.0
 20
0.0
 30
0.0
  0
VERTEX
  5
A8
330
A7
100
AcDbEntity
  8
Capa 1
 62
     7
370
     9
100
AcDbVertex
100
AcDb2dVertex
 10
113.8522126660147
 20
180.4724795801504
 30
0.0
  0
VERTEX
  5
A9
330
A7
100
AcDbEntity
  8
Capa 1
 62
     7
370
     9
100
AcDbVertex
100
AcDb2dVertex
 10
113.8522126660147
 20
177.4724884525174
 30
0.0
  0
SEQEND
  5
AA
330
A7
100
AcDbEntity
  8
Capa 1
370
     9
  0
POLYLINE
  5
AB
330
1F
100
AcDbEntity
  8
Capa 1
 62
     7
370
     9
100
AcDb2dPolyline
 66
     1
 10
0.0
 20
0.0
 30
0.0
  0
VERTEX
  5
AC
330
AB
100
AcDbEntity
  8
Capa 1
 62
     7
370
     9
100
AcDbVertex
100
AcDb2dVertex
 10
113.8522126660147
 20
177.4724884525174
 30
0.0
  0
VERTEX
  5
AD
330
AB
100
AcDbEntity
  8
Capa 1
 62
     7
370
     9
100
AcDbVertex
100
AcDb2dVertex
 10
113.735079342244
 20
177.4724884525174
 30
0.0
  0
SEQEND
  5
AE
330
AB
100
AcDbEntity
  8
Capa 1
370
     9
  0
POLYLINE
  5
AF
330
1F
100
AcDbEntity
  8
Capa 1
 62
     7
370
     9
100
AcDb2dPolyline
 66
     1
 10
0.0
 20
0.0
 30
0.0
  0
VERTEX
  5
B0
330
AF
100
AcDbEntity
  8
Capa 1
 62
     7
370
     9
100
AcDbVertex
100
AcDb2dVertex
 10
113.8522126660147
 20
177.4724884525174
 30
0.0
  0
VERTEX
  5
B1
330
AF
100
AcDbEntity
  8
Capa 1
 62
     7
370
     9
100
AcDbVertex
100
AcDb2dVertex
 10
113.8811514871816
 20
177.4724884525174
 30
0.0
  0
SEQEND
  5
B2
330
AF
100
AcDbEntity
  8
Capa 1
370
     9
  0
POLYLINE
  5
B3
330
1F
100
AcDbEntity
  8
Capa 1
 62
     7
370
     9
100
AcDb2dPolyline
 66
     1
 10
0.0
 20
0.0
 30
0.0
  0
VERTEX
  5
B4
330
B3
100
AcDbEntity
  8
Capa 1
 62
     7
370
     9
100
AcDbVertex
100
AcDb2dVertex
 10
113.8797734480784
 20
174.3512298838041
 30
0.0
  0
VERTEX
  5
B5
330
B3
100
AcDbEntity
  8
Capa 1
 62
     7
370
     9
100
AcDbVertex
100
AcDb2dVertex
 10
113.8522126660147
 20
174.3512298838041
 30
0.0
  0
SEQEND
  5
B6
330
B3
100
AcDbEntity
  8
Capa 1
370
     9
  0
POLYLINE
  5
B7
330
1F
100
AcDbEntity
  8
Capa 1
 62
     7
370
     9
100
AcDb2dPolyline
 66
     1
 10
0.0
 20
0.0
 30
0.0
  0
VERTEX
  5
B8
330
B7
100
AcDbEntity
  8
Capa 1
 62
     7
370
     9
100
AcDbVertex
100
AcDb2dVertex
 10
113.8797734480784
 20
180.4724795801504
 30
0.0
  0
VERTEX
  5
B9
330
B7
100
AcDbEntity
  8
Capa 1
 62
     7
370
     9
100
AcDbVertex
100
AcDb2dVertex
 10
113.8522126660147
 20
180.4724795801504
 30
0.0
  0
SEQEND
  5
BA
330
B7
100
AcDbEntity
  8
Capa 1
370
     9
  0
POLYLINE
  5
BB
330
1F
100
AcDbEntity
  8
Capa 1
 62
     7
370
     9
100
AcDb2dPolyline
 66
     1
 10
0.0
 20
0.0
 30
0.0
  0
VERTEX
  5
BC
330
BB
100
AcDbEntity
  8
Capa 1
 62
     7
370
     9
100
AcDbVertex
100
AcDb2dVertex
 10
113.8522126660147
 20
183.5923601097605
 30
0.0
  0
VERTEX
  5
BD
330
BB
100
AcDbEntity
  8
Capa 1
 62
     7
370
     9
100
AcDbVertex
100
AcDb2dVertex
 10
113.735079342244
 20
183.5923601097605
 30
0.0
  0
SEQEND
  5
BE
330
BB
100
AcDbEntity
  8
Capa 1
370
     9
  0
POLYLINE
  5
BF
330
1F
100
AcDbEntity
  8
Capa 1
 62
     7
370
     9
100
AcDb2dPolyline
 66
     1
 10
0.0
 20
0.0
 30
0.0
  0
VERTEX
  5
C0
330
BF
100
AcDbEntity
  8
Capa 1
 62
     7
370
     9
100
AcDbVertex
100
AcDb2dVertex
 10
113.8522126660147
 20
183.5923601097605
 30
0.0
  0
VERTEX
  5
C1
330
BF
100
AcDbEntity
  8
Capa 1
 62
     7
370
     9
100
AcDbVertex
100
AcDb2dVertex
 10
113.8811514871816
 20
183.5923601097605
 30
0.0
  0
SEQEND
  5
C2
330
BF
100
AcDbEntity
  8
Capa 1
370
     9
  0
POLYLINE
  5
C3
330
1F
100
AcDbEntity
  8
Capa 1
 62
     7
370
     9
100
AcDb2dPolyline
 66
     1
 10
0.0
 20
0.0
 30
0.0
  0
VERTEX
  5
C4
330
C3
100
AcDbEntity
  8
Capa 1
 62
     7
370
     9
100
AcDbVertex
100
AcDb2dVertex
 10
113.735079342244
 20
186.5923512373936
 30
0.0
  0
VERTEX
  5
C5
330
C3
100
AcDbEntity
  8
Capa 1
 62
     7
370
     9
100
AcDbVertex
100
AcDb2dVertex
 10
113.8522126660147
 20
186.5923512373936
 30
0.0
  0
SEQEND
  5
C6
330
C3
100
AcDbEntity
  8
Capa 1
370
     9
  0
POLYLINE
  5
C7
330
1F
100
AcDbEntity
  8
Capa 1
 62
     7
370
     9
100
AcDb2dPolyline
 66
     1
 10
0.0
 20
0.0
 30
0.0
  0
VERTEX
  5
C8
330
C7
100
AcDbEntity
  8
Capa 1
 62
     7
370
     9
100
AcDbVertex
100
AcDb2dVertex
 10
113.8522126660147
 20
186.5923512373936
 30
0.0
  0
VERTEX
  5
C9
330
C7
100
AcDbEntity
  8
Capa 1
 62
     7
370
     9
100
AcDbVertex
100
AcDb2dVertex
 10
113.8522126660147
 20
183.5923601097605
 30
0.0
  0
SEQEND
  5
CA
330
C7
100
AcDbEntity
  8
Capa 1
370
     9
  0
POLYLINE
  5
CB
330
1F
100
AcDbEntity
  8
Capa 1
 62
     7
370
     9
100
AcDb2dPolyline
 66
     1
 10
0.0
 20
0.0
 30
0.0
  0
VERTEX
  5
CC
330
CB
100
AcDbEntity
  8
Capa 1
 62
     7
370
     9
100
AcDbVertex
100
AcDb2dVertex
 10
113.735079342244
 20
192.7122228946367
 30
0.0
  0
VERTEX
  5
CD
330
CB
100
AcDbEntity
  8
Capa 1
 62
     7
370
     9
100
AcDbVertex
100
AcDb2dVertex
 10
113.8522126660147
 20
192.7122228946367
 30
0.0
  0
SEQEND
  5
CE
330
CB
100
AcDbEntity
  8
Capa 1
370
     9
  0
POLYLINE
  5
CF
330
1F
100
AcDbEntity
  8
Capa 1
 62
     7
370
     9
100
AcDb2dPolyline
 66
     1
 10
0.0
 20
0.0
 30
0.0
  0
VERTEX
  5
D0
330
CF
100
AcDbEntity
  8
Capa 1
 62
     7
370
     9
100
AcDbVertex
100
AcDb2dVertex
 10
113.8522126660147
 20
192.7122228946367
 30
0.0
  0
VERTEX
  5
D1
330
CF
100
AcDbEntity
  8
Capa 1
 62
     7
370
     9
100
AcDbVertex
100
AcDb2dVertex
 10
113.8522126660147
 20
189.7122317670037
 30
0.0
  0
SEQEND
  5
D2
330
CF
100
AcDbEntity
  8
Capa 1
370
     9
  0
POLYLINE
  5
D3
330
1F
100
AcDbEntity
  8
Capa 1
 62
     7
370
     9
100
AcDb2dPolyline
 66
     1
 10
0.0
 20
0.0
 30
0.0
  0
VERTEX
  5
D4
330
D3
100
AcDbEntity
  8
Capa 1
 62
     7
370
     9
100
AcDbVertex
100
AcDb2dVertex
 10
113.8522126660147
 20
189.7115427474521
 30
0.0
  0
VERTEX
  5
D5
330
D3
100
AcDbEntity
  8
Capa 1
 62
     7
370
     9
100
AcDbVertex
100
AcDb2dVertex
 10
113.735079342244
 20
189.7115427474521
 30
0.0
  0
SEQEND
  5
D6
330
D3
100
AcDbEntity
  8
Capa 1
370
     9
  0
POLYLINE
  5
D7
330
1F
100
AcDbEntity
  8
Capa 1
 62
     7
370
     9
100
AcDb2dPolyline
 66
     1
 10
0.0
 20
0.0
 30
0.0
  0
VERTEX
  5
D8
330
D7
100
AcDbEntity
  8
Capa 1
 62
     7
370
     9
100
AcDbVertex
100
AcDb2dVertex
 10
113.8522126660147
 20
189.7115427474521
 30
0.0
  0
VERTEX
  5
D9
330
D7
100
AcDbEntity
  8
Capa 1
 62
     7
370
     9
100
AcDbVertex
100
AcDb2dVertex
 10
113.8811514871816
 20
189.7115427474521
 30
0.0
  0
SEQEND
  5
DA
330
D7
100
AcDbEntity
  8
Capa 1
370
     9
  0
INSERT
  5
DC
330
1F
100
AcDbEntity
  8
Capa 1
100
AcDbBlockReference
  2
block 3
 10
0.0
 20
0.0
 30
0.0
  0
POLYLINE
  5
EA
330
1F
100
AcDbEntity
  8
Capa 1
 62
     7
370
     9
100
AcDb2dPolyline
 66
     1
 10
0.0
 20
0.0
 30
0.0
  0
VERTEX
  5
EB
330
EA
100
AcDbEntity
  8
Capa 1
 62
     7
370
     9
100
AcDbVertex
100
AcDb2dVertex
 10
113.8522126660147
 20
198.8334725909831
 30
0.0
  0
VERTEX
  5
EC
330
EA
100
AcDbEntity
  8
Capa 1
 62
     7
370
     9
100
AcDbVertex
100
AcDb2dVertex
 10
113.8522126660147
 20
198.7335647560022
 30
0.0
  0
SEQEND
  5
ED
330
EA
100
AcDbEntity
  8
Capa 1
370
     9
  0
POLYLINE
  5
EE
330
1F
100
AcDbEntity
  8
Capa 1
 62
     7
370
     9
100
AcDb2dPolyline
 66
     1
 10
0.0
 20
0.0
 30
0.0
  0
VERTEX
  5
EF
330
EE
100
AcDbEntity
  8
Capa 1
 62
     7
370
     9
100
AcDbVertex
100
AcDb2dVertex
 10
113.8797734480784
 20
186.5923512373936
 30
0.0
  0
VERTEX
  5
F0
330
EE
100
AcDbEntity
  8
Capa 1
 62
     7
370
     9
100
AcDbVertex
100
AcDb2dVertex
 10
113.8522126660147
 20
186.5923512373936
 30
0.0
  0
SEQEND
  5
F1
330
EE
100
AcDbEntity
  8
Capa 1
370
     9
  0
INSERT
  5
F3
330
1F
100
AcDbEntity
  8
Capa 1
100
AcDbBlockReference
  2
block 4
 10
0.0
 20
0.0
 30
0.0
  0
POLYLINE
  5
101
330
1F
100
AcDbEntity
  8
Capa 1
 62
     7
370
     9
100
AcDb2dPolyline
 66
     1
 10
0.0
 20
0.0
 30
0.0
  0
VERTEX
  5
102
330
101
100
AcDbEntity
  8
Capa 1
 62
     7
370
     9
100
AcDbVertex
100
AcDb2dVertex
 10
113.8549687442211
 20
195.8327924437984
 30
0.0
  0
VERTEX
  5
103
330
101
100
AcDbEntity
  8
Capa 1
 62
     7
370
     9
100
AcDbVertex
100
AcDb2dVertex
 10
113.8797734480784
 20
195.8327924437984
 30
0.0
  0
SEQEND
  5
104
330
101
100
AcDbEntity
  8
Capa 1
370
     9
  0
POLYLINE
  5
105
330
1F
100
AcDbEntity
  8
Capa 1
 62
     7
370
     9
100
AcDb2dPolyline
 66
     1
 10
0.0
 20
0.0
 30
0.0
  0
VERTEX
  5
106
330
105
100
AcDbEntity
  8
Capa 1
 62
     7
370
     9
100
AcDbVertex
100
AcDb2dVertex
 10
113.8797734480784
 20
192.7122228946367
 30
0.0
  0
VERTEX
  5
107
330
105
100
AcDbEntity
  8
Capa 1
 62
     7
370
     9
100
AcDbVertex
100
AcDb2dVertex
 10
113.8522126660147
 20
192.7122228946367
 30
0.0
  0
SEQEND
  5
108
330
105
100
AcDbEntity
  8
Capa 1
370
     9
  0
POLYLINE
  5
109
330
1F
100
AcDbEntity
  8
Capa 1
 62
     7
370
     9
100
AcDb2dPolyline
 66
     1
 10
0.0
 20
0.0
 30
0.0
  0
VERTEX
  5
10A
330
109
100
AcDbEntity
  8
Capa 1
 62
     7
370
     9
100
AcDbVertex
100
AcDb2dVertex
 10
52.5597894345667
 20
198.6164314322315
 30
0.0
  0
VERTEX
  5
10B
330
109
100
AcDbEntity
  8
Capa 1
 62
     7
370
     9
100
AcDbVertex
100
AcDb2dVertex
 10
52.5597894345667
 20
198.6880894655971
 30
0.0
  0
SEQEND
  5
10C
330
109
100
AcDbEntity
  8
Capa 1
370
     9
  0
POLYLINE
  5
10D
330
1F
100
AcDbEntity
  8
Capa 1
 62
     7
370
     9
100
AcDb2dPolyline
 66
     1
 10
0.0
 20
0.0
 30
0.0
  0
VERTEX
  5
10E
330
10D
100
AcDbEntity
  8
Capa 1
 62
     7
370
     9
100
AcDbVertex
100
AcDb2dVertex
 10
52.48744238164951
 20
198.6164314322315
 30
0.0
  0
VERTEX
  5
10F
330
10D
100
AcDbEntity
  8
Capa 1
 62
     7
370
     9
100
AcDbVertex
100
AcDb2dVertex
 10
52.55910041501511
 20
198.6164314322315
 30
0.0
  0
SEQEND
  5
110
330
10D
100
AcDbEntity
  8
Capa 1
370
     9
  0
INSERT
  5
112
330
1F
100
AcDbEntity
  8
Capa 1
100
AcDbBlockReference
  2
block 5
 10
0.0
 20
0.0
 30
0.0
  0
POLYLINE
  5
120
330
1F
100
AcDbEntity
  8
Capa 1
 62
     7
370
     9
100
AcDb2dPolyline
 66
     1
 10
0.0
 20
0.0
 30
0.0
  0
VERTEX
  5
121
330
120
100
AcDbEntity
  8
Capa 1
 62
     7
370
     9
100
AcDbVertex
100
AcDb2dVertex
 10
113.735079342244
 20
198.8334725909831
 30
0.0
  0
VERTEX
  5
122
330
120
100
AcDbEntity
  8
Capa 1
 62
     7
370
     9
100
AcDbVertex
100
AcDb2dVertex
 10
113.735079342244
 20
168.3519366480896
 30
0.0
  0
SEQEND
  5
123
330
120
100
AcDbEntity
  8
Capa 1
370
     9
  0
POLYLINE
  5
124
330
1F
100
AcDbEntity
  8
Capa 1
 62
     7
370
     9
100
AcDb2dPolyline
 66
     1
 10
0.0
 20
0.0
 30
0.0
  0
VERTEX
  5
125
330
124
100
AcDbEntity
  8
Capa 1
 62
     7
370
     9
100
AcDbVertex
100
AcDb2dVertex
 10
113.6399946441243
 20
168.3526256676412
 30
0.0
  0
VERTEX
  5
126
330
124
100
AcDbEntity
  8
Capa 1
 62
     7
370
     9
100
AcDbVertex
100
AcDb2dVertex
 10
113.735079342244
 20
168.3526256676412
 30
0.0
  0
SEQEND
  5
127
330
124
100
AcDbEntity
  8
Capa 1
370
     9
  0
POLYLINE
  5
128
330
1F
100
AcDbEntity
  8
Capa 1
 62
     7
370
     9
100
AcDb2dPolyline
 66
     1
 10
0.0
 20
0.0
 30
0.0
  0
VERTEX
  5
129
330
128
100
AcDbEntity
  8
Capa 1
 62
     7
370
     9
100
AcDbVertex
100
AcDb2dVertex
 10
113.6399946441243
 20
168.3526256676412
 30
0.0
  0
VERTEX
  5
12A
330
128
100
AcDbEntity
  8
Capa 1
 62
     7
370
     9
100
AcDbVertex
100
AcDb2dVertex
 10
113.6399946441243
 20
168.5682887872896
 30
0.0
  0
SEQEND
  5
12B
330
128
100
AcDbEntity
  8
Capa 1
370
     9
  0
POLYLINE
  5
12C
330
1F
100
AcDbEntity
  8
Capa 1
 62
     7
370
     9
100
AcDb2dPolyline
 66
     1
 10
0.0
 20
0.0
 30
0.0
  0
VERTEX
  5
12D
330
12C
100
AcDbEntity
  8
Capa 1
 62
     7
370
     9
100
AcDbVertex
100
AcDb2dVertex
 10
113.6399946441243
 20
168.5682887872896
 30
0.0
  0
VERTEX
  5
12E
330
12C
100
AcDbEntity
  8
Capa 1
 62
     7
370
     9
100
AcDbVertex
100
AcDb2dVertex
 10
113.5669585716555
 20
168.5682887872896
 30
0.0
  0
SEQEND
  5
12F
330
12C
100
AcDbEntity
  8
Capa 1
370
     9
  0
POLYLINE
  5
130
330
1F
100
AcDbEntity
  8
Capa 1
 62
     7
370
     9
100
AcDb2dPolyline
 66
     1
 10
0.0
 20
0.0
 30
0.0
  0
VERTEX
  5
131
330
130
100
AcDbEntity
  8
Capa 1
 62
     7
370
     9
100
AcDbVertex
100
AcDb2dVertex
 10
113.5669585716555
 20
168.5682887872896
 30
0.0
  0
VERTEX
  5
132
330
130
100
AcDbEntity
  8
Capa 1
 62
     7
370
     9
100
AcDbVertex
100
AcDb2dVertex
 10
113.5669585716555
 20
168.496630753924
 30
0.0
  0
SEQEND
  5
133
330
130
100
AcDbEntity
  8
Capa 1
370
     9
  0
POLYLINE
  5
134
330
1F
100
AcDbEntity
  8
Capa 1
 62
     7
370
     9
100
AcDb2dPolyline
 66
     1
 10
0.0
 20
0.0
 30
0.0
  0
VERTEX
  5
135
330
134
100
AcDbEntity
  8
Capa 1
 62
     7
370
     9
100
AcDbVertex
100
AcDb2dVertex
 10
52.5597894345667
 20
168.496630753924
 30
0.0
  0
VERTEX
  5
136
330
134
100
AcDbEntity
  8
Capa 1
 62
     7
370
     9
100
AcDbVertex
100
AcDb2dVertex
 10
52.5597894345667
 20
168.5682887872896
 30
0.0
  0
SEQEND
  5
137
330
134
100
AcDbEntity
  8
Capa 1
370
     9
  0
POLYLINE
  5
138
330
1F
100
AcDbEntity
  8
Capa 1
 62
     7
370
     9
100
AcDb2dPolyline
 66
     1
 10
0.0
 20
0.0
 30
0.0
  0
VERTEX
  5
139
330
138
100
AcDbEntity
  8
Capa 1
 62
     7
370
     9
100
AcDbVertex
100
AcDb2dVertex
 10
52.5597894345667
 20
168.5682887872896
 30
0.0
  0
VERTEX
  5
13A
330
138
100
AcDbEntity
  8
Capa 1
 62
     7
370
     9
100
AcDbVertex
100
AcDb2dVertex
 10
52.4881314012011
 20
168.5682887872896
 30
0.0
  0
SEQEND
  5
13B
330
138
100
AcDbEntity
  8
Capa 1
370
     9
  0
POLYLINE
  5
13C
330
1F
100
AcDbEntity
  8
Capa 1
 62
     7
370
     9
100
AcDb2dPolyline
 66
     1
 10
0.0
 20
0.0
 30
0.0
  0
VERTEX
  5
13D
330
13C
100
AcDbEntity
  8
Capa 1
 62
     7
370
     9
100
AcDbVertex
100
AcDb2dVertex
 10
52.48744238164951
 20
168.5682887872896
 30
0.0
  0
VERTEX
  5
13E
330
13C
100
AcDbEntity
  8
Capa 1
 62
     7
370
     9
100
AcDbVertex
100
AcDb2dVertex
 10
52.48744238164951
 20
168.3526256676412
 30
0.0
  0
SEQEND
  5
13F
330
13C
100
AcDbEntity
  8
Capa 1
370
     9
  0
POLYLINE
  5
140
330
1F
100
AcDbEntity
  8
Capa 1
 62
     7
370
     9
100
AcDb2dPolyline
 66
     1
 10
0.0
 20
0.0
 30
0.0
  0
VERTEX
  5
141
330
140
100
AcDbEntity
  8
Capa 1
 62
     7
370
     9
100
AcDbVertex
100
AcDb2dVertex
 10
52.39166866397817
 20
168.3526256676412
 30
0.0
  0
VERTEX
  5
142
330
140
100
AcDbEntity
  8
Capa 1
 62
     7
370
     9
100
AcDbVertex
100
AcDb2dVertex
 10
52.48744238164951
 20
168.3526256676412
 30
0.0
  0
SEQEND
  5
143
330
140
100
AcDbEntity
  8
Capa 1
370
     9
  0
INSERT
  5
145
330
1F
100
AcDbEntity
  8
Capa 1
100
AcDbBlockReference
  2
block 6
 10
0.0
 20
0.0
 30
0.0
  0
POLYLINE
  5
153
330
1F
100
AcDbEntity
  8
Capa 1
 62
     7
370
     9
100
AcDb2dPolyline
 66
     1
 10
0.0
 20
0.0
 30
0.0
  0
VERTEX
  5
154
330
153
100
AcDbEntity
  8
Capa 1
 62
     7
370
     9
100
AcDbVertex
100
AcDb2dVertex
 10
52.48744238164951
 20
198.8334725909831
 30
0.0
  0
VERTEX
  5
155
330
153
100
AcDbEntity
  8
Capa 1
 62
     7
370
     9
100
AcDbVertex
100
AcDb2dVertex
 10
52.48744238164951
 20
198.6164314322315
 30
0.0
  0
SEQEND
  5
156
330
153
100
AcDbEntity
  8
Capa 1
370
     9
  0
POLYLINE
  5
157
330
1F
100
AcDbEntity
  8
Capa 1
 62
     7
370
     9
100
AcDb2dPolyline
 66
     1
 10
0.0
 20
0.0
 30
0.0
  0
VERTEX
  5
158
330
157
100
AcDbEntity
  8
Capa 1
 62
     7
370
     9
100
AcDbVertex
100
AcDb2dVertex
 10
113.5669585716555
 20
198.6887784851487
 30
0.0
  0
VERTEX
  5
159
330
157
100
AcDbEntity
  8
Capa 1
 62
     7
370
     9
100
AcDbVertex
100
AcDb2dVertex
 10
113.5669585716555
 20
198.6171204517831
 30
0.0
  0
SEQEND
  5
15A
330
157
100
AcDbEntity
  8
Capa 1
370
     9
  0
POLYLINE
  5
15B
330
1F
100
AcDbEntity
  8
Capa 1
 62
     7
370
     9
100
AcDb2dPolyline
 66
     1
 10
0.0
 20
0.0
 30
0.0
  0
VERTEX
  5
15C
330
15B
100
AcDbEntity
  8
Capa 1
 62
     7
370
     9
100
AcDbVertex
100
AcDb2dVertex
 10
113.5669585716555
 20
198.6164314322315
 30
0.0
  0
VERTEX
  5
15D
330
15B
100
AcDbEntity
  8
Capa 1
 62
     7
370
     9
100
AcDbVertex
100
AcDb2dVertex
 10
113.6399946441243
 20
198.6164314322315
 30
0.0
  0
SEQEND
  5
15E
330
15B
100
AcDbEntity
  8
Capa 1
370
     9
  0
POLYLINE
  5
15F
330
1F
100
AcDbEntity
  8
Capa 1
 62
     7
370
     9
100
AcDb2dPolyline
 66
     1
 10
0.0
 20
0.0
 30
0.0
  0
VERTEX
  5
160
330
15F
100
AcDbEntity
  8
Capa 1
 62
     7
370
     9
100
AcDbVertex
100
AcDb2dVertex
 10
113.6399946441243
 20
198.6164314322315
 30
0.0
  0
VERTEX
  5
161
330
15F
100
AcDbEntity
  8
Capa 1
 62
     7
370
     9
100
AcDbVertex
100
AcDb2dVertex
 10
113.6399946441243
 20
198.8334725909831
 30
0.0
  0
SEQEND
  5
162
330
15F
100
AcDbEntity
  8
Capa 1
370
     9
  0
INSERT
  5
164
330
1F
100
AcDbEntity
  8
Capa 1
100
AcDbBlockReference
  2
block 7
 10
0.0
 20
0.0
 30
0.0
  0
MTEXT
  5
396
330
1F
100
AcDbEntity
  8
Capa 1
 62
     7
100
AcDbMText
 10
140.277490508684
 20
159.4367126700364
 30
0.0
 40
2.398890470823883
 41
0.0
 71
     7
 72
     1
  1
\fArial|b1|i0|c0|p34;\W1;90.5
 73
     1
 44
1.0
  0
ENDSEC
  0
SECTION
  2
OBJECTS
  0
DICTIONARY
  5
C
330
0
100
AcDbDictionary
281
     1
  3
ACAD_GROUP
350
D
  3
ACAD_LAYOUT
350
1A
  3
ACAD_MLINESTYLE
350
17
  3
ACAD_PLOTSETTINGS
350
19
  3
ACAD_PLOTSTYLENAME
350
E
  3
ACAD_TABLESTYLE
350
397
  3
ACAD_VISUALSTYLE
350
2A
  0
DICTIONARY
  5
D
102
{ACAD_REACTORS
330
C
102
}
330
C
100
AcDbDictionary
281
     1
  0
DICTIONARY
  5
1A
102
{ACAD_REACTORS
330
C
102
}
330
C
100
AcDbDictionary
281
     1
  3
Layout1
350
1E
  3
Layout2
350
26
  3
Model
350
22
  0
DICTIONARY
  5
17
102
{ACAD_REACTORS
330
C
102
}
330
C
100
AcDbDictionary
281
     1
  3
Standard
350
18
  0
DICTIONARY
  5
19
102
{ACAD_REACTORS
330
C
102
}
330
C
100
AcDbDictionary
281
     1
  0
ACDBDICTIONARYWDFLT
  5
E
102
{ACAD_REACTORS
330
C
102
}
330
C
100
AcDbDictionary
281
     1
  3
Normal
350
F
100
AcDbDictionaryWithDefault
340
F
  0
DICTIONARY
  5
397
102
{ACAD_REACTORS
330
C
102
}
330
C
100
AcDbDictionary
281
     1
  0
DICTIONARY
  5
2A
102
{ACAD_REACTORS
330
C
102
}
330
C
100
AcDbDictionary
281
     1
  3
2dWireframe
350
2F
  3
3D Hidden
350
31
  3
3dWireframe
350
30
  3
Basic
350
32
  3
Brighten
350
36
  3
ColorChange
350
3A
  3
Conceptual
350
34
  3
Dim
350
35
  3
Facepattern
350
39
  3
Flat
350
2B
  3
FlatWithEdges
350
2C
  3
Gouraud
350
2D
  3
GouraudWithEdges
350
2E
  3
Linepattern
350
38
  3
Realistic
350
33
  3
Thicken
350
37
  0
LAYOUT
  5
1E
102
{ACAD_REACTORS
330
1A
102
}
330
1A
100
AcDbPlotSettings
  1

  2
none_device
  4

  6

 40
0.0
 41
0.0
 42
0.0
 43
0.0
 44
0.0
 45
0.0
 46
0.0
 47
0.0
 48
0.0
 49
0.0
140
0.0
141
0.0
142
1.0
143
1.0
 70
   688
 72
     0
 73
     0
 74
     5
  7

 75
    16
 76
     0
 77
     2
 78
   300
147
1.0
148
0.0
149
0.0
100
AcDbLayout
  1
Layout1
 70
     1
 71
     1
 10
0.0
 20
0.0
 11
12.0
 21
9.0
 12
0.0
 22
0.0
 32
0.0
 14
1.000000000000000E+20
 24
1.000000000000000E+20
 34
1.000000000000000E+20
 15
-1.000000000000000E+20
 25
-1.000000000000000E+20
 35
-1.000000000000000E+20
146
0.0
 13
0.0
 23
0.0
 33
0.0
 16
1.0
 26
0.0
 36
0.0
 17
0.0
 27
1.0
 37
0.0
 76
     0
330
1B
  0
LAYOUT
  5
26
102
{ACAD_REACTORS
330
1A
102
}
330
1A
100
AcDbPlotSettings
  1

  2
none_device
  4

  6

 40
0.0
 41
0.0
 42
0.0
 43
0.0
 44
0.0
 45
0.0
 46
0.0
 47
0.0
 48
0.0
 49
0.0
140
0.0
141
0.0
142
1.0
143
1.0
 70
   688
 72
     0
 73
     0
 74
     5
  7

 75
    16
 76
     0
 77
     2
 78
   300
147
1.0
148
0.0
149
0.0
100
AcDbLayout
  1
Layout2
 70
     1
 71
     2
 10
0.0
 20
0.0
 11
0.0
 21
0.0
 12
0.0
 22
0.0
 32
0.0
 14
0.0
 24
0.0
 34
0.0
 15
0.0
 25
0.0
 35
0.0
146
0.0
 13
0.0
 23
0.0
 33
0.0
 16
1.0
 26
0.0
 36
0.0
 17
0.0
 27
1.0
 37
0.0
 76
     0
330
23
  0
LAYOUT
  5
22
102
{ACAD_REACTORS
330
1A
102
}
330
1A
100
AcDbPlotSettings
  1

  2
none_device
  4

  6

 40
0.0
 41
0.0
 42
0.0
 43
0.0
 44
0.0
 45
0.0
 46
0.0
 47
0.0
 48
0.0
 49
0.0
140
0.0
141
0.0
142
1.0
143
1.0
 70
  1712
 72
     0
 73
     0
 74
     0
  7

 75
     0
 76
     0
 77
     2
 78
   300
147
1.0
148
0.0
149
0.0
100
AcDbLayout
  1
Model
 70
     1
 71
     0
 10
0.0
 20
0.0
 11
12.0
 21
9.0
 12
0.0
 22
0.0
 32
0.0
 14
1.000000000000000E+20
 24
1.000000000000000E+20
 34
1.000000000000000E+20
 15
-1.000000000000000E+20
 25
-1.000000000000000E+20
 35
-1.000000000000000E+20
146
0.0
 13
0.0
 23
0.0
 33
0.0
 16
1.0
 26
0.0
 36
0.0
 17
0.0
 27
1.0
 37
0.0
 76
     0
330
1F
331
29
  0
MLINESTYLE
  5
18
102
{ACAD_REACTORS
330
17
102
}
330
17
100
AcDbMlineStyle
  2
Standard
 70
     0
  3

 62
   256
 51
90.0
 52
90.0
 71
     2
 49
0.5
 62
   256
  6
BYLAYER
 49
-0.5
 62
   256
  6
BYLAYER
  0
ACDBPLACEHOLDER
  5
F
102
{ACAD_REACTORS
330
E
102
}
330
E
  0
VISUALSTYLE
  5
2F
102
{ACAD_REACTORS
330
2A
102
}
330
2A
100
AcDbVisualStyle
  2
2dWireframe
 70
     4
 71
     0
 72
     2
 73
     0
 90
        0
 40
-0.6
 41
-30.0
 62
     5
 63
     7
421
 16777215
 74
     1
 91
        4
 64
     7
 65
   257
 75
     1
175
     1
 42
1.0
 92
        0
 66
   257
 43
1.0
 76
     1
 77
     6
 78
     2
 67
     7
 79
     5
170
     0
171
     0
290
     0
174
     0
 93
        1
 44
0.0
173
     0
291
     0
 45
0.0
1001
ACAD
1000
AcDbSavedByObjectVersion
1070
     0
  0
VISUALSTYLE
  5
31
102
{ACAD_REACTORS
330
2A
102
}
330
2A
100
AcDbVisualStyle
  2
3D Hidden
 70
     6
 71
     1
 72
     2
 73
     2
 90
        0
 40
-0.6
 41
-30.0
 62
     5
 63
     7
421
 16777215
 74
     2
 91
        2
 64
     7
 65
   257
 75
     2
175
     1
 42
40.0
 92
        0
 66
   257
 43
1.0
 76
     1
 77
     6
 78
     2
 67
     7
 79
     3
170
     0
171
     0
290
     0
174
     0
 93
        1
 44
0.0
173
     0
291
     0
 45
0.0
1001
ACAD
1000
AcDbSavedByObjectVersion
1070
     0
  0
VISUALSTYLE
  5
30
102
{ACAD_REACTORS
330
2A
102
}
330
2A
100
AcDbVisualStyle
  2
3dWireframe
 70
     5
 71
     0
 72
     2
 73
     0
 90
        0
 40
-0.6
 41
-30.0
 62
     5
 63
     7
421
 16777215
 74
     1
 91
        4
 64
     7
 65
   257
 75
     1
175
     1
 42
1.0
 92
        0
 66
   257
 43
1.0
 76
     1
 77
     6
 78
     2
 67
     7
 79
     5
170
     0
171
     0
290
     0
174
     0
 93
        1
 44
0.0
173
     0
291
     0
 45
0.0
1001
ACAD
1000
AcDbSavedByObjectVersion
1070
     0
  0
VISUALSTYLE
  5
32
102
{ACAD_REACTORS
330
2A
102
}
330
2A
100
AcDbVisualStyle
  2
Basic
 70
     7
 71
     1
 72
     0
 73
     1
 90
        0
 40
-0.6
 41
-30.0
 62
     5
 63
     7
421
 16777215
 74
     0
 91
        4
 64
     7
 65
   257
 75
     1
175
     1
 42
1.0
 92
        8
 66
     7
 43
1.0
 76
     1
 77
     6
 78
     2
 67
     7
 79
     5
170
     0
171
     0
290
     0
174
     0
 93
        1
 44
0.0
173
     0
291
     1
 45
0.0
1001
ACAD
1000
AcDbSavedByObjectVersion
1070
     0
  0
VISUALSTYLE
  5
36
102
{ACAD_REACTORS
330
2A
102
}
330
2A
100
AcDbVisualStyle
  2
Brighten
 70
    12
 71
     2
 72
     2
 73
     0
 90
        0
 40
-0.6
 41
-30.0
 62
     5
 63
     7
421
 16777215
 74
     1
 91
        4
 64
     7
 65
   257
 75
     1
175
     1
 42
1.0
 92
        8
 66
     7
 43
1.0
 76
     1
 77
     6
 78
     2
 67
     7
 79
     5
170
     0
171
     0
290
     0
174
     0
 93
        1
 44
50.0
173
     0
291
     1
 45
0.0
1001
ACAD
1000
AcDbSavedByObjectVersion
1070
     0
  0
VISUALSTYLE
  5
3A
102
{ACAD_REACTORS
330
2A
102
}
330
2A
100
AcDbVisualStyle
  2
ColorChange
 70
    16
 71
     2
 72
     2
 73
     3
 90
        0
 40
-0.6
 41
-30.0
 62
     5
 63
     8
421
  8421504
 74
     1
 91
        4
 64
     7
 65
   257
 75
     1
175
     1
 42
1.0
 92
        8
 66
     8
424
  8421504
 43
1.0
 76
     1
 77
     6
 78
     2
 67
     7
 79
     5
170
     0
171
     0
290
     0
174
     0
 93
        1
 44
0.0
173
     0
291
     1
 45
0.0
1001
ACAD
1000
AcDbSavedByObjectVersion
1070
     0
  0
VISUALSTYLE
  5
34
102
{ACAD_REACTORS
330
2A
102
}
330
2A
100
AcDbVisualStyle
  2
Conceptual
 70
     9
 71
     3
 72
     2
 73
     0
 90
        0
 40
-0.6
 41
-30.0
 62
     5
 63
     7
421
 16777215
 74
     2
 91
        2
 64
     7
 65
   257
 75
     1
175
     1
 42
40.0
 92
        8
 66
     7
 43
1.0
 76
     1
 77
     6
 78
     2
 67
     7
 79
     3
170
     0
171
     0
290
     0
174
     0
 93
        1
 44
0.0
173
     0
291
     0
 45
0.0
1001
ACAD
1000
AcDbSavedByObjectVersion
1070
     0
  0
VISUALSTYLE
  5
35
102
{ACAD_REACTORS
330
2A
102
}
330
2A
100
AcDbVisualStyle
  2
Dim
 70
    11
 71
     2
 72
     2
 73
     0
 90
        0
 40
-0.6
 41
-30.0
 62
     5
 63
     7
421
 16777215
 74
     1
 91
        4
 64
     7
 65
   257
 75
     1
175
     1
 42
1.0
 92
        8
 66
     7
 43
1.0
 76
     1
 77
     6
 78
     2
 67
     7
 79
     5
170
     0
171
     0
290
     0
174
     0
 93
        1
 44
-50.0
173
     0
291
     1
 45
0.0
1001
ACAD
1000
AcDbSavedByObjectVersion
1070
     0
  0
VISUALSTYLE
  5
39
102
{ACAD_REACTORS
330
2A
102
}
330
2A
100
AcDbVisualStyle
  2
Facepattern
 70
    15
 71
     2
 72
     2
 73
     0
 90
        0
 40
-0.6
 41
-30.0
 62
     5
 63
     7
421
 16777215
 74
     1
 91
        4
 64
     7
 65
   257
 75
     1
175
     1
 42
1.0
 92
        8
 66
     7
 43
1.0
 76
     1
 77
     6
 78
     2
 67
     7
 79
     5
170
     0
171
     0
290
     0
174
     0
 93
        1
 44
0.0
173
     0
291
     1
 45
0.0
1001
ACAD
1000
AcDbSavedByObjectVersion
1070
     0
  0
VISUALSTYLE
  5
2B
102
{ACAD_REACTORS
330
2A
102
}
330
2A
100
AcDbVisualStyle
  2
Flat
 70
     0
 71
     2
 72
     1
 73
     1
 90
        2
 40
-0.6
 41
30.0
 62
     5
 63
     7
421
 16777215
 74
     0
 91
        4
 64
     7
 65
   257
 75
     1
175
     1
 42
1.0
 92
        8
 66
     7
 43
1.0
 76
     1
 77
     6
 78
     2
 67
     7
 79
     5
170
     0
171
     0
290
     0
174
     0
 93
       13
 44
0.0
173
     0
291
     1
 45
0.0
1001
ACAD
1000
AcDbSavedByObjectVersion
1070
     0
  0
VISUALSTYLE
  5
2C
102
{ACAD_REACTORS
330
2A
102
}
330
2A
100
AcDbVisualStyle
  2
FlatWithEdges
 70
     1
 71
     2
 72
     1
 73
     1
 90
        2
 40
-0.6
 41
30.0
 62
     5
 63
     7
421
 16777215
 74
     1
 91
        4
 64
     7
 65
   257
 75
     1
175
     1
 42
1.0
 92
        0
 66
   257
 43
1.0
 76
     1
 77
     6
 78
     2
 67
     7
 79
     5
170
     0
171
     0
290
     0
174
     0
 93
       13
 44
0.0
173
     0
291
     1
 45
0.0
1001
ACAD
1000
AcDbSavedByObjectVersion
1070
     0
  0
VISUALSTYLE
  5
2D
102
{ACAD_REACTORS
330
2A
102
}
330
2A
100
AcDbVisualStyle
  2
Gouraud
 70
     2
 71
     2
 72
     2
 73
     1
 90
        2
 40
-0.6
 41
30.0
 62
     5
 63
     7
421
 16777215
 74
     0
 91
        4
 64
     7
 65
   257
 75
     1
175
     1
 42
1.0
 92
        0
 66
     7
 43
1.0
 76
     1
 77
     6
 78
     2
 67
     7
 79
     5
170
     0
171
     0
290
     0
174
     0
 93
       13
 44
0.0
173
     0
291
     1
 45
0.0
1001
ACAD
1000
AcDbSavedByObjectVersion
1070
     0
  0
VISUALSTYLE
  5
2E
102
{ACAD_REACTORS
330
2A
102
}
330
2A
100
AcDbVisualStyle
  2
GouraudWithEdges
 70
     3
 71
     2
 72
     2
 73
     1
 90
        2
 40
-0.6
 41
30.0
 62
     5
 63
     7
421
 16777215
 74
     1
 91
        4
 64
     7
 65
   257
 75
     1
175
     1
 42
1.0
 92
        0
 66
   257
 43
1.0
 76
     1
 77
     6
 78
     2
 67
     7
 79
     5
170
     0
171
     0
290
     0
174
     0
 93
       13
 44
0.0
173
     0
291
     1
 45
0.0
1001
ACAD
1000
AcDbSavedByObjectVersion
1070
     0
  0
VISUALSTYLE
  5
38
102
{ACAD_REACTORS
330
2A
102
}
330
2A
100
AcDbVisualStyle
  2
Linepattern
 70
    14
 71
     2
 72
     2
 73
     0
 90
        0
 40
-0.6
 41
-30.0
 62
     5
 63
     7
421
 16777215
 74
     1
 91
        4
 64
     7
 65
   257
 75
     7
175
     7
 42
1.0
 92
        8
 66
     7
 43
1.0
 76
     1
 77
     6
 78
     2
 67
     7
 79
     5
170
     0
171
     0
290
     0
174
     0
 93
        1
 44
0.0
173
     0
291
     1
 45
0.0
1001
ACAD
1000
AcDbSavedByObjectVersion
1070
     0
  0
VISUALSTYLE
  5
33
102
{ACAD_REACTORS
330
2A
102
}
330
2A
100
AcDbVisualStyle
  2
Realistic
 70
     8
 71
     2
 72
     2
 73
     0
 90
        0
 40
-0.6
 41
-30.0
 62
     5
 63
     7
421
 16777215
 74
     1
 91
        0
 64
     7
 65
   257
 75
     1
175
     1
 42
1.0
 92
        8
 66
     8
424
  7895160
 43
1.0
 76
     1
 77
     6
 78
     2
 67
     7
 79
     5
170
     0
171
     0
290
     0
174
     0
 93
       13
 44
0.0
173
     0
291
     0
 45
0.0
1001
ACAD
1000
AcDbSavedByObjectVersion
1070
     0
  0
VISUALSTYLE
  5
37
102
{ACAD_REACTORS
330
2A
102
}
330
2A
100
AcDbVisualStyle
  2
Thicken
 70
    13
 71
     2
 72
     2
 73
     0
 90
        0
 40
-0.6
 41
-30.0
 62
     5
 63
     7
421
 16777215
 74
     1
 91
        4
 64
     7
 65
   257
 75
     1
175
     1
 42
1.0
 92
       12
 66
     7
 43
1.0
 76
     1
 77
     6
 78
     2
 67
     7
 79
     5
170
     0
171
     0
290
     0
174
     0
 93
        1
 44
0.0
173
     0
291
     1
 45
0.0
1001
ACAD
1000
AcDbSavedByObjectVersion
1070
     0
  0
ENDSEC
  0
EOF
