  0
SECTION
  2
HEADER
  9
$ACADVER
  1
AC1018
  9
$ACADMAINTVER
 70
     0
  9
$DWGCODEPAGE
  3
ASCII
  9
$INSBASE
 10
0.0
 20
0.0
 30
0.0
  9
$EXTMIN
 10
1.000000000000000E+20
 20
1.000000000000000E+20
 30
1.000000000000000E+20
  9
$EXTMAX
 10
-1.000000000000000E+20
 20
-1.000000000000000E+20
 30
-1.000000000000000E+20
  9
$LIMMIN
 10
0.0
 20
0.0
  9
$LIMMAX
 10
12.0
 20
9.0
  9
$ORTHOMODE
 70
     0
  9
$REGENMODE
 70
     1
  9
$FILLMODE
 70
     1
  9
$QTEXTMODE
 70
     0
  9
$MIRRTEXT
 70
     1
  9
$LTSCALE
 40
1.0
  9
$ATTMODE
 70
     1
  9
$TEXTSIZE
 40
0.2
  9
$TRACEWID
 40
0.05
  9
$TEXTSTYLE
  7
Standard
  9
$CLAYER
  8
0
  9
$CELTYPE
  6
ByLayer
  9
$CECOLOR
 62
   256
  9
$CELTSCALE
 40
1.0
  9
$DISPSILH
 70
     0
  9
$DIMSCALE
 40
1.0
  9
$DIMASZ
 40
0.18
  9
$DIMEXO
 40
0.0625
  9
$DIMDLI
 40
0.38
  9
$DIMRND
 40
0.0
  9
$DIMDLE
 40
0.0
  9
$DIMEXE
 40
0.18
  9
$DIMTP
 40
0.0
  9
$DIMTM
 40
0.0
  9
$DIMTXT
 40
0.18
  9
$DIMCEN
 40
0.09
  9
$DIMTSZ
 40
0.0
  9
$DIMTOL
 70
     0
  9
$DIMLIM
 70
     0
  9
$DIMTIH
 70
     1
  9
$DIMTOH
 70
     1
  9
$DIMSE1
 70
     0
  9
$DIMSE2
 70
     0
  9
$DIMTAD
 70
     0
  9
$DIMZIN
 70
     0
  9
$DIMBLK
  1

  9
$DIMASO
 70
     1
  9
$DIMSHO
 70
     1
  9
$DIMPOST
  1

  9
$DIMAPOST
  1

  9
$DIMALT
 70
     0
  9
$DIMALTD
 70
     2
  9
$DIMALTF
 40
25.4
  9
$DIMLFAC
 40
1.0
  9
$DIMTOFL
 70
     0
  9
$DIMTVP
 40
0.0
  9
$DIMTIX
 70
     0
  9
$DIMSOXD
 70
     0
  9
$DIMSAH
 70
     0
  9
$DIMBLK1
  1

  9
$DIMBLK2
  1

  9
$DIMSTYLE
  2
Standard
  9
$DIMCLRD
 70
     0
  9
$DIMCLRE
 70
     0
  9
$DIMCLRT
 70
     0
  9
$DIMTFAC
 40
1.0
  9
$DIMGAP
 40
0.09
  9
$DIMJUST
 70
     0
  9
$DIMSD1
 70
     0
  9
$DIMSD2
 70
     0
  9
$DIMTOLJ
 70
     1
  9
$DIMTZIN
 70
     0
  9
$DIMALTZ
 70
     0
  9
$DIMALTTZ
 70
     0
  9
$DIMUPT
 70
     0
  9
$DIMDEC
 70
     4
  9
$DIMTDEC
 70
     4
  9
$DIMALTU
 70
     2
  9
$DIMALTTD
 70
     2
  9
$DIMTXSTY
  7
Standard
  9
$DIMAUNIT
 70
     0
  9
$DIMADEC
 70
     0
  9
$DIMALTRND
 40
0.0
  9
$DIMAZIN
 70
     0
  9
$DIMDSEP
 70
    46
  9
$DIMATFIT
 70
     3
  9
$DIMFRAC
 70
     0
  9
$DIMLDRBLK
  1

  9
$DIMLUNIT
 70
     2
  9
$DIMLWD
 70
    -2
  9
$DIMLWE
 70
    -2
  9
$DIMTMOVE
 70
     0
  9
$LUNITS
 70
     2
  9
$LUPREC
 70
     4
  9
$SKETCHINC
 40
0.1
  9
$FILLETRAD
 40
0.5
  9
$AUNITS
 70
     0
  9
$AUPREC
 70
     0
  9
$MENU
  1
.
  9
$ELEVATION
 40
0.0
  9
$PELEVATION
 40
0.0
  9
$THICKNESS
 40
0.0
  9
$LIMCHECK
 70
     0
  9
$CHAMFERA
 40
0.5
  9
$CHAMFERB
 40
0.5
  9
$CHAMFERC
 40
1.0
  9
$CHAMFERD
 40
0.0
  9
$SKPOLY
 70
     0
  9
$TDCREATE
 40
2456961.974690023
  9
$TDUCREATE
 40
2456961.933023356
  9
$TDUPDATE
 40
2456961.974690035
  9
$TDUUPDATE
 40
2456961.933023368
  9
$TDINDWG
 40
0.0000000116
  9
$TDUSRTIMER
 40
0.0000000116
  9
$USRTIMER
 70
     1
  9
$ANGBASE
 50
0.0
  9
$ANGDIR
 70
     0
  9
$PDMODE
 70
     0
  9
$PDSIZE
 40
0.0
  9
$PLINEWID
 40
0.0
  9
$SPLFRAME
 70
     0
  9
$SPLINETYPE
 70
     6
  9
$SPLINESEGS
 70
     8
  9
$HANDSEED
  5
589
  9
$SURFTAB1
 70
     6
  9
$SURFTAB2
 70
     6
  9
$SURFTYPE
 70
     6
  9
$SURFU
 70
     6
  9
$SURFV
 70
     6
  9
$UCSBASE
  2

  9
$UCSNAME
  2

  9
$UCSORG
 10
0.0
 20
0.0
 30
0.0
  9
$UCSXDIR
 10
1.0
 20
0.0
 30
0.0
  9
$UCSYDIR
 10
0.0
 20
1.0
 30
0.0
  9
$UCSORTHOREF
  2

  9
$UCSORTHOVIEW
 70
     0
  9
$UCSORGTOP
 10
0.0
 20
0.0
 30
0.0
  9
$UCSORGBOTTOM
 10
0.0
 20
0.0
 30
0.0
  9
$UCSORGLEFT
 10
0.0
 20
0.0
 30
0.0
  9
$UCSORGRIGHT
 10
0.0
 20
0.0
 30
0.0
  9
$UCSORGFRONT
 10
0.0
 20
0.0
 30
0.0
  9
$UCSORGBACK
 10
0.0
 20
0.0
 30
0.0
  9
$PUCSBASE
  2

  9
$PUCSNAME
  2

  9
$PUCSORG
 10
0.0
 20
0.0
 30
0.0
  9
$PUCSXDIR
 10
1.0
 20
0.0
 30
0.0
  9
$PUCSYDIR
 10
0.0
 20
1.0
 30
0.0
  9
$PUCSORTHOREF
  2

  9
$PUCSORTHOVIEW
 70
     0
  9
$PUCSORGTOP
 10
0.0
 20
0.0
 30
0.0
  9
$PUCSORGBOTTOM
 10
0.0
 20
0.0
 30
0.0
  9
$PUCSORGLEFT
 10
0.0
 20
0.0
 30
0.0
  9
$PUCSORGRIGHT
 10
0.0
 20
0.0
 30
0.0
  9
$PUCSORGFRONT
 10
0.0
 20
0.0
 30
0.0
  9
$PUCSORGBACK
 10
0.0
 20
0.0
 30
0.0
  9
$USERI1
 70
     0
  9
$USERI2
 70
     0
  9
$USERI3
 70
     0
  9
$USERI4
 70
     0
  9
$USERI5
 70
     0
  9
$USERR1
 40
0.0
  9
$USERR2
 40
0.0
  9
$USERR3
 40
0.0
  9
$USERR4
 40
0.0
  9
$USERR5
 40
0.0
  9
$WORLDVIEW
 70
     1
  9
$SHADEDGE
 70
     3
  9
$SHADEDIF
 70
    70
  9
$TILEMODE
 70
     1
  9
$MAXACTVP
 70
    64
  9
$PINSBASE
 10
0.0
 20
0.0
 30
0.0
  9
$PLIMCHECK
 70
     0
  9
$PEXTMIN
 10
1.000000000000000E+20
 20
1.000000000000000E+20
 30
1.000000000000000E+20
  9
$PEXTMAX
 10
-1.000000000000000E+20
 20
-1.000000000000000E+20
 30
-1.000000000000000E+20
  9
$PLIMMIN
 10
0.0
 20
0.0
  9
$PLIMMAX
 10
12.0
 20
9.0
  9
$UNITMODE
 70
     0
  9
$VISRETAIN
 70
     1
  9
$PLINEGEN
 70
     0
  9
$PSLTSCALE
 70
     1
  9
$TREEDEPTH
 70
  3020
  9
$CMLSTYLE
  2
Standard
  9
$CMLJUST
 70
     0
  9
$CMLSCALE
 40
1.0
  9
$PROXYGRAPHICS
 70
     1
  9
$MEASUREMENT
 70
     0
  9
$CELWEIGHT
370
    -1
  9
$ENDCAPS
280
     0
  9
$JOINSTYLE
280
     0
  9
$LWDISPLAY
290
     1
  9
$INSUNITS
 70
     1
  9
$HYPERLINKBASE
  1

  9
$STYLESHEET
  1

  9
$XEDIT
290
     1
  9
$CEPSNTYPE
380
     0
  9
$PSTYLEMODE
290
     1
  9
$FINGERPRINTGUID
  2
{F23FB12A-76D9-4CE1-BD66-0203D0F89D07}
  9
$VERSIONGUID
  2
{FAEB1C32-E019-11D5-929B-00C0DF256EC4}
  9
$EXTNAMES
290
     1
  9
$PSVPSCALE
 40
0.0
  9
$OLESTARTUP
290
     0
  9
$SORTENTS
280
   127
  9
$INDEXCTL
280
     0
  9
$HIDETEXT
280
     1
  9
$XCLIPFRAME
290
     0
  9
$HALOGAP
280
     0
  9
$OBSCOLOR
 70
   257
  9
$OBSLTYPE
280
     0
  9
$INTERSECTIONDISPLAY
280
     0
  9
$INTERSECTIONCOLOR
 70
   257
  9
$DIMASSOC
280
     2
  9
$PROJECTNAME
  1

  0
ENDSEC
  0
SECTION
  2
CLASSES
  0
CLASS
  1
ACDBDICTIONARYWDFLT
  2
AcDbDictionaryWithDefault
  3
ObjectDBX Classes
 90
        0
 91
        3
280
     0
281
     0
  0
CLASS
  1
VISUALSTYLE
  2
AcDbVisualStyle
  3
ObjectDBX Classes
 90
     4095
 91
        3
280
     0
281
     0
  0
ENDSEC
  0
SECTION
  2
TABLES
  0
TABLE
  2
VPORT
  5
8
330
0
100
AcDbSymbolTable
 70
     1
  0
VPORT
  5
29
330
8
100
AcDbSymbolTableRecord
100
AcDbViewportTableRecord
  2
*Active
 70
     0
 10
0.0
 20
0.0
 11
1.0
 21
1.0
 12
0.0
 22
0.0
 13
0.0
 23
0.0
 14
0.5
 24
0.5
 15
0.5
 25
0.5
 16
0.0
 26
0.0
 36
1.0
 17
105.0008091239277
 27
148.5001637099431
 37
0.0
 40
297.0003274198861
 41
0.7070753762199199
 42
50.0
 43
0.0
 44
0.0
 50
0.0
 51
0.0
 71
     0
 72
   100
 73
     1
 74
     3
 75
     0
 76
     0
 77
     0
 78
     0
281
     0
 65
     1
110
0.0
120
0.0
130
0.0
111
1.0
121
0.0
131
0.0
112
0.0
122
1.0
132
0.0
 79
     0
146
0.0
  0
ENDTAB
  0
TABLE
  2
LTYPE
  5
5
330
0
100
AcDbSymbolTable
 70
     1
  0
LTYPE
  5
14
330
5
100
AcDbSymbolTableRecord
100
AcDbLinetypeTableRecord
  2
ByBlock
 70
     0
  3

 72
    65
 73
     0
 40
0.0
  0
LTYPE
  5
15
330
5
100
AcDbSymbolTableRecord
100
AcDbLinetypeTableRecord
  2
ByLayer
 70
     0
  3

 72
    65
 73
     0
 40
0.0
  0
LTYPE
  5
16
330
5
100
AcDbSymbolTableRecord
100
AcDbLinetypeTableRecord
  2
Continuous
 70
     0
  3
Solid line
 72
    65
 73
     0
 40
0.0
  0
ENDTAB
  0
TABLE
  2
LAYER
  5
2
330
0
100
AcDbSymbolTable
 70
     1
  0
LAYER
  5
10
330
2
100
AcDbSymbolTableRecord
100
AcDbLayerTableRecord
  2
0
 70
     0
 62
     7
  6
Continuous
370
    -3
390
F
  0
ENDTAB
  0
TABLE
  2
STYLE
  5
3
330
0
100
AcDbSymbolTable
 70
     1
  0
STYLE
  5
11
330
3
100
AcDbSymbolTableRecord
100
AcDbTextStyleTableRecord
  2
Standard
 70
     0
 40
0.0
 41
1.0
 50
0.0
 71
     0
 42
0.2
  3
txt
  4

  0
ENDTAB
  0
TABLE
  2
VIEW
  5
6
330
0
100
AcDbSymbolTable
 70
     0
  0
ENDTAB
  0
TABLE
  2
UCS
  5
7
330
0
100
AcDbSymbolTable
 70
     0
  0
ENDTAB
  0
TABLE
  2
APPID
  5
9
330
0
100
AcDbSymbolTable
 70
     1
  0
APPID
  5
12
330
9
100
AcDbSymbolTableRecord
100
AcDbRegAppTableRecord
  2
ACAD
 70
     0
  0
ENDTAB
  0
TABLE
  2
DIMSTYLE
  5
A
330
0
100
AcDbSymbolTable
 70
     1
100
AcDbDimStyleTable
  0
DIMSTYLE
105
27
330
A
100
AcDbSymbolTableRecord
100
AcDbDimStyleTableRecord
  2
Standard
 70
     0
340
11
  0
ENDTAB
  0
TABLE
  2
BLOCK_RECORD
  5
1
330
0
100
AcDbSymbolTable
 70
   196
  0
BLOCK_RECORD
  5
1F
330
1
100
AcDbSymbolTableRecord
100
AcDbBlockTableRecord
  2
*Model_Space
340
22
  0
BLOCK_RECORD
  5
1B
330
1
100
AcDbSymbolTableRecord
100
AcDbBlockTableRecord
  2
*Paper_Space
340
1E
  0
BLOCK_RECORD
  5
23
330
1
100
AcDbSymbolTableRecord
100
AcDbBlockTableRecord
  2
*Paper_Space0
340
26
  0
BLOCK_RECORD
  5
3B
330
1
100
AcDbSymbolTableRecord
100
AcDbBlockTableRecord
  2
block 2
340
0
102
{BLKREFS
331
3C
102
}
  0
BLOCK_RECORD
  5
43
330
1
100
AcDbSymbolTableRecord
100
AcDbBlockTableRecord
  2
block 3
340
0
102
{BLKREFS
331
44
102
}
  0
BLOCK_RECORD
  5
4B
330
1
100
AcDbSymbolTableRecord
100
AcDbBlockTableRecord
  2
block 4
340
0
102
{BLKREFS
331
4C
102
}
  0
BLOCK_RECORD
  5
50
330
1
100
AcDbSymbolTableRecord
100
AcDbBlockTableRecord
  2
block 5
340
0
102
{BLKREFS
331
51
102
}
  0
BLOCK_RECORD
  5
55
330
1
100
AcDbSymbolTableRecord
100
AcDbBlockTableRecord
  2
block 6
340
0
102
{BLKREFS
331
56
102
}
  0
BLOCK_RECORD
  5
5A
330
1
100
AcDbSymbolTableRecord
100
AcDbBlockTableRecord
  2
block 7
340
0
102
{BLKREFS
331
5B
102
}
  0
BLOCK_RECORD
  5
5F
330
1
100
AcDbSymbolTableRecord
100
AcDbBlockTableRecord
  2
block 8
340
0
102
{BLKREFS
331
60
102
}
  0
BLOCK_RECORD
  5
67
330
1
100
AcDbSymbolTableRecord
100
AcDbBlockTableRecord
  2
block 9
340
0
102
{BLKREFS
331
68
102
}
  0
BLOCK_RECORD
  5
6F
330
1
100
AcDbSymbolTableRecord
100
AcDbBlockTableRecord
  2
block 10
340
0
102
{BLKREFS
331
70
102
}
  0
BLOCK_RECORD
  5
77
330
1
100
AcDbSymbolTableRecord
100
AcDbBlockTableRecord
  2
block 11
340
0
102
{BLKREFS
331
78
102
}
  0
BLOCK_RECORD
  5
7F
330
1
100
AcDbSymbolTableRecord
100
AcDbBlockTableRecord
  2
block 12
340
0
102
{BLKREFS
331
80
102
}
  0
BLOCK_RECORD
  5
84
330
1
100
AcDbSymbolTableRecord
100
AcDbBlockTableRecord
  2
block 13
340
0
102
{BLKREFS
331
85
102
}
  0
BLOCK_RECORD
  5
8C
330
1
100
AcDbSymbolTableRecord
100
AcDbBlockTableRecord
  2
block 14
340
0
102
{BLKREFS
331
8D
102
}
  0
BLOCK_RECORD
  5
94
330
1
100
AcDbSymbolTableRecord
100
AcDbBlockTableRecord
  2
block 15
340
0
102
{BLKREFS
331
95
102
}
  0
BLOCK_RECORD
  5
99
330
1
100
AcDbSymbolTableRecord
100
AcDbBlockTableRecord
  2
block 16
340
0
102
{BLKREFS
331
9A
102
}
  0
BLOCK_RECORD
  5
9E
330
1
100
AcDbSymbolTableRecord
100
AcDbBlockTableRecord
  2
block 17
340
0
102
{BLKREFS
331
9F
102
}
  0
BLOCK_RECORD
  5
A3
330
1
100
AcDbSymbolTableRecord
100
AcDbBlockTableRecord
  2
block 18
340
0
102
{BLKREFS
331
A4
102
}
  0
BLOCK_RECORD
  5
AB
330
1
100
AcDbSymbolTableRecord
100
AcDbBlockTableRecord
  2
block 19
340
0
102
{BLKREFS
331
AC
102
}
  0
BLOCK_RECORD
  5
B3
330
1
100
AcDbSymbolTableRecord
100
AcDbBlockTableRecord
  2
block 20
340
0
102
{BLKREFS
331
B4
102
}
  0
BLOCK_RECORD
  5
B8
330
1
100
AcDbSymbolTableRecord
100
AcDbBlockTableRecord
  2
block 21
340
0
102
{BLKREFS
331
B9
102
}
  0
BLOCK_RECORD
  5
BD
330
1
100
AcDbSymbolTableRecord
100
AcDbBlockTableRecord
  2
block 22
340
0
102
{BLKREFS
331
BE
102
}
  0
BLOCK_RECORD
  5
C5
330
1
100
AcDbSymbolTableRecord
100
AcDbBlockTableRecord
  2
block 23
340
0
102
{BLKREFS
331
C6
102
}
  0
BLOCK_RECORD
  5
CD
330
1
100
AcDbSymbolTableRecord
100
AcDbBlockTableRecord
  2
block 24
340
0
102
{BLKREFS
331
CE
102
}
  0
BLOCK_RECORD
  5
D5
330
1
100
AcDbSymbolTableRecord
100
AcDbBlockTableRecord
  2
block 25
340
0
102
{BLKREFS
331
D6
102
}
  0
BLOCK_RECORD
  5
DD
330
1
100
AcDbSymbolTableRecord
100
AcDbBlockTableRecord
  2
block 26
340
0
102
{BLKREFS
331
DE
102
}
  0
BLOCK_RECORD
  5
E2
330
1
100
AcDbSymbolTableRecord
100
AcDbBlockTableRecord
  2
block 27
340
0
102
{BLKREFS
331
E3
102
}
  0
BLOCK_RECORD
  5
E7
330
1
100
AcDbSymbolTableRecord
100
AcDbBlockTableRecord
  2
block 28
340
0
102
{BLKREFS
331
E8
102
}
  0
BLOCK_RECORD
  5
EF
330
1
100
AcDbSymbolTableRecord
100
AcDbBlockTableRecord
  2
block 29
340
0
102
{BLKREFS
331
F0
102
}
  0
BLOCK_RECORD
  5
F7
330
1
100
AcDbSymbolTableRecord
100
AcDbBlockTableRecord
  2
block 30
340
0
102
{BLKREFS
331
F8
102
}
  0
BLOCK_RECORD
  5
FC
330
1
100
AcDbSymbolTableRecord
100
AcDbBlockTableRecord
  2
block 31
340
0
102
{BLKREFS
331
FD
102
}
  0
BLOCK_RECORD
  5
101
330
1
100
AcDbSymbolTableRecord
100
AcDbBlockTableRecord
  2
block 32
340
0
102
{BLKREFS
331
102
102
}
  0
BLOCK_RECORD
  5
106
330
1
100
AcDbSymbolTableRecord
100
AcDbBlockTableRecord
  2
block 33
340
0
102
{BLKREFS
331
107
102
}
  0
BLOCK_RECORD
  5
10B
330
1
100
AcDbSymbolTableRecord
100
AcDbBlockTableRecord
  2
block 34
340
0
102
{BLKREFS
331
10C
102
}
  0
BLOCK_RECORD
  5
113
330
1
100
AcDbSymbolTableRecord
100
AcDbBlockTableRecord
  2
block 35
340
0
102
{BLKREFS
331
114
102
}
  0
BLOCK_RECORD
  5
11B
330
1
100
AcDbSymbolTableRecord
100
AcDbBlockTableRecord
  2
block 36
340
0
102
{BLKREFS
331
11C
102
}
  0
BLOCK_RECORD
  5
120
330
1
100
AcDbSymbolTableRecord
100
AcDbBlockTableRecord
  2
block 37
340
0
102
{BLKREFS
331
121
102
}
  0
BLOCK_RECORD
  5
125
330
1
100
AcDbSymbolTableRecord
100
AcDbBlockTableRecord
  2
block 38
340
0
102
{BLKREFS
331
126
102
}
  0
BLOCK_RECORD
  5
12A
330
1
100
AcDbSymbolTableRecord
100
AcDbBlockTableRecord
  2
block 39
340
0
102
{BLKREFS
331
12B
102
}
  0
BLOCK_RECORD
  5
132
330
1
100
AcDbSymbolTableRecord
100
AcDbBlockTableRecord
  2
block 40
340
0
102
{BLKREFS
331
133
102
}
  0
BLOCK_RECORD
  5
13A
330
1
100
AcDbSymbolTableRecord
100
AcDbBlockTableRecord
  2
block 41
340
0
102
{BLKREFS
331
13B
102
}
  0
BLOCK_RECORD
  5
142
330
1
100
AcDbSymbolTableRecord
100
AcDbBlockTableRecord
  2
block 42
340
0
102
{BLKREFS
331
143
102
}
  0
BLOCK_RECORD
  5
14A
330
1
100
AcDbSymbolTableRecord
100
AcDbBlockTableRecord
  2
block 43
340
0
102
{BLKREFS
331
14B
102
}
  0
BLOCK_RECORD
  5
14F
330
1
100
AcDbSymbolTableRecord
100
AcDbBlockTableRecord
  2
block 44
340
0
102
{BLKREFS
331
150
102
}
  0
BLOCK_RECORD
  5
154
330
1
100
AcDbSymbolTableRecord
100
AcDbBlockTableRecord
  2
block 45
340
0
102
{BLKREFS
331
155
102
}
  0
BLOCK_RECORD
  5
159
330
1
100
AcDbSymbolTableRecord
100
AcDbBlockTableRecord
  2
block 46
340
0
102
{BLKREFS
331
15A
102
}
  0
BLOCK_RECORD
  5
15E
330
1
100
AcDbSymbolTableRecord
100
AcDbBlockTableRecord
  2
block 47
340
0
102
{BLKREFS
331
15F
102
}
  0
BLOCK_RECORD
  5
163
330
1
100
AcDbSymbolTableRecord
100
AcDbBlockTableRecord
  2
block 48
340
0
102
{BLKREFS
331
164
102
}
  0
BLOCK_RECORD
  5
16B
330
1
100
AcDbSymbolTableRecord
100
AcDbBlockTableRecord
  2
block 49
340
0
102
{BLKREFS
331
16C
102
}
  0
BLOCK_RECORD
  5
173
330
1
100
AcDbSymbolTableRecord
100
AcDbBlockTableRecord
  2
block 50
340
0
102
{BLKREFS
331
174
102
}
  0
BLOCK_RECORD
  5
17B
330
1
100
AcDbSymbolTableRecord
100
AcDbBlockTableRecord
  2
block 51
340
0
102
{BLKREFS
331
17C
102
}
  0
BLOCK_RECORD
  5
183
330
1
100
AcDbSymbolTableRecord
100
AcDbBlockTableRecord
  2
block 52
340
0
102
{BLKREFS
331
184
102
}
  0
BLOCK_RECORD
  5
188
330
1
100
AcDbSymbolTableRecord
100
AcDbBlockTableRecord
  2
block 53
340
0
102
{BLKREFS
331
189
102
}
  0
BLOCK_RECORD
  5
190
330
1
100
AcDbSymbolTableRecord
100
AcDbBlockTableRecord
  2
block 54
340
0
102
{BLKREFS
331
191
102
}
  0
BLOCK_RECORD
  5
195
330
1
100
AcDbSymbolTableRecord
100
AcDbBlockTableRecord
  2
block 55
340
0
102
{BLKREFS
331
196
102
}
  0
BLOCK_RECORD
  5
19D
330
1
100
AcDbSymbolTableRecord
100
AcDbBlockTableRecord
  2
block 56
340
0
102
{BLKREFS
331
19E
102
}
  0
BLOCK_RECORD
  5
1A5
330
1
100
AcDbSymbolTableRecord
100
AcDbBlockTableRecord
  2
block 57
340
0
102
{BLKREFS
331
1A6
102
}
  0
BLOCK_RECORD
  5
1AD
330
1
100
AcDbSymbolTableRecord
100
AcDbBlockTableRecord
  2
block 58
340
0
102
{BLKREFS
331
1AE
102
}
  0
BLOCK_RECORD
  5
1B2
330
1
100
AcDbSymbolTableRecord
100
AcDbBlockTableRecord
  2
block 59
340
0
102
{BLKREFS
331
1B3
102
}
  0
BLOCK_RECORD
  5
1B7
330
1
100
AcDbSymbolTableRecord
100
AcDbBlockTableRecord
  2
block 60
340
0
102
{BLKREFS
331
1B8
102
}
  0
BLOCK_RECORD
  5
1BF
330
1
100
AcDbSymbolTableRecord
100
AcDbBlockTableRecord
  2
block 61
340
0
102
{BLKREFS
331
1C0
102
}
  0
BLOCK_RECORD
  5
1C7
330
1
100
AcDbSymbolTableRecord
100
AcDbBlockTableRecord
  2
block 62
340
0
102
{BLKREFS
331
1C8
102
}
  0
BLOCK_RECORD
  5
1CF
330
1
100
AcDbSymbolTableRecord
100
AcDbBlockTableRecord
  2
block 63
340
0
102
{BLKREFS
331
1D0
102
}
  0
BLOCK_RECORD
  5
1D7
330
1
100
AcDbSymbolTableRecord
100
AcDbBlockTableRecord
  2
block 64
340
0
102
{BLKREFS
331
1D8
102
}
  0
BLOCK_RECORD
  5
1DF
330
1
100
AcDbSymbolTableRecord
100
AcDbBlockTableRecord
  2
block 65
340
0
102
{BLKREFS
331
1E0
102
}
  0
BLOCK_RECORD
  5
1E3
330
1
100
AcDbSymbolTableRecord
100
AcDbBlockTableRecord
  2
block 66
340
0
102
{BLKREFS
331
1E4
102
}
  0
BLOCK_RECORD
  5
1E7
330
1
100
AcDbSymbolTableRecord
100
AcDbBlockTableRecord
  2
block 67
340
0
102
{BLKREFS
331
1E8
102
}
  0
BLOCK_RECORD
  5
1EB
330
1
100
AcDbSymbolTableRecord
100
AcDbBlockTableRecord
  2
block 68
340
0
102
{BLKREFS
331
1EC
102
}
  0
BLOCK_RECORD
  5
1EF
330
1
100
AcDbSymbolTableRecord
100
AcDbBlockTableRecord
  2
block 69
340
0
102
{BLKREFS
331
1F0
102
}
  0
BLOCK_RECORD
  5
1FA
330
1
100
AcDbSymbolTableRecord
100
AcDbBlockTableRecord
  2
block 70
340
0
102
{BLKREFS
331
1FB
102
}
  0
BLOCK_RECORD
  5
20A
330
1
100
AcDbSymbolTableRecord
100
AcDbBlockTableRecord
  2
block 71
340
0
102
{BLKREFS
331
20B
102
}
  0
BLOCK_RECORD
  5
212
330
1
100
AcDbSymbolTableRecord
100
AcDbBlockTableRecord
  2
block 72
340
0
102
{BLKREFS
331
213
102
}
  0
BLOCK_RECORD
  5
216
330
1
100
AcDbSymbolTableRecord
100
AcDbBlockTableRecord
  2
block 73
340
0
102
{BLKREFS
331
217
102
}
  0
BLOCK_RECORD
  5
21A
330
1
100
AcDbSymbolTableRecord
100
AcDbBlockTableRecord
  2
block 74
340
0
102
{BLKREFS
331
21B
102
}
  0
BLOCK_RECORD
  5
21E
330
1
100
AcDbSymbolTableRecord
100
AcDbBlockTableRecord
  2
block 75
340
0
102
{BLKREFS
331
21F
102
}
  0
BLOCK_RECORD
  5
229
330
1
100
AcDbSymbolTableRecord
100
AcDbBlockTableRecord
  2
block 76
340
0
102
{BLKREFS
331
22A
102
}
  0
BLOCK_RECORD
  5
239
330
1
100
AcDbSymbolTableRecord
100
AcDbBlockTableRecord
  2
block 77
340
0
102
{BLKREFS
331
23A
102
}
  0
BLOCK_RECORD
  5
241
330
1
100
AcDbSymbolTableRecord
100
AcDbBlockTableRecord
  2
block 78
340
0
102
{BLKREFS
331
242
102
}
  0
BLOCK_RECORD
  5
249
330
1
100
AcDbSymbolTableRecord
100
AcDbBlockTableRecord
  2
block 79
340
0
102
{BLKREFS
331
24A
102
}
  0
BLOCK_RECORD
  5
251
330
1
100
AcDbSymbolTableRecord
100
AcDbBlockTableRecord
  2
block 80
340
0
102
{BLKREFS
331
252
102
}
  0
BLOCK_RECORD
  5
259
330
1
100
AcDbSymbolTableRecord
100
AcDbBlockTableRecord
  2
block 81
340
0
102
{BLKREFS
331
25A
102
}
  0
BLOCK_RECORD
  5
25E
330
1
100
AcDbSymbolTableRecord
100
AcDbBlockTableRecord
  2
block 82
340
0
102
{BLKREFS
331
25F
102
}
  0
BLOCK_RECORD
  5
266
330
1
100
AcDbSymbolTableRecord
100
AcDbBlockTableRecord
  2
block 83
340
0
102
{BLKREFS
331
267
102
}
  0
BLOCK_RECORD
  5
26E
330
1
100
AcDbSymbolTableRecord
100
AcDbBlockTableRecord
  2
block 84
340
0
102
{BLKREFS
331
26F
102
}
  0
BLOCK_RECORD
  5
273
330
1
100
AcDbSymbolTableRecord
100
AcDbBlockTableRecord
  2
block 85
340
0
102
{BLKREFS
331
274
102
}
  0
BLOCK_RECORD
  5
278
330
1
100
AcDbSymbolTableRecord
100
AcDbBlockTableRecord
  2
block 86
340
0
102
{BLKREFS
331
279
102
}
  0
BLOCK_RECORD
  5
27D
330
1
100
AcDbSymbolTableRecord
100
AcDbBlockTableRecord
  2
block 87
340
0
102
{BLKREFS
331
27E
102
}
  0
BLOCK_RECORD
  5
282
330
1
100
AcDbSymbolTableRecord
100
AcDbBlockTableRecord
  2
block 88
340
0
102
{BLKREFS
331
283
102
}
  0
BLOCK_RECORD
  5
287
330
1
100
AcDbSymbolTableRecord
100
AcDbBlockTableRecord
  2
block 89
340
0
102
{BLKREFS
331
288
102
}
  0
BLOCK_RECORD
  5
28C
330
1
100
AcDbSymbolTableRecord
100
AcDbBlockTableRecord
  2
block 90
340
0
102
{BLKREFS
331
28D
102
}
  0
BLOCK_RECORD
  5
291
330
1
100
AcDbSymbolTableRecord
100
AcDbBlockTableRecord
  2
block 91
340
0
102
{BLKREFS
331
292
102
}
  0
BLOCK_RECORD
  5
296
330
1
100
AcDbSymbolTableRecord
100
AcDbBlockTableRecord
  2
block 92
340
0
102
{BLKREFS
331
297
102
}
  0
BLOCK_RECORD
  5
29E
330
1
100
AcDbSymbolTableRecord
100
AcDbBlockTableRecord
  2
block 93
340
0
102
{BLKREFS
331
29F
102
}
  0
BLOCK_RECORD
  5
2A6
330
1
100
AcDbSymbolTableRecord
100
AcDbBlockTableRecord
  2
block 94
340
0
102
{BLKREFS
331
2A7
102
}
  0
BLOCK_RECORD
  5
2AB
330
1
100
AcDbSymbolTableRecord
100
AcDbBlockTableRecord
  2
block 95
340
0
102
{BLKREFS
331
2AC
102
}
  0
BLOCK_RECORD
  5
2B0
330
1
100
AcDbSymbolTableRecord
100
AcDbBlockTableRecord
  2
block 96
340
0
102
{BLKREFS
331
2B1
102
}
  0
BLOCK_RECORD
  5
2B5
330
1
100
AcDbSymbolTableRecord
100
AcDbBlockTableRecord
  2
block 97
340
0
102
{BLKREFS
331
2B6
102
}
  0
BLOCK_RECORD
  5
2BA
330
1
100
AcDbSymbolTableRecord
100
AcDbBlockTableRecord
  2
block 98
340
0
102
{BLKREFS
331
2BB
102
}
  0
BLOCK_RECORD
  5
2C2
330
1
100
AcDbSymbolTableRecord
100
AcDbBlockTableRecord
  2
block 99
340
0
102
{BLKREFS
331
2C3
102
}
  0
BLOCK_RECORD
  5
2CA
330
1
100
AcDbSymbolTableRecord
100
AcDbBlockTableRecord
  2
block 100
340
0
102
{BLKREFS
331
2CB
102
}
  0
BLOCK_RECORD
  5
2D2
330
1
100
AcDbSymbolTableRecord
100
AcDbBlockTableRecord
  2
block 101
340
0
102
{BLKREFS
331
2D3
102
}
  0
BLOCK_RECORD
  5
2D7
330
1
100
AcDbSymbolTableRecord
100
AcDbBlockTableRecord
  2
block 102
340
0
102
{BLKREFS
331
2D8
102
}
  0
BLOCK_RECORD
  5
2DC
330
1
100
AcDbSymbolTableRecord
100
AcDbBlockTableRecord
  2
block 103
340
0
102
{BLKREFS
331
2DD
102
}
  0
BLOCK_RECORD
  5
2E1
330
1
100
AcDbSymbolTableRecord
100
AcDbBlockTableRecord
  2
block 104
340
0
102
{BLKREFS
331
2E2
102
}
  0
BLOCK_RECORD
  5
2E6
330
1
100
AcDbSymbolTableRecord
100
AcDbBlockTableRecord
  2
block 105
340
0
102
{BLKREFS
331
2E7
102
}
  0
BLOCK_RECORD
  5
2EB
330
1
100
AcDbSymbolTableRecord
100
AcDbBlockTableRecord
  2
block 106
340
0
102
{BLKREFS
331
2EC
102
}
  0
BLOCK_RECORD
  5
2F0
330
1
100
AcDbSymbolTableRecord
100
AcDbBlockTableRecord
  2
block 107
340
0
102
{BLKREFS
331
2F1
102
}
  0
BLOCK_RECORD
  5
2F8
330
1
100
AcDbSymbolTableRecord
100
AcDbBlockTableRecord
  2
block 108
340
0
102
{BLKREFS
331
2F9
102
}
  0
BLOCK_RECORD
  5
300
330
1
100
AcDbSymbolTableRecord
100
AcDbBlockTableRecord
  2
block 109
340
0
102
{BLKREFS
331
301
102
}
  0
BLOCK_RECORD
  5
308
330
1
100
AcDbSymbolTableRecord
100
AcDbBlockTableRecord
  2
block 110
340
0
102
{BLKREFS
331
309
102
}
  0
BLOCK_RECORD
  5
30D
330
1
100
AcDbSymbolTableRecord
100
AcDbBlockTableRecord
  2
block 111
340
0
102
{BLKREFS
331
30E
102
}
  0
BLOCK_RECORD
  5
312
330
1
100
AcDbSymbolTableRecord
100
AcDbBlockTableRecord
  2
block 112
340
0
102
{BLKREFS
331
313
102
}
  0
BLOCK_RECORD
  5
317
330
1
100
AcDbSymbolTableRecord
100
AcDbBlockTableRecord
  2
block 113
340
0
102
{BLKREFS
331
318
102
}
  0
BLOCK_RECORD
  5
31C
330
1
100
AcDbSymbolTableRecord
100
AcDbBlockTableRecord
  2
block 114
340
0
102
{BLKREFS
331
31D
102
}
  0
BLOCK_RECORD
  5
324
330
1
100
AcDbSymbolTableRecord
100
AcDbBlockTableRecord
  2
block 115
340
0
102
{BLKREFS
331
325
102
}
  0
BLOCK_RECORD
  5
32C
330
1
100
AcDbSymbolTableRecord
100
AcDbBlockTableRecord
  2
block 116
340
0
102
{BLKREFS
331
32D
102
}
  0
BLOCK_RECORD
  5
330
330
1
100
AcDbSymbolTableRecord
100
AcDbBlockTableRecord
  2
block 117
340
0
102
{BLKREFS
331
331
102
}
  0
BLOCK_RECORD
  5
338
330
1
100
AcDbSymbolTableRecord
100
AcDbBlockTableRecord
  2
block 118
340
0
102
{BLKREFS
331
339
102
}
  0
BLOCK_RECORD
  5
340
330
1
100
AcDbSymbolTableRecord
100
AcDbBlockTableRecord
  2
block 119
340
0
102
{BLKREFS
331
341
102
}
  0
BLOCK_RECORD
  5
348
330
1
100
AcDbSymbolTableRecord
100
AcDbBlockTableRecord
  2
block 120
340
0
102
{BLKREFS
331
349
102
}
  0
BLOCK_RECORD
  5
34C
330
1
100
AcDbSymbolTableRecord
100
AcDbBlockTableRecord
  2
block 121
340
0
102
{BLKREFS
331
34D
102
}
  0
BLOCK_RECORD
  5
354
330
1
100
AcDbSymbolTableRecord
100
AcDbBlockTableRecord
  2
block 122
340
0
102
{BLKREFS
331
355
102
}
  0
BLOCK_RECORD
  5
359
330
1
100
AcDbSymbolTableRecord
100
AcDbBlockTableRecord
  2
block 123
340
0
102
{BLKREFS
331
35A
102
}
  0
BLOCK_RECORD
  5
361
330
1
100
AcDbSymbolTableRecord
100
AcDbBlockTableRecord
  2
block 124
340
0
102
{BLKREFS
331
362
102
}
  0
BLOCK_RECORD
  5
369
330
1
100
AcDbSymbolTableRecord
100
AcDbBlockTableRecord
  2
block 125
340
0
102
{BLKREFS
331
36A
102
}
  0
BLOCK_RECORD
  5
371
330
1
100
AcDbSymbolTableRecord
100
AcDbBlockTableRecord
  2
block 126
340
0
102
{BLKREFS
331
372
102
}
  0
BLOCK_RECORD
  5
379
330
1
100
AcDbSymbolTableRecord
100
AcDbBlockTableRecord
  2
block 127
340
0
102
{BLKREFS
331
37A
102
}
  0
BLOCK_RECORD
  5
381
330
1
100
AcDbSymbolTableRecord
100
AcDbBlockTableRecord
  2
block 128
340
0
102
{BLKREFS
331
382
102
}
  0
BLOCK_RECORD
  5
386
330
1
100
AcDbSymbolTableRecord
100
AcDbBlockTableRecord
  2
block 129
340
0
102
{BLKREFS
331
387
102
}
  0
BLOCK_RECORD
  5
38B
330
1
100
AcDbSymbolTableRecord
100
AcDbBlockTableRecord
  2
block 130
340
0
102
{BLKREFS
331
38C
102
}
  0
BLOCK_RECORD
  5
393
330
1
100
AcDbSymbolTableRecord
100
AcDbBlockTableRecord
  2
block 131
340
0
102
{BLKREFS
331
394
102
}
  0
BLOCK_RECORD
  5
39B
330
1
100
AcDbSymbolTableRecord
100
AcDbBlockTableRecord
  2
block 132
340
0
102
{BLKREFS
331
39C
102
}
  0
BLOCK_RECORD
  5
3A3
330
1
100
AcDbSymbolTableRecord
100
AcDbBlockTableRecord
  2
block 133
340
0
102
{BLKREFS
331
3A4
102
}
  0
BLOCK_RECORD
  5
3AB
330
1
100
AcDbSymbolTableRecord
100
AcDbBlockTableRecord
  2
block 134
340
0
102
{BLKREFS
331
3AC
102
}
  0
BLOCK_RECORD
  5
3B3
330
1
100
AcDbSymbolTableRecord
100
AcDbBlockTableRecord
  2
block 135
340
0
102
{BLKREFS
331
3B4
102
}
  0
BLOCK_RECORD
  5
3B8
330
1
100
AcDbSymbolTableRecord
100
AcDbBlockTableRecord
  2
block 136
340
0
102
{BLKREFS
331
3B9
102
}
  0
BLOCK_RECORD
  5
3BD
330
1
100
AcDbSymbolTableRecord
100
AcDbBlockTableRecord
  2
block 137
340
0
102
{BLKREFS
331
3BE
102
}
  0
BLOCK_RECORD
  5
3C2
330
1
100
AcDbSymbolTableRecord
100
AcDbBlockTableRecord
  2
block 138
340
0
102
{BLKREFS
331
3C3
102
}
  0
BLOCK_RECORD
  5
3CA
330
1
100
AcDbSymbolTableRecord
100
AcDbBlockTableRecord
  2
block 139
340
0
102
{BLKREFS
331
3CB
102
}
  0
BLOCK_RECORD
  5
3D2
330
1
100
AcDbSymbolTableRecord
100
AcDbBlockTableRecord
  2
block 140
340
0
102
{BLKREFS
331
3D3
102
}
  0
BLOCK_RECORD
  5
3D7
330
1
100
AcDbSymbolTableRecord
100
AcDbBlockTableRecord
  2
block 141
340
0
102
{BLKREFS
331
3D8
102
}
  0
BLOCK_RECORD
  5
3DF
330
1
100
AcDbSymbolTableRecord
100
AcDbBlockTableRecord
  2
block 142
340
0
102
{BLKREFS
331
3E0
102
}
  0
BLOCK_RECORD
  5
3E7
330
1
100
AcDbSymbolTableRecord
100
AcDbBlockTableRecord
  2
block 143
340
0
102
{BLKREFS
331
3E8
102
}
  0
BLOCK_RECORD
  5
3EC
330
1
100
AcDbSymbolTableRecord
100
AcDbBlockTableRecord
  2
block 144
340
0
102
{BLKREFS
331
3ED
102
}
  0
BLOCK_RECORD
  5
3F1
330
1
100
AcDbSymbolTableRecord
100
AcDbBlockTableRecord
  2
block 145
340
0
102
{BLKREFS
331
3F2
102
}
  0
BLOCK_RECORD
  5
3F9
330
1
100
AcDbSymbolTableRecord
100
AcDbBlockTableRecord
  2
block 146
340
0
102
{BLKREFS
331
3FA
102
}
  0
BLOCK_RECORD
  5
3FE
330
1
100
AcDbSymbolTableRecord
100
AcDbBlockTableRecord
  2
block 147
340
0
102
{BLKREFS
331
3FF
102
}
  0
BLOCK_RECORD
  5
406
330
1
100
AcDbSymbolTableRecord
100
AcDbBlockTableRecord
  2
block 148
340
0
102
{BLKREFS
331
407
102
}
  0
BLOCK_RECORD
  5
40E
330
1
100
AcDbSymbolTableRecord
100
AcDbBlockTableRecord
  2
block 149
340
0
102
{BLKREFS
331
40F
102
}
  0
BLOCK_RECORD
  5
413
330
1
100
AcDbSymbolTableRecord
100
AcDbBlockTableRecord
  2
block 150
340
0
102
{BLKREFS
331
414
102
}
  0
BLOCK_RECORD
  5
41B
330
1
100
AcDbSymbolTableRecord
100
AcDbBlockTableRecord
  2
block 151
340
0
102
{BLKREFS
331
41C
102
}
  0
BLOCK_RECORD
  5
423
330
1
100
AcDbSymbolTableRecord
100
AcDbBlockTableRecord
  2
block 152
340
0
102
{BLKREFS
331
424
102
}
  0
BLOCK_RECORD
  5
42B
330
1
100
AcDbSymbolTableRecord
100
AcDbBlockTableRecord
  2
block 153
340
0
102
{BLKREFS
331
42C
102
}
  0
BLOCK_RECORD
  5
430
330
1
100
AcDbSymbolTableRecord
100
AcDbBlockTableRecord
  2
block 154
340
0
102
{BLKREFS
331
431
102
}
  0
BLOCK_RECORD
  5
435
330
1
100
AcDbSymbolTableRecord
100
AcDbBlockTableRecord
  2
block 155
340
0
102
{BLKREFS
331
436
102
}
  0
BLOCK_RECORD
  5
43D
330
1
100
AcDbSymbolTableRecord
100
AcDbBlockTableRecord
  2
block 156
340
0
102
{BLKREFS
331
43E
102
}
  0
BLOCK_RECORD
  5
442
330
1
100
AcDbSymbolTableRecord
100
AcDbBlockTableRecord
  2
block 157
340
0
102
{BLKREFS
331
443
102
}
  0
BLOCK_RECORD
  5
44A
330
1
100
AcDbSymbolTableRecord
100
AcDbBlockTableRecord
  2
block 158
340
0
102
{BLKREFS
331
44B
102
}
  0
BLOCK_RECORD
  5
44F
330
1
100
AcDbSymbolTableRecord
100
AcDbBlockTableRecord
  2
block 159
340
0
102
{BLKREFS
331
450
102
}
  0
BLOCK_RECORD
  5
454
330
1
100
AcDbSymbolTableRecord
100
AcDbBlockTableRecord
  2
block 160
340
0
102
{BLKREFS
331
455
102
}
  0
BLOCK_RECORD
  5
45C
330
1
100
AcDbSymbolTableRecord
100
AcDbBlockTableRecord
  2
block 161
340
0
102
{BLKREFS
331
45D
102
}
  0
BLOCK_RECORD
  5
461
330
1
100
AcDbSymbolTableRecord
100
AcDbBlockTableRecord
  2
block 162
340
0
102
{BLKREFS
331
462
102
}
  0
BLOCK_RECORD
  5
466
330
1
100
AcDbSymbolTableRecord
100
AcDbBlockTableRecord
  2
block 163
340
0
102
{BLKREFS
331
467
102
}
  0
BLOCK_RECORD
  5
46B
330
1
100
AcDbSymbolTableRecord
100
AcDbBlockTableRecord
  2
block 164
340
0
102
{BLKREFS
331
46C
102
}
  0
BLOCK_RECORD
  5
470
330
1
100
AcDbSymbolTableRecord
100
AcDbBlockTableRecord
  2
block 165
340
0
102
{BLKREFS
331
471
102
}
  0
BLOCK_RECORD
  5
475
330
1
100
AcDbSymbolTableRecord
100
AcDbBlockTableRecord
  2
block 166
340
0
102
{BLKREFS
331
476
102
}
  0
BLOCK_RECORD
  5
47A
330
1
100
AcDbSymbolTableRecord
100
AcDbBlockTableRecord
  2
block 167
340
0
102
{BLKREFS
331
47B
102
}
  0
BLOCK_RECORD
  5
47F
330
1
100
AcDbSymbolTableRecord
100
AcDbBlockTableRecord
  2
block 168
340
0
102
{BLKREFS
331
480
102
}
  0
BLOCK_RECORD
  5
484
330
1
100
AcDbSymbolTableRecord
100
AcDbBlockTableRecord
  2
block 169
340
0
102
{BLKREFS
331
485
102
}
  0
BLOCK_RECORD
  5
489
330
1
100
AcDbSymbolTableRecord
100
AcDbBlockTableRecord
  2
block 170
340
0
102
{BLKREFS
331
48A
102
}
  0
BLOCK_RECORD
  5
48E
330
1
100
AcDbSymbolTableRecord
100
AcDbBlockTableRecord
  2
block 171
340
0
102
{BLKREFS
331
48F
102
}
  0
BLOCK_RECORD
  5
496
330
1
100
AcDbSymbolTableRecord
100
AcDbBlockTableRecord
  2
block 172
340
0
102
{BLKREFS
331
497
102
}
  0
BLOCK_RECORD
  5
49B
330
1
100
AcDbSymbolTableRecord
100
AcDbBlockTableRecord
  2
block 173
340
0
102
{BLKREFS
331
49C
102
}
  0
BLOCK_RECORD
  5
4A0
330
1
100
AcDbSymbolTableRecord
100
AcDbBlockTableRecord
  2
block 174
340
0
102
{BLKREFS
331
4A1
102
}
  0
BLOCK_RECORD
  5
4A5
330
1
100
AcDbSymbolTableRecord
100
AcDbBlockTableRecord
  2
block 175
340
0
102
{BLKREFS
331
4A6
102
}
  0
BLOCK_RECORD
  5
4AA
330
1
100
AcDbSymbolTableRecord
100
AcDbBlockTableRecord
  2
block 176
340
0
102
{BLKREFS
331
4AB
102
}
  0
BLOCK_RECORD
  5
4AF
330
1
100
AcDbSymbolTableRecord
100
AcDbBlockTableRecord
  2
block 177
340
0
102
{BLKREFS
331
4B0
102
}
  0
BLOCK_RECORD
  5
4B7
330
1
100
AcDbSymbolTableRecord
100
AcDbBlockTableRecord
  2
block 178
340
0
102
{BLKREFS
331
4B8
102
}
  0
BLOCK_RECORD
  5
4BF
330
1
100
AcDbSymbolTableRecord
100
AcDbBlockTableRecord
  2
block 179
340
0
102
{BLKREFS
331
4C0
102
}
  0
BLOCK_RECORD
  5
4C7
330
1
100
AcDbSymbolTableRecord
100
AcDbBlockTableRecord
  2
block 180
340
0
102
{BLKREFS
331
4C8
102
}
  0
BLOCK_RECORD
  5
4CF
330
1
100
AcDbSymbolTableRecord
100
AcDbBlockTableRecord
  2
block 181
340
0
102
{BLKREFS
331
4D0
102
}
  0
BLOCK_RECORD
  5
4D7
330
1
100
AcDbSymbolTableRecord
100
AcDbBlockTableRecord
  2
block 182
340
0
102
{BLKREFS
331
4D8
102
}
  0
BLOCK_RECORD
  5
4DF
330
1
100
AcDbSymbolTableRecord
100
AcDbBlockTableRecord
  2
block 183
340
0
102
{BLKREFS
331
4E0
102
}
  0
BLOCK_RECORD
  5
4E7
330
1
100
AcDbSymbolTableRecord
100
AcDbBlockTableRecord
  2
block 184
340
0
102
{BLKREFS
331
4E8
102
}
  0
BLOCK_RECORD
  5
4EB
330
1
100
AcDbSymbolTableRecord
100
AcDbBlockTableRecord
  2
block 185
340
0
102
{BLKREFS
331
4EC
102
}
  0
BLOCK_RECORD
  5
4EF
330
1
100
AcDbSymbolTableRecord
100
AcDbBlockTableRecord
  2
block 186
340
0
102
{BLKREFS
331
4F0
102
}
  0
BLOCK_RECORD
  5
4F7
330
1
100
AcDbSymbolTableRecord
100
AcDbBlockTableRecord
  2
block 187
340
0
102
{BLKREFS
331
4F8
102
}
  0
BLOCK_RECORD
  5
4FB
330
1
100
AcDbSymbolTableRecord
100
AcDbBlockTableRecord
  2
block 188
340
0
102
{BLKREFS
331
4FC
102
}
  0
BLOCK_RECORD
  5
4FF
330
1
100
AcDbSymbolTableRecord
100
AcDbBlockTableRecord
  2
block 189
340
0
102
{BLKREFS
331
500
102
}
  0
BLOCK_RECORD
  5
503
330
1
100
AcDbSymbolTableRecord
100
AcDbBlockTableRecord
  2
block 190
340
0
102
{BLKREFS
331
504
102
}
  0
BLOCK_RECORD
  5
52A
330
1
100
AcDbSymbolTableRecord
100
AcDbBlockTableRecord
  2
block 191
340
0
102
{BLKREFS
331
52B
102
}
  0
BLOCK_RECORD
  5
563
330
1
100
AcDbSymbolTableRecord
100
AcDbBlockTableRecord
  2
block 192
340
0
102
{BLKREFS
331
564
102
}
  0
BLOCK_RECORD
  5
56B
330
1
100
AcDbSymbolTableRecord
100
AcDbBlockTableRecord
  2
block 193
340
0
102
{BLKREFS
331
56C
102
}
  0
BLOCK_RECORD
  5
573
330
1
100
AcDbSymbolTableRecord
100
AcDbBlockTableRecord
  2
block 194
340
0
102
{BLKREFS
331
574
102
}
  0
BLOCK_RECORD
  5
57B
330
1
100
AcDbSymbolTableRecord
100
AcDbBlockTableRecord
  2
block 195
340
0
102
{BLKREFS
331
57C
102
}
  0
BLOCK_RECORD
  5
583
330
1
100
AcDbSymbolTableRecord
100
AcDbBlockTableRecord
  2
block 196
340
0
102
{BLKREFS
331
584
102
}
  0
ENDTAB
  0
ENDSEC
  0
SECTION
  2
BLOCKS
  0
BLOCK
  5
20
330
1F
100
AcDbEntity
  8
0
100
AcDbBlockBegin
  2
*Model_Space
 70
     0
 71
     0
 10
0.0
 20
0.0
 30
0.0
  3
*Model_Space
  1

  0
ENDBLK
  5
21
330
1F
100
AcDbEntity
  8
0
100
AcDbBlockEnd
  0
BLOCK
  5
1C
330
1B
100
AcDbEntity
 67
     1
  8
0
100
AcDbBlockBegin
  2
*Paper_Space
 70
     0
 71
     0
 10
0.0
 20
0.0
 30
0.0
  3
*Paper_Space
  1

  0
ENDBLK
  5
1D
330
1B
100
AcDbEntity
 67
     1
  8
0
100
AcDbBlockEnd
  0
BLOCK
  5
24
330
23
100
AcDbEntity
  8
0
100
AcDbBlockBegin
  2
*Paper_Space0
 70
     0
 71
     0
 10
0.0
 20
0.0
 30
0.0
  3
*Paper_Space0
  1

  0
ENDBLK
  5
25
330
23
100
AcDbEntity
  8
0
100
AcDbBlockEnd
  0
BLOCK
  5
3D
330
3B
100
AcDbEntity
  8
0
100
AcDbBlockBegin
  2
block 2
 70
     0
 71
     0
 10
0.0
 20
0.0
 30
0.0
  3
block 2
  1

  0
POLYLINE
  5
3F
330
3B
100
AcDbEntity
  8
0
 62
     7
420
 16777215
370
     9
100
AcDb2dPolyline
 66
     1
 10
0.0
 20
0.0
 30
0.0
  0
VERTEX
  5
40
330
3F
100
AcDbEntity
  8
0
 62
     7
420
 16777215
370
     9
100
AcDbVertex
100
AcDb2dVertex
 10
77.98547216276346
 20
259.2399889339712
 30
0.0
  0
VERTEX
  5
41
330
3F
100
AcDbEntity
  8
0
 62
     7
420
 16777215
370
     9
100
AcDbVertex
100
AcDb2dVertex
 10
77.98547216276346
 20
258.9626585644553
 30
0.0
  0
SEQEND
  5
42
330
3F
100
AcDbEntity
  8
0
370
     9
  0
ENDBLK
  5
3E
330
3B
100
AcDbEntity
  8
0
100
AcDbBlockEnd
  0
BLOCK
  5
45
330
43
100
AcDbEntity
  8
0
100
AcDbBlockBegin
  2
block 3
 70
     0
 71
     0
 10
0.0
 20
0.0
 30
0.0
  3
block 3
  1

  0
POLYLINE
  5
47
330
43
100
AcDbEntity
  8
0
 62
     7
420
 16777215
370
     9
100
AcDb2dPolyline
 66
     1
 10
0.0
 20
0.0
 30
0.0
  0
VERTEX
  5
48
330
47
100
AcDbEntity
  8
0
 62
     7
420
 16777215
370
     9
100
AcDbVertex
100
AcDb2dVertex
 10
82.17574456577226
 20
258.9626585644553
 30
0.0
  0
VERTEX
  5
49
330
47
100
AcDbEntity
  8
0
 62
     7
420
 16777215
370
     9
100
AcDbVertex
100
AcDb2dVertex
 10
82.17574456577226
 20
259.2399889339712
 30
0.0
  0
SEQEND
  5
4A
330
47
100
AcDbEntity
  8
0
370
     9
  0
ENDBLK
  5
46
330
43
100
AcDbEntity
  8
0
100
AcDbBlockEnd
  0
BLOCK
  5
4D
330
4B
100
AcDbEntity
  8
0
100
AcDbBlockBegin
  2
block 4
 70
     0
 71
     0
 10
0.0
 20
0.0
 30
0.0
  3
block 4
  1

  0
SPLINE
  5
4F
330
4B
100
AcDbEntity
  8
0
 62
     7
420
 16777215
370
     9
100
AcDbSpline
210
0.0
220
0.0
230
1.0
 70
     8
 71
     3
 72
    26
 73
    22
 74
     0
 42
0.0000000001
 43
0.0000000001
 40
0.0
 40
0.0
 40
0.0
 40
0.0
 40
1.0
 40
1.0
 40
1.0
 40
2.0
 40
2.0
 40
2.0
 40
3.0
 40
3.0
 40
3.0
 40
4.0
 40
4.0
 40
4.0
 40
5.0
 40
5.0
 40
5.0
 40
6.0
 40
6.0
 40
6.0
 40
7.0
 40
7.0
 40
7.0
 40
7.0
 10
78.11948646554816
 20
259.4354982317356
 30
0.0
 10
78.10088293765517
 20
259.4265409775648
 30
0.0
 10
78.08245166465008
 20
259.4174114685062
 30
0.0
 10
78.06608745029976
 20
259.4051813714655
 30
0.0
 10
78.06608745029976
 20
259.4051813714655
 30
0.0
 10
78.06608745029976
 20
259.4051813714655
 30
0.0
 10
78.06608745029976
 20
259.4051813714655
 30
0.0
 10
78.04903421639784
 20
259.392434509761
 30
0.0
 10
78.03439255092651
 20
259.3762425502986
 30
0.0
 10
78.02216245388574
 20
259.3585002968451
 30
0.0
 10
78.02216245388574
 20
259.3585002968451
 30
0.0
 10
78.02216245388574
 20
259.3585002968451
 30
0.0
 10
78.02216245388574
 20
259.3585002968451
 30
0.0
 10
78.00993235684498
 20
259.3407580433916
 30
0.0
 10
78.00011382823479
 20
259.3211209861712
 30
0.0
 10
77.99442941693415
 20
259.3006226545113
 30
0.0
 10
77.99442941693415
 20
259.3006226545113
 30
0.0
 10
77.99442941693415
 20
259.3006226545113
 30
0.0
 10
77.99442941693415
 20
259.3006226545113
 30
0.0
 10
77.98891726052142
 20
259.280985597291
 30
0.0
 10
77.98719471164243
 20
259.2604872656311
 30
0.0
 10
77.98547216276346
 20
259.2399889339712
 30
0.0
  0
ENDBLK
  5
4E
330
4B
100
AcDbEntity
  8
0
100
AcDbBlockEnd
  0
BLOCK
  5
52
330
50
100
AcDbEntity
  8
0
100
AcDbBlockBegin
  2
block 5
 70
     0
 71
     0
 10
0.0
 20
0.0
 30
0.0
  3
block 5
  1

  0
SPLINE
  5
54
330
50
100
AcDbEntity
  8
0
 62
     7
420
 16777215
370
     9
100
AcDbSpline
210
0.0
220
0.0
230
1.0
 70
     8
 71
     3
 72
    26
 73
    22
 74
     0
 42
0.0000000001
 43
0.0000000001
 40
0.0
 40
0.0
 40
0.0
 40
0.0
 40
1.0
 40
1.0
 40
1.0
 40
2.0
 40
2.0
 40
2.0
 40
3.0
 40
3.0
 40
3.0
 40
4.0
 40
4.0
 40
4.0
 40
5.0
 40
5.0
 40
5.0
 40
6.0
 40
6.0
 40
6.0
 40
7.0
 40
7.0
 40
7.0
 40
7.0
 10
82.17574456577226
 20
259.2399889339712
 30
0.0
 10
82.17402201689328
 20
259.2604872656311
 30
0.0
 10
82.1721272131264
 20
259.280985597291
 30
0.0
 10
82.16678731160155
 20
259.3006226545113
 30
0.0
 10
82.16678731160155
 20
259.3006226545113
 30
0.0
 10
82.16678731160155
 20
259.3006226545113
 30
0.0
 10
82.16678731160155
 20
259.3006226545113
 30
0.0
 10
82.16110290030092
 20
259.3211209861712
 30
0.0
 10
82.15128437169074
 20
259.3407580433916
 30
0.0
 10
82.13888201976206
 20
259.3585002968451
 30
0.0
 10
82.13888201976206
 20
259.3585002968451
 30
0.0
 10
82.13888201976206
 20
259.3585002968451
 30
0.0
 10
82.13888201976206
 20
259.3585002968451
 30
0.0
 10
82.12665192272131
 20
259.3762425502986
 30
0.0
 10
82.11201025724996
 20
259.392434509761
 30
0.0
 10
82.09512927823596
 20
259.4051813714655
 30
0.0
 10
82.09512927823596
 20
259.4051813714655
 30
0.0
 10
82.09512927823596
 20
259.4051813714655
 30
0.0
 10
82.09512927823596
 20
259.4051813714655
 30
0.0
 10
82.07859280899774
 20
259.4174114685062
 30
0.0
 10
82.06016153599265
 20
259.4265409775648
 30
0.0
 10
82.04173026298754
 20
259.4354982317356
 30
0.0
  0
ENDBLK
  5
53
330
50
100
AcDbEntity
  8
0
100
AcDbBlockEnd
  0
BLOCK
  5
57
330
55
100
AcDbEntity
  8
0
100
AcDbBlockBegin
  2
block 6
 70
     0
 71
     0
 10
0.0
 20
0.0
 30
0.0
  3
block 6
  1

  0
SPLINE
  5
59
330
55
100
AcDbEntity
  8
0
 62
     7
420
 16777215
370
     9
100
AcDbSpline
210
0.0
220
0.0
230
1.0
 70
     8
 71
     3
 72
     8
 73
     4
 74
     0
 42
0.0000000001
 43
0.0000000001
 40
0.0
 40
0.0
 40
0.0
 40
0.0
 40
1.0
 40
1.0
 40
1.0
 40
1.0
 10
80.08060836426786
 20
259.8006785940794
 30
0.0
 10
79.54179507492265
 20
259.8253110430489
 30
0.0
 10
78.61334122915197
 20
259.6521948807113
 30
0.0
 10
78.11948646554816
 20
259.4354982317356
 30
0.0
  0
ENDBLK
  5
58
330
55
100
AcDbEntity
  8
0
100
AcDbBlockEnd
  0
BLOCK
  5
5C
330
5A
100
AcDbEntity
  8
0
100
AcDbBlockBegin
  2
block 7
 70
     0
 71
     0
 10
0.0
 20
0.0
 30
0.0
  3
block 7
  1

  0
SPLINE
  5
5E
330
5A
100
AcDbEntity
  8
0
 62
     7
420
 16777215
370
     9
100
AcDbSpline
210
0.0
220
0.0
230
1.0
 70
     8
 71
     3
 72
     8
 73
     4
 74
     0
 42
0.0000000001
 43
0.0000000001
 40
0.0
 40
0.0
 40
0.0
 40
0.0
 40
1.0
 40
1.0
 40
1.0
 40
1.0
 10
82.04173026298754
 20
259.4354982317356
 30
0.0
 10
81.54770324449584
 20
259.6521948807113
 30
0.0
 10
80.61924939872516
 20
259.8253110430489
 30
0.0
 10
80.08060836426786
 20
259.8006785940794
 30
0.0
  0
ENDBLK
  5
5D
330
5A
100
AcDbEntity
  8
0
100
AcDbBlockEnd
  0
BLOCK
  5
61
330
5F
100
AcDbEntity
  8
0
100
AcDbBlockBegin
  2
block 8
 70
     0
 71
     0
 10
0.0
 20
0.0
 30
0.0
  3
block 8
  1

  0
POLYLINE
  5
63
330
5F
100
AcDbEntity
  8
0
 62
     7
420
 16777215
370
     9
100
AcDb2dPolyline
 66
     1
 10
0.0
 20
0.0
 30
0.0
  0
VERTEX
  5
64
330
63
100
AcDbEntity
  8
0
 62
     7
420
 16777215
370
     9
100
AcDbVertex
100
AcDb2dVertex
 10
82.17574456577226
 20
142.1574803552037
 30
0.0
  0
VERTEX
  5
65
330
63
100
AcDbEntity
  8
0
 62
     7
420
 16777215
370
     9
100
AcDbVertex
100
AcDb2dVertex
 10
82.17574456577226
 20
142.2604887781668
 30
0.0
  0
SEQEND
  5
66
330
63
100
AcDbEntity
  8
0
370
     9
  0
ENDBLK
  5
62
330
5F
100
AcDbEntity
  8
0
100
AcDbBlockEnd
  0
BLOCK
  5
69
330
67
100
AcDbEntity
  8
0
100
AcDbBlockBegin
  2
block 9
 70
     0
 71
     0
 10
0.0
 20
0.0
 30
0.0
  3
block 9
  1

  0
POLYLINE
  5
6B
330
67
100
AcDbEntity
  8
0
 62
     7
420
 16777215
370
     9
100
AcDb2dPolyline
 66
     1
 10
0.0
 20
0.0
 30
0.0
  0
VERTEX
  5
6C
330
6B
100
AcDbEntity
  8
0
 62
     7
420
 16777215
370
     9
100
AcDbVertex
100
AcDb2dVertex
 10
82.17574456577226
 20
146.0321818035832
 30
0.0
  0
VERTEX
  5
6D
330
6B
100
AcDbEntity
  8
0
 62
     7
420
 16777215
370
     9
100
AcDbVertex
100
AcDb2dVertex
 10
82.17574456577226
 20
258.9626585644553
 30
0.0
  0
SEQEND
  5
6E
330
6B
100
AcDbEntity
  8
0
370
     9
  0
ENDBLK
  5
6A
330
67
100
AcDbEntity
  8
0
100
AcDbBlockEnd
  0
BLOCK
  5
71
330
6F
100
AcDbEntity
  8
0
100
AcDbBlockBegin
  2
block 10
 70
     0
 71
     0
 10
0.0
 20
0.0
 30
0.0
  3
block 10
  1

  0
POLYLINE
  5
73
330
6F
100
AcDbEntity
  8
0
 62
     7
420
 16777215
370
     9
100
AcDb2dPolyline
 66
     1
 10
0.0
 20
0.0
 30
0.0
  0
VERTEX
  5
74
330
73
100
AcDbEntity
  8
0
 62
     7
420
 16777215
370
     9
100
AcDbVertex
100
AcDb2dVertex
 10
77.98547216276346
 20
258.9626585644553
 30
0.0
  0
VERTEX
  5
75
330
73
100
AcDbEntity
  8
0
 62
     7
420
 16777215
370
     9
100
AcDbVertex
100
AcDb2dVertex
 10
77.98547216276346
 20
146.0321818035832
 30
0.0
  0
SEQEND
  5
76
330
73
100
AcDbEntity
  8
0
370
     9
  0
ENDBLK
  5
72
330
6F
100
AcDbEntity
  8
0
100
AcDbBlockEnd
  0
BLOCK
  5
79
330
77
100
AcDbEntity
  8
0
100
AcDbBlockBegin
  2
block 11
 70
     0
 71
     0
 10
0.0
 20
0.0
 30
0.0
  3
block 11
  1

  0
POLYLINE
  5
7B
330
77
100
AcDbEntity
  8
0
 62
     7
420
 16777215
370
     9
100
AcDb2dPolyline
 66
     1
 10
0.0
 20
0.0
 30
0.0
  0
VERTEX
  5
7C
330
7B
100
AcDbEntity
  8
0
 62
     7
420
 16777215
370
     9
100
AcDbVertex
100
AcDb2dVertex
 10
77.98547216276346
 20
142.2604887781668
 30
0.0
  0
VERTEX
  5
7D
330
7B
100
AcDbEntity
  8
0
 62
     7
420
 16777215
370
     9
100
AcDbVertex
100
AcDb2dVertex
 10
77.98547216276346
 20
142.1574803552037
 30
0.0
  0
SEQEND
  5
7E
330
7B
100
AcDbEntity
  8
0
370
     9
  0
ENDBLK
  5
7A
330
77
100
AcDbEntity
  8
0
100
AcDbBlockEnd
  0
BLOCK
  5
81
330
7F
100
AcDbEntity
  8
0
100
AcDbBlockBegin
  2
block 12
 70
     0
 71
     0
 10
0.0
 20
0.0
 30
0.0
  3
block 12
  1

  0
SPLINE
  5
83
330
7F
100
AcDbEntity
  8
0
 62
     7
420
 16777215
370
     9
100
AcDbSpline
210
0.0
220
0.0
230
1.0
 70
     8
 71
     3
 72
    26
 73
    22
 74
     0
 42
0.0000000001
 43
0.0000000001
 40
0.0
 40
0.0
 40
0.0
 40
0.0
 40
1.0
 40
1.0
 40
1.0
 40
2.0
 40
2.0
 40
2.0
 40
3.0
 40
3.0
 40
3.0
 40
4.0
 40
4.0
 40
4.0
 40
5.0
 40
5.0
 40
5.0
 40
6.0
 40
6.0
 40
6.0
 40
7.0
 40
7.0
 40
7.0
 40
7.0
 10
73.37041920619798
 20
146.2089153185667
 30
0.0
 10
73.05915462376613
 20
146.2061592403603
 30
0.0
 10
72.7478900413343
 20
146.2034031621539
 30
0.0
 10
72.44541045818526
 20
146.2003025741718
 30
0.0
 10
72.44541045818526
 20
146.2003025741718
 30
0.0
 10
72.44541045818526
 20
146.2003025741718
 30
0.0
 10
72.44541045818526
 20
146.2003025741718
 30
0.0
 10
71.85113109493687
 20
146.1944459079832
 30
0.0
 10
71.29095819949231
 20
146.1879002222431
 30
0.0
 10
70.75042236126811
 20
146.181354536503
 30
0.0
 10
70.75042236126811
 20
146.181354536503
 30
0.0
 10
70.75042236126811
 20
146.181354536503
 30
0.0
 10
70.75042236126811
 20
146.181354536503
 30
0.0
 10
70.3197851415229
 20
146.1758423800902
 30
0.0
 10
69.90155027370635
 20
146.1706747334533
 30
0.0
 10
69.5105316781777
 20
146.1651625770405
 30
0.0
 10
69.5105316781777
 20
146.1651625770405
 30
0.0
 10
69.5105316781777
 20
146.1651625770405
 30
0.0
 10
69.5105316781777
 20
146.1651625770405
 30
0.0
 10
69.16929474525159
 20
146.1603394401794
 30
0.0
 10
68.84872839887326
 20
146.1551717935425
 30
0.0
 10
68.52833430738282
 20
146.1503486566813
 30
0.0
  0
ENDBLK
  5
82
330
7F
100
AcDbEntity
  8
0
100
AcDbBlockEnd
  0
BLOCK
  5
86
330
84
100
AcDbEntity
  8
0
100
AcDbBlockBegin
  2
block 13
 70
     0
 71
     0
 10
0.0
 20
0.0
 30
0.0
  3
block 13
  1

  0
POLYLINE
  5
88
330
84
100
AcDbEntity
  8
0
 62
     7
420
 16777215
370
     9
100
AcDb2dPolyline
 66
     1
 10
0.0
 20
0.0
 30
0.0
  0
VERTEX
  5
89
330
88
100
AcDbEntity
  8
0
 62
     7
420
 16777215
370
     9
100
AcDbVertex
100
AcDb2dVertex
 10
64.43693621002753
 20
146.0321818035832
 30
0.0
  0
VERTEX
  5
8A
330
88
100
AcDbEntity
  8
0
 62
     7
420
 16777215
370
     9
100
AcDbVertex
100
AcDb2dVertex
 10
64.46983689361606
 20
142.2604887781668
 30
0.0
  0
SEQEND
  5
8B
330
88
100
AcDbEntity
  8
0
370
     9
  0
ENDBLK
  5
87
330
84
100
AcDbEntity
  8
0
100
AcDbBlockEnd
  0
BLOCK
  5
8E
330
8C
100
AcDbEntity
  8
0
100
AcDbBlockBegin
  2
block 14
 70
     0
 71
     0
 10
0.0
 20
0.0
 30
0.0
  3
block 14
  1

  0
POLYLINE
  5
90
330
8C
100
AcDbEntity
  8
0
 62
     7
420
 16777215
370
     9
100
AcDb2dPolyline
 66
     1
 10
0.0
 20
0.0
 30
0.0
  0
VERTEX
  5
91
330
90
100
AcDbEntity
  8
0
 62
     7
420
 16777215
370
     9
100
AcDbVertex
100
AcDb2dVertex
 10
95.69120758003176
 20
142.2604887781668
 30
0.0
  0
VERTEX
  5
92
330
90
100
AcDbEntity
  8
0
 62
     7
420
 16777215
370
     9
100
AcDbVertex
100
AcDb2dVertex
 10
95.7242805185082
 20
146.0321818035832
 30
0.0
  0
SEQEND
  5
93
330
90
100
AcDbEntity
  8
0
370
     9
  0
ENDBLK
  5
8F
330
8C
100
AcDbEntity
  8
0
100
AcDbBlockEnd
  0
BLOCK
  5
96
330
94
100
AcDbEntity
  8
0
100
AcDbBlockBegin
  2
block 15
 70
     0
 71
     0
 10
0.0
 20
0.0
 30
0.0
  3
block 15
  1

  0
SPLINE
  5
98
330
94
100
AcDbEntity
  8
0
 62
     7
420
 16777215
370
     9
100
AcDbSpline
210
0.0
220
0.0
230
1.0
 70
     8
 71
     3
 72
    26
 73
    22
 74
     0
 42
0.0000000001
 43
0.0000000001
 40
0.0
 40
0.0
 40
0.0
 40
0.0
 40
1.0
 40
1.0
 40
1.0
 40
2.0
 40
2.0
 40
2.0
 40
3.0
 40
3.0
 40
3.0
 40
4.0
 40
4.0
 40
4.0
 40
5.0
 40
5.0
 40
5.0
 40
6.0
 40
6.0
 40
6.0
 40
7.0
 40
7.0
 40
7.0
 40
7.0
 10
68.65201331689364
 20
142.1426664348445
 30
0.0
 10
68.93985123457135
 20
142.1381878077592
 30
0.0
 10
69.22803366202484
 20
142.1337091806738
 30
0.0
 10
69.53378608804394
 20
142.1295750633642
 30
0.0
 10
69.53378608804394
 20
142.1295750633642
 30
0.0
 10
69.53378608804394
 20
142.1295750633642
 30
0.0
 10
69.53378608804394
 20
142.1295750633642
 30
0.0
 10
69.92308213469362
 20
142.1240629069515
 30
0.0
 10
70.34114474762227
 20
142.1188952603146
 30
0.0
 10
70.77092069292799
 20
142.1137276136776
 30
0.0
 10
70.77092069292799
 20
142.1137276136776
 30
0.0
 10
70.77092069292799
 20
142.1137276136776
 30
0.0
 10
70.77092069292799
 20
142.1137276136776
 30
0.0
 10
71.31059525671269
 20
142.1071819279375
 30
0.0
 10
71.86870109350248
 20
142.1006362421974
 30
0.0
 10
72.46211918231138
 20
142.0951240857846
 30
0.0
 10
72.46211918231138
 20
142.0951240857846
 30
0.0
 10
72.46211918231138
 20
142.0951240857846
 30
0.0
 10
72.46211918231138
 20
142.0951240857846
 30
0.0
 10
72.73910504205149
 20
142.0923680075782
 30
0.0
 10
73.02384237174704
 20
142.0896119293719
 30
0.0
 10
73.30840744655467
 20
142.0868558511655
 30
0.0
  0
ENDBLK
  5
97
330
94
100
AcDbEntity
  8
0
100
AcDbBlockEnd
  0
BLOCK
  5
9B
330
99
100
AcDbEntity
  8
0
100
AcDbBlockBegin
  2
block 16
 70
     0
 71
     0
 10
0.0
 20
0.0
 30
0.0
  3
block 16
  1

  0
SPLINE
  5
9D
330
99
100
AcDbEntity
  8
0
 62
     7
420
 16777215
370
     9
100
AcDbSpline
210
0.0
220
0.0
230
1.0
 70
     8
 71
     3
 72
    26
 73
    22
 74
     0
 42
0.0000000001
 43
0.0000000001
 40
0.0
 40
0.0
 40
0.0
 40
0.0
 40
1.0
 40
1.0
 40
1.0
 40
2.0
 40
2.0
 40
2.0
 40
3.0
 40
3.0
 40
3.0
 40
4.0
 40
4.0
 40
4.0
 40
5.0
 40
5.0
 40
5.0
 40
6.0
 40
6.0
 40
6.0
 40
7.0
 40
7.0
 40
7.0
 40
7.0
 10
91.67026173182677
 20
146.1500041469055
 30
0.0
 10
91.34797283656945
 20
146.1548272837667
 30
0.0
 10
91.02568394131214
 20
146.1603394401794
 30
0.0
 10
90.68220769484336
 20
146.1651625770405
 30
0.0
 10
90.68220769484336
 20
146.1651625770405
 30
0.0
 10
90.68220769484336
 20
146.1651625770405
 30
0.0
 10
90.68220769484336
 20
146.1651625770405
 30
0.0
 10
90.29342841285738
 20
146.1706747334533
 30
0.0
 10
89.8779496232472
 20
146.1758423800902
 30
0.0
 10
89.44989622682047
 20
146.181354536503
 30
0.0
 10
89.44989622682047
 20
146.181354536503
 30
0.0
 10
89.44989622682047
 20
146.181354536503
 30
0.0
 10
89.44989622682047
 20
146.181354536503
 30
0.0
 10
88.91246097657844
 20
146.1879002222431
 30
0.0
 10
88.35556092400394
 20
146.1944459079832
 30
0.0
 10
87.76455440362561
 20
146.2003025741718
 30
0.0
 10
87.76455440362561
 20
146.2003025741718
 30
0.0
 10
87.76455440362561
 20
146.2003025741718
 30
0.0
 10
87.76455440362561
 20
146.2003025741718
 30
0.0
 10
87.46276384002816
 20
146.2034031621539
 30
0.0
 10
87.15201602226001
 20
146.2061592403603
 30
0.0
 10
86.84126820449187
 20
146.2089153185667
 30
0.0
  0
ENDBLK
  5
9C
330
99
100
AcDbEntity
  8
0
100
AcDbBlockEnd
  0
BLOCK
  5
A0
330
9E
100
AcDbEntity
  8
0
100
AcDbBlockBegin
  2
block 17
 70
     0
 71
     0
 10
0.0
 20
0.0
 30
0.0
  3
block 17
  1

  0
SPLINE
  5
A2
330
9E
100
AcDbEntity
  8
0
 62
     7
420
 16777215
370
     9
100
AcDbSpline
210
0.0
220
0.0
230
1.0
 70
     8
 71
     3
 72
    26
 73
    22
 74
     0
 42
0.0000000001
 43
0.0000000001
 40
0.0
 40
0.0
 40
0.0
 40
0.0
 40
1.0
 40
1.0
 40
1.0
 40
2.0
 40
2.0
 40
2.0
 40
3.0
 40
3.0
 40
3.0
 40
4.0
 40
4.0
 40
4.0
 40
5.0
 40
5.0
 40
5.0
 40
6.0
 40
6.0
 40
6.0
 40
7.0
 40
7.0
 40
7.0
 40
7.0
 10
86.89621751373136
 20
142.0868558511655
 30
0.0
 10
87.18250513741798
 20
142.0896119293719
 30
0.0
 10
87.4691372708804
 20
142.0923680075782
 30
0.0
 10
87.74784567949949
 20
142.0951240857846
 30
0.0
 10
87.74784567949949
 20
142.0951240857846
 30
0.0
 10
87.74784567949949
 20
142.0951240857846
 30
0.0
 10
87.74784567949949
 20
142.0951240857846
 30
0.0
 10
88.33799092543833
 20
142.1006362421974
 30
0.0
 10
88.89282391935807
 20
142.1071819279375
 30
0.0
 10
89.42939789516059
 20
142.1137276136776
 30
0.0
 10
89.42939789516059
 20
142.1137276136776
 30
0.0
 10
89.42939789516059
 20
142.1137276136776
 30
0.0
 10
89.42939789516059
 20
142.1137276136776
 30
0.0
 10
89.85659001714784
 20
142.1188952603146
 30
0.0
 10
90.27224106164591
 20
142.1240629069515
 30
0.0
 10
90.65895328497712
 20
142.1295750633642
 30
0.0
 10
90.65895328497712
 20
142.1295750633642
 30
0.0
 10
90.65895328497712
 20
142.1295750633642
 30
0.0
 10
90.65895328497712
 20
142.1295750633642
 30
0.0
 10
90.95609296660132
 20
142.1337091806738
 30
0.0
 10
91.2363516692115
 20
142.1378432979834
 30
0.0
 10
91.51643811693378
 20
142.1423219250687
 30
0.0
  0
ENDBLK
  5
A1
330
9E
100
AcDbEntity
  8
0
100
AcDbBlockEnd
  0
BLOCK
  5
A5
330
A3
100
AcDbEntity
  8
0
100
AcDbBlockBegin
  2
block 18
 70
     0
 71
     0
 10
0.0
 20
0.0
 30
0.0
  3
block 18
  1

  0
POLYLINE
  5
A7
330
A3
100
AcDbEntity
  8
0
 62
     7
420
 16777215
370
     9
100
AcDb2dPolyline
 66
     1
 10
0.0
 20
0.0
 30
0.0
  0
VERTEX
  5
A8
330
A7
100
AcDbEntity
  8
0
 62
     7
420
 16777215
370
     9
100
AcDbVertex
100
AcDb2dVertex
 10
66.73619445369116
 20
135.4533201182103
 30
0.0
  0
VERTEX
  5
A9
330
A7
100
AcDbEntity
  8
0
 62
     7
420
 16777215
370
     9
100
AcDbVertex
100
AcDb2dVertex
 10
67.08449383702109
 20
99.93436223362527
 30
0.0
  0
SEQEND
  5
AA
330
A7
100
AcDbEntity
  8
0
370
     9
  0
ENDBLK
  5
A6
330
A3
100
AcDbEntity
  8
0
100
AcDbBlockEnd
  0
BLOCK
  5
AD
330
AB
100
AcDbEntity
  8
0
100
AcDbBlockBegin
  2
block 19
 70
     0
 71
     0
 10
0.0
 20
0.0
 30
0.0
  3
block 19
  1

  0
POLYLINE
  5
AF
330
AB
100
AcDbEntity
  8
0
 62
     7
420
 16777215
370
     9
100
AcDb2dPolyline
 66
     1
 10
0.0
 20
0.0
 30
0.0
  0
VERTEX
  5
B0
330
AF
100
AcDbEntity
  8
0
 62
     7
420
 16777215
370
     9
100
AcDbVertex
100
AcDb2dVertex
 10
93.07672289151463
 20
99.93436223362527
 30
0.0
  0
VERTEX
  5
B1
330
AF
100
AcDbEntity
  8
0
 62
     7
420
 16777215
370
     9
100
AcDbVertex
100
AcDb2dVertex
 10
93.42485001995666
 20
135.4533201182103
 30
0.0
  0
SEQEND
  5
B2
330
AF
100
AcDbEntity
  8
0
370
     9
  0
ENDBLK
  5
AE
330
AB
100
AcDbEntity
  8
0
100
AcDbBlockEnd
  0
BLOCK
  5
B5
330
B3
100
AcDbEntity
  8
0
100
AcDbBlockBegin
  2
block 20
 70
     0
 71
     0
 10
0.0
 20
0.0
 30
0.0
  3
block 20
  1

  0
SPLINE
  5
B7
330
B3
100
AcDbEntity
  8
0
 62
     7
420
 16777215
370
     9
100
AcDbSpline
210
0.0
220
0.0
230
1.0
 70
     8
 71
     3
 72
    38
 73
    34
 74
     0
 42
0.0000000001
 43
0.0000000001
 40
0.0
 40
0.0
 40
0.0
 40
0.0
 40
1.0
 40
1.0
 40
1.0
 40
2.0
 40
2.0
 40
2.0
 40
3.0
 40
3.0
 40
3.0
 40
4.0
 40
4.0
 40
4.0
 40
5.0
 40
5.0
 40
5.0
 40
6.0
 40
6.0
 40
6.0
 40
7.0
 40
7.0
 40
7.0
 40
8.0
 40
8.0
 40
8.0
 40
9.0
 40
9.0
 40
9.0
 40
10.0
 40
10.0
 40
10.0
 40
11.0
 40
11.0
 40
11.0
 40
11.0
 10
67.08449383702109
 20
99.93436223362527
 30
0.0
 10
67.09362334607968
 20
99.85581400474375
 30
0.0
 10
67.10275285513828
 20
99.77726577586222
 30
0.0
 10
67.13048589208987
 20
99.70457421316922
 30
0.0
 10
67.13048589208987
 20
99.70457421316922
 30
0.0
 10
67.13048589208987
 20
99.70457421316922
 30
0.0
 10
67.13048589208987
 20
99.70457421316922
 30
0.0
 10
67.14529981244911
 20
99.66564460850427
 30
0.0
 10
67.16562588922108
 20
99.62809304294248
 30
0.0
 10
67.18905255397522
 20
99.59295304581127
 30
0.0
 10
67.18905255397522
 20
99.59295304581127
 30
0.0
 10
67.18905255397522
 20
99.59295304581127
 30
0.0
 10
67.18905255397522
 20
99.59295304581127
 30
0.0
 10
67.21316823828094
 20
99.55712402912846
 30
0.0
 10
67.24021225568094
 20
99.52405109065204
 30
0.0
 10
67.2707013708389
 20
99.49373423038197
 30
0.0
 10
67.2707013708389
 20
99.49373423038197
 30
0.0
 10
67.2707013708389
 20
99.49373423038197
 30
0.0
 10
67.2707013708389
 20
99.49373423038197
 30
0.0
 10
67.30119048599687
 20
99.46341737011191
 30
0.0
 10
67.33495244402489
 20
99.43654560759981
 30
0.0
 10
67.3707814607077
 20
99.41311894284567
 30
0.0
 10
67.3707814607077
 20
99.41311894284567
 30
0.0
 10
67.3707814607077
 20
99.41311894284567
 30
0.0
 10
67.3707814607077
 20
99.41311894284567
 30
0.0
 10
67.4062659676147
 20
99.38969227809153
 30
0.0
 10
67.44381753317649
 20
99.37005522087115
 30
0.0
 10
67.48291939272934
 20
99.3555858102877
 30
0.0
 10
67.48291939272934
 20
99.3555858102877
 30
0.0
 10
67.48291939272934
 20
99.3555858102877
 30
0.0
 10
67.48291939272934
 20
99.3555858102877
 30
0.0
 10
67.55578321031024
 20
99.3283695379998
 30
0.0
 10
67.63433143919177
 20
99.3201013033807
 30
0.0
 10
67.71305192296118
 20
99.31183306876159
 30
0.0
  0
ENDBLK
  5
B6
330
B3
100
AcDbEntity
  8
0
100
AcDbBlockEnd
  0
BLOCK
  5
BA
330
B8
100
AcDbEntity
  8
0
100
AcDbBlockBegin
  2
block 21
 70
     0
 71
     0
 10
0.0
 20
0.0
 30
0.0
  3
block 21
  1

  0
SPLINE
  5
BC
330
B8
100
AcDbEntity
  8
0
 62
     7
420
 16777215
370
     9
100
AcDbSpline
210
0.0
220
0.0
230
1.0
 70
     8
 71
     3
 72
    38
 73
    34
 74
     0
 42
0.0000000001
 43
0.0000000001
 40
0.0
 40
0.0
 40
0.0
 40
0.0
 40
1.0
 40
1.0
 40
1.0
 40
2.0
 40
2.0
 40
2.0
 40
3.0
 40
3.0
 40
3.0
 40
4.0
 40
4.0
 40
4.0
 40
5.0
 40
5.0
 40
5.0
 40
6.0
 40
6.0
 40
6.0
 40
7.0
 40
7.0
 40
7.0
 40
8.0
 40
8.0
 40
8.0
 40
9.0
 40
9.0
 40
9.0
 40
10.0
 40
10.0
 40
10.0
 40
11.0
 40
11.0
 40
11.0
 40
11.0
 10
92.44799255068662
 20
99.31183306876159
 30
0.0
 10
92.52671303445605
 20
99.3201013033807
 30
0.0
 10
92.60526126333758
 20
99.3283695379998
 30
0.0
 10
92.67829733580636
 20
99.3555858102877
 30
0.0
 10
92.67829733580636
 20
99.3555858102877
 30
0.0
 10
92.67829733580636
 20
99.3555858102877
 30
0.0
 10
92.67829733580636
 20
99.3555858102877
 30
0.0
 10
92.71739919535922
 20
99.37005522087115
 30
0.0
 10
92.754950760921
 20
99.38969227809153
 30
0.0
 10
92.79026301294012
 20
99.41311894284567
 30
0.0
 10
92.79026301294012
 20
99.41311894284567
 30
0.0
 10
92.79026301294012
 20
99.41311894284567
 30
0.0
 10
92.79026301294012
 20
99.41311894284567
 30
0.0
 10
92.82626428451081
 20
99.43654560759981
 30
0.0
 10
92.85985398765094
 20
99.46341737011191
 30
0.0
 10
92.8903431028089
 20
99.49373423038197
 30
0.0
 10
92.8903431028089
 20
99.49373423038197
 30
0.0
 10
92.8903431028089
 20
99.49373423038197
 30
0.0
 10
92.8903431028089
 20
99.49373423038197
 30
0.0
 10
92.92083221796686
 20
99.52405109065204
 30
0.0
 10
92.94804849025476
 20
99.55712402912846
 30
0.0
 10
92.97199191967259
 20
99.59295304581127
 30
0.0
 10
92.97199191967259
 20
99.59295304581127
 30
0.0
 10
92.97199191967259
 20
99.59295304581127
 30
0.0
 10
92.97199191967259
 20
99.59295304581127
 30
0.0
 10
92.99541858442673
 20
99.62809304294248
 30
0.0
 10
93.01574466119871
 20
99.66564460850427
 30
0.0
 10
93.03073083644584
 20
99.70457421316922
 30
0.0
 10
93.03073083644584
 20
99.70457421316922
 30
0.0
 10
93.03073083644584
 20
99.70457421316922
 30
0.0
 10
93.03073083644584
 20
99.70457421316922
 30
0.0
 10
93.05846387339743
 20
99.77726577586222
 30
0.0
 10
93.06742112756814
 20
99.85581400474375
 30
0.0
 10
93.07672289151463
 20
99.93436223362527
 30
0.0
  0
ENDBLK
  5
BB
330
B8
100
AcDbEntity
  8
0
100
AcDbBlockEnd
  0
BLOCK
  5
BF
330
BD
100
AcDbEntity
  8
0
100
AcDbBlockBegin
  2
block 22
 70
     0
 71
     0
 10
0.0
 20
0.0
 30
0.0
  3
block 22
  1

  0
POLYLINE
  5
C1
330
BD
100
AcDbEntity
  8
0
 62
     7
420
 16777215
370
     9
100
AcDb2dPolyline
 66
     1
 10
0.0
 20
0.0
 30
0.0
  0
VERTEX
  5
C2
330
C1
100
AcDbEntity
  8
0
 62
     7
420
 16777215
370
     9
100
AcDbVertex
100
AcDb2dVertex
 10
64.99538655659312
 20
142.1574803552037
 30
0.0
  0
VERTEX
  5
C3
330
C1
100
AcDbEntity
  8
0
 62
     7
420
 16777215
370
     9
100
AcDbVertex
100
AcDb2dVertex
 10
64.99538655659312
 20
141.8546562622789
 30
0.0
  0
SEQEND
  5
C4
330
C1
100
AcDbEntity
  8
0
370
     9
  0
ENDBLK
  5
C0
330
BD
100
AcDbEntity
  8
0
100
AcDbBlockEnd
  0
BLOCK
  5
C7
330
C5
100
AcDbEntity
  8
0
100
AcDbBlockBegin
  2
block 23
 70
     0
 71
     0
 10
0.0
 20
0.0
 30
0.0
  3
block 23
  1

  0
POLYLINE
  5
C9
330
C5
100
AcDbEntity
  8
0
 62
     7
420
 16777215
370
     9
100
AcDb2dPolyline
 66
     1
 10
0.0
 20
0.0
 30
0.0
  0
VERTEX
  5
CA
330
C9
100
AcDbEntity
  8
0
 62
     7
420
 16777215
370
     9
100
AcDbVertex
100
AcDb2dVertex
 10
95.1656579170547
 20
141.8546562622789
 30
0.0
  0
VERTEX
  5
CB
330
C9
100
AcDbEntity
  8
0
 62
     7
420
 16777215
370
     9
100
AcDbVertex
100
AcDb2dVertex
 10
95.1656579170547
 20
142.1574803552037
 30
0.0
  0
SEQEND
  5
CC
330
C9
100
AcDbEntity
  8
0
370
     9
  0
ENDBLK
  5
C8
330
C5
100
AcDbEntity
  8
0
100
AcDbBlockEnd
  0
BLOCK
  5
CF
330
CD
100
AcDbEntity
  8
0
100
AcDbBlockBegin
  2
block 24
 70
     0
 71
     0
 10
0.0
 20
0.0
 30
0.0
  3
block 24
  1

  0
POLYLINE
  5
D1
330
CD
100
AcDbEntity
  8
0
 62
     7
420
 16777215
370
     9
100
AcDb2dPolyline
 66
     1
 10
0.0
 20
0.0
 30
0.0
  0
VERTEX
  5
D2
330
D1
100
AcDbEntity
  8
0
 62
     7
420
 16777215
370
     9
100
AcDbVertex
100
AcDb2dVertex
 10
66.08731029097908
 20
135.5597736389313
 30
0.0
  0
VERTEX
  5
D3
330
D1
100
AcDbEntity
  8
0
 62
     7
420
 16777215
370
     9
100
AcDbVertex
100
AcDb2dVertex
 10
66.25250272847333
 20
135.4533201182103
 30
0.0
  0
SEQEND
  5
D4
330
D1
100
AcDbEntity
  8
0
370
     9
  0
ENDBLK
  5
D0
330
CD
100
AcDbEntity
  8
0
100
AcDbBlockEnd
  0
BLOCK
  5
D7
330
D5
100
AcDbEntity
  8
0
100
AcDbBlockBegin
  2
block 25
 70
     0
 71
     0
 10
0.0
 20
0.0
 30
0.0
  3
block 25
  1

  0
POLYLINE
  5
D9
330
D5
100
AcDbEntity
  8
0
 62
     7
420
 16777215
370
     9
100
AcDb2dPolyline
 66
     1
 10
0.0
 20
0.0
 30
0.0
  0
VERTEX
  5
DA
330
D9
100
AcDbEntity
  8
0
 62
     7
420
 16777215
370
     9
100
AcDbVertex
100
AcDb2dVertex
 10
93.90854174517447
 20
135.4533201182103
 30
0.0
  0
VERTEX
  5
DB
330
D9
100
AcDbEntity
  8
0
 62
     7
420
 16777215
370
     9
100
AcDbVertex
100
AcDb2dVertex
 10
94.07373418266874
 20
135.5597736389313
 30
0.0
  0
SEQEND
  5
DC
330
D9
100
AcDbEntity
  8
0
370
     9
  0
ENDBLK
  5
D8
330
D5
100
AcDbEntity
  8
0
100
AcDbBlockEnd
  0
BLOCK
  5
DF
330
DD
100
AcDbEntity
  8
0
100
AcDbBlockBegin
  2
block 26
 70
     0
 71
     0
 10
0.0
 20
0.0
 30
0.0
  3
block 26
  1

  0
SPLINE
  5
E1
330
DD
100
AcDbEntity
  8
0
 62
     7
420
 16777215
370
     9
100
AcDbSpline
210
0.0
220
0.0
230
1.0
 70
     8
 71
     3
 72
    26
 73
    22
 74
     0
 42
0.0000000001
 43
0.0000000001
 40
0.0
 40
0.0
 40
0.0
 40
0.0
 40
1.0
 40
1.0
 40
1.0
 40
2.0
 40
2.0
 40
2.0
 40
3.0
 40
3.0
 40
3.0
 40
4.0
 40
4.0
 40
4.0
 40
5.0
 40
5.0
 40
5.0
 40
6.0
 40
6.0
 40
6.0
 40
7.0
 40
7.0
 40
7.0
 40
7.0
 10
88.83890813944596
 20
135.3837291434995
 30
0.0
 10
89.2574875170383
 20
135.3875187510332
 30
0.0
 10
89.67623914951855
 20
135.3916528683428
 30
0.0
 10
90.07500921500261
 20
135.3957869856523
 30
0.0
 10
90.07500921500261
 20
135.3957869856523
 30
0.0
 10
90.07500921500261
 20
135.3957869856523
 30
0.0
 10
90.07500921500261
 20
135.3957869856523
 30
0.0
 10
90.50650770918732
 20
135.4002656127377
 30
0.0
 10
90.91475179350577
 20
135.4054332593746
 30
0.0
 10
91.30628715369812
 20
135.4102563962358
 30
0.0
 10
91.30628715369812
 20
135.4102563962358
 30
0.0
 10
91.30628715369812
 20
135.4102563962358
 30
0.0
 10
91.30628715369812
 20
135.4102563962358
 30
0.0
 10
91.69833927855416
 20
135.4157685526485
 30
0.0
 10
92.07368267928409
 20
135.4209361992854
 30
0.0
 10
92.41905372951975
 20
135.426792865474
 30
0.0
 10
92.41905372951975
 20
135.426792865474
 30
0.0
 10
92.41905372951975
 20
135.426792865474
 30
0.0
 10
92.41905372951975
 20
135.426792865474
 30
0.0
 10
92.73720850746751
 20
135.4319605121109
 30
0.0
 10
93.02986956200635
 20
135.4374726685237
 30
0.0
 10
93.3227028714331
 20
135.4429848249364
 30
0.0
  0
ENDBLK
  5
E0
330
DD
100
AcDbEntity
  8
0
100
AcDbBlockEnd
  0
BLOCK
  5
E4
330
E2
100
AcDbEntity
  8
0
100
AcDbBlockBegin
  2
block 27
 70
     0
 71
     0
 10
0.0
 20
0.0
 30
0.0
  3
block 27
  1

  0
SPLINE
  5
E6
330
E2
100
AcDbEntity
  8
0
 62
     7
420
 16777215
370
     9
100
AcDbSpline
210
0.0
220
0.0
230
1.0
 70
     8
 71
     3
 72
    26
 73
    22
 74
     0
 42
0.0000000001
 43
0.0000000001
 40
0.0
 40
0.0
 40
0.0
 40
0.0
 40
1.0
 40
1.0
 40
1.0
 40
2.0
 40
2.0
 40
2.0
 40
3.0
 40
3.0
 40
3.0
 40
4.0
 40
4.0
 40
4.0
 40
5.0
 40
5.0
 40
5.0
 40
6.0
 40
6.0
 40
6.0
 40
7.0
 40
7.0
 40
7.0
 40
7.0
 10
66.92429679127586
 20
135.4412622760574
 30
0.0
 10
67.18974157352682
 20
135.4364391391963
 30
0.0
 10
67.45501410088985
 20
135.4312714925593
 30
0.0
 10
67.74216299901596
 20
135.426792865474
 30
0.0
 10
67.74216299901596
 20
135.426792865474
 30
0.0
 10
67.74216299901596
 20
135.426792865474
 30
0.0
 10
67.74216299901596
 20
135.426792865474
 30
0.0
 10
68.08667277481213
 20
135.4209361992854
 30
0.0
 10
68.46253294020576
 20
135.4157685526485
 30
0.0
 10
68.8547573199497
 20
135.4102563962358
 30
0.0
 10
68.8547573199497
 20
135.4102563962358
 30
0.0
 10
68.8547573199497
 20
135.4102563962358
 30
0.0
 10
68.8547573199497
 20
135.4102563962358
 30
0.0
 10
69.24663718991783
 20
135.4054332593746
 30
0.0
 10
69.6545367644605
 20
135.4002656127377
 30
0.0
 10
70.0860352586452
 20
135.3957869856523
 30
0.0
 10
70.0860352586452
 20
135.3957869856523
 30
0.0
 10
70.0860352586452
 20
135.3957869856523
 30
0.0
 10
70.0860352586452
 20
135.3957869856523
 30
0.0
 10
70.48480532412927
 20
135.3916528683428
 30
0.0
 10
70.9035569566095
 20
135.3875187510332
 30
0.0
 10
71.32230858908976
 20
135.3837291434995
 30
0.0
  0
ENDBLK
  5
E5
330
E2
100
AcDbEntity
  8
0
100
AcDbBlockEnd
  0
BLOCK
  5
E9
330
E7
100
AcDbEntity
  8
0
100
AcDbBlockBegin
  2
block 28
 70
     0
 71
     0
 10
0.0
 20
0.0
 30
0.0
  3
block 28
  1

  0
POLYLINE
  5
EB
330
E7
100
AcDbEntity
  8
0
 62
     7
420
 16777215
370
     9
100
AcDb2dPolyline
 66
     1
 10
0.0
 20
0.0
 30
0.0
  0
VERTEX
  5
EC
330
EB
100
AcDbEntity
  8
0
 62
     7
420
 16777215
370
     9
100
AcDbVertex
100
AcDb2dVertex
 10
96.02968843475149
 20
135.5597736389313
 30
0.0
  0
VERTEX
  5
ED
330
EB
100
AcDbEntity
  8
0
 62
     7
420
 16777215
370
     9
100
AcDbVertex
100
AcDb2dVertex
 10
96.00367794667888
 20
138.5435728071019
 30
0.0
  0
SEQEND
  5
EE
330
EB
100
AcDbEntity
  8
0
370
     9
  0
ENDBLK
  5
EA
330
E7
100
AcDbEntity
  8
0
100
AcDbBlockEnd
  0
BLOCK
  5
F1
330
EF
100
AcDbEntity
  8
0
100
AcDbBlockBegin
  2
block 29
 70
     0
 71
     0
 10
0.0
 20
0.0
 30
0.0
  3
block 29
  1

  0
POLYLINE
  5
F3
330
EF
100
AcDbEntity
  8
0
 62
     7
420
 16777215
370
     9
100
AcDb2dPolyline
 66
     1
 10
0.0
 20
0.0
 30
0.0
  0
VERTEX
  5
F4
330
F3
100
AcDbEntity
  8
0
 62
     7
420
 16777215
370
     9
100
AcDbVertex
100
AcDb2dVertex
 10
64.15736652696893
 20
138.5435728071019
 30
0.0
  0
VERTEX
  5
F5
330
F3
100
AcDbEntity
  8
0
 62
     7
420
 16777215
370
     9
100
AcDbVertex
100
AcDb2dVertex
 10
64.13135603889633
 20
135.5597736389313
 30
0.0
  0
SEQEND
  5
F6
330
F3
100
AcDbEntity
  8
0
370
     9
  0
ENDBLK
  5
F2
330
EF
100
AcDbEntity
  8
0
100
AcDbBlockEnd
  0
BLOCK
  5
F9
330
F7
100
AcDbEntity
  8
0
100
AcDbBlockBegin
  2
block 30
 70
     0
 71
     0
 10
0.0
 20
0.0
 30
0.0
  3
block 30
  1

  0
SPLINE
  5
FB
330
F7
100
AcDbEntity
  8
0
 62
     7
420
 16777215
370
     9
100
AcDbSpline
210
0.0
220
0.0
230
1.0
 70
     8
 71
     3
 72
     8
 73
     4
 74
     0
 42
0.0000000001
 43
0.0000000001
 40
0.0
 40
0.0
 40
0.0
 40
0.0
 40
1.0
 40
1.0
 40
1.0
 40
1.0
 10
96.00367794667888
 20
138.5435728071019
 30
0.0
 10
96.0109126519706
 20
139.3790090134076
 30
0.0
 10
95.96750442022028
 20
141.0202535853006
 30
0.0
 10
95.91651697340245
 20
141.8546562622789
 30
0.0
  0
ENDBLK
  5
FA
330
F7
100
AcDbEntity
  8
0
100
AcDbBlockEnd
  0
BLOCK
  5
FE
330
FC
100
AcDbEntity
  8
0
100
AcDbBlockBegin
  2
block 31
 70
     0
 71
     0
 10
0.0
 20
0.0
 30
0.0
  3
block 31
  1

  0
SPLINE
  5
100
330
FC
100
AcDbEntity
  8
0
 62
     7
420
 16777215
370
     9
100
AcDbSpline
210
0.0
220
0.0
230
1.0
 70
     8
 71
     3
 72
     8
 73
     4
 74
     0
 42
0.0000000001
 43
0.0000000001
 40
0.0
 40
0.0
 40
0.0
 40
0.0
 40
1.0
 40
1.0
 40
1.0
 40
1.0
 10
64.24469975513325
 20
141.8546562622789
 30
0.0
 10
64.19354005342753
 20
141.0202535853006
 30
0.0
 10
64.1503040765651
 20
139.3790090134076
 30
0.0
 10
64.15736652696893
 20
138.5435728071019
 30
0.0
  0
ENDBLK
  5
FF
330
FC
100
AcDbEntity
  8
0
100
AcDbBlockEnd
  0
BLOCK
  5
103
330
101
100
AcDbEntity
  8
0
100
AcDbBlockBegin
  2
block 32
 70
     0
 71
     0
 10
0.0
 20
0.0
 30
0.0
  3
block 32
  1

  0
SPLINE
  5
105
330
101
100
AcDbEntity
  8
0
 62
     7
420
 16777215
370
     9
100
AcDbSpline
210
0.0
220
0.0
230
1.0
 70
     8
 71
     3
 72
    26
 73
    22
 74
     0
 42
0.0000000001
 43
0.0000000001
 40
0.0
 40
0.0
 40
0.0
 40
0.0
 40
1.0
 40
1.0
 40
1.0
 40
2.0
 40
2.0
 40
2.0
 40
3.0
 40
3.0
 40
3.0
 40
4.0
 40
4.0
 40
4.0
 40
5.0
 40
5.0
 40
5.0
 40
6.0
 40
6.0
 40
6.0
 40
7.0
 40
7.0
 40
7.0
 40
7.0
 10
71.28768535662223
 20
142.0189874253337
 30
0.0
 10
70.90579627015218
 20
142.0158868373515
 30
0.0
 10
70.52390718368213
 20
142.0124417395935
 30
0.0
 10
70.15993260555348
 20
142.0089966418356
 30
0.0
 10
70.15993260555348
 20
142.0089966418356
 30
0.0
 10
70.15993260555348
 20
142.0089966418356
 30
0.0
 10
70.15993260555348
 20
142.0089966418356
 30
0.0
 10
69.73136244446304
 20
142.004862524526
 30
0.0
 10
69.32794149700574
 20
142.0000393876649
 30
0.0
 10
68.93778417591658
 20
141.9952162508037
 30
0.0
 10
68.93778417591658
 20
141.9952162508037
 30
0.0
 10
68.93778417591658
 20
141.9952162508037
 30
0.0
 10
68.93778417591658
 20
141.9952162508037
 30
0.0
 10
68.54728234505161
 20
141.9907376237184
 30
0.0
 10
68.17038865033061
 20
141.9855699770814
 30
0.0
 10
67.83345808960195
 20
141.9804023304445
 30
0.0
 10
67.83345808960195
 20
141.9804023304445
 30
0.0
 10
67.83345808960195
 20
141.9804023304445
 30
0.0
 10
67.83345808960195
 20
141.9804023304445
 30
0.0
 10
67.67773967094209
 20
141.9776462522381
 30
0.0
 10
67.53046174178922
 20
141.9752346838075
 30
0.0
 10
67.38318381263636
 20
141.972823115377
 30
0.0
  0
ENDBLK
  5
104
330
101
100
AcDbEntity
  8
0
100
AcDbBlockEnd
  0
BLOCK
  5
108
330
106
100
AcDbEntity
  8
0
100
AcDbBlockBegin
  2
block 33
 70
     0
 71
     0
 10
0.0
 20
0.0
 30
0.0
  3
block 33
  1

  0
SPLINE
  5
10A
330
106
100
AcDbEntity
  8
0
 62
     7
420
 16777215
370
     9
100
AcDbSpline
210
0.0
220
0.0
230
1.0
 70
     8
 71
     3
 72
    20
 73
    16
 74
     0
 42
0.0000000001
 43
0.0000000001
 40
0.0
 40
0.0
 40
0.0
 40
0.0
 40
1.0
 40
1.0
 40
1.0
 40
2.0
 40
2.0
 40
2.0
 40
3.0
 40
3.0
 40
3.0
 40
4.0
 40
4.0
 40
4.0
 40
5.0
 40
5.0
 40
5.0
 40
5.0
 10
91.59154124805735
 20
141.969378017619
 30
0.0
 10
91.33040283800385
 20
141.9731676251528
 30
0.0
 10
91.06926442795036
 20
141.9766127229107
 30
0.0
 10
90.79382886220132
 20
141.9804023304445
 30
0.0
 10
90.79382886220132
 20
141.9804023304445
 30
0.0
 10
90.79382886220132
 20
141.9804023304445
 30
0.0
 10
90.79382886220132
 20
141.9804023304445
 30
0.0
 10
90.40212124712107
 20
141.9855699770814
 30
0.0
 10
89.98216383042555
 20
141.9907376237184
 30
0.0
 10
89.54308612117333
 20
141.9952162508037
 30
0.0
 10
89.54308612117333
 20
141.9952162508037
 30
0.0
 10
89.54308612117333
 20
141.9952162508037
 30
0.0
 10
89.54308612117333
 20
141.9952162508037
 30
0.0
 10
89.0245989086001
 20
142.0014174267681
 30
0.0
 10
88.47958444329055
 20
142.006585073405
 30
0.0
 10
87.93456997798101
 20
142.0120972298178
 30
0.0
  0
ENDBLK
  5
109
330
106
100
AcDbEntity
  8
0
100
AcDbBlockEnd
  0
BLOCK
  5
10D
330
10B
100
AcDbEntity
  8
0
100
AcDbBlockBegin
  2
block 34
 70
     0
 71
     0
 10
0.0
 20
0.0
 30
0.0
  3
block 34
  1

  0
POLYLINE
  5
10F
330
10B
100
AcDbEntity
  8
0
 62
     7
420
 16777215
370
     9
100
AcDb2dPolyline
 66
     1
 10
0.0
 20
0.0
 30
0.0
  0
VERTEX
  5
110
330
10F
100
AcDbEntity
  8
0
 62
     7
420
 16777215
370
     9
100
AcDbVertex
100
AcDb2dVertex
 10
77.98547216276346
 20
258.9626585644553
 30
0.0
  0
VERTEX
  5
111
330
10F
100
AcDbEntity
  8
0
 62
     7
420
 16777215
370
     9
100
AcDbVertex
100
AcDb2dVertex
 10
82.17574456577226
 20
258.9626585644553
 30
0.0
  0
SEQEND
  5
112
330
10F
100
AcDbEntity
  8
0
370
     9
  0
ENDBLK
  5
10E
330
10B
100
AcDbEntity
  8
0
100
AcDbBlockEnd
  0
BLOCK
  5
115
330
113
100
AcDbEntity
  8
0
100
AcDbBlockBegin
  2
block 35
 70
     0
 71
     0
 10
0.0
 20
0.0
 30
0.0
  3
block 35
  1

  0
POLYLINE
  5
117
330
113
100
AcDbEntity
  8
0
 62
     7
420
 16777215
370
     9
100
AcDb2dPolyline
 66
     1
 10
0.0
 20
0.0
 30
0.0
  0
VERTEX
  5
118
330
117
100
AcDbEntity
  8
0
 62
     7
420
 16777215
370
     9
100
AcDbVertex
100
AcDb2dVertex
 10
77.98547216276346
 20
258.9626585644553
 30
0.0
  0
VERTEX
  5
119
330
117
100
AcDbEntity
  8
0
 62
     7
420
 16777215
370
     9
100
AcDbVertex
100
AcDb2dVertex
 10
82.17574456577226
 20
258.9626585644553
 30
0.0
  0
SEQEND
  5
11A
330
117
100
AcDbEntity
  8
0
370
     9
  0
ENDBLK
  5
116
330
113
100
AcDbEntity
  8
0
100
AcDbBlockEnd
  0
BLOCK
  5
11D
330
11B
100
AcDbEntity
  8
0
100
AcDbBlockBegin
  2
block 36
 70
     0
 71
     0
 10
0.0
 20
0.0
 30
0.0
  3
block 36
  1

  0
SPLINE
  5
11F
330
11B
100
AcDbEntity
  8
0
 62
     7
420
 16777215
370
     9
100
AcDbSpline
210
0.0
220
0.0
230
1.0
 70
     8
 71
     3
 72
     8
 73
     4
 74
     0
 42
0.0000000001
 43
0.0000000001
 40
0.0
 40
0.0
 40
0.0
 40
0.0
 40
1.0
 40
1.0
 40
1.0
 40
1.0
 10
77.98547216276346
 20
148.9648212700481
 30
0.0
 10
76.32906916073547
 20
148.7236644269908
 30
0.0
 10
73.92714700388458
 20
147.4567297265004
 30
0.0
 10
72.79267631218781
 20
146.2257962975807
 30
0.0
  0
ENDBLK
  5
11E
330
11B
100
AcDbEntity
  8
0
100
AcDbBlockEnd
  0
BLOCK
  5
122
330
120
100
AcDbEntity
  8
0
100
AcDbBlockBegin
  2
block 37
 70
     0
 71
     0
 10
0.0
 20
0.0
 30
0.0
  3
block 37
  1

  0
SPLINE
  5
124
330
120
100
AcDbEntity
  8
0
 62
     7
420
 16777215
370
     9
100
AcDbSpline
210
0.0
220
0.0
230
1.0
 70
     8
 71
     3
 72
     8
 73
     4
 74
     0
 42
0.0000000001
 43
0.0000000001
 40
0.0
 40
0.0
 40
0.0
 40
0.0
 40
1.0
 40
1.0
 40
1.0
 40
1.0
 10
87.3504536531186
 20
146.2433662961463
 30
0.0
 10
86.2183945298524
 20
147.4653424708953
 30
0.0
 10
83.82422384295693
 20
148.7246979563182
 30
0.0
 10
82.17574456577226
 20
148.9648212700481
 30
0.0
  0
ENDBLK
  5
123
330
120
100
AcDbEntity
  8
0
100
AcDbBlockEnd
  0
BLOCK
  5
127
330
125
100
AcDbEntity
  8
0
100
AcDbBlockBegin
  2
block 38
 70
     0
 71
     0
 10
0.0
 20
0.0
 30
0.0
  3
block 38
  1

  0
SPLINE
  5
129
330
125
100
AcDbEntity
  8
0
 62
     7
420
 16777215
370
     9
100
AcDbSpline
210
0.0
220
0.0
230
1.0
 70
    24
 71
     3
 72
    32
 73
    28
 74
     0
 42
0.0000000001
 43
0.0000000001
 40
0.0
 40
0.0
 40
0.0
 40
0.0
 40
1.0
 40
1.0
 40
1.0
 40
2.0
 40
2.0
 40
2.0
 40
3.0
 40
3.0
 40
3.0
 40
4.0
 40
4.0
 40
4.0
 40
5.0
 40
5.0
 40
5.0
 40
6.0
 40
6.0
 40
6.0
 40
7.0
 40
7.0
 40
7.0
 40
8.0
 40
8.0
 40
8.0
 40
9.0
 40
9.0
 40
9.0
 40
9.0
 10
80.1210882629239
 20
146.2433662961463
 30
0.0
 10
79.66444055510608
 20
146.2433662961463
 30
0.0
 10
79.20779284728826
 20
146.2433662961463
 30
0.0
 10
78.75269543346153
 20
146.2433662961463
 30
0.0
 10
78.75269543346153
 20
146.2433662961463
 30
0.0
 10
78.75269543346153
 20
146.2433662961463
 30
0.0
 10
78.75269543346153
 20
146.2433662961463
 30
0.0
 10
78.26762566914051
 20
146.2433662961463
 30
0.0
 10
77.78427845369849
 20
146.2433662961463
 30
0.0
 10
77.30575437511762
 20
146.2433662961463
 30
0.0
 10
77.30575437511762
 20
146.2433662961463
 30
0.0
 10
77.30575437511762
 20
146.2433662961463
 30
0.0
 10
77.30575437511762
 20
146.2433662961463
 30
0.0
 10
76.79811922048196
 20
146.2433662961463
 30
0.0
 10
76.29565171248325
 20
146.2433662961463
 30
0.0
 10
75.79783508645778
 20
146.2433662961463
 30
0.0
 10
75.79783508645778
 20
146.2433662961463
 30
0.0
 10
75.79783508645778
 20
146.2433662961463
 30
0.0
 10
75.79783508645778
 20
146.2433662961463
 30
0.0
 10
75.24472464141704
 20
146.2433662961463
 30
0.0
 10
74.69729860767693
 20
146.2433662961463
 30
0.0
 10
74.17347149357884
 20
146.2433662961463
 30
0.0
 10
74.17347149357884
 20
146.2433662961463
 30
0.0
 10
74.17347149357884
 20
146.2433662961463
 30
0.0
 10
74.17347149357884
 20
146.2433662961463
 30
0.0
 10
73.91870651437758
 20
146.2433662961463
 30
0.0
 10
73.66928143670116
 20
146.2433662961463
 30
0.0
 10
73.42002861391262
 20
146.2433662961463
 30
0.0
  0
ENDBLK
  5
128
330
125
100
AcDbEntity
  8
0
100
AcDbBlockEnd
  0
BLOCK
  5
12C
330
12A
100
AcDbEntity
  8
0
100
AcDbBlockBegin
  2
block 39
 70
     0
 71
     0
 10
0.0
 20
0.0
 30
0.0
  3
block 39
  1

  0
POLYLINE
  5
12E
330
12A
100
AcDbEntity
  8
0
 62
     7
420
 16777215
370
     9
100
AcDb2dPolyline
 66
     1
 10
0.0
 20
0.0
 30
0.0
  0
VERTEX
  5
12F
330
12E
100
AcDbEntity
  8
0
 62
     7
420
 16777215
370
     9
100
AcDbVertex
100
AcDb2dVertex
 10
64.43693621002753
 20
146.0321818035832
 30
0.0
  0
VERTEX
  5
130
330
12E
100
AcDbEntity
  8
0
 62
     7
420
 16777215
370
     9
100
AcDbVertex
100
AcDb2dVertex
 10
68.49371107491531
 20
146.0321818035832
 30
0.0
  0
SEQEND
  5
131
330
12E
100
AcDbEntity
  8
0
370
     9
  0
ENDBLK
  5
12D
330
12A
100
AcDbEntity
  8
0
100
AcDbBlockEnd
  0
BLOCK
  5
134
330
132
100
AcDbEntity
  8
0
100
AcDbBlockBegin
  2
block 40
 70
     0
 71
     0
 10
0.0
 20
0.0
 30
0.0
  3
block 40
  1

  0
POLYLINE
  5
136
330
132
100
AcDbEntity
  8
0
 62
     7
420
 16777215
370
     9
100
AcDb2dPolyline
 66
     1
 10
0.0
 20
0.0
 30
0.0
  0
VERTEX
  5
137
330
136
100
AcDbEntity
  8
0
 62
     7
420
 16777215
370
     9
100
AcDbVertex
100
AcDb2dVertex
 10
68.61273920245289
 20
142.2604887781668
 30
0.0
  0
VERTEX
  5
138
330
136
100
AcDbEntity
  8
0
 62
     7
420
 16777215
370
     9
100
AcDbVertex
100
AcDb2dVertex
 10
64.46983689361606
 20
142.2604887781668
 30
0.0
  0
SEQEND
  5
139
330
136
100
AcDbEntity
  8
0
370
     9
  0
ENDBLK
  5
135
330
132
100
AcDbEntity
  8
0
100
AcDbBlockEnd
  0
BLOCK
  5
13C
330
13A
100
AcDbEntity
  8
0
100
AcDbBlockBegin
  2
block 41
 70
     0
 71
     0
 10
0.0
 20
0.0
 30
0.0
  3
block 41
  1

  0
POLYLINE
  5
13E
330
13A
100
AcDbEntity
  8
0
 62
     7
420
 16777215
370
     9
100
AcDb2dPolyline
 66
     1
 10
0.0
 20
0.0
 30
0.0
  0
VERTEX
  5
13F
330
13E
100
AcDbEntity
  8
0
 62
     7
420
 16777215
370
     9
100
AcDbVertex
100
AcDb2dVertex
 10
95.69120758003176
 20
142.2604887781668
 30
0.0
  0
VERTEX
  5
140
330
13E
100
AcDbEntity
  8
0
 62
     7
420
 16777215
370
     9
100
AcDbVertex
100
AcDb2dVertex
 10
91.55640125092614
 20
142.2604887781668
 30
0.0
  0
SEQEND
  5
141
330
13E
100
AcDbEntity
  8
0
370
     9
  0
ENDBLK
  5
13D
330
13A
100
AcDbEntity
  8
0
100
AcDbBlockEnd
  0
BLOCK
  5
144
330
142
100
AcDbEntity
  8
0
100
AcDbBlockBegin
  2
block 42
 70
     0
 71
     0
 10
0.0
 20
0.0
 30
0.0
  3
block 42
  1

  0
POLYLINE
  5
146
330
142
100
AcDbEntity
  8
0
 62
     7
420
 16777215
370
     9
100
AcDb2dPolyline
 66
     1
 10
0.0
 20
0.0
 30
0.0
  0
VERTEX
  5
147
330
146
100
AcDbEntity
  8
0
 62
     7
420
 16777215
370
     9
100
AcDbVertex
100
AcDb2dVertex
 10
91.7041959447427
 20
146.0321818035832
 30
0.0
  0
VERTEX
  5
148
330
146
100
AcDbEntity
  8
0
 62
     7
420
 16777215
370
     9
100
AcDbVertex
100
AcDb2dVertex
 10
95.7242805185082
 20
146.0321818035832
 30
0.0
  0
SEQEND
  5
149
330
146
100
AcDbEntity
  8
0
370
     9
  0
ENDBLK
  5
145
330
142
100
AcDbEntity
  8
0
100
AcDbBlockEnd
  0
BLOCK
  5
14C
330
14A
100
AcDbEntity
  8
0
100
AcDbBlockBegin
  2
block 43
 70
     0
 71
     0
 10
0.0
 20
0.0
 30
0.0
  3
block 43
  1

  0
SPLINE
  5
14E
330
14A
100
AcDbEntity
  8
0
 62
     7
420
 16777215
370
     9
100
AcDbSpline
210
0.0
220
0.0
230
1.0
 70
    24
 71
     3
 72
    32
 73
    28
 74
     0
 42
0.0000000001
 43
0.0000000001
 40
0.0
 40
0.0
 40
0.0
 40
0.0
 40
1.0
 40
1.0
 40
1.0
 40
2.0
 40
2.0
 40
2.0
 40
3.0
 40
3.0
 40
3.0
 40
4.0
 40
4.0
 40
4.0
 40
5.0
 40
5.0
 40
5.0
 40
6.0
 40
6.0
 40
6.0
 40
7.0
 40
7.0
 40
7.0
 40
8.0
 40
8.0
 40
8.0
 40
9.0
 40
9.0
 40
9.0
 40
9.0
 10
73.35818910915721
 20
142.0530938931375
 30
0.0
 10
73.63207438091517
 20
142.0530938931375
 30
0.0
 10
73.90578739778522
 20
142.0530938931375
 30
0.0
 10
74.1863906101712
 20
142.0530938931375
 30
0.0
 10
74.1863906101712
 20
142.0530938931375
 30
0.0
 10
74.1863906101712
 20
142.0530938931375
 30
0.0
 10
74.1863906101712
 20
142.0530938931375
 30
0.0
 10
74.70935644982978
 20
142.0530938931375
 30
0.0
 10
75.25523218957882
 20
142.0530938931375
 30
0.0
 10
75.80696459551638
 20
142.0530938931375
 30
0.0
 10
75.80696459551638
 20
142.0530938931375
 30
0.0
 10
75.80696459551638
 20
142.0530938931375
 30
0.0
 10
75.80696459551638
 20
142.0530938931375
 30
0.0
 10
76.30357543732656
 20
142.0530938931375
 30
0.0
 10
76.80500941599789
 20
142.0530938931375
 30
0.0
 10
77.31195555108195
 20
142.0530938931375
 30
0.0
 10
77.31195555108195
 20
142.0530938931375
 30
0.0
 10
77.31195555108195
 20
142.0530938931375
 30
0.0
 10
77.31195555108195
 20
142.0530938931375
 30
0.0
 10
77.78944610033544
 20
142.0530938931375
 30
0.0
 10
78.27158753156218
 20
142.0530938931375
 30
0.0
 10
78.75579602144369
 20
142.0530938931375
 30
0.0
 10
78.75579602144369
 20
142.0530938931375
 30
0.0
 10
78.75579602144369
 20
142.0530938931375
 30
0.0
 10
78.75579602144369
 20
142.0530938931375
 30
0.0
 10
79.20968765105515
 20
142.0530938931375
 30
0.0
 10
79.66530182954557
 20
142.0530938931375
 30
0.0
 10
80.120916008036
 20
142.0530938931375
 30
0.0
  0
ENDBLK
  5
14D
330
14A
100
AcDbEntity
  8
0
100
AcDbBlockEnd
  0
BLOCK
  5
151
330
14F
100
AcDbEntity
  8
0
100
AcDbBlockBegin
  2
block 44
 70
     0
 71
     0
 10
0.0
 20
0.0
 30
0.0
  3
block 44
  1

  0
SPLINE
  5
153
330
14F
100
AcDbEntity
  8
0
 62
     7
420
 16777215
370
     9
100
AcDbSpline
210
0.0
220
0.0
230
1.0
 70
    24
 71
     3
 72
    32
 73
    28
 74
     0
 42
0.0000000001
 43
0.0000000001
 40
0.0
 40
0.0
 40
0.0
 40
0.0
 40
1.0
 40
1.0
 40
1.0
 40
2.0
 40
2.0
 40
2.0
 40
3.0
 40
3.0
 40
3.0
 40
4.0
 40
4.0
 40
4.0
 40
5.0
 40
5.0
 40
5.0
 40
6.0
 40
6.0
 40
6.0
 40
7.0
 40
7.0
 40
7.0
 40
8.0
 40
8.0
 40
8.0
 40
9.0
 40
9.0
 40
9.0
 40
9.0
 10
86.79114203211353
 20
146.2433662961463
 30
0.0
 10
86.54981293416832
 20
146.2433662961463
 30
0.0
 10
86.30865609111099
 20
146.2433662961463
 30
0.0
 10
86.06198709164094
 20
146.2433662961463
 30
0.0
 10
86.06198709164094
 20
146.2433662961463
 30
0.0
 10
86.06198709164094
 20
146.2433662961463
 30
0.0
 10
86.06198709164094
 20
146.2433662961463
 30
0.0
 10
85.53971027153395
 20
146.2433662961463
 30
0.0
 10
84.99314551223333
 20
146.2433662961463
 30
0.0
 10
84.44089634163207
 20
146.2433662961463
 30
0.0
 10
84.44089634163207
 20
146.2433662961463
 30
0.0
 10
84.44089634163207
 20
146.2433662961463
 30
0.0
 10
84.44089634163207
 20
146.2433662961463
 30
0.0
 10
83.9435964802703
 20
146.2433662961463
 30
0.0
 10
83.44199024671107
 20
146.2433662961463
 30
0.0
 10
82.93469960185122
 20
146.2433662961463
 30
0.0
 10
82.93469960185122
 20
146.2433662961463
 30
0.0
 10
82.93469960185122
 20
146.2433662961463
 30
0.0
 10
82.93469960185122
 20
146.2433662961463
 30
0.0
 10
82.45652003304613
 20
146.2433662961463
 30
0.0
 10
81.97351732737991
 20
146.2433662961463
 30
0.0
 10
81.4887920728347
 20
146.2433662961463
 30
0.0
 10
81.4887920728347
 20
146.2433662961463
 30
0.0
 10
81.4887920728347
 20
146.2433662961463
 30
0.0
 10
81.4887920728347
 20
146.2433662961463
 30
0.0
 10
81.03403916878375
 20
146.2433662961463
 30
0.0
 10
80.57739146096593
 20
146.2433662961463
 30
0.0
 10
80.1210882629239
 20
146.2433662961463
 30
0.0
  0
ENDBLK
  5
152
330
14F
100
AcDbEntity
  8
0
100
AcDbBlockEnd
  0
BLOCK
  5
156
330
154
100
AcDbEntity
  8
0
100
AcDbBlockBegin
  2
block 45
 70
     0
 71
     0
 10
0.0
 20
0.0
 30
0.0
  3
block 45
  1

  0
SPLINE
  5
158
330
154
100
AcDbEntity
  8
0
 62
     7
420
 16777215
370
     9
100
AcDbSpline
210
0.0
220
0.0
230
1.0
 70
    24
 71
     3
 72
    32
 73
    28
 74
     0
 42
0.0000000001
 43
0.0000000001
 40
0.0
 40
0.0
 40
0.0
 40
0.0
 40
1.0
 40
1.0
 40
1.0
 40
2.0
 40
2.0
 40
2.0
 40
3.0
 40
3.0
 40
3.0
 40
4.0
 40
4.0
 40
4.0
 40
5.0
 40
5.0
 40
5.0
 40
6.0
 40
6.0
 40
6.0
 40
7.0
 40
7.0
 40
7.0
 40
8.0
 40
8.0
 40
8.0
 40
9.0
 40
9.0
 40
9.0
 40
9.0
 10
80.120916008036
 20
142.0530938931375
 30
0.0
 10
80.57635793163854
 20
142.0530938931375
 30
0.0
 10
81.03197211012898
 20
142.0530938931375
 30
0.0
 10
81.48569148485254
 20
142.0530938931375
 30
0.0
 10
81.48569148485254
 20
142.0530938931375
 30
0.0
 10
81.48569148485254
 20
142.0530938931375
 30
0.0
 10
81.48569148485254
 20
142.0530938931375
 30
0.0
 10
81.96972771984615
 20
142.0530938931375
 30
0.0
 10
82.45169689618498
 20
142.0530938931375
 30
0.0
 10
82.92867068077479
 20
142.0530938931375
 30
0.0
 10
82.92867068077479
 20
142.0530938931375
 30
0.0
 10
82.92867068077479
 20
142.0530938931375
 30
0.0
 10
82.92867068077479
 20
142.0530938931375
 30
0.0
 10
83.43492779630725
 20
142.0530938931375
 30
0.0
 10
83.93567275542699
 20
142.0530938931375
 30
0.0
 10
84.43159457768557
 20
142.0530938931375
 30
0.0
 10
84.43159457768557
 20
142.0530938931375
 30
0.0
 10
84.43159457768557
 20
142.0530938931375
 30
0.0
 10
84.43159457768557
 20
142.0530938931375
 30
0.0
 10
84.98263796407154
 20
142.0530938931375
 30
0.0
 10
85.52782468426898
 20
142.0530938931375
 30
0.0
 10
86.04941248482437
 20
142.0530938931375
 30
0.0
 10
86.04941248482437
 20
142.0530938931375
 30
0.0
 10
86.04941248482437
 20
142.0530938931375
 30
0.0
 10
86.04941248482437
 20
142.0530938931375
 30
0.0
 10
86.31916363927277
 20
142.0530938931375
 30
0.0
 10
86.58254136286895
 20
142.0530938931375
 30
0.0
 10
86.84591908646512
 20
142.0530938931375
 30
0.0
  0
ENDBLK
  5
157
330
154
100
AcDbEntity
  8
0
100
AcDbBlockEnd
  0
BLOCK
  5
15B
330
159
100
AcDbEntity
  8
0
100
AcDbBlockBegin
  2
block 46
 70
     0
 71
     0
 10
0.0
 20
0.0
 30
0.0
  3
block 46
  1

  0
SPLINE
  5
15D
330
159
100
AcDbEntity
  8
0
 62
     7
420
 16777215
370
     9
100
AcDbSpline
210
0.0
220
0.0
230
1.0
 70
    24
 71
     3
 72
    86
 73
    82
 74
     0
 42
0.0000000001
 43
0.0000000001
 40
0.0
 40
0.0
 40
0.0
 40
0.0
 40
1.0
 40
1.0
 40
1.0
 40
2.0
 40
2.0
 40
2.0
 40
3.0
 40
3.0
 40
3.0
 40
4.0
 40
4.0
 40
4.0
 40
5.0
 40
5.0
 40
5.0
 40
6.0
 40
6.0
 40
6.0
 40
7.0
 40
7.0
 40
7.0
 40
8.0
 40
8.0
 40
8.0
 40
9.0
 40
9.0
 40
9.0
 40
10.0
 40
10.0
 40
10.0
 40
11.0
 40
11.0
 40
11.0
 40
12.0
 40
12.0
 40
12.0
 40
13.0
 40
13.0
 40
13.0
 40
14.0
 40
14.0
 40
14.0
 40
15.0
 40
15.0
 40
15.0
 40
16.0
 40
16.0
 40
16.0
 40
17.0
 40
17.0
 40
17.0
 40
18.0
 40
18.0
 40
18.0
 40
19.0
 40
19.0
 40
19.0
 40
20.0
 40
20.0
 40
20.0
 40
21.0
 40
21.0
 40
21.0
 40
22.0
 40
22.0
 40
22.0
 40
23.0
 40
23.0
 40
23.0
 40
24.0
 40
24.0
 40
24.0
 40
25.0
 40
25.0
 40
25.0
 40
26.0
 40
26.0
 40
26.0
 40
27.0
 40
27.0
 40
27.0
 40
27.0
 10
67.71305192296118
 20
99.31183306876159
 30
0.0
 10
67.73303348995736
 20
99.31183306876159
 30
0.0
 10
67.75284280206564
 20
99.31183306876159
 30
0.0
 10
67.81330426771788
 20
99.31183306876159
 30
0.0
 10
67.81330426771788
 20
99.31183306876159
 30
0.0
 10
67.81330426771788
 20
99.31183306876159
 30
0.0
 10
67.81330426771788
 20
99.31183306876159
 30
0.0
 10
67.8732489687064
 20
99.31183306876159
 30
0.0
 10
67.9733290585752
 20
99.31183306876159
 30
0.0
 10
68.10148669517137
 20
99.31183306876159
 30
0.0
 10
68.10148669517137
 20
99.31183306876159
 30
0.0
 10
68.10148669517137
 20
99.31183306876159
 30
0.0
 10
68.10148669517137
 20
99.31183306876159
 30
0.0
 10
68.22792178288857
 20
99.31183306876159
 30
0.0
 10
68.38174539778156
 20
99.31183306876159
 30
0.0
 10
68.56485234361722
 20
99.31183306876159
 30
0.0
 10
68.56485234361722
 20
99.31183306876159
 30
0.0
 10
68.56485234361722
 20
99.31183306876159
 30
0.0
 10
68.56485234361722
 20
99.31183306876159
 30
0.0
 10
68.74382517214333
 20
99.31183306876159
 30
0.0
 10
68.95070329250893
 20
99.31183306876159
 30
0.0
 10
69.18324739117134
 20
99.31183306876159
 30
0.0
 10
69.18324739117134
 20
99.31183306876159
 30
0.0
 10
69.18324739117134
 20
99.31183306876159
 30
0.0
 10
69.18324739117134
 20
99.31183306876159
 30
0.0
 10
69.40907354920573
 20
99.31183306876159
 30
0.0
 10
69.65918764643375
 20
99.31183306876159
 30
0.0
 10
69.93203938886431
 20
99.31183306876159
 30
0.0
 10
69.93203938886431
 20
99.31183306876159
 30
0.0
 10
69.93203938886431
 20
99.31183306876159
 30
0.0
 10
69.93203938886431
 20
99.31183306876159
 30
0.0
 10
70.19541711246049
 20
99.31183306876159
 30
0.0
 10
70.47998218726812
 20
99.31183306876159
 30
0.0
 10
70.78383980952034
 20
99.31183306876159
 30
0.0
 10
70.78383980952034
 20
99.31183306876159
 30
0.0
 10
70.78383980952034
 20
99.31183306876159
 30
0.0
 10
70.78383980952034
 20
99.31183306876159
 30
0.0
 10
71.0756395896197
 20
99.31183306876159
 30
0.0
 10
71.38500936828466
 20
99.31183306876159
 30
0.0
 10
71.71057110641203
 20
99.31183306876159
 30
0.0
 10
71.71057110641203
 20
99.31183306876159
 30
0.0
 10
71.71057110641203
 20
99.31183306876159
 30
0.0
 10
71.71057110641203
 20
99.31183306876159
 30
0.0
 10
72.02166343395598
 20
99.31183306876159
 30
0.0
 10
72.34722517208336
 20
99.31183306876159
 30
0.0
 10
72.68587828169099
 20
99.31183306876159
 30
0.0
 10
72.68587828169099
 20
99.31183306876159
 30
0.0
 10
72.68587828169099
 20
99.31183306876159
 30
0.0
 10
72.68587828169099
 20
99.31183306876159
 30
0.0
 10
73.10996981569608
 20
99.31183306876159
 30
0.0
 10
73.55421517158523
 20
99.31183306876159
 30
0.0
 10
74.01516925160051
 20
99.31183306876159
 30
0.0
 10
74.01516925160051
 20
99.31183306876159
 30
0.0
 10
74.01516925160051
 20
99.31183306876159
 30
0.0
 10
74.01516925160051
 20
99.31183306876159
 30
0.0
 10
74.43994980515718
 20
99.31183306876159
 30
0.0
 10
74.8790275144094
 20
99.31183306876159
 30
0.0
 10
75.3289572815992
 20
99.31183306876159
 30
0.0
 10
75.3289572815992
 20
99.31183306876159
 30
0.0
 10
75.3289572815992
 20
99.31183306876159
 30
0.0
 10
75.3289572815992
 20
99.31183306876159
 30
0.0
 10
75.75959450134441
 20
99.31183306876159
 30
0.0
 10
76.2005670143635
 20
99.31183306876159
 30
0.0
 10
76.64877423267431
 20
99.31183306876159
 30
0.0
 10
76.64877423267431
 20
99.31183306876159
 30
0.0
 10
76.64877423267431
 20
99.31183306876159
 30
0.0
 10
76.64877423267431
 20
99.31183306876159
 30
0.0
 10
77.046510768831
 20
99.31183306876159
 30
0.0
 10
77.4499317162883
 20
99.31183306876159
 30
0.0
 10
77.85731452616729
 20
99.31183306876159
 30
0.0
 10
77.85731452616729
 20
99.31183306876159
 30
0.0
 10
77.85731452616729
 20
99.31183306876159
 30
0.0
 10
77.85731452616729
 20
99.31183306876159
 30
0.0
 10
78.24109841640421
 20
99.31183306876159
 30
0.0
 10
78.62798289462332
 20
99.31183306876159
 30
0.0
 10
79.01658992172139
 20
99.31183306876159
 30
0.0
 10
79.01658992172139
 20
99.31183306876159
 30
0.0
 10
79.01658992172139
 20
99.31183306876159
 30
0.0
 10
79.01658992172139
 20
99.31183306876159
 30
0.0
 10
79.38108126451374
 20
99.31183306876159
 30
0.0
 10
79.74712290129716
 20
99.31183306876159
 30
0.0
 10
80.1129922831927
 20
99.31183306876159
 30
0.0
  0
ENDBLK
  5
15C
330
159
100
AcDbEntity
  8
0
100
AcDbBlockEnd
  0
BLOCK
  5
160
330
15E
100
AcDbEntity
  8
0
100
AcDbBlockBegin
  2
block 47
 70
     0
 71
     0
 10
0.0
 20
0.0
 30
0.0
  3
block 47
  1

  0
SPLINE
  5
162
330
15E
100
AcDbEntity
  8
0
 62
     7
420
 16777215
370
     9
100
AcDbSpline
210
0.0
220
0.0
230
1.0
 70
    24
 71
     3
 72
    86
 73
    82
 74
     0
 42
0.0000000001
 43
0.0000000001
 40
0.0
 40
0.0
 40
0.0
 40
0.0
 40
1.0
 40
1.0
 40
1.0
 40
2.0
 40
2.0
 40
2.0
 40
3.0
 40
3.0
 40
3.0
 40
4.0
 40
4.0
 40
4.0
 40
5.0
 40
5.0
 40
5.0
 40
6.0
 40
6.0
 40
6.0
 40
7.0
 40
7.0
 40
7.0
 40
8.0
 40
8.0
 40
8.0
 40
9.0
 40
9.0
 40
9.0
 40
10.0
 40
10.0
 40
10.0
 40
11.0
 40
11.0
 40
11.0
 40
12.0
 40
12.0
 40
12.0
 40
13.0
 40
13.0
 40
13.0
 40
14.0
 40
14.0
 40
14.0
 40
15.0
 40
15.0
 40
15.0
 40
16.0
 40
16.0
 40
16.0
 40
17.0
 40
17.0
 40
17.0
 40
18.0
 40
18.0
 40
18.0
 40
19.0
 40
19.0
 40
19.0
 40
20.0
 40
20.0
 40
20.0
 40
21.0
 40
21.0
 40
21.0
 40
22.0
 40
22.0
 40
22.0
 40
23.0
 40
23.0
 40
23.0
 40
24.0
 40
24.0
 40
24.0
 40
25.0
 40
25.0
 40
25.0
 40
26.0
 40
26.0
 40
26.0
 40
27.0
 40
27.0
 40
27.0
 40
27.0
 10
80.1129922831927
 20
99.31183306876159
 30
0.0
 10
80.47886166508823
 20
99.31183306876159
 30
0.0
 10
80.84455879209587
 20
99.31183306876159
 30
0.0
 10
81.2090501348882
 20
99.31183306876159
 30
0.0
 10
81.2090501348882
 20
99.31183306876159
 30
0.0
 10
81.2090501348882
 20
99.31183306876159
 30
0.0
 10
81.2090501348882
 20
99.31183306876159
 30
0.0
 10
81.59748490709839
 20
99.31183306876159
 30
0.0
 10
81.98436938531748
 20
99.31183306876159
 30
0.0
 10
82.36780876577862
 20
99.31183306876159
 30
0.0
 10
82.36780876577862
 20
99.31183306876159
 30
0.0
 10
82.36780876577862
 20
99.31183306876159
 30
0.0
 10
82.36780876577862
 20
99.31183306876159
 30
0.0
 10
82.774502556106
 20
99.31183306876159
 30
0.0
 10
83.17740673889962
 20
99.31183306876159
 30
0.0
 10
83.5744542555047
 20
99.31183306876159
 30
0.0
 10
83.5744542555047
 20
99.31183306876159
 30
0.0
 10
83.5744542555047
 20
99.31183306876159
 30
0.0
 10
83.5744542555047
 20
99.31183306876159
 30
0.0
 10
84.02197245426393
 20
99.31183306876159
 30
0.0
 10
84.46225594773144
 20
99.31183306876159
 30
0.0
 10
84.89203189303716
 20
99.31183306876159
 30
0.0
 10
84.89203189303716
 20
99.31183306876159
 30
0.0
 10
84.89203189303716
 20
99.31183306876159
 30
0.0
 10
84.89203189303716
 20
99.31183306876159
 30
0.0
 10
85.34110038578746
 20
99.31183306876159
 30
0.0
 10
85.77897231082439
 20
99.31183306876159
 30
0.0
 10
86.20237482527787
 20
99.31183306876159
 30
0.0
 10
86.20237482527787
 20
99.31183306876159
 30
0.0
 10
86.20237482527787
 20
99.31183306876159
 30
0.0
 10
86.20237482527787
 20
99.31183306876159
 30
0.0
 10
86.66195086618997
 20
99.31183306876159
 30
0.0
 10
87.10481818297595
 20
99.31183306876159
 30
0.0
 10
87.52701491321415
 20
99.31183306876159
 30
0.0
 10
87.52701491321415
 20
99.31183306876159
 30
0.0
 10
87.52701491321415
 20
99.31183306876159
 30
0.0
 10
87.52701491321415
 20
99.31183306876159
 30
0.0
 10
87.86428998371859
 20
99.31183306876159
 30
0.0
 10
88.1884736827428
 20
99.31183306876159
 30
0.0
 10
88.49801571629565
 20
99.31183306876159
 30
0.0
 10
88.49801571629565
 20
99.31183306876159
 30
0.0
 10
88.49801571629565
 20
99.31183306876159
 30
0.0
 10
88.49801571629565
 20
99.31183306876159
 30
0.0
 10
88.82202716043194
 20
99.31183306876159
 30
0.0
 10
89.12984664510583
 20
99.31183306876159
 30
0.0
 10
89.4197516214383
 20
99.31183306876159
 30
0.0
 10
89.4197516214383
 20
99.31183306876159
 30
0.0
 10
89.4197516214383
 20
99.31183306876159
 30
0.0
 10
89.4197516214383
 20
99.31183306876159
 30
0.0
 10
89.72188669481154
 20
99.31183306876159
 30
0.0
 10
90.0045569658523
 20
99.31183306876159
 30
0.0
 10
90.2658676307937
 20
99.31183306876159
 30
0.0
 10
90.2658676307937
 20
99.31183306876159
 30
0.0
 10
90.2658676307937
 20
99.31183306876159
 30
0.0
 10
90.2658676307937
 20
99.31183306876159
 30
0.0
 10
90.53665231456948
 20
99.31183306876159
 30
0.0
 10
90.78469935314273
 20
99.31183306876159
 30
0.0
 10
91.00828619763443
 20
99.31183306876159
 30
0.0
 10
91.00828619763443
 20
99.31183306876159
 30
0.0
 10
91.00828619763443
 20
99.31183306876159
 30
0.0
 10
91.00828619763443
 20
99.31183306876159
 30
0.0
 10
91.23876323764208
 20
99.31183306876159
 30
0.0
 10
91.4432297895771
 20
99.31183306876159
 30
0.0
 10
91.61979104967263
 20
99.31183306876159
 30
0.0
 10
91.61979104967263
 20
99.31183306876159
 30
0.0
 10
91.61979104967263
 20
99.31183306876159
 30
0.0
 10
91.61979104967263
 20
99.31183306876159
 30
0.0
 10
91.80031417218983
 20
99.31183306876159
 30
0.0
 10
91.95172621865224
 20
99.31183306876159
 30
0.0
 10
92.07540522816306
 20
99.31183306876159
 30
0.0
 10
92.07540522816306
 20
99.31183306876159
 30
0.0
 10
92.07540522816306
 20
99.31183306876159
 30
0.0
 10
92.07540522816306
 20
99.31183306876159
 30
0.0
 10
92.20115129632867
 20
99.31183306876159
 30
0.0
 10
92.29847530799108
 20
99.31183306876159
 30
0.0
 10
92.35600844054905
 20
99.31183306876159
 30
0.0
 10
92.35600844054905
 20
99.31183306876159
 30
0.0
 10
92.35600844054905
 20
99.31183306876159
 30
0.0
 10
92.35600844054905
 20
99.31183306876159
 30
0.0
 10
92.41371382799491
 20
99.31183306876159
 30
0.0
 10
92.43076706189682
 20
99.31183306876159
 30
0.0
 10
92.44799255068662
 20
99.31183306876159
 30
0.0
  0
ENDBLK
  5
161
330
15E
100
AcDbEntity
  8
0
100
AcDbBlockEnd
  0
BLOCK
  5
165
330
163
100
AcDbEntity
  8
0
100
AcDbBlockBegin
  2
block 48
 70
     0
 71
     0
 10
0.0
 20
0.0
 30
0.0
  3
block 48
  1

  0
POLYLINE
  5
167
330
163
100
AcDbEntity
  8
0
 62
     7
420
 16777215
370
     9
100
AcDb2dPolyline
 66
     1
 10
0.0
 20
0.0
 30
0.0
  0
VERTEX
  5
168
330
167
100
AcDbEntity
  8
0
 62
     7
420
 16777215
370
     9
100
AcDbVertex
100
AcDb2dVertex
 10
64.99538655659312
 20
142.1574803552037
 30
0.0
  0
VERTEX
  5
169
330
167
100
AcDbEntity
  8
0
 62
     7
420
 16777215
370
     9
100
AcDbVertex
100
AcDb2dVertex
 10
71.28027839644263
 20
142.1574803552037
 30
0.0
  0
SEQEND
  5
16A
330
167
100
AcDbEntity
  8
0
370
     9
  0
ENDBLK
  5
166
330
163
100
AcDbEntity
  8
0
100
AcDbBlockEnd
  0
BLOCK
  5
16D
330
16B
100
AcDbEntity
  8
0
100
AcDbBlockBegin
  2
block 49
 70
     0
 71
     0
 10
0.0
 20
0.0
 30
0.0
  3
block 49
  1

  0
POLYLINE
  5
16F
330
16B
100
AcDbEntity
  8
0
 62
     7
420
 16777215
370
     9
100
AcDb2dPolyline
 66
     1
 10
0.0
 20
0.0
 30
0.0
  0
VERTEX
  5
170
330
16F
100
AcDbEntity
  8
0
 62
     7
420
 16777215
370
     9
100
AcDbVertex
100
AcDb2dVertex
 10
87.85774429797847
 20
142.1574803552037
 30
0.0
  0
VERTEX
  5
171
330
16F
100
AcDbEntity
  8
0
 62
     7
420
 16777215
370
     9
100
AcDbVertex
100
AcDb2dVertex
 10
95.1656579170547
 20
142.1574803552037
 30
0.0
  0
SEQEND
  5
172
330
16F
100
AcDbEntity
  8
0
370
     9
  0
ENDBLK
  5
16E
330
16B
100
AcDbEntity
  8
0
100
AcDbBlockEnd
  0
BLOCK
  5
175
330
173
100
AcDbEntity
  8
0
100
AcDbBlockBegin
  2
block 50
 70
     0
 71
     0
 10
0.0
 20
0.0
 30
0.0
  3
block 50
  1

  0
POLYLINE
  5
177
330
173
100
AcDbEntity
  8
0
 62
     7
420
 16777215
370
     9
100
AcDb2dPolyline
 66
     1
 10
0.0
 20
0.0
 30
0.0
  0
VERTEX
  5
178
330
177
100
AcDbEntity
  8
0
 62
     7
420
 16777215
370
     9
100
AcDbVertex
100
AcDb2dVertex
 10
93.90854174517447
 20
135.4533201182103
 30
0.0
  0
VERTEX
  5
179
330
177
100
AcDbEntity
  8
0
 62
     7
420
 16777215
370
     9
100
AcDbVertex
100
AcDb2dVertex
 10
89.25335339972875
 20
135.4533201182103
 30
0.0
  0
SEQEND
  5
17A
330
177
100
AcDbEntity
  8
0
370
     9
  0
ENDBLK
  5
176
330
173
100
AcDbEntity
  8
0
100
AcDbBlockEnd
  0
BLOCK
  5
17D
330
17B
100
AcDbEntity
  8
0
100
AcDbBlockBegin
  2
block 51
 70
     0
 71
     0
 10
0.0
 20
0.0
 30
0.0
  3
block 51
  1

  0
POLYLINE
  5
17F
330
17B
100
AcDbEntity
  8
0
 62
     7
420
 16777215
370
     9
100
AcDb2dPolyline
 66
     1
 10
0.0
 20
0.0
 30
0.0
  0
VERTEX
  5
180
330
17F
100
AcDbEntity
  8
0
 62
     7
420
 16777215
370
     9
100
AcDbVertex
100
AcDb2dVertex
 10
71.39706721043753
 20
135.4533201182103
 30
0.0
  0
VERTEX
  5
181
330
17F
100
AcDbEntity
  8
0
 62
     7
420
 16777215
370
     9
100
AcDbVertex
100
AcDb2dVertex
 10
66.25250272847333
 20
135.4533201182103
 30
0.0
  0
SEQEND
  5
182
330
17F
100
AcDbEntity
  8
0
370
     9
  0
ENDBLK
  5
17E
330
17B
100
AcDbEntity
  8
0
100
AcDbBlockEnd
  0
BLOCK
  5
185
330
183
100
AcDbEntity
  8
0
100
AcDbBlockBegin
  2
block 52
 70
     0
 71
     0
 10
0.0
 20
0.0
 30
0.0
  3
block 52
  1

  0
SPLINE
  5
187
330
183
100
AcDbEntity
  8
0
 62
     7
420
 16777215
370
     9
100
AcDbSpline
210
0.0
220
0.0
230
1.0
 70
    24
 71
     3
 72
    32
 73
    28
 74
     0
 42
0.0000000001
 43
0.0000000001
 40
0.0
 40
0.0
 40
0.0
 40
0.0
 40
1.0
 40
1.0
 40
1.0
 40
2.0
 40
2.0
 40
2.0
 40
3.0
 40
3.0
 40
3.0
 40
4.0
 40
4.0
 40
4.0
 40
5.0
 40
5.0
 40
5.0
 40
6.0
 40
6.0
 40
6.0
 40
7.0
 40
7.0
 40
7.0
 40
8.0
 40
8.0
 40
8.0
 40
9.0
 40
9.0
 40
9.0
 40
9.0
 10
80.08060836426786
 20
135.3482446365925
 30
0.0
 10
80.71416184195701
 20
135.3482446365925
 30
0.0
 10
81.34788757453407
 20
135.3482446365925
 30
0.0
 10
81.97679017024997
 20
135.3482446365925
 30
0.0
 10
81.97679017024997
 20
135.3482446365925
 30
0.0
 10
81.97679017024997
 20
135.3482446365925
 30
0.0
 10
81.97679017024997
 20
135.3482446365925
 30
0.0
 10
82.63135874426268
 20
135.3482446365925
 30
0.0
 10
83.28093192652636
 20
135.3482446365925
 30
0.0
 10
83.91999756062826
 20
135.3482446365925
 30
0.0
 10
83.91999756062826
 20
135.3482446365925
 30
0.0
 10
83.91999756062826
 20
135.3482446365925
 30
0.0
 10
83.91999756062826
 20
135.3482446365925
 30
0.0
 10
84.58111182038111
 20
135.3482446365925
 30
0.0
 10
85.23085725753268
 20
135.3482446365925
 30
0.0
 10
85.86578877432503
 20
135.3482446365925
 30
0.0
 10
85.86578877432503
 20
135.3482446365925
 30
0.0
 10
85.86578877432503
 20
135.3482446365925
 30
0.0
 10
85.86578877432503
 20
135.3482446365925
 30
0.0
 10
86.35533716573137
 20
135.3482446365925
 30
0.0
 10
86.83575604807913
 20
135.3482446365925
 30
0.0
 10
87.30032748074026
 20
135.3482446365925
 30
0.0
 10
87.30032748074026
 20
135.3482446365925
 30
0.0
 10
87.30032748074026
 20
135.3482446365925
 30
0.0
 10
87.30032748074026
 20
135.3482446365925
 30
0.0
 10
87.77230587358102
 20
135.3482446365925
 30
0.0
 10
88.22809230695935
 20
135.3482446365925
 30
0.0
 10
88.68370648544979
 20
135.3482446365925
 30
0.0
  0
ENDBLK
  5
186
330
183
100
AcDbEntity
  8
0
100
AcDbBlockEnd
  0
BLOCK
  5
18A
330
188
100
AcDbEntity
  8
0
100
AcDbBlockBegin
  2
block 53
 70
     0
 71
     0
 10
0.0
 20
0.0
 30
0.0
  3
block 53
  1

  0
POLYLINE
  5
18C
330
188
100
AcDbEntity
  8
0
 62
     7
420
 16777215
370
     9
100
AcDb2dPolyline
 66
     1
 10
0.0
 20
0.0
 30
0.0
  0
VERTEX
  5
18D
330
18C
100
AcDbEntity
  8
0
 62
     7
420
 16777215
370
     9
100
AcDbVertex
100
AcDb2dVertex
 10
96.02968843475149
 20
135.5597736389313
 30
0.0
  0
VERTEX
  5
18E
330
18C
100
AcDbEntity
  8
0
 62
     7
420
 16777215
370
     9
100
AcDbVertex
100
AcDb2dVertex
 10
93.3574983587885
 20
135.5597736389313
 30
0.0
  0
SEQEND
  5
18F
330
18C
100
AcDbEntity
  8
0
370
     9
  0
ENDBLK
  5
18B
330
188
100
AcDbEntity
  8
0
100
AcDbBlockEnd
  0
BLOCK
  5
192
330
190
100
AcDbEntity
  8
0
100
AcDbBlockBegin
  2
block 54
 70
     0
 71
     0
 10
0.0
 20
0.0
 30
0.0
  3
block 54
  1

  0
SPLINE
  5
194
330
190
100
AcDbEntity
  8
0
 62
     7
420
 16777215
370
     9
100
AcDbSpline
210
0.0
220
0.0
230
1.0
 70
    24
 71
     3
 72
    32
 73
    28
 74
     0
 42
0.0000000001
 43
0.0000000001
 40
0.0
 40
0.0
 40
0.0
 40
0.0
 40
1.0
 40
1.0
 40
1.0
 40
2.0
 40
2.0
 40
2.0
 40
3.0
 40
3.0
 40
3.0
 40
4.0
 40
4.0
 40
4.0
 40
5.0
 40
5.0
 40
5.0
 40
6.0
 40
6.0
 40
6.0
 40
7.0
 40
7.0
 40
7.0
 40
8.0
 40
8.0
 40
8.0
 40
9.0
 40
9.0
 40
9.0
 40
9.0
 10
71.47751024308593
 20
135.3482446365925
 30
0.0
 10
71.93312442157637
 20
135.3482446365925
 30
0.0
 10
72.38873860006679
 20
135.3482446365925
 30
0.0
 10
72.86088924779544
 20
135.3482446365925
 30
0.0
 10
72.86088924779544
 20
135.3482446365925
 30
0.0
 10
72.86088924779544
 20
135.3482446365925
 30
0.0
 10
72.86088924779544
 20
135.3482446365925
 30
0.0
 10
73.32546068045657
 20
135.3482446365925
 30
0.0
 10
73.80587956280434
 20
135.3482446365925
 30
0.0
 10
74.2952556993228
 20
135.3482446365925
 30
0.0
 10
74.2952556993228
 20
135.3482446365925
 30
0.0
 10
74.2952556993228
 20
135.3482446365925
 30
0.0
 10
74.2952556993228
 20
135.3482446365925
 30
0.0
 10
74.93018721611513
 20
135.3482446365925
 30
0.0
 10
75.58010490815461
 20
135.3482446365925
 30
0.0
 10
76.24121916790745
 20
135.3482446365925
 30
0.0
 10
76.24121916790745
 20
135.3482446365925
 30
0.0
 10
76.24121916790745
 20
135.3482446365925
 30
0.0
 10
76.24121916790745
 20
135.3482446365925
 30
0.0
 10
76.88028480200934
 20
135.3482446365925
 30
0.0
 10
77.53003023916092
 20
135.3482446365925
 30
0.0
 10
78.18442655828574
 20
135.3482446365925
 30
0.0
 10
78.18442655828574
 20
135.3482446365925
 30
0.0
 10
78.18442655828574
 20
135.3482446365925
 30
0.0
 10
78.18442655828574
 20
135.3482446365925
 30
0.0
 10
78.81350140888955
 20
135.3482446365925
 30
0.0
 10
79.4470548865787
 20
135.3482446365925
 30
0.0
 10
80.08060836426786
 20
135.3482446365925
 30
0.0
  0
ENDBLK
  5
193
330
190
100
AcDbEntity
  8
0
100
AcDbBlockEnd
  0
BLOCK
  5
197
330
195
100
AcDbEntity
  8
0
100
AcDbBlockBegin
  2
block 55
 70
     0
 71
     0
 10
0.0
 20
0.0
 30
0.0
  3
block 55
  1

  0
POLYLINE
  5
199
330
195
100
AcDbEntity
  8
0
 62
     7
420
 16777215
370
     9
100
AcDb2dPolyline
 66
     1
 10
0.0
 20
0.0
 30
0.0
  0
VERTEX
  5
19A
330
199
100
AcDbEntity
  8
0
 62
     7
420
 16777215
370
     9
100
AcDbVertex
100
AcDb2dVertex
 10
66.8858839512746
 20
135.5597736389313
 30
0.0
  0
VERTEX
  5
19B
330
199
100
AcDbEntity
  8
0
 62
     7
420
 16777215
370
     9
100
AcDbVertex
100
AcDb2dVertex
 10
64.13135603889633
 20
135.5597736389313
 30
0.0
  0
SEQEND
  5
19C
330
199
100
AcDbEntity
  8
0
370
     9
  0
ENDBLK
  5
198
330
195
100
AcDbEntity
  8
0
100
AcDbBlockEnd
  0
BLOCK
  5
19F
330
19D
100
AcDbEntity
  8
0
100
AcDbBlockBegin
  2
block 56
 70
     0
 71
     0
 10
0.0
 20
0.0
 30
0.0
  3
block 56
  1

  0
POLYLINE
  5
1A1
330
19D
100
AcDbEntity
  8
0
 62
     7
420
 16777215
370
     9
100
AcDb2dPolyline
 66
     1
 10
0.0
 20
0.0
 30
0.0
  0
VERTEX
  5
1A2
330
1A1
100
AcDbEntity
  8
0
 62
     7
420
 16777215
370
     9
100
AcDbVertex
100
AcDb2dVertex
 10
95.91651697340245
 20
141.8546562622789
 30
0.0
  0
VERTEX
  5
1A3
330
1A1
100
AcDbEntity
  8
0
 62
     7
420
 16777215
370
     9
100
AcDbVertex
100
AcDb2dVertex
 10
91.63908359711722
 20
141.8546562622789
 30
0.0
  0
SEQEND
  5
1A4
330
1A1
100
AcDbEntity
  8
0
370
     9
  0
ENDBLK
  5
1A0
330
19D
100
AcDbEntity
  8
0
100
AcDbBlockEnd
  0
BLOCK
  5
1A7
330
1A5
100
AcDbEntity
  8
0
100
AcDbBlockBegin
  2
block 57
 70
     0
 71
     0
 10
0.0
 20
0.0
 30
0.0
  3
block 57
  1

  0
POLYLINE
  5
1A9
330
1A5
100
AcDbEntity
  8
0
 62
     7
420
 16777215
370
     9
100
AcDb2dPolyline
 66
     1
 10
0.0
 20
0.0
 30
0.0
  0
VERTEX
  5
1AA
330
1A9
100
AcDbEntity
  8
0
 62
     7
420
 16777215
370
     9
100
AcDbVertex
100
AcDb2dVertex
 10
67.33012930716374
 20
141.8546562622789
 30
0.0
  0
VERTEX
  5
1AB
330
1A9
100
AcDbEntity
  8
0
 62
     7
420
 16777215
370
     9
100
AcDbVertex
100
AcDb2dVertex
 10
64.24469975513325
 20
141.8546562622789
 30
0.0
  0
SEQEND
  5
1AC
330
1A9
100
AcDbEntity
  8
0
370
     9
  0
ENDBLK
  5
1A8
330
1A5
100
AcDbEntity
  8
0
100
AcDbBlockEnd
  0
BLOCK
  5
1AF
330
1AD
100
AcDbEntity
  8
0
100
AcDbBlockBegin
  2
block 58
 70
     0
 71
     0
 10
0.0
 20
0.0
 30
0.0
  3
block 58
  1

  0
SPLINE
  5
1B1
330
1AD
100
AcDbEntity
  8
0
 62
     7
420
 16777215
370
     9
100
AcDbSpline
210
0.0
220
0.0
230
1.0
 70
    24
 71
     3
 72
    38
 73
    34
 74
     0
 42
0.0000000001
 43
0.0000000001
 40
0.0
 40
0.0
 40
0.0
 40
0.0
 40
1.0
 40
1.0
 40
1.0
 40
2.0
 40
2.0
 40
2.0
 40
3.0
 40
3.0
 40
3.0
 40
4.0
 40
4.0
 40
4.0
 40
5.0
 40
5.0
 40
5.0
 40
6.0
 40
6.0
 40
6.0
 40
7.0
 40
7.0
 40
7.0
 40
8.0
 40
8.0
 40
8.0
 40
9.0
 40
9.0
 40
9.0
 40
10.0
 40
10.0
 40
10.0
 40
11.0
 40
11.0
 40
11.0
 40
11.0
 10
80.08060836426786
 20
142.0530938931375
 30
0.0
 10
79.45136125877616
 20
142.0530938931375
 30
0.0
 10
78.82228640817235
 20
142.0530938931375
 30
0.0
 10
78.1978624395418
 20
142.0530938931375
 30
0.0
 10
78.1978624395418
 20
142.0530938931375
 30
0.0
 10
78.1978624395418
 20
142.0530938931375
 30
0.0
 10
78.1978624395418
 20
142.0530938931375
 30
0.0
 10
77.54828925727811
 20
142.0530938931375
 30
0.0
 10
76.90371146676348
 20
142.0530938931375
 30
0.0
 10
76.26860769508325
 20
142.0530938931375
 30
0.0
 10
76.26860769508325
 20
142.0530938931375
 30
0.0
 10
76.26860769508325
 20
142.0530938931375
 30
0.0
 10
76.26860769508325
 20
142.0530938931375
 30
0.0
 10
75.61179980752785
 20
142.0530938931375
 30
0.0
 10
74.96515495835844
 20
142.0530938931375
 30
0.0
 10
74.33676912730623
 20
142.0530938931375
 30
0.0
 10
74.33676912730623
 20
142.0530938931375
 30
0.0
 10
74.33676912730623
 20
142.0530938931375
 30
0.0
 10
74.33676912730623
 20
142.0530938931375
 30
0.0
 10
73.85273289231262
 20
142.0530938931375
 30
0.0
 10
73.37937646036868
 20
142.0530938931375
 30
0.0
 10
72.91256571416487
 20
142.0530938931375
 30
0.0
 10
72.91256571416487
 20
142.0530938931375
 30
0.0
 10
72.91256571416487
 20
142.0530938931375
 30
0.0
 10
72.91256571416487
 20
142.0530938931375
 30
0.0
 10
72.43834800778144
 20
142.0530938931375
 30
0.0
 10
71.97084824202604
 20
142.0530938931375
 30
0.0
 10
71.53917749295344
 20
142.0530938931375
 30
0.0
 10
71.53917749295344
 20
142.0530938931375
 30
0.0
 10
71.53917749295344
 20
142.0530938931375
 30
0.0
 10
71.53917749295344
 20
142.0530938931375
 30
0.0
 10
71.47716573331013
 20
142.0530938931375
 30
0.0
 10
71.4160152481063
 20
142.0530938931375
 30
0.0
 10
71.3546925080146
 20
142.0530938931375
 30
0.0
  0
ENDBLK
  5
1B0
330
1AD
100
AcDbEntity
  8
0
100
AcDbBlockEnd
  0
BLOCK
  5
1B4
330
1B2
100
AcDbEntity
  8
0
100
AcDbBlockBegin
  2
block 59
 70
     0
 71
     0
 10
0.0
 20
0.0
 30
0.0
  3
block 59
  1

  0
SPLINE
  5
1B6
330
1B2
100
AcDbEntity
  8
0
 62
     7
420
 16777215
370
     9
100
AcDbSpline
210
0.0
220
0.0
230
1.0
 70
    24
 71
     3
 72
    32
 73
    28
 74
     0
 42
0.0000000001
 43
0.0000000001
 40
0.0
 40
0.0
 40
0.0
 40
0.0
 40
1.0
 40
1.0
 40
1.0
 40
2.0
 40
2.0
 40
2.0
 40
3.0
 40
3.0
 40
3.0
 40
4.0
 40
4.0
 40
4.0
 40
5.0
 40
5.0
 40
5.0
 40
6.0
 40
6.0
 40
6.0
 40
7.0
 40
7.0
 40
7.0
 40
8.0
 40
8.0
 40
8.0
 40
9.0
 40
9.0
 40
9.0
 40
9.0
 10
87.77988508864854
 20
142.0530938931375
 30
0.0
 10
87.2260856240562
 20
142.0530938931375
 30
0.0
 10
86.67228615946385
 20
142.0530938931375
 30
0.0
 10
86.09884963765113
 20
142.0530938931375
 30
0.0
 10
86.09884963765113
 20
142.0530938931375
 30
0.0
 10
86.09884963765113
 20
142.0530938931375
 30
0.0
 10
86.09884963765113
 20
142.0530938931375
 30
0.0
 10
85.56503174005496
 20
142.0530938931375
 30
0.0
 10
85.01450511833269
 20
142.0530938931375
 30
0.0
 10
84.4560547717671
 20
142.0530938931375
 30
0.0
 10
84.4560547717671
 20
142.0530938931375
 30
0.0
 10
84.4560547717671
 20
142.0530938931375
 30
0.0
 10
84.4560547717671
 20
142.0530938931375
 30
0.0
 10
83.95341500888048
 20
142.0530938931375
 30
0.0
 10
83.44422956025375
 20
142.0530938931375
 30
0.0
 10
82.93004871987797
 20
142.0530938931375
 30
0.0
 10
82.93004871987797
 20
142.0530938931375
 30
0.0
 10
82.93004871987797
 20
142.0530938931375
 30
0.0
 10
82.93004871987797
 20
142.0530938931375
 30
0.0
 10
82.44549572022066
 20
142.0530938931375
 30
0.0
 10
81.95663634836589
 20
142.0530938931375
 30
0.0
 10
81.46553766296846
 20
142.0530938931375
 30
0.0
 10
81.46553766296846
 20
142.0530938931375
 30
0.0
 10
81.46553766296846
 20
142.0530938931375
 30
0.0
 10
81.46553766296846
 20
142.0530938931375
 30
0.0
 10
81.00510034761687
 20
142.0530938931375
 30
0.0
 10
80.54276822849842
 20
142.0530938931375
 30
0.0
 10
80.08060836426786
 20
142.0530938931375
 30
0.0
  0
ENDBLK
  5
1B5
330
1B2
100
AcDbEntity
  8
0
100
AcDbBlockEnd
  0
BLOCK
  5
1B9
330
1B7
100
AcDbEntity
  8
0
100
AcDbBlockBegin
  2
block 60
 70
     0
 71
     0
 10
0.0
 20
0.0
 30
0.0
  3
block 60
  1

  0
POLYLINE
  5
1BB
330
1B7
100
AcDbEntity
  8
0
 62
     7
420
 16777215
370
     9
100
AcDb2dPolyline
 66
     1
 10
0.0
 20
0.0
 30
0.0
  0
VERTEX
  5
1BC
330
1BB
100
AcDbEntity
  8
0
 62
     7
420
 16777215
370
     9
100
AcDbVertex
100
AcDb2dVertex
 10
94.53882237999358
 20
135.5580510900523
 30
0.0
  0
VERTEX
  5
1BD
330
1BB
100
AcDbEntity
  8
0
 62
     7
420
 16777215
370
     9
100
AcDbVertex
100
AcDb2dVertex
 10
94.53899463488148
 20
135.5580510900523
 30
0.0
  0
SEQEND
  5
1BE
330
1BB
100
AcDbEntity
  8
0
370
     9
  0
ENDBLK
  5
1BA
330
1B7
100
AcDbEntity
  8
0
100
AcDbBlockEnd
  0
BLOCK
  5
1C1
330
1BF
100
AcDbEntity
  8
0
100
AcDbBlockBegin
  2
block 61
 70
     0
 71
     0
 10
0.0
 20
0.0
 30
0.0
  3
block 61
  1

  0
POLYLINE
  5
1C3
330
1BF
100
AcDbEntity
  8
0
 62
     7
420
 16777215
370
     9
100
AcDb2dPolyline
 66
     1
 10
0.0
 20
0.0
 30
0.0
  0
VERTEX
  5
1C4
330
1C3
100
AcDbEntity
  8
0
 62
     7
420
 16777215
370
     9
100
AcDbVertex
100
AcDb2dVertex
 10
94.53882237999358
 20
135.5580510900523
 30
0.0
  0
VERTEX
  5
1C5
330
1C3
100
AcDbEntity
  8
0
 62
     7
420
 16777215
370
     9
100
AcDbVertex
100
AcDb2dVertex
 10
94.07097810446237
 20
135.5580510900523
 30
0.0
  0
SEQEND
  5
1C6
330
1C3
100
AcDbEntity
  8
0
370
     9
  0
ENDBLK
  5
1C2
330
1BF
100
AcDbEntity
  8
0
100
AcDbBlockEnd
  0
BLOCK
  5
1C9
330
1C7
100
AcDbEntity
  8
0
100
AcDbBlockBegin
  2
block 62
 70
     0
 71
     0
 10
0.0
 20
0.0
 30
0.0
  3
block 62
  1

  0
POLYLINE
  5
1CB
330
1C7
100
AcDbEntity
  8
0
 62
     7
420
 16777215
370
     9
100
AcDb2dPolyline
 66
     1
 10
0.0
 20
0.0
 30
0.0
  0
VERTEX
  5
1CC
330
1CB
100
AcDbEntity
  8
0
 62
     7
420
 16777215
370
     9
100
AcDbVertex
100
AcDb2dVertex
 10
66.09023862407334
 20
135.5580510900523
 30
0.0
  0
VERTEX
  5
1CD
330
1CB
100
AcDbEntity
  8
0
 62
     7
420
 16777215
370
     9
100
AcDbVertex
100
AcDb2dVertex
 10
65.62222209365424
 20
135.5580510900523
 30
0.0
  0
SEQEND
  5
1CE
330
1CB
100
AcDbEntity
  8
0
370
     9
  0
ENDBLK
  5
1CA
330
1C7
100
AcDbEntity
  8
0
100
AcDbBlockEnd
  0
BLOCK
  5
1D1
330
1CF
100
AcDbEntity
  8
0
100
AcDbBlockBegin
  2
block 63
 70
     0
 71
     0
 10
0.0
 20
0.0
 30
0.0
  3
block 63
  1

  0
POLYLINE
  5
1D3
330
1CF
100
AcDbEntity
  8
0
 62
     7
420
 16777215
370
     9
100
AcDb2dPolyline
 66
     1
 10
0.0
 20
0.0
 30
0.0
  0
VERTEX
  5
1D4
330
1D3
100
AcDbEntity
  8
0
 62
     7
420
 16777215
370
     9
100
AcDbVertex
100
AcDb2dVertex
 10
65.62204983876634
 20
135.5580510900523
 30
0.0
  0
VERTEX
  5
1D5
330
1D3
100
AcDbEntity
  8
0
 62
     7
420
 16777215
370
     9
100
AcDbVertex
100
AcDb2dVertex
 10
65.62222209365424
 20
135.5580510900523
 30
0.0
  0
SEQEND
  5
1D6
330
1D3
100
AcDbEntity
  8
0
370
     9
  0
ENDBLK
  5
1D2
330
1CF
100
AcDbEntity
  8
0
100
AcDbBlockEnd
  0
BLOCK
  5
1D9
330
1D7
100
AcDbEntity
  8
0
100
AcDbBlockBegin
  2
block 64
 70
     0
 71
     0
 10
0.0
 20
0.0
 30
0.0
  3
block 64
  1

  0
POLYLINE
  5
1DB
330
1D7
100
AcDbEntity
  8
0
 62
     7
420
 16777215
370
     9
100
AcDb2dPolyline
 66
     1
 10
0.0
 20
0.0
 30
0.0
  0
VERTEX
  5
1DC
330
1DB
100
AcDbEntity
  8
0
 62
     7
420
 16777215
370
     9
100
AcDbVertex
100
AcDb2dVertex
 10
80.08060836426786
 20
259.8006785940794
 30
0.0
  0
VERTEX
  5
1DD
330
1DB
100
AcDbEntity
  8
0
 62
     7
420
 16777215
370
     9
100
AcDbVertex
100
AcDb2dVertex
 10
80.08060836426786
 20
259.8006785940794
 30
0.0
  0
SEQEND
  5
1DE
330
1DB
100
AcDbEntity
  8
0
370
     9
  0
ENDBLK
  5
1DA
330
1D7
100
AcDbEntity
  8
0
100
AcDbBlockEnd
  0
BLOCK
  5
1E1
330
1DF
100
AcDbEntity
  8
0
100
AcDbBlockBegin
  2
block 65
 70
     0
 71
     0
 10
0.0
 20
0.0
 30
0.0
  3
block 65
  1

  0
INSERT
  5
1E4
330
1DF
100
AcDbEntity
  8
0
100
AcDbBlockReference
  2
block 66
 10
0.0
 20
0.0
 30
0.0
  0
INSERT
  5
213
330
1DF
100
AcDbEntity
  8
0
100
AcDbBlockReference
  2
block 72
 10
0.0
 20
0.0
 30
0.0
  0
INSERT
  5
242
330
1DF
100
AcDbEntity
  8
0
100
AcDbBlockReference
  2
block 78
 10
0.0
 20
0.0
 30
0.0
  0
INSERT
  5
24A
330
1DF
100
AcDbEntity
  8
0
100
AcDbBlockReference
  2
block 79
 10
0.0
 20
0.0
 30
0.0
  0
INSERT
  5
252
330
1DF
100
AcDbEntity
  8
0
100
AcDbBlockReference
  2
block 80
 10
0.0
 20
0.0
 30
0.0
  0
INSERT
  5
25A
330
1DF
100
AcDbEntity
  8
0
100
AcDbBlockReference
  2
block 81
 10
0.0
 20
0.0
 30
0.0
  0
ENDBLK
  5
1E2
330
1DF
100
AcDbEntity
  8
0
100
AcDbBlockEnd
  0
BLOCK
  5
1E5
330
1E3
100
AcDbEntity
  8
0
100
AcDbBlockBegin
  2
block 66
 70
     0
 71
     0
 10
0.0
 20
0.0
 30
0.0
  3
block 66
  1

  0
INSERT
  5
1E8
330
1E3
100
AcDbEntity
  8
0
100
AcDbBlockReference
  2
block 67
 10
0.0
 20
0.0
 30
0.0
  0
INSERT
  5
20B
330
1E3
100
AcDbEntity
  8
0
100
AcDbBlockReference
  2
block 71
 10
0.0
 20
0.0
 30
0.0
  0
ENDBLK
  5
1E6
330
1E3
100
AcDbEntity
  8
0
100
AcDbBlockEnd
  0
BLOCK
  5
1E9
330
1E7
100
AcDbEntity
  8
0
100
AcDbBlockBegin
  2
block 67
 70
     0
 71
     0
 10
0.0
 20
0.0
 30
0.0
  3
block 67
  1

  0
INSERT
  5
1EC
330
1E7
100
AcDbEntity
  8
0
100
AcDbBlockReference
  2
block 68
 10
0.0
 20
0.0
 30
0.0
  0
ENDBLK
  5
1EA
330
1E7
100
AcDbEntity
  8
0
100
AcDbBlockEnd
  0
BLOCK
  5
1ED
330
1EB
100
AcDbEntity
  8
0
100
AcDbBlockBegin
  2
block 68
 70
     0
 71
     0
 10
0.0
 20
0.0
 30
0.0
  3
block 68
  1

  0
INSERT
  5
1F0
330
1EB
100
AcDbEntity
  8
0
100
AcDbBlockReference
  2
block 69
 10
0.0
 20
0.0
 30
0.0
  0
INSERT
  5
1FB
330
1EB
100
AcDbEntity
  8
0
100
AcDbBlockReference
  2
block 70
 10
0.0
 20
0.0
 30
0.0
  0
ENDBLK
  5
1EE
330
1EB
100
AcDbEntity
  8
0
100
AcDbBlockEnd
  0
BLOCK
  5
1F1
330
1EF
100
AcDbEntity
  8
0
100
AcDbBlockBegin
  2
block 69
 70
     0
 71
     0
 10
0.0
 20
0.0
 30
0.0
  3
block 69
  1

  0
POLYLINE
  5
1F3
330
1EF
100
AcDbEntity
  8
0
370
     0
100
AcDb2dPolyline
 66
     1
 10
0.0
 20
0.0
 30
0.0
  0
VERTEX
  5
1F4
330
1F3
100
AcDbEntity
  8
0
370
     0
100
AcDbVertex
100
AcDb2dVertex
 10
55.26264088057555
 20
259.8017121234068
 30
0.0
  0
VERTEX
  5
1F5
330
1F3
100
AcDbEntity
  8
0
370
     0
100
AcDbVertex
100
AcDb2dVertex
 10
55.67898094462522
 20
257.286446250319
 30
0.0
  0
VERTEX
  5
1F6
330
1F3
100
AcDbEntity
  8
0
370
     0
100
AcDbVertex
100
AcDb2dVertex
 10
54.84285571876791
 20
257.286446250319
 30
0.0
  0
VERTEX
  5
1F7
330
1F3
100
AcDbEntity
  8
0
370
     0
100
AcDbVertex
100
AcDb2dVertex
 10
55.26264088057555
 20
259.8017121234068
 30
0.0
  0
SEQEND
  5
1F8
330
1F3
100
AcDbEntity
  8
0
370
     0
  0
HATCH
  5
1F9
330
1EF
100
AcDbEntity
  8
0
 62
     7
420
 16777215
100
AcDbHatch
 10
0.0
 20
0.0
 30
0.0
210
0.0
220
0.0
230
1.0
  2
SOLID
 70
     1
 71
     0
 91
        1
 92
        1
 93
        3
 72
     1
 10
55.26264088057555
 20
259.8017121234068
 11
55.67898094462522
 21
257.286446250319
 72
     1
 10
55.67898094462522
 20
257.286446250319
 11
54.84285571876791
 21
257.286446250319
 72
     1
 10
54.84285571876791
 20
257.286446250319
 11
55.26264088057555
 21
259.8017121234068
 97
        0
 75
     2
 76
     1
 98
        0
  0
ENDBLK
  5
1F2
330
1EF
100
AcDbEntity
  8
0
100
AcDbBlockEnd
  0
BLOCK
  5
1FC
330
1FA
100
AcDbEntity
  8
0
100
AcDbBlockBegin
  2
block 70
 70
     0
 71
     0
 10
0.0
 20
0.0
 30
0.0
  3
block 70
  1

  0
POLYLINE
  5
1FE
330
1FA
100
AcDbEntity
  8
0
 62
     7
420
 16777215
370
     9
100
AcDb2dPolyline
 66
     1
 10
0.0
 20
0.0
 30
0.0
  0
VERTEX
  5
1FF
330
1FE
100
AcDbEntity
  8
0
 62
     7
420
 16777215
370
     9
100
AcDbVertex
100
AcDb2dVertex
 10
54.84285571876791
 20
257.286446250319
 30
0.0
  0
VERTEX
  5
200
330
1FE
100
AcDbEntity
  8
0
 62
     7
420
 16777215
370
     9
100
AcDbVertex
100
AcDb2dVertex
 10
55.26264088057555
 20
259.8017121234068
 30
0.0
  0
SEQEND
  5
201
330
1FE
100
AcDbEntity
  8
0
370
     9
  0
POLYLINE
  5
202
330
1FA
100
AcDbEntity
  8
0
 62
     7
420
 16777215
370
     9
100
AcDb2dPolyline
 66
     1
 10
0.0
 20
0.0
 30
0.0
  0
VERTEX
  5
203
330
202
100
AcDbEntity
  8
0
 62
     7
420
 16777215
370
     9
100
AcDbVertex
100
AcDb2dVertex
 10
55.26264088057555
 20
259.8017121234068
 30
0.0
  0
VERTEX
  5
204
330
202
100
AcDbEntity
  8
0
 62
     7
420
 16777215
370
     9
100
AcDbVertex
100
AcDb2dVertex
 10
55.67898094462522
 20
257.286446250319
 30
0.0
  0
SEQEND
  5
205
330
202
100
AcDbEntity
  8
0
370
     9
  0
POLYLINE
  5
206
330
1FA
100
AcDbEntity
  8
0
 62
     7
420
 16777215
370
     9
100
AcDb2dPolyline
 66
     1
 10
0.0
 20
0.0
 30
0.0
  0
VERTEX
  5
207
330
206
100
AcDbEntity
  8
0
 62
     7
420
 16777215
370
     9
100
AcDbVertex
100
AcDb2dVertex
 10
54.84285571876791
 20
257.286446250319
 30
0.0
  0
VERTEX
  5
208
330
206
100
AcDbEntity
  8
0
 62
     7
420
 16777215
370
     9
100
AcDbVertex
100
AcDb2dVertex
 10
55.67898094462522
 20
257.286446250319
 30
0.0
  0
SEQEND
  5
209
330
206
100
AcDbEntity
  8
0
370
     9
  0
ENDBLK
  5
1FD
330
1FA
100
AcDbEntity
  8
0
100
AcDbBlockEnd
  0
BLOCK
  5
20C
330
20A
100
AcDbEntity
  8
0
100
AcDbBlockBegin
  2
block 71
 70
     0
 71
     0
 10
0.0
 20
0.0
 30
0.0
  3
block 71
  1

  0
POLYLINE
  5
20E
330
20A
100
AcDbEntity
  8
0
 62
     7
420
 16777215
370
     9
100
AcDb2dPolyline
 66
     1
 10
0.0
 20
0.0
 30
0.0
  0
VERTEX
  5
20F
330
20E
100
AcDbEntity
  8
0
 62
     7
420
 16777215
370
     9
100
AcDbVertex
100
AcDb2dVertex
 10
55.26109058658447
 20
259.8006785940794
 30
0.0
  0
VERTEX
  5
210
330
20E
100
AcDbEntity
  8
0
 62
     7
420
 16777215
370
     9
100
AcDbVertex
100
AcDb2dVertex
 10
55.26109058658447
 20
257.286446250319
 30
0.0
  0
SEQEND
  5
211
330
20E
100
AcDbEntity
  8
0
370
     9
  0
ENDBLK
  5
20D
330
20A
100
AcDbEntity
  8
0
100
AcDbBlockEnd
  0
BLOCK
  5
214
330
212
100
AcDbEntity
  8
0
100
AcDbBlockBegin
  2
block 72
 70
     0
 71
     0
 10
0.0
 20
0.0
 30
0.0
  3
block 72
  1

  0
INSERT
  5
217
330
212
100
AcDbEntity
  8
0
100
AcDbBlockReference
  2
block 73
 10
0.0
 20
0.0
 30
0.0
  0
INSERT
  5
23A
330
212
100
AcDbEntity
  8
0
100
AcDbBlockReference
  2
block 77
 10
0.0
 20
0.0
 30
0.0
  0
ENDBLK
  5
215
330
212
100
AcDbEntity
  8
0
100
AcDbBlockEnd
  0
BLOCK
  5
218
330
216
100
AcDbEntity
  8
0
100
AcDbBlockBegin
  2
block 73
 70
     0
 71
     0
 10
0.0
 20
0.0
 30
0.0
  3
block 73
  1

  0
INSERT
  5
21B
330
216
100
AcDbEntity
  8
0
100
AcDbBlockReference
  2
block 74
 10
0.0
 20
0.0
 30
0.0
  0
ENDBLK
  5
219
330
216
100
AcDbEntity
  8
0
100
AcDbBlockEnd
  0
BLOCK
  5
21C
330
21A
100
AcDbEntity
  8
0
100
AcDbBlockBegin
  2
block 74
 70
     0
 71
     0
 10
0.0
 20
0.0
 30
0.0
  3
block 74
  1

  0
INSERT
  5
21F
330
21A
100
AcDbEntity
  8
0
100
AcDbBlockReference
  2
block 75
 10
0.0
 20
0.0
 30
0.0
  0
INSERT
  5
22A
330
21A
100
AcDbEntity
  8
0
100
AcDbBlockReference
  2
block 76
 10
0.0
 20
0.0
 30
0.0
  0
ENDBLK
  5
21D
330
21A
100
AcDbEntity
  8
0
100
AcDbBlockEnd
  0
BLOCK
  5
220
330
21E
100
AcDbEntity
  8
0
100
AcDbBlockBegin
  2
block 75
 70
     0
 71
     0
 10
0.0
 20
0.0
 30
0.0
  3
block 75
  1

  0
POLYLINE
  5
222
330
21E
100
AcDbEntity
  8
0
370
     0
100
AcDb2dPolyline
 66
     1
 10
0.0
 20
0.0
 30
0.0
  0
VERTEX
  5
223
330
222
100
AcDbEntity
  8
0
370
     0
100
AcDbVertex
100
AcDb2dVertex
 10
55.67898094462522
 20
101.827787961401
 30
0.0
  0
VERTEX
  5
224
330
222
100
AcDbEntity
  8
0
370
     0
100
AcDbVertex
100
AcDb2dVertex
 10
55.26264088057555
 20
99.31252208831319
 30
0.0
  0
VERTEX
  5
225
330
222
100
AcDbEntity
  8
0
370
     0
100
AcDbVertex
100
AcDb2dVertex
 10
54.84285571876791
 20
101.827787961401
 30
0.0
  0
VERTEX
  5
226
330
222
100
AcDbEntity
  8
0
370
     0
100
AcDbVertex
100
AcDb2dVertex
 10
55.67898094462522
 20
101.827787961401
 30
0.0
  0
SEQEND
  5
227
330
222
100
AcDbEntity
  8
0
370
     0
  0
HATCH
  5
228
330
21E
100
AcDbEntity
  8
0
 62
     7
420
 16777215
100
AcDbHatch
 10
0.0
 20
0.0
 30
0.0
210
0.0
220
0.0
230
1.0
  2
SOLID
 70
     1
 71
     0
 91
        1
 92
        1
 93
        3
 72
     1
 10
55.67898094462522
 20
101.827787961401
 11
55.26264088057555
 21
99.31252208831319
 72
     1
 10
55.26264088057555
 20
99.31252208831319
 11
54.84285571876791
 21
101.827787961401
 72
     1
 10
54.84285571876791
 20
101.827787961401
 11
55.67898094462522
 21
101.827787961401
 97
        0
 75
     2
 76
     1
 98
        0
  0
ENDBLK
  5
221
330
21E
100
AcDbEntity
  8
0
100
AcDbBlockEnd
  0
BLOCK
  5
22B
330
229
100
AcDbEntity
  8
0
100
AcDbBlockBegin
  2
block 76
 70
     0
 71
     0
 10
0.0
 20
0.0
 30
0.0
  3
block 76
  1

  0
POLYLINE
  5
22D
330
229
100
AcDbEntity
  8
0
 62
     7
420
 16777215
370
     9
100
AcDb2dPolyline
 66
     1
 10
0.0
 20
0.0
 30
0.0
  0
VERTEX
  5
22E
330
22D
100
AcDbEntity
  8
0
 62
     7
420
 16777215
370
     9
100
AcDbVertex
100
AcDb2dVertex
 10
55.67898094462522
 20
101.827787961401
 30
0.0
  0
VERTEX
  5
22F
330
22D
100
AcDbEntity
  8
0
 62
     7
420
 16777215
370
     9
100
AcDbVertex
100
AcDb2dVertex
 10
55.26264088057555
 20
99.31252208831319
 30
0.0
  0
SEQEND
  5
230
330
22D
100
AcDbEntity
  8
0
370
     9
  0
POLYLINE
  5
231
330
229
100
AcDbEntity
  8
0
 62
     7
420
 16777215
370
     9
100
AcDb2dPolyline
 66
     1
 10
0.0
 20
0.0
 30
0.0
  0
VERTEX
  5
232
330
231
100
AcDbEntity
  8
0
 62
     7
420
 16777215
370
     9
100
AcDbVertex
100
AcDb2dVertex
 10
55.26264088057555
 20
99.31252208831319
 30
0.0
  0
VERTEX
  5
233
330
231
100
AcDbEntity
  8
0
 62
     7
420
 16777215
370
     9
100
AcDbVertex
100
AcDb2dVertex
 10
54.84285571876791
 20
101.827787961401
 30
0.0
  0
SEQEND
  5
234
330
231
100
AcDbEntity
  8
0
370
     9
  0
POLYLINE
  5
235
330
229
100
AcDbEntity
  8
0
 62
     7
420
 16777215
370
     9
100
AcDb2dPolyline
 66
     1
 10
0.0
 20
0.0
 30
0.0
  0
VERTEX
  5
236
330
235
100
AcDbEntity
  8
0
 62
     7
420
 16777215
370
     9
100
AcDbVertex
100
AcDb2dVertex
 10
55.67898094462522
 20
101.827787961401
 30
0.0
  0
VERTEX
  5
237
330
235
100
AcDbEntity
  8
0
 62
     7
420
 16777215
370
     9
100
AcDbVertex
100
AcDb2dVertex
 10
54.84285571876791
 20
101.827787961401
 30
0.0
  0
SEQEND
  5
238
330
235
100
AcDbEntity
  8
0
370
     9
  0
ENDBLK
  5
22C
330
229
100
AcDbEntity
  8
0
100
AcDbBlockEnd
  0
BLOCK
  5
23B
330
239
100
AcDbEntity
  8
0
100
AcDbBlockBegin
  2
block 77
 70
     0
 71
     0
 10
0.0
 20
0.0
 30
0.0
  3
block 77
  1

  0
POLYLINE
  5
23D
330
239
100
AcDbEntity
  8
0
 62
     7
420
 16777215
370
     9
100
AcDb2dPolyline
 66
     1
 10
0.0
 20
0.0
 30
0.0
  0
VERTEX
  5
23E
330
23D
100
AcDbEntity
  8
0
 62
     7
420
 16777215
370
     9
100
AcDbVertex
100
AcDb2dVertex
 10
55.26109058658447
 20
99.31183306876159
 30
0.0
  0
VERTEX
  5
23F
330
23D
100
AcDbEntity
  8
0
 62
     7
420
 16777215
370
     9
100
AcDbVertex
100
AcDb2dVertex
 10
55.26109058658447
 20
101.826065412522
 30
0.0
  0
SEQEND
  5
240
330
23D
100
AcDbEntity
  8
0
370
     9
  0
ENDBLK
  5
23C
330
239
100
AcDbEntity
  8
0
100
AcDbBlockEnd
  0
BLOCK
  5
243
330
241
100
AcDbEntity
  8
0
100
AcDbBlockBegin
  2
block 78
 70
     0
 71
     0
 10
0.0
 20
0.0
 30
0.0
  3
block 78
  1

  0
POLYLINE
  5
245
330
241
100
AcDbEntity
  8
0
 62
     7
420
 16777215
370
     9
100
AcDb2dPolyline
 66
     1
 10
0.0
 20
0.0
 30
0.0
  0
VERTEX
  5
246
330
245
100
AcDbEntity
  8
0
 62
     7
420
 16777215
370
     9
100
AcDbVertex
100
AcDb2dVertex
 10
79.66151222201182
 20
259.8006785940794
 30
0.0
  0
VERTEX
  5
247
330
245
100
AcDbEntity
  8
0
 62
     7
420
 16777215
370
     9
100
AcDbVertex
100
AcDb2dVertex
 10
54.84216669921632
 20
259.8006785940794
 30
0.0
  0
SEQEND
  5
248
330
245
100
AcDbEntity
  8
0
370
     9
  0
ENDBLK
  5
244
330
241
100
AcDbEntity
  8
0
100
AcDbBlockEnd
  0
BLOCK
  5
24B
330
249
100
AcDbEntity
  8
0
100
AcDbBlockBegin
  2
block 79
 70
     0
 71
     0
 10
0.0
 20
0.0
 30
0.0
  3
block 79
  1

  0
POLYLINE
  5
24D
330
249
100
AcDbEntity
  8
0
 62
     7
420
 16777215
370
     9
100
AcDb2dPolyline
 66
     1
 10
0.0
 20
0.0
 30
0.0
  0
VERTEX
  5
24E
330
24D
100
AcDbEntity
  8
0
 62
     7
420
 16777215
370
     9
100
AcDbVertex
100
AcDb2dVertex
 10
67.29395578070515
 20
99.31183306876159
 30
0.0
  0
VERTEX
  5
24F
330
24D
100
AcDbEntity
  8
0
 62
     7
420
 16777215
370
     9
100
AcDbVertex
100
AcDb2dVertex
 10
54.84216669921632
 20
99.31183306876159
 30
0.0
  0
SEQEND
  5
250
330
24D
100
AcDbEntity
  8
0
370
     9
  0
ENDBLK
  5
24C
330
249
100
AcDbEntity
  8
0
100
AcDbBlockEnd
  0
BLOCK
  5
253
330
251
100
AcDbEntity
  8
0
100
AcDbBlockBegin
  2
block 80
 70
     0
 71
     0
 10
0.0
 20
0.0
 30
0.0
  3
block 80
  1

  0
POLYLINE
  5
255
330
251
100
AcDbEntity
  8
0
 62
     7
420
 16777215
370
     9
100
AcDb2dPolyline
 66
     1
 10
0.0
 20
0.0
 30
0.0
  0
VERTEX
  5
256
330
255
100
AcDbEntity
  8
0
 62
     7
420
 16777215
370
     9
100
AcDbVertex
100
AcDb2dVertex
 10
55.26109058658447
 20
259.8006785940794
 30
0.0
  0
VERTEX
  5
257
330
255
100
AcDbEntity
  8
0
 62
     7
420
 16777215
370
     9
100
AcDbVertex
100
AcDb2dVertex
 10
55.26109058658447
 20
99.31183306876159
 30
0.0
  0
SEQEND
  5
258
330
255
100
AcDbEntity
  8
0
370
     9
  0
ENDBLK
  5
254
330
251
100
AcDbEntity
  8
0
100
AcDbBlockEnd
  0
BLOCK
  5
25B
330
259
100
AcDbEntity
  8
0
100
AcDbBlockBegin
  2
block 81
 70
     0
 71
     0
 10
0.0
 20
0.0
 30
0.0
  3
block 81
  1

  0
MTEXT
  5
25D
330
259
100
AcDbEntity
  8
0
 62
     7
420
 16777215
100
AcDbMText
 10
54.83682679769148
 20
177.774106761227
 30
0.0
 40
2.398890470823883
 41
0.0
 71
     7
 72
     1
  1
\fArial|b1|i0|c0|p34;\W0.75;383
 11
-4.371139000186241E-8
 21
0.999999999999999
 31
0.0
 73
     1
 44
1.0
  0
ENDBLK
  5
25C
330
259
100
AcDbEntity
  8
0
100
AcDbBlockEnd
  0
BLOCK
  5
260
330
25E
100
AcDbEntity
  8
0
100
AcDbBlockBegin
  2
block 82
 70
     0
 71
     0
 10
0.0
 20
0.0
 30
0.0
  3
block 82
  1

  0
POLYLINE
  5
262
330
25E
100
AcDbEntity
  8
0
 62
     7
420
 16777215
370
     9
100
AcDb2dPolyline
 66
     1
 10
0.0
 20
0.0
 30
0.0
  0
VERTEX
  5
263
330
262
100
AcDbEntity
  8
0
 62
     7
420
 16777215
370
     9
100
AcDbVertex
100
AcDb2dVertex
 10
69.60492735674585
 20
89.54739249337078
 30
0.0
  0
VERTEX
  5
264
330
262
100
AcDbEntity
  8
0
 62
     7
420
 16777215
370
     9
100
AcDbVertex
100
AcDb2dVertex
 10
69.63800029522228
 20
85.734013785083
 30
0.0
  0
SEQEND
  5
265
330
262
100
AcDbEntity
  8
0
370
     9
  0
ENDBLK
  5
261
330
25E
100
AcDbEntity
  8
0
100
AcDbBlockEnd
  0
BLOCK
  5
268
330
266
100
AcDbEntity
  8
0
100
AcDbBlockBegin
  2
block 83
 70
     0
 71
     0
 10
0.0
 20
0.0
 30
0.0
  3
block 83
  1

  0
POLYLINE
  5
26A
330
266
100
AcDbEntity
  8
0
 62
     7
420
 16777215
370
     9
100
AcDb2dPolyline
 66
     1
 10
0.0
 20
0.0
 30
0.0
  0
VERTEX
  5
26B
330
26A
100
AcDbEntity
  8
0
 62
     7
420
 16777215
370
     9
100
AcDbVertex
100
AcDb2dVertex
 10
90.52304417842554
 20
85.734013785083
 30
0.0
  0
VERTEX
  5
26C
330
26A
100
AcDbEntity
  8
0
 62
     7
420
 16777215
370
     9
100
AcDbVertex
100
AcDb2dVertex
 10
90.55628937178986
 20
89.54739249337078
 30
0.0
  0
SEQEND
  5
26D
330
26A
100
AcDbEntity
  8
0
370
     9
  0
ENDBLK
  5
269
330
266
100
AcDbEntity
  8
0
100
AcDbBlockEnd
  0
BLOCK
  5
270
330
26E
100
AcDbEntity
  8
0
100
AcDbBlockBegin
  2
block 84
 70
     0
 71
     0
 10
0.0
 20
0.0
 30
0.0
  3
block 84
  1

  0
SPLINE
  5
272
330
26E
100
AcDbEntity
  8
0
 62
     7
420
 16777215
370
     9
100
AcDbSpline
210
0.0
220
0.0
230
1.0
 70
     8
 71
     3
 72
    26
 73
    22
 74
     0
 42
0.0000000001
 43
0.0000000001
 40
0.0
 40
0.0
 40
0.0
 40
0.0
 40
1.0
 40
1.0
 40
1.0
 40
2.0
 40
2.0
 40
2.0
 40
3.0
 40
3.0
 40
3.0
 40
4.0
 40
4.0
 40
4.0
 40
5.0
 40
5.0
 40
5.0
 40
6.0
 40
6.0
 40
6.0
 40
7.0
 40
7.0
 40
7.0
 40
7.0
 10
90.32391752801534
 20
85.52696340982949
 30
0.0
 10
90.34923899653636
 20
85.53075301736325
 30
0.0
 10
90.37438821016949
 20
85.534542624897
 30
0.0
 10
90.39781487492363
 20
85.5441888986193
 30
0.0
 10
90.39781487492363
 20
85.5441888986193
 30
0.0
 10
90.39781487492363
 20
85.5441888986193
 30
0.0
 10
90.39781487492363
 20
85.5441888986193
 30
0.0
 10
90.42279183366884
 20
85.5541796821174
 30
0.0
 10
90.44535722398349
 20
85.5707161513556
 30
0.0
 10
90.46464977142809
 20
85.59104222812758
 30
0.0
 10
90.46464977142809
 20
85.59104222812758
 30
0.0
 10
90.46464977142809
 20
85.59104222812758
 30
0.0
 10
90.46464977142809
 20
85.59104222812758
 30
0.0
 10
90.48377006398476
 20
85.61067928534796
 30
0.0
 10
90.4994452587835
 20
85.6344504598779
 30
0.0
 10
90.50857476784209
 20
85.65959967351101
 30
0.0
 10
90.50857476784209
 20
85.65959967351101
 30
0.0
 10
90.50857476784209
 20
85.65959967351101
 30
0.0
 10
90.50857476784209
 20
85.65959967351101
 30
0.0
 10
90.517187512237
 20
85.68302633826515
 30
0.0
 10
90.52011584533126
 20
85.70886457144987
 30
0.0
 10
90.52304417842554
 20
85.734013785083
 30
0.0
  0
ENDBLK
  5
271
330
26E
100
AcDbEntity
  8
0
100
AcDbBlockEnd
  0
BLOCK
  5
275
330
273
100
AcDbEntity
  8
0
100
AcDbBlockBegin
  2
block 85
 70
     0
 71
     0
 10
0.0
 20
0.0
 30
0.0
  3
block 85
  1

  0
SPLINE
  5
277
330
273
100
AcDbEntity
  8
0
 62
     7
420
 16777215
370
     9
100
AcDbSpline
210
0.0
220
0.0
230
1.0
 70
     8
 71
     3
 72
    26
 73
    22
 74
     0
 42
0.0000000001
 43
0.0000000001
 40
0.0
 40
0.0
 40
0.0
 40
0.0
 40
1.0
 40
1.0
 40
1.0
 40
2.0
 40
2.0
 40
2.0
 40
3.0
 40
3.0
 40
3.0
 40
4.0
 40
4.0
 40
4.0
 40
5.0
 40
5.0
 40
5.0
 40
6.0
 40
6.0
 40
6.0
 40
7.0
 40
7.0
 40
7.0
 40
7.0
 10
69.63800029522228
 20
85.734013785083
 30
0.0
 10
69.64110088320444
 20
85.70886457144987
 30
0.0
 10
69.64402921629872
 20
85.68302633826515
 30
0.0
 10
69.65246970580573
 20
85.65959967351101
 30
0.0
 10
69.65246970580573
 20
85.65959967351101
 30
0.0
 10
69.65246970580573
 20
85.65959967351101
 30
0.0
 10
69.65246970580573
 20
85.65959967351101
 30
0.0
 10
69.66177146975222
 20
85.6344504598779
 30
0.0
 10
69.67727440966304
 20
85.61067928534796
 30
0.0
 10
69.69639470221973
 20
85.59104222812758
 30
0.0
 10
69.69639470221973
 20
85.59104222812758
 30
0.0
 10
69.69639470221973
 20
85.59104222812758
 30
0.0
 10
69.69639470221973
 20
85.59104222812758
 30
0.0
 10
69.71568724966431
 20
85.5707161513556
 30
0.0
 10
69.73825263997897
 20
85.5541796821174
 30
0.0
 10
69.7634018536121
 20
85.5441888986193
 30
0.0
 10
69.7634018536121
 20
85.5441888986193
 30
0.0
 10
69.7634018536121
 20
85.5441888986193
 30
0.0
 10
69.7634018536121
 20
85.5441888986193
 30
0.0
 10
69.78665626347833
 20
85.534542624897
 30
0.0
 10
69.81197773199935
 20
85.53075301736325
 30
0.0
 10
69.83729920052036
 20
85.52696340982949
 30
0.0
  0
ENDBLK
  5
276
330
273
100
AcDbEntity
  8
0
100
AcDbBlockEnd
  0
BLOCK
  5
27A
330
278
100
AcDbEntity
  8
0
100
AcDbBlockBegin
  2
block 86
 70
     0
 71
     0
 10
0.0
 20
0.0
 30
0.0
  3
block 86
  1

  0
SPLINE
  5
27C
330
278
100
AcDbEntity
  8
0
 62
     7
420
 16777215
370
     9
100
AcDbSpline
210
0.0
220
0.0
230
1.0
 70
     8
 71
     3
 72
     8
 73
     4
 74
     0
 42
0.0000000001
 43
0.0000000001
 40
0.0
 40
0.0
 40
0.0
 40
0.0
 40
1.0
 40
1.0
 40
1.0
 40
1.0
 10
83.43286073765248
 20
85.35712009036197
 30
0.0
 10
85.17091255654415
 20
85.34333969933013
 30
0.0
 10
88.58862178733004
 20
85.4274000846244
 30
0.0
 10
90.32391752801534
 20
85.52696340982949
 30
0.0
  0
ENDBLK
  5
27B
330
278
100
AcDbEntity
  8
0
100
AcDbBlockEnd
  0
BLOCK
  5
27F
330
27D
100
AcDbEntity
  8
0
100
AcDbBlockBegin
  2
block 87
 70
     0
 71
     0
 10
0.0
 20
0.0
 30
0.0
  3
block 87
  1

  0
SPLINE
  5
281
330
27D
100
AcDbEntity
  8
0
 62
     7
420
 16777215
370
     9
100
AcDbSpline
210
0.0
220
0.0
230
1.0
 70
     8
 71
     3
 72
     8
 73
     4
 74
     0
 42
0.0000000001
 43
0.0000000001
 40
0.0
 40
0.0
 40
0.0
 40
0.0
 40
1.0
 40
1.0
 40
1.0
 40
1.0
 10
69.83729920052036
 20
85.52696340982949
 30
0.0
 10
71.57259494120567
 20
85.4274000846244
 30
0.0
 10
74.99030417199157
 20
85.34333969933013
 30
0.0
 10
76.72835599088323
 20
85.35712009036197
 30
0.0
  0
ENDBLK
  5
280
330
27D
100
AcDbEntity
  8
0
100
AcDbBlockEnd
  0
BLOCK
  5
284
330
282
100
AcDbEntity
  8
0
100
AcDbBlockBegin
  2
block 88
 70
     0
 71
     0
 10
0.0
 20
0.0
 30
0.0
  3
block 88
  1

  0
SPLINE
  5
286
330
282
100
AcDbEntity
  8
0
 62
     7
420
 16777215
370
     9
100
AcDbSpline
210
0.0
220
0.0
230
1.0
 70
     8
 71
     3
 72
    14
 73
    10
 74
     0
 42
0.0000000001
 43
0.0000000001
 40
0.0
 40
0.0
 40
0.0
 40
0.0
 40
1.0
 40
1.0
 40
1.0
 40
2.0
 40
2.0
 40
2.0
 40
3.0
 40
3.0
 40
3.0
 40
3.0
 10
83.8707326626894
 20
62.86889996549126
 30
0.0
 10
81.24797973955317
 20
64.96214136322878
 30
0.0
 10
77.42495475754309
 20
64.53288218258676
 30
0.0
 10
75.33171335980556
 20
61.91012925945052
 30
0.0
 10
73.23847196206805
 20
59.28772084609009
 30
0.0
 10
73.66773114271007
 20
55.46469586408
 30
0.0
 10
76.2903118109584
 20
53.37110995656668
 30
0.0
 10
76.2904840658463
 20
53.37110995656668
 30
0.0
 10
76.2908285756221
 20
53.37076544679088
 30
0.0
 10
76.29100083051
 20
53.37076544679088
 30
0.0
  0
ENDBLK
  5
285
330
282
100
AcDbEntity
  8
0
100
AcDbBlockEnd
  0
BLOCK
  5
289
330
287
100
AcDbEntity
  8
0
100
AcDbBlockBegin
  2
block 89
 70
     0
 71
     0
 10
0.0
 20
0.0
 30
0.0
  3
block 89
  1

  0
SPLINE
  5
28B
330
287
100
AcDbEntity
  8
0
 62
     7
420
 16777215
370
     9
100
AcDbSpline
210
0.0
220
0.0
230
1.0
 70
     8
 71
     3
 72
    11
 73
     7
 74
     0
 42
0.0000000001
 43
0.0000000001
 40
0.0
 40
0.0
 40
0.0
 40
0.0
 40
1.0
 40
1.0
 40
1.0
 40
2.0
 40
2.0
 40
2.0
 40
2.0
 10
76.29100083051
 20
53.37076544679088
 30
0.0
 10
78.91409826342203
 20
51.27786855882916
 30
0.0
 10
82.73695099054422
 20
51.70747224924698
 30
0.0
 10
84.82984787850594
 20
54.33056968215901
 30
0.0
 10
86.92274476646767
 20
56.95297809551945
 30
0.0
 10
86.49314107604984
 20
60.77600307752954
 30
0.0
 10
83.8707326626894
 20
62.86889996549126
 30
0.0
  0
ENDBLK
  5
28A
330
287
100
AcDbEntity
  8
0
100
AcDbBlockEnd
  0
BLOCK
  5
28E
330
28C
100
AcDbEntity
  8
0
100
AcDbBlockBegin
  2
block 90
 70
     0
 71
     0
 10
0.0
 20
0.0
 30
0.0
  3
block 90
  1

  0
SPLINE
  5
290
330
28C
100
AcDbEntity
  8
0
 62
     7
420
 16777215
370
     9
100
AcDbSpline
210
0.0
220
0.0
230
1.0
 70
     8
 71
     3
 72
    14
 73
    10
 74
     0
 42
0.0000000001
 43
0.0000000001
 40
0.0
 40
0.0
 40
0.0
 40
0.0
 40
1.0
 40
1.0
 40
1.0
 40
2.0
 40
2.0
 40
2.0
 40
3.0
 40
3.0
 40
3.0
 40
3.0
 10
83.8707326626894
 20
62.86889996549126
 30
0.0
 10
81.24797973955317
 20
64.96214136322878
 30
0.0
 10
77.42495475754309
 20
64.53288218258676
 30
0.0
 10
75.33171335980556
 20
61.91012925945052
 30
0.0
 10
73.23847196206805
 20
59.28772084609009
 30
0.0
 10
73.66773114271007
 20
55.46469586408
 30
0.0
 10
76.2903118109584
 20
53.37110995656668
 30
0.0
 10
76.2904840658463
 20
53.37110995656668
 30
0.0
 10
76.2908285756221
 20
53.37076544679088
 30
0.0
 10
76.29100083051
 20
53.37076544679088
 30
0.0
  0
ENDBLK
  5
28F
330
28C
100
AcDbEntity
  8
0
100
AcDbBlockEnd
  0
BLOCK
  5
293
330
291
100
AcDbEntity
  8
0
100
AcDbBlockBegin
  2
block 91
 70
     0
 71
     0
 10
0.0
 20
0.0
 30
0.0
  3
block 91
  1

  0
SPLINE
  5
295
330
291
100
AcDbEntity
  8
0
 62
     7
420
 16777215
370
     9
100
AcDbSpline
210
0.0
220
0.0
230
1.0
 70
     8
 71
     3
 72
    11
 73
     7
 74
     0
 42
0.0000000001
 43
0.0000000001
 40
0.0
 40
0.0
 40
0.0
 40
0.0
 40
1.0
 40
1.0
 40
1.0
 40
2.0
 40
2.0
 40
2.0
 40
2.0
 10
76.29100083051
 20
53.37076544679088
 30
0.0
 10
78.91409826342203
 20
51.27786855882916
 30
0.0
 10
82.73695099054422
 20
51.70747224924698
 30
0.0
 10
84.82984787850594
 20
54.33056968215901
 30
0.0
 10
86.92274476646767
 20
56.95297809551945
 30
0.0
 10
86.49314107604984
 20
60.77600307752954
 30
0.0
 10
83.8707326626894
 20
62.86889996549126
 30
0.0
  0
ENDBLK
  5
294
330
291
100
AcDbEntity
  8
0
100
AcDbBlockEnd
  0
BLOCK
  5
298
330
296
100
AcDbEntity
  8
0
100
AcDbBlockBegin
  2
block 92
 70
     0
 71
     0
 10
0.0
 20
0.0
 30
0.0
  3
block 92
  1

  0
POLYLINE
  5
29A
330
296
100
AcDbEntity
  8
0
 62
     7
420
 16777215
370
     9
100
AcDb2dPolyline
 66
     1
 10
0.0
 20
0.0
 30
0.0
  0
VERTEX
  5
29B
330
29A
100
AcDbEntity
  8
0
 62
     7
420
 16777215
370
     9
100
AcDbVertex
100
AcDb2dVertex
 10
76.72835599088323
 20
85.35712009036197
 30
0.0
  0
VERTEX
  5
29C
330
29A
100
AcDbEntity
  8
0
 62
     7
420
 16777215
370
     9
100
AcDbVertex
100
AcDb2dVertex
 10
76.72835599088323
 20
73.85462769607949
 30
0.0
  0
SEQEND
  5
29D
330
29A
100
AcDbEntity
  8
0
370
     9
  0
ENDBLK
  5
299
330
296
100
AcDbEntity
  8
0
100
AcDbBlockEnd
  0
BLOCK
  5
2A0
330
29E
100
AcDbEntity
  8
0
100
AcDbBlockBegin
  2
block 93
 70
     0
 71
     0
 10
0.0
 20
0.0
 30
0.0
  3
block 93
  1

  0
POLYLINE
  5
2A2
330
29E
100
AcDbEntity
  8
0
 62
     7
420
 16777215
370
     9
100
AcDb2dPolyline
 66
     1
 10
0.0
 20
0.0
 30
0.0
  0
VERTEX
  5
2A3
330
2A2
100
AcDbEntity
  8
0
 62
     7
420
 16777215
370
     9
100
AcDbVertex
100
AcDb2dVertex
 10
83.43286073765248
 20
73.85462769607949
 30
0.0
  0
VERTEX
  5
2A4
330
2A2
100
AcDbEntity
  8
0
 62
     7
420
 16777215
370
     9
100
AcDbVertex
100
AcDb2dVertex
 10
83.43286073765248
 20
85.35712009036197
 30
0.0
  0
SEQEND
  5
2A5
330
2A2
100
AcDbEntity
  8
0
370
     9
  0
ENDBLK
  5
2A1
330
29E
100
AcDbEntity
  8
0
100
AcDbBlockEnd
  0
BLOCK
  5
2A8
330
2A6
100
AcDbEntity
  8
0
100
AcDbBlockBegin
  2
block 94
 70
     0
 71
     0
 10
0.0
 20
0.0
 30
0.0
  3
block 94
  1

  0
SPLINE
  5
2AA
330
2A6
100
AcDbEntity
  8
0
 62
     7
420
 16777215
370
     9
100
AcDbSpline
210
0.0
220
0.0
230
1.0
 70
     8
 71
     3
 72
    26
 73
    22
 74
     0
 42
0.0000000001
 43
0.0000000001
 40
0.0
 40
0.0
 40
0.0
 40
0.0
 40
1.0
 40
1.0
 40
1.0
 40
2.0
 40
2.0
 40
2.0
 40
3.0
 40
3.0
 40
3.0
 40
4.0
 40
4.0
 40
4.0
 40
5.0
 40
5.0
 40
5.0
 40
6.0
 40
6.0
 40
6.0
 40
7.0
 40
7.0
 40
7.0
 40
7.0
 10
76.7500601067584
 20
73.85738377428586
 30
0.0
 10
76.74730402855202
 20
73.83430161930752
 30
0.0
 10
76.74454795034565
 20
73.81121946432917
 30
0.0
 10
76.73731324505394
 20
73.78951534845402
 30
0.0
 10
76.73731324505394
 20
73.78951534845402
 30
0.0
 10
76.73731324505394
 20
73.78951534845402
 30
0.0
 10
76.73731324505394
 20
73.78951534845402
 30
0.0
 10
76.72956177509852
 20
73.76643319347568
 30
0.0
 10
76.71698716828196
 20
73.74507358737631
 30
0.0
 10
76.70113971859534
 20
73.72578103993173
 30
0.0
 10
76.70113971859534
 20
73.72578103993173
 30
0.0
 10
76.70113971859534
 20
73.72578103993173
 30
0.0
 10
76.70113971859534
 20
73.72578103993173
 30
0.0
 10
76.68546452379661
 20
73.70648849248714
 30
0.0
 10
76.66686099590362
 20
73.68995202324892
 30
0.0
 10
76.64567364469215
 20
73.67754967132026
 30
0.0
 10
76.64567364469215
 20
73.67754967132026
 30
0.0
 10
76.64567364469215
 20
73.67754967132026
 30
0.0
 10
76.64567364469215
 20
73.67754967132026
 30
0.0
 10
76.62569207769597
 20
73.66652535849478
 30
0.0
 10
76.60329894226922
 20
73.65894614342727
 30
0.0
 10
76.58107806173037
 20
73.65205594791135
 30
0.0
  0
ENDBLK
  5
2A9
330
2A6
100
AcDbEntity
  8
0
100
AcDbBlockEnd
  0
BLOCK
  5
2AD
330
2AB
100
AcDbEntity
  8
0
100
AcDbBlockBegin
  2
block 95
 70
     0
 71
     0
 10
0.0
 20
0.0
 30
0.0
  3
block 95
  1

  0
SPLINE
  5
2AF
330
2AB
100
AcDbEntity
  8
0
 62
     7
420
 16777215
370
     9
100
AcDbSpline
210
0.0
220
0.0
230
1.0
 70
     8
 71
     3
 72
    26
 73
    22
 74
     0
 42
0.0000000001
 43
0.0000000001
 40
0.0
 40
0.0
 40
0.0
 40
0.0
 40
1.0
 40
1.0
 40
1.0
 40
2.0
 40
2.0
 40
2.0
 40
3.0
 40
3.0
 40
3.0
 40
4.0
 40
4.0
 40
4.0
 40
5.0
 40
5.0
 40
5.0
 40
6.0
 40
6.0
 40
6.0
 40
7.0
 40
7.0
 40
7.0
 40
7.0
 10
83.59512484205247
 20
73.64998888925656
 30
0.0
 10
83.57307621640152
 20
73.65722359454828
 30
0.0
 10
83.55137210052636
 20
73.66445829984
 30
0.0
 10
83.53156278841809
 20
73.67548261266549
 30
0.0
 10
83.53156278841809
 20
73.67548261266549
 30
0.0
 10
83.53156278841809
 20
73.67548261266549
 30
0.0
 10
83.53156278841809
 20
73.67548261266549
 30
0.0
 10
83.51054769209452
 20
73.68788496459415
 30
0.0
 10
83.49228867397731
 20
73.70442143383237
 30
0.0
 10
83.47678573406648
 20
73.72371398127694
 30
0.0
 10
83.47678573406648
 20
73.72371398127694
 30
0.0
 10
83.47678573406648
 20
73.72371398127694
 30
0.0
 10
83.47678573406648
 20
73.72371398127694
 30
0.0
 10
83.46145504904356
 20
73.74300652872154
 30
0.0
 10
83.4490526971149
 20
73.76436613482089
 30
0.0
 10
83.44164573693529
 20
73.78710378002344
 30
0.0
 10
83.44164573693529
 20
73.78710378002344
 30
0.0
 10
83.44164573693529
 20
73.78710378002344
 30
0.0
 10
83.44164573693529
 20
73.78710378002344
 30
0.0
 10
83.43458328653146
 20
73.8088078958986
 30
0.0
 10
83.43217171810089
 20
73.83189005087695
 30
0.0
 10
83.42976014967032
 20
73.85462769607949
 30
0.0
  0
ENDBLK
  5
2AE
330
2AB
100
AcDbEntity
  8
0
100
AcDbBlockEnd
  0
BLOCK
  5
2B2
330
2B0
100
AcDbEntity
  8
0
100
AcDbBlockBegin
  2
block 96
 70
     0
 71
     0
 10
0.0
 20
0.0
 30
0.0
  3
block 96
  1

  0
SPLINE
  5
2B4
330
2B0
100
AcDbEntity
  8
0
 62
     7
420
 16777215
370
     9
100
AcDbSpline
210
0.0
220
0.0
230
1.0
 70
     8
 71
     3
 72
    14
 73
    10
 74
     0
 42
0.0000000001
 43
0.0000000001
 40
0.0
 40
0.0
 40
0.0
 40
0.0
 40
1.0
 40
1.0
 40
1.0
 40
2.0
 40
2.0
 40
2.0
 40
3.0
 40
3.0
 40
3.0
 40
3.0
 10
80.08060836426786
 20
56.02486875952457
 30
0.0
 10
81.23764444627929
 20
56.02486875952457
 30
0.0
 10
82.17574456577226
 20
56.96296887901754
 30
0.0
 10
82.17574456577226
 20
58.12017721591687
 30
0.0
 10
82.17574456577226
 20
59.27704104304041
 30
0.0
 10
81.23764444627929
 20
60.21514116253337
 30
0.0
 10
80.08060836426786
 20
60.21514116253337
 30
0.0
 10
80.08060836426786
 20
60.21514116253337
 30
0.0
 10
80.08060836426786
 20
60.21514116253337
 30
0.0
 10
80.08060836426786
 20
60.21514116253337
 30
0.0
  0
ENDBLK
  5
2B3
330
2B0
100
AcDbEntity
  8
0
100
AcDbBlockEnd
  0
BLOCK
  5
2B7
330
2B5
100
AcDbEntity
  8
0
100
AcDbBlockBegin
  2
block 97
 70
     0
 71
     0
 10
0.0
 20
0.0
 30
0.0
  3
block 97
  1

  0
SPLINE
  5
2B9
330
2B5
100
AcDbEntity
  8
0
 62
     7
420
 16777215
370
     9
100
AcDbSpline
210
0.0
220
0.0
230
1.0
 70
     8
 71
     3
 72
    14
 73
    10
 74
     0
 42
0.0000000001
 43
0.0000000001
 40
0.0
 40
0.0
 40
0.0
 40
0.0
 40
1.0
 40
1.0
 40
1.0
 40
2.0
 40
2.0
 40
2.0
 40
3.0
 40
3.0
 40
3.0
 40
3.0
 10
80.08060836426786
 20
60.21514116253337
 30
0.0
 10
78.92340002736853
 20
60.21514116253337
 30
0.0
 10
77.98547216276346
 20
59.27704104304041
 30
0.0
 10
77.98547216276346
 20
58.12017721591687
 30
0.0
 10
77.98547216276346
 20
56.96296887901754
 30
0.0
 10
78.92340002736853
 20
56.02486875952457
 30
0.0
 10
80.08060836426786
 20
56.02486875952457
 30
0.0
 10
80.08060836426786
 20
56.02486875952457
 30
0.0
 10
80.08060836426786
 20
56.02486875952457
 30
0.0
 10
80.08060836426786
 20
56.02486875952457
 30
0.0
  0
ENDBLK
  5
2B8
330
2B5
100
AcDbEntity
  8
0
100
AcDbBlockEnd
  0
BLOCK
  5
2BC
330
2BA
100
AcDbEntity
  8
0
100
AcDbBlockBegin
  2
block 98
 70
     0
 71
     0
 10
0.0
 20
0.0
 30
0.0
  3
block 98
  1

  0
POLYLINE
  5
2BE
330
2BA
100
AcDbEntity
  8
0
 62
     7
420
 16777215
370
     9
100
AcDb2dPolyline
 66
     1
 10
0.0
 20
0.0
 30
0.0
  0
VERTEX
  5
2BF
330
2BE
100
AcDbEntity
  8
0
 62
     7
420
 16777215
370
     9
100
AcDbVertex
100
AcDb2dVertex
 10
69.60492735674585
 20
89.54739249337078
 30
0.0
  0
VERTEX
  5
2C0
330
2BE
100
AcDbEntity
  8
0
 62
     7
420
 16777215
370
     9
100
AcDbVertex
100
AcDb2dVertex
 10
90.55628937178986
 20
89.54739249337078
 30
0.0
  0
SEQEND
  5
2C1
330
2BE
100
AcDbEntity
  8
0
370
     9
  0
ENDBLK
  5
2BD
330
2BA
100
AcDbEntity
  8
0
100
AcDbBlockEnd
  0
BLOCK
  5
2C4
330
2C2
100
AcDbEntity
  8
0
100
AcDbBlockBegin
  2
block 99
 70
     0
 71
     0
 10
0.0
 20
0.0
 30
0.0
  3
block 99
  1

  0
POLYLINE
  5
2C6
330
2C2
100
AcDbEntity
  8
0
 62
     7
420
 16777215
370
     9
100
AcDb2dPolyline
 66
     1
 10
0.0
 20
0.0
 30
0.0
  0
VERTEX
  5
2C7
330
2C6
100
AcDbEntity
  8
0
 62
     7
420
 16777215
370
     9
100
AcDbVertex
100
AcDb2dVertex
 10
80.08060836426786
 20
85.35712009036197
 30
0.0
  0
VERTEX
  5
2C8
330
2C6
100
AcDbEntity
  8
0
 62
     7
420
 16777215
370
     9
100
AcDbVertex
100
AcDb2dVertex
 10
83.43286073765248
 20
85.35712009036197
 30
0.0
  0
SEQEND
  5
2C9
330
2C6
100
AcDbEntity
  8
0
370
     9
  0
ENDBLK
  5
2C5
330
2C2
100
AcDbEntity
  8
0
100
AcDbBlockEnd
  0
BLOCK
  5
2CC
330
2CA
100
AcDbEntity
  8
0
100
AcDbBlockBegin
  2
block 100
 70
     0
 71
     0
 10
0.0
 20
0.0
 30
0.0
  3
block 100
  1

  0
POLYLINE
  5
2CE
330
2CA
100
AcDbEntity
  8
0
 62
     7
420
 16777215
370
     9
100
AcDb2dPolyline
 66
     1
 10
0.0
 20
0.0
 30
0.0
  0
VERTEX
  5
2CF
330
2CE
100
AcDbEntity
  8
0
 62
     7
420
 16777215
370
     9
100
AcDbVertex
100
AcDb2dVertex
 10
76.72835599088323
 20
85.35712009036197
 30
0.0
  0
VERTEX
  5
2D0
330
2CE
100
AcDbEntity
  8
0
 62
     7
420
 16777215
370
     9
100
AcDbVertex
100
AcDb2dVertex
 10
80.08060836426786
 20
85.35712009036197
 30
0.0
  0
SEQEND
  5
2D1
330
2CE
100
AcDbEntity
  8
0
370
     9
  0
ENDBLK
  5
2CD
330
2CA
100
AcDbEntity
  8
0
100
AcDbBlockEnd
  0
BLOCK
  5
2D4
330
2D2
100
AcDbEntity
  8
0
100
AcDbBlockBegin
  2
block 101
 70
     0
 71
     0
 10
0.0
 20
0.0
 30
0.0
  3
block 101
  1

  0
SPLINE
  5
2D6
330
2D2
100
AcDbEntity
  8
0
 62
     7
420
 16777215
370
     9
100
AcDbSpline
210
0.0
220
0.0
230
1.0
 70
    11
 71
     3
 72
    23
 73
    19
 74
     0
 42
0.0000000001
 43
0.0000000001
 40
0.0
 40
0.0
 40
0.0
 40
0.0
 40
1.0
 40
1.0
 40
1.0
 40
2.0
 40
2.0
 40
2.0
 40
3.0
 40
3.0
 40
3.0
 40
4.0
 40
4.0
 40
4.0
 40
5.0
 40
5.0
 40
5.0
 40
6.0
 40
6.0
 40
6.0
 40
6.0
 10
83.36568133137223
 20
55.8333213241819
 30
0.0
 10
83.36568133137223
 20
56.06448738374113
 30
0.0
 10
83.1780957584512
 20
56.25224521155004
 30
0.0
 10
82.94658518911619
 20
56.25224521155004
 30
0.0
 10
82.71524687466906
 20
56.25224521155004
 30
0.0
 10
82.52748904686014
 20
56.06448738374113
 30
0.0
 10
82.52748904686014
 20
55.8333213241819
 30
0.0
 10
82.52748904686014
 20
55.60181075484687
 30
0.0
 10
82.71524687466906
 20
55.41439743681376
 30
0.0
 10
82.94658518911619
 20
55.41439743681376
 30
0.0
 10
83.1780957584512
 20
55.41439743681376
 30
0.0
 10
83.36568133137223
 20
55.60181075484687
 30
0.0
 10
83.36568133137223
 20
55.8333213241819
 30
0.0
 10
83.36568133137223
 20
55.8333213241819
 30
0.0
 10
83.36568133137223
 20
55.8333213241819
 30
0.0
 10
83.36568133137223
 20
55.8333213241819
 30
0.0
 10
83.36568133137223
 20
55.8333213241819
 30
0.0
 10
83.36568133137223
 20
55.8333213241819
 30
0.0
 10
83.36568133137223
 20
55.8333213241819
 30
0.0
  0
ENDBLK
  5
2D5
330
2D2
100
AcDbEntity
  8
0
100
AcDbBlockEnd
  0
BLOCK
  5
2D9
330
2D7
100
AcDbEntity
  8
0
100
AcDbBlockBegin
  2
block 102
 70
     0
 71
     0
 10
0.0
 20
0.0
 30
0.0
  3
block 102
  1

  0
SPLINE
  5
2DB
330
2D7
100
AcDbEntity
  8
0
 62
     7
420
 16777215
370
     9
100
AcDbSpline
210
0.0
220
0.0
230
1.0
 70
    11
 71
     3
 72
    23
 73
    19
 74
     0
 42
0.0000000001
 43
0.0000000001
 40
0.0
 40
0.0
 40
0.0
 40
0.0
 40
1.0
 40
1.0
 40
1.0
 40
2.0
 40
2.0
 40
2.0
 40
3.0
 40
3.0
 40
3.0
 40
4.0
 40
4.0
 40
4.0
 40
5.0
 40
5.0
 40
5.0
 40
6.0
 40
6.0
 40
6.0
 40
6.0
 10
83.36568133137223
 20
55.8333213241819
 30
0.0
 10
83.36568133137223
 20
56.06448738374113
 30
0.0
 10
83.1780957584512
 20
56.25224521155004
 30
0.0
 10
82.94658518911619
 20
56.25224521155004
 30
0.0
 10
82.71524687466906
 20
56.25224521155004
 30
0.0
 10
82.52748904686014
 20
56.06448738374113
 30
0.0
 10
82.52748904686014
 20
55.8333213241819
 30
0.0
 10
82.52748904686014
 20
55.60181075484687
 30
0.0
 10
82.71524687466906
 20
55.41439743681376
 30
0.0
 10
82.94658518911619
 20
55.41439743681376
 30
0.0
 10
83.1780957584512
 20
55.41439743681376
 30
0.0
 10
83.36568133137223
 20
55.60181075484687
 30
0.0
 10
83.36568133137223
 20
55.8333213241819
 30
0.0
 10
83.36568133137223
 20
55.8333213241819
 30
0.0
 10
83.36568133137223
 20
55.8333213241819
 30
0.0
 10
83.36568133137223
 20
55.8333213241819
 30
0.0
 10
83.36568133137223
 20
55.8333213241819
 30
0.0
 10
83.36568133137223
 20
55.8333213241819
 30
0.0
 10
83.36568133137223
 20
55.8333213241819
 30
0.0
  0
ENDBLK
  5
2DA
330
2D7
100
AcDbEntity
  8
0
100
AcDbBlockEnd
  0
BLOCK
  5
2DE
330
2DC
100
AcDbEntity
  8
0
100
AcDbBlockBegin
  2
block 103
 70
     0
 71
     0
 10
0.0
 20
0.0
 30
0.0
  3
block 103
  1

  0
SPLINE
  5
2E0
330
2DC
100
AcDbEntity
  8
0
 62
     7
420
 16777215
370
     9
100
AcDbSpline
210
0.0
220
0.0
230
1.0
 70
    11
 71
     3
 72
    23
 73
    19
 74
     0
 42
0.0000000001
 43
0.0000000001
 40
0.0
 40
0.0
 40
0.0
 40
0.0
 40
1.0
 40
1.0
 40
1.0
 40
2.0
 40
2.0
 40
2.0
 40
3.0
 40
3.0
 40
3.0
 40
4.0
 40
4.0
 40
4.0
 40
5.0
 40
5.0
 40
5.0
 40
6.0
 40
6.0
 40
6.0
 40
6.0
 10
92.45798333418472
 20
58.12017721591687
 30
0.0
 10
92.45798333418472
 20
64.95594018726445
 30
0.0
 10
86.91654359050334
 20
70.49772444072163
 30
0.0
 10
80.08060836426786
 20
70.49772444072163
 30
0.0
 10
73.24467313803238
 20
70.49772444072163
 30
0.0
 10
67.703233394351
 20
64.95594018726445
 30
0.0
 10
67.703233394351
 20
58.12017721591687
 30
0.0
 10
67.703233394351
 20
51.28441424456928
 30
0.0
 10
73.24467313803238
 20
45.74262999111212
 30
0.0
 10
80.08060836426786
 20
45.74262999111212
 30
0.0
 10
86.91654359050334
 20
45.74262999111212
 30
0.0
 10
92.45798333418472
 20
51.28441424456928
 30
0.0
 10
92.45798333418472
 20
58.12017721591687
 30
0.0
 10
92.45798333418472
 20
58.12017721591687
 30
0.0
 10
92.45798333418472
 20
58.12017721591687
 30
0.0
 10
92.45798333418472
 20
58.12017721591687
 30
0.0
 10
92.45798333418472
 20
58.12017721591687
 30
0.0
 10
92.45798333418472
 20
58.12017721591687
 30
0.0
 10
92.45798333418472
 20
58.12017721591687
 30
0.0
  0
ENDBLK
  5
2DF
330
2DC
100
AcDbEntity
  8
0
100
AcDbBlockEnd
  0
BLOCK
  5
2E3
330
2E1
100
AcDbEntity
  8
0
100
AcDbBlockBegin
  2
block 104
 70
     0
 71
     0
 10
0.0
 20
0.0
 30
0.0
  3
block 104
  1

  0
SPLINE
  5
2E5
330
2E1
100
AcDbEntity
  8
0
 62
     7
420
 16777215
370
     9
100
AcDbSpline
210
0.0
220
0.0
230
1.0
 70
     8
 71
     3
 72
    14
 73
    10
 74
     0
 42
0.0000000001
 43
0.0000000001
 40
0.0
 40
0.0
 40
0.0
 40
0.0
 40
1.0
 40
1.0
 40
1.0
 40
2.0
 40
2.0
 40
2.0
 40
3.0
 40
3.0
 40
3.0
 40
3.0
 10
80.03961170094811
 20
73.7636771152693
 30
0.0
 10
71.39999554353179
 20
73.74093947006676
 30
0.0
 10
64.41437081971287
 20
66.71879671001345
 30
0.0
 10
64.43693621002753
 20
58.07918055259712
 30
0.0
 10
64.45950160034218
 20
49.43921988540501
 30
0.0
 10
71.48181661528338
 20
42.45393967136189
 30
0.0
 10
80.1214327726997
 20
42.47667731656443
 30
0.0
 10
80.1214327726997
 20
42.47667731656443
 30
0.0
 10
80.1214327726997
 20
42.47667731656443
 30
0.0
 10
80.1214327726997
 20
42.47667731656443
 30
0.0
  0
ENDBLK
  5
2E4
330
2E1
100
AcDbEntity
  8
0
100
AcDbBlockEnd
  0
BLOCK
  5
2E8
330
2E6
100
AcDbEntity
  8
0
100
AcDbBlockBegin
  2
block 105
 70
     0
 71
     0
 10
0.0
 20
0.0
 30
0.0
  3
block 105
  1

  0
SPLINE
  5
2EA
330
2E6
100
AcDbEntity
  8
0
 62
     7
420
 16777215
370
     9
100
AcDbSpline
210
0.0
220
0.0
230
1.0
 70
     8
 71
     3
 72
    14
 73
    10
 74
     0
 42
0.0000000001
 43
0.0000000001
 40
0.0
 40
0.0
 40
0.0
 40
0.0
 40
1.0
 40
1.0
 40
1.0
 40
2.0
 40
2.0
 40
2.0
 40
3.0
 40
3.0
 40
3.0
 40
3.0
 10
80.1214327726997
 20
42.47667731656443
 30
0.0
 10
88.76122118500392
 20
42.49907045199119
 30
0.0
 10
95.74684590882283
 20
49.52121321204449
 30
0.0
 10
95.7242805185082
 20
58.16117387923661
 30
0.0
 10
95.70154287330564
 20
66.80044552687714
 30
0.0
 10
88.67922785836443
 20
73.78641476047186
 30
0.0
 10
80.03961170094811
 20
73.7636771152693
 30
0.0
 10
80.03961170094811
 20
73.7636771152693
 30
0.0
 10
80.03961170094811
 20
73.7636771152693
 30
0.0
 10
80.03961170094811
 20
73.7636771152693
 30
0.0
  0
ENDBLK
  5
2E9
330
2E6
100
AcDbEntity
  8
0
100
AcDbBlockEnd
  0
BLOCK
  5
2ED
330
2EB
100
AcDbEntity
  8
0
100
AcDbBlockBegin
  2
block 106
 70
     0
 71
     0
 10
0.0
 20
0.0
 30
0.0
  3
block 106
  1

  0
SPLINE
  5
2EF
330
2EB
100
AcDbEntity
  8
0
 62
     7
420
 16777215
370
     9
100
AcDbSpline
210
0.0
220
0.0
230
1.0
 70
    11
 71
     3
 72
    23
 73
    19
 74
     0
 42
0.0000000001
 43
0.0000000001
 40
0.0
 40
0.0
 40
0.0
 40
0.0
 40
1.0
 40
1.0
 40
1.0
 40
2.0
 40
2.0
 40
2.0
 40
3.0
 40
3.0
 40
3.0
 40
4.0
 40
4.0
 40
4.0
 40
5.0
 40
5.0
 40
5.0
 40
6.0
 40
6.0
 40
6.0
 40
6.0
 10
92.00770905721912
 20
58.12017721591687
 30
0.0
 10
92.00770905721912
 20
64.70720412913961
 30
0.0
 10
86.6678075323785
 20
70.04710565398024
 30
0.0
 10
80.08060836426786
 20
70.04710565398024
 30
0.0
 10
73.49340919615722
 20
70.04710565398024
 30
0.0
 10
68.15333541642869
 20
64.70720412913961
 30
0.0
 10
68.15333541642869
 20
58.12017721591687
 30
0.0
 10
68.15333541642869
 20
51.53280579291832
 30
0.0
 10
73.49340919615722
 20
46.1929042680777
 30
0.0
 10
80.08060836426786
 20
46.1929042680777
 30
0.0
 10
86.6678075323785
 20
46.1929042680777
 30
0.0
 10
92.00770905721912
 20
51.53280579291832
 30
0.0
 10
92.00770905721912
 20
58.12017721591687
 30
0.0
 10
92.00770905721912
 20
58.12017721591687
 30
0.0
 10
92.00770905721912
 20
58.12017721591687
 30
0.0
 10
92.00770905721912
 20
58.12017721591687
 30
0.0
 10
92.00770905721912
 20
58.12017721591687
 30
0.0
 10
92.00770905721912
 20
58.12017721591687
 30
0.0
 10
92.00770905721912
 20
58.12017721591687
 30
0.0
  0
ENDBLK
  5
2EE
330
2EB
100
AcDbEntity
  8
0
100
AcDbBlockEnd
  0
BLOCK
  5
2F2
330
2F0
100
AcDbEntity
  8
0
100
AcDbBlockBegin
  2
block 107
 70
     0
 71
     0
 10
0.0
 20
0.0
 30
0.0
  3
block 107
  1

  0
POLYLINE
  5
2F4
330
2F0
100
AcDbEntity
  8
0
 62
     7
420
 16777215
370
     9
100
AcDb2dPolyline
 66
     1
 10
0.0
 20
0.0
 30
0.0
  0
VERTEX
  5
2F5
330
2F4
100
AcDbEntity
  8
0
 62
     7
420
 16777215
370
     9
100
AcDbVertex
100
AcDb2dVertex
 10
76.72835599088323
 20
85.35712009036197
 30
0.0
  0
VERTEX
  5
2F6
330
2F4
100
AcDbEntity
  8
0
 62
     7
420
 16777215
370
     9
100
AcDbVertex
100
AcDb2dVertex
 10
83.43286073765248
 20
85.35712009036197
 30
0.0
  0
SEQEND
  5
2F7
330
2F4
100
AcDbEntity
  8
0
370
     9
  0
ENDBLK
  5
2F3
330
2F0
100
AcDbEntity
  8
0
100
AcDbBlockEnd
  0
BLOCK
  5
2FA
330
2F8
100
AcDbEntity
  8
0
100
AcDbBlockBegin
  2
block 108
 70
     0
 71
     0
 10
0.0
 20
0.0
 30
0.0
  3
block 108
  1

  0
POLYLINE
  5
2FC
330
2F8
100
AcDbEntity
  8
0
 62
     7
420
 16777215
370
     9
100
AcDb2dPolyline
 66
     1
 10
0.0
 20
0.0
 30
0.0
  0
VERTEX
  5
2FD
330
2FC
100
AcDbEntity
  8
0
 62
     7
420
 16777215
370
     9
100
AcDbVertex
100
AcDb2dVertex
 10
76.72835599088323
 20
73.85462769607949
 30
0.0
  0
VERTEX
  5
2FE
330
2FC
100
AcDbEntity
  8
0
 62
     7
420
 16777215
370
     9
100
AcDbVertex
100
AcDb2dVertex
 10
76.77951569258897
 20
73.8625514209228
 30
0.0
  0
SEQEND
  5
2FF
330
2FC
100
AcDbEntity
  8
0
370
     9
  0
ENDBLK
  5
2FB
330
2F8
100
AcDbEntity
  8
0
100
AcDbBlockEnd
  0
BLOCK
  5
302
330
300
100
AcDbEntity
  8
0
100
AcDbBlockBegin
  2
block 109
 70
     0
 71
     0
 10
0.0
 20
0.0
 30
0.0
  3
block 109
  1

  0
POLYLINE
  5
304
330
300
100
AcDbEntity
  8
0
 62
     7
420
 16777215
370
     9
100
AcDb2dPolyline
 66
     1
 10
0.0
 20
0.0
 30
0.0
  0
VERTEX
  5
305
330
304
100
AcDbEntity
  8
0
 62
     7
420
 16777215
370
     9
100
AcDbVertex
100
AcDb2dVertex
 10
83.5927132736219
 20
73.65102241858396
 30
0.0
  0
VERTEX
  5
306
330
304
100
AcDbEntity
  8
0
 62
     7
420
 16777215
370
     9
100
AcDbVertex
100
AcDb2dVertex
 10
83.56859758931617
 20
73.65446751634192
 30
0.0
  0
SEQEND
  5
307
330
304
100
AcDbEntity
  8
0
370
     9
  0
ENDBLK
  5
303
330
300
100
AcDbEntity
  8
0
100
AcDbBlockEnd
  0
BLOCK
  5
30A
330
308
100
AcDbEntity
  8
0
100
AcDbBlockBegin
  2
block 110
 70
     0
 71
     0
 10
0.0
 20
0.0
 30
0.0
  3
block 110
  1

  0
SPLINE
  5
30C
330
308
100
AcDbEntity
  8
0
 62
     7
420
 16777215
370
     9
100
AcDbSpline
210
0.0
220
0.0
230
1.0
 70
     8
 71
     3
 72
    17
 73
    13
 74
     0
 42
0.0000000001
 43
0.0000000001
 40
0.0
 40
0.0
 40
0.0
 40
0.0
 40
1.0
 40
1.0
 40
1.0
 40
2.0
 40
2.0
 40
2.0
 40
3.0
 40
3.0
 40
3.0
 40
4.0
 40
4.0
 40
4.0
 40
4.0
 10
76.56833120002591
 20
73.65102241858396
 30
0.0
 10
67.9908990571408
 20
71.71143238085152
 30
0.0
 10
62.60982861409254
 20
63.18515993967215
 30
0.0
 10
64.54959090671287
 20
54.60790005167492
 30
0.0
 10
66.4891809444453
 20
46.03029565390192
 30
0.0
 10
75.01528113073678
 20
40.64939746574156
 30
0.0
 10
83.5927132736219
 20
42.58898750347399
 30
0.0
 10
92.17031767139491
 20
44.52892205098221
 30
0.0
 10
97.55138811444317
 20
53.05450547261
 30
0.0
 10
95.61162582182284
 20
61.63210987038301
 30
0.0
 10
94.59601100277574
 20
67.28207019344018
 30
0.0
 10
89.24250134179117
 20
72.63540759953685
 30
0.0
 10
83.5927132736219
 20
73.65102241858396
 30
0.0
  0
ENDBLK
  5
30B
330
308
100
AcDbEntity
  8
0
100
AcDbBlockEnd
  0
BLOCK
  5
30F
330
30D
100
AcDbEntity
  8
0
100
AcDbBlockBegin
  2
block 111
 70
     0
 71
     0
 10
0.0
 20
0.0
 30
0.0
  3
block 111
  1

  0
SPLINE
  5
311
330
30D
100
AcDbEntity
  8
0
 62
     7
420
 16777215
370
     9
100
AcDbSpline
210
0.0
220
0.0
230
1.0
 70
     8
 71
     3
 72
    32
 73
    28
 74
     0
 42
0.0000000001
 43
0.0000000001
 40
0.0
 40
0.0
 40
0.0
 40
0.0
 40
1.0
 40
1.0
 40
1.0
 40
2.0
 40
2.0
 40
2.0
 40
3.0
 40
3.0
 40
3.0
 40
4.0
 40
4.0
 40
4.0
 40
5.0
 40
5.0
 40
5.0
 40
6.0
 40
6.0
 40
6.0
 40
7.0
 40
7.0
 40
7.0
 40
8.0
 40
8.0
 40
8.0
 40
9.0
 40
9.0
 40
9.0
 40
9.0
 10
76.7314565788654
 20
73.85531671563109
 30
0.0
 10
76.7305953044259
 20
73.84050279527185
 30
0.0
 10
76.72973402998642
 20
73.82568887491261
 30
0.0
 10
76.72680569689216
 20
73.81087495455338
 30
0.0
 10
76.72680569689216
 20
73.81087495455338
 30
0.0
 10
76.72680569689216
 20
73.81087495455338
 30
0.0
 10
76.72680569689216
 20
73.81087495455338
 30
0.0
 10
76.72387736379788
 20
73.79640554396994
 30
0.0
 10
76.71905422693673
 20
73.7822806431623
 30
0.0
 10
76.71285305097241
 20
73.76918927168204
 30
0.0
 10
76.71285305097241
 20
73.76918927168204
 30
0.0
 10
76.71285305097241
 20
73.76918927168204
 30
0.0
 10
76.71285305097241
 20
73.76918927168204
 30
0.0
 10
76.70182873814693
 20
73.74507358737631
 30
0.0
 10
76.6861535433482
 20
73.72268045194956
 30
0.0
 10
76.66703325079152
 20
73.70407692405657
 30
0.0
 10
76.66703325079152
 20
73.70407692405657
 30
0.0
 10
76.66703325079152
 20
73.70407692405657
 30
0.0
 10
76.66703325079152
 20
73.70407692405657
 30
0.0
 10
76.65153031088069
 20
73.68926300369733
 30
0.0
 10
76.63361580253928
 20
73.67617163221708
 30
0.0
 10
76.6141510002068
 20
73.66721437804638
 30
0.0
 10
76.6141510002068
 20
73.66721437804638
 30
0.0
 10
76.6141510002068
 20
73.66721437804638
 30
0.0
 10
76.6141510002068
 20
73.66721437804638
 30
0.0
 10
76.59950933473547
 20
73.66032418253046
 30
0.0
 10
76.58400639482464
 20
73.6558455554451
 30
0.0
 10
76.56850345491381
 20
73.65102241858396
 30
0.0
  0
ENDBLK
  5
310
330
30D
100
AcDbEntity
  8
0
100
AcDbBlockEnd
  0
BLOCK
  5
314
330
312
100
AcDbEntity
  8
0
100
AcDbBlockBegin
  2
block 112
 70
     0
 71
     0
 10
0.0
 20
0.0
 30
0.0
  3
block 112
  1

  0
SPLINE
  5
316
330
312
100
AcDbEntity
  8
0
 62
     7
420
 16777215
370
     9
100
AcDbSpline
210
0.0
220
0.0
230
1.0
 70
     8
 71
     3
 72
    11
 73
     7
 74
     0
 42
0.0000000001
 43
0.0000000001
 40
0.0
 40
0.0
 40
0.0
 40
0.0
 40
1.0
 40
1.0
 40
1.0
 40
2.0
 40
2.0
 40
2.0
 40
2.0
 10
80.08060836426786
 20
42.17075263565744
 30
0.0
 10
88.8890343118243
 20
42.17075263565744
 30
0.0
 10
96.02968843475149
 20
49.31140675858463
 30
0.0
 10
96.02968843475149
 20
58.12017721591687
 30
0.0
 10
96.21193410614767
 20
65.34971486099947
 30
0.0
 10
90.67996838130068
 20
72.26712664921075
 30
0.0
 10
83.58685660743336
 20
73.67892771042345
 30
0.0
  0
ENDBLK
  5
315
330
312
100
AcDbEntity
  8
0
100
AcDbBlockEnd
  0
BLOCK
  5
319
330
317
100
AcDbEntity
  8
0
100
AcDbBlockBegin
  2
block 113
 70
     0
 71
     0
 10
0.0
 20
0.0
 30
0.0
  3
block 113
  1

  0
SPLINE
  5
31B
330
317
100
AcDbEntity
  8
0
 62
     7
420
 16777215
370
     9
100
AcDbSpline
210
0.0
220
0.0
230
1.0
 70
     8
 71
     3
 72
    11
 73
     7
 74
     0
 42
0.0000000001
 43
0.0000000001
 40
0.0
 40
0.0
 40
0.0
 40
0.0
 40
1.0
 40
1.0
 40
1.0
 40
2.0
 40
2.0
 40
2.0
 40
2.0
 10
76.65497540863865
 20
73.69718672854064
 30
0.0
 10
68.05204954234462
 20
71.80513903986808
 30
0.0
 10
62.61172341785942
 20
63.29747012658169
 30
0.0
 10
64.50359885164409
 20
54.69437200539976
 30
0.0
 10
65.88904491500837
 20
47.5599190584369
 30
0.0
 10
72.81489719272666
 20
41.99160755224343
 30
0.0
 10
80.08060836426786
 20
42.17075263565744
 30
0.0
  0
ENDBLK
  5
31A
330
317
100
AcDbEntity
  8
0
100
AcDbBlockEnd
  0
BLOCK
  5
31E
330
31C
100
AcDbEntity
  8
0
100
AcDbBlockBegin
  2
block 114
 70
     0
 71
     0
 10
0.0
 20
0.0
 30
0.0
  3
block 114
  1

  0
POLYLINE
  5
320
330
31C
100
AcDbEntity
  8
0
 62
     7
420
 16777215
370
     9
100
AcDb2dPolyline
 66
     1
 10
0.0
 20
0.0
 30
0.0
  0
VERTEX
  5
321
330
320
100
AcDbEntity
  8
0
 62
     7
420
 16777215
370
     9
100
AcDbVertex
100
AcDb2dVertex
 10
64.15736652696893
 20
58.12017721591687
 30
0.0
  0
VERTEX
  5
322
330
320
100
AcDbEntity
  8
0
 62
     7
420
 16777215
370
     9
100
AcDbVertex
100
AcDb2dVertex
 10
64.15736652696893
 20
58.12017721591687
 30
0.0
  0
SEQEND
  5
323
330
320
100
AcDbEntity
  8
0
370
     9
  0
ENDBLK
  5
31F
330
31C
100
AcDbEntity
  8
0
100
AcDbBlockEnd
  0
BLOCK
  5
326
330
324
100
AcDbEntity
  8
0
100
AcDbBlockBegin
  2
block 115
 70
     0
 71
     0
 10
0.0
 20
0.0
 30
0.0
  3
block 115
  1

  0
POLYLINE
  5
328
330
324
100
AcDbEntity
  8
0
 62
     7
420
 16777215
370
     9
100
AcDb2dPolyline
 66
     1
 10
0.0
 20
0.0
 30
0.0
  0
VERTEX
  5
329
330
328
100
AcDbEntity
  8
0
 62
     7
420
 16777215
370
     9
100
AcDbVertex
100
AcDb2dVertex
 10
96.00367794667888
 20
58.12017721591687
 30
0.0
  0
VERTEX
  5
32A
330
328
100
AcDbEntity
  8
0
 62
     7
420
 16777215
370
     9
100
AcDbVertex
100
AcDb2dVertex
 10
96.00367794667888
 20
58.12017721591687
 30
0.0
  0
SEQEND
  5
32B
330
328
100
AcDbEntity
  8
0
370
     9
  0
ENDBLK
  5
327
330
324
100
AcDbEntity
  8
0
100
AcDbBlockEnd
  0
BLOCK
  5
32E
330
32C
100
AcDbEntity
  8
0
100
AcDbBlockBegin
  2
block 116
 70
     0
 71
     0
 10
0.0
 20
0.0
 30
0.0
  3
block 116
  1

  0
INSERT
  5
331
330
32C
100
AcDbEntity
  8
0
100
AcDbBlockReference
  2
block 117
 10
0.0
 20
0.0
 30
0.0
  0
INSERT
  5
339
330
32C
100
AcDbEntity
  8
0
100
AcDbBlockReference
  2
block 118
 10
0.0
 20
0.0
 30
0.0
  0
INSERT
  5
341
330
32C
100
AcDbEntity
  8
0
100
AcDbBlockReference
  2
block 119
 10
0.0
 20
0.0
 30
0.0
  0
INSERT
  5
349
330
32C
100
AcDbEntity
  8
0
100
AcDbBlockReference
  2
block 120
 10
0.0
 20
0.0
 30
0.0
  0
INSERT
  5
355
330
32C
100
AcDbEntity
  8
0
100
AcDbBlockReference
  2
block 122
 10
0.0
 20
0.0
 30
0.0
  0
INSERT
  5
35A
330
32C
100
AcDbEntity
  8
0
100
AcDbBlockReference
  2
block 123
 10
0.0
 20
0.0
 30
0.0
  0
INSERT
  5
362
330
32C
100
AcDbEntity
  8
0
100
AcDbBlockReference
  2
block 124
 10
0.0
 20
0.0
 30
0.0
  0
INSERT
  5
36A
330
32C
100
AcDbEntity
  8
0
100
AcDbBlockReference
  2
block 125
 10
0.0
 20
0.0
 30
0.0
  0
ENDBLK
  5
32F
330
32C
100
AcDbEntity
  8
0
100
AcDbBlockEnd
  0
BLOCK
  5
332
330
330
100
AcDbEntity
  8
0
100
AcDbBlockBegin
  2
block 117
 70
     0
 71
     0
 10
0.0
 20
0.0
 30
0.0
  3
block 117
  1

  0
POLYLINE
  5
334
330
330
100
AcDbEntity
  8
0
 62
     7
420
 16777215
370
     9
100
AcDb2dPolyline
 66
     1
 10
0.0
 20
0.0
 30
0.0
  0
VERTEX
  5
335
330
334
100
AcDbEntity
  8
0
 62
     7
420
 16777215
370
     9
100
AcDbVertex
100
AcDb2dVertex
 10
64.15736652696893
 20
58.09399447295636
 30
0.0
  0
VERTEX
  5
336
330
334
100
AcDbEntity
  8
0
 62
     7
420
 16777215
370
     9
100
AcDbVertex
100
AcDb2dVertex
 10
64.15736652696893
 20
37.65836359227922
 30
0.0
  0
SEQEND
  5
337
330
334
100
AcDbEntity
  8
0
370
     9
  0
ENDBLK
  5
333
330
330
100
AcDbEntity
  8
0
100
AcDbBlockEnd
  0
BLOCK
  5
33A
330
338
100
AcDbEntity
  8
0
100
AcDbBlockBegin
  2
block 118
 70
     0
 71
     0
 10
0.0
 20
0.0
 30
0.0
  3
block 118
  1

  0
POLYLINE
  5
33C
330
338
100
AcDbEntity
  8
0
 62
     7
420
 16777215
370
     9
100
AcDb2dPolyline
 66
     1
 10
0.0
 20
0.0
 30
0.0
  0
VERTEX
  5
33D
330
33C
100
AcDbEntity
  8
0
 62
     7
420
 16777215
370
     9
100
AcDbVertex
100
AcDb2dVertex
 10
96.00367794667888
 20
58.09399447295636
 30
0.0
  0
VERTEX
  5
33E
330
33C
100
AcDbEntity
  8
0
 62
     7
420
 16777215
370
     9
100
AcDbVertex
100
AcDb2dVertex
 10
96.00367794667888
 20
37.65836359227922
 30
0.0
  0
SEQEND
  5
33F
330
33C
100
AcDbEntity
  8
0
370
     9
  0
ENDBLK
  5
33B
330
338
100
AcDbEntity
  8
0
100
AcDbBlockEnd
  0
BLOCK
  5
342
330
340
100
AcDbEntity
  8
0
100
AcDbBlockBegin
  2
block 119
 70
     0
 71
     0
 10
0.0
 20
0.0
 30
0.0
  3
block 119
  1

  0
POLYLINE
  5
344
330
340
100
AcDbEntity
  8
0
 62
     7
420
 16777215
370
     9
100
AcDb2dPolyline
 66
     1
 10
0.0
 20
0.0
 30
0.0
  0
VERTEX
  5
345
330
344
100
AcDbEntity
  8
0
 62
     7
420
 16777215
370
     9
100
AcDbVertex
100
AcDb2dVertex
 10
66.67159887072937
 20
37.65836359227922
 30
0.0
  0
VERTEX
  5
346
330
344
100
AcDbEntity
  8
0
 62
     7
420
 16777215
370
     9
100
AcDbVertex
100
AcDb2dVertex
 10
93.48961785780634
 20
37.65836359227922
 30
0.0
  0
SEQEND
  5
347
330
344
100
AcDbEntity
  8
0
370
     9
  0
ENDBLK
  5
343
330
340
100
AcDbEntity
  8
0
100
AcDbBlockEnd
  0
BLOCK
  5
34A
330
348
100
AcDbEntity
  8
0
100
AcDbBlockBegin
  2
block 120
 70
     0
 71
     0
 10
0.0
 20
0.0
 30
0.0
  3
block 120
  1

  0
INSERT
  5
34D
330
348
100
AcDbEntity
  8
0
100
AcDbBlockReference
  2
block 121
 10
0.0
 20
0.0
 30
0.0
  0
ENDBLK
  5
34B
330
348
100
AcDbEntity
  8
0
100
AcDbBlockEnd
  0
BLOCK
  5
34E
330
34C
100
AcDbEntity
  8
0
100
AcDbBlockBegin
  2
block 121
 70
     0
 71
     0
 10
0.0
 20
0.0
 30
0.0
  3
block 121
  1

  0
POLYLINE
  5
350
330
34C
100
AcDbEntity
  8
0
 62
     7
420
 16777215
370
     9
100
AcDb2dPolyline
 66
     1
 10
0.0
 20
0.0
 30
0.0
  0
VERTEX
  5
351
330
350
100
AcDbEntity
  8
0
 62
     7
420
 16777215
370
     9
100
AcDbVertex
100
AcDb2dVertex
 10
64.15736652696893
 20
37.65836359227922
 30
0.0
  0
VERTEX
  5
352
330
350
100
AcDbEntity
  8
0
 62
     7
420
 16777215
370
     9
100
AcDbVertex
100
AcDb2dVertex
 10
66.67159887072937
 20
37.65836359227922
 30
0.0
  0
SEQEND
  5
353
330
350
100
AcDbEntity
  8
0
370
     9
  0
ENDBLK
  5
34F
330
34C
100
AcDbEntity
  8
0
100
AcDbBlockEnd
  0
BLOCK
  5
356
330
354
100
AcDbEntity
  8
0
100
AcDbBlockBegin
  2
block 122
 70
     0
 71
     0
 10
0.0
 20
0.0
 30
0.0
  3
block 122
  1

  0
MTEXT
  5
358
330
354
100
AcDbEntity
  8
0
 62
     7
420
 16777215
100
AcDbMText
 10
79.03278188118381
 20
38.02492199372634
 30
0.0
 40
2.398890470823883
 41
0.0
 71
     7
 72
     1
  1
\fArial|b1|i0|c0|p34;\W0.75;76
 73
     1
 44
1.0
  0
ENDBLK
  5
357
330
354
100
AcDbEntity
  8
0
100
AcDbBlockEnd
  0
BLOCK
  5
35B
330
359
100
AcDbEntity
  8
0
100
AcDbBlockBegin
  2
block 123
 70
     0
 71
     0
 10
0.0
 20
0.0
 30
0.0
  3
block 123
  1

  0
POLYLINE
  5
35D
330
359
100
AcDbEntity
  8
0
 62
     7
420
 16777215
370
     9
100
AcDb2dPolyline
 66
     1
 10
0.0
 20
0.0
 30
0.0
  0
VERTEX
  5
35E
330
35D
100
AcDbEntity
  8
0
 62
     7
420
 16777215
370
     9
100
AcDbVertex
100
AcDb2dVertex
 10
64.15736652696893
 20
58.12017721591687
 30
0.0
  0
VERTEX
  5
35F
330
35D
100
AcDbEntity
  8
0
 62
     7
420
 16777215
370
     9
100
AcDbVertex
100
AcDb2dVertex
 10
64.15736652696893
 20
58.12017721591687
 30
0.0
  0
SEQEND
  5
360
330
35D
100
AcDbEntity
  8
0
370
     9
  0
ENDBLK
  5
35C
330
359
100
AcDbEntity
  8
0
100
AcDbBlockEnd
  0
BLOCK
  5
363
330
361
100
AcDbEntity
  8
0
100
AcDbBlockBegin
  2
block 124
 70
     0
 71
     0
 10
0.0
 20
0.0
 30
0.0
  3
block 124
  1

  0
POLYLINE
  5
365
330
361
100
AcDbEntity
  8
0
 62
     7
420
 16777215
370
     9
100
AcDb2dPolyline
 66
     1
 10
0.0
 20
0.0
 30
0.0
  0
VERTEX
  5
366
330
365
100
AcDbEntity
  8
0
 62
     7
420
 16777215
370
     9
100
AcDbVertex
100
AcDb2dVertex
 10
96.00367794667888
 20
58.12017721591687
 30
0.0
  0
VERTEX
  5
367
330
365
100
AcDbEntity
  8
0
 62
     7
420
 16777215
370
     9
100
AcDbVertex
100
AcDb2dVertex
 10
96.00367794667888
 20
58.12017721591687
 30
0.0
  0
SEQEND
  5
368
330
365
100
AcDbEntity
  8
0
370
     9
  0
ENDBLK
  5
364
330
361
100
AcDbEntity
  8
0
100
AcDbBlockEnd
  0
BLOCK
  5
36B
330
369
100
AcDbEntity
  8
0
100
AcDbBlockBegin
  2
block 125
 70
     0
 71
     0
 10
0.0
 20
0.0
 30
0.0
  3
block 125
  1

  0
POLYLINE
  5
36D
330
369
100
AcDbEntity
  8
0
 62
     7
420
 16777215
370
     9
100
AcDb2dPolyline
 66
     1
 10
0.0
 20
0.0
 30
0.0
  0
VERTEX
  5
36E
330
36D
100
AcDbEntity
  8
0
 62
     7
420
 16777215
370
     9
100
AcDbVertex
100
AcDb2dVertex
 10
96.00367794667888
 20
37.65836359227922
 30
0.0
  0
VERTEX
  5
36F
330
36D
100
AcDbEntity
  8
0
 62
     7
420
 16777215
370
     9
100
AcDbVertex
100
AcDb2dVertex
 10
96.00367794667888
 20
37.65836359227922
 30
0.0
  0
SEQEND
  5
370
330
36D
100
AcDbEntity
  8
0
370
     9
  0
ENDBLK
  5
36C
330
369
100
AcDbEntity
  8
0
100
AcDbBlockEnd
  0
BLOCK
  5
373
330
371
100
AcDbEntity
  8
0
100
AcDbBlockBegin
  2
block 126
 70
     0
 71
     0
 10
0.0
 20
0.0
 30
0.0
  3
block 126
  1

  0
POLYLINE
  5
375
330
371
100
AcDbEntity
  8
0
 62
     7
420
 16777215
370
     9
100
AcDb2dPolyline
 66
     1
 10
0.0
 20
0.0
 30
0.0
  0
VERTEX
  5
376
330
375
100
AcDbEntity
  8
0
 62
     7
420
 16777215
370
     9
100
AcDbVertex
100
AcDb2dVertex
 10
138.9764493403898
 20
259.2399889339712
 30
0.0
  0
VERTEX
  5
377
330
375
100
AcDbEntity
  8
0
 62
     7
420
 16777215
370
     9
100
AcDbVertex
100
AcDb2dVertex
 10
138.9764493403898
 20
258.9626585644553
 30
0.0
  0
SEQEND
  5
378
330
375
100
AcDbEntity
  8
0
370
     9
  0
ENDBLK
  5
374
330
371
100
AcDbEntity
  8
0
100
AcDbBlockEnd
  0
BLOCK
  5
37B
330
379
100
AcDbEntity
  8
0
100
AcDbBlockBegin
  2
block 127
 70
     0
 71
     0
 10
0.0
 20
0.0
 30
0.0
  3
block 127
  1

  0
POLYLINE
  5
37D
330
379
100
AcDbEntity
  8
0
 62
     7
420
 16777215
370
     9
100
AcDb2dPolyline
 66
     1
 10
0.0
 20
0.0
 30
0.0
  0
VERTEX
  5
37E
330
37D
100
AcDbEntity
  8
0
 62
     7
420
 16777215
370
     9
100
AcDbVertex
100
AcDb2dVertex
 10
143.1670662531744
 20
258.9626585644553
 30
0.0
  0
VERTEX
  5
37F
330
37D
100
AcDbEntity
  8
0
 62
     7
420
 16777215
370
     9
100
AcDbVertex
100
AcDb2dVertex
 10
143.1670662531744
 20
259.2399889339712
 30
0.0
  0
SEQEND
  5
380
330
37D
100
AcDbEntity
  8
0
370
     9
  0
ENDBLK
  5
37C
330
379
100
AcDbEntity
  8
0
100
AcDbBlockEnd
  0
BLOCK
  5
383
330
381
100
AcDbEntity
  8
0
100
AcDbBlockBegin
  2
block 128
 70
     0
 71
     0
 10
0.0
 20
0.0
 30
0.0
  3
block 128
  1

  0
SPLINE
  5
385
330
381
100
AcDbEntity
  8
0
 62
     7
420
 16777215
370
     9
100
AcDbSpline
210
0.0
220
0.0
230
1.0
 70
     8
 71
     3
 72
     8
 73
     4
 74
     0
 42
0.0000000001
 43
0.0000000001
 40
0.0
 40
0.0
 40
0.0
 40
0.0
 40
1.0
 40
1.0
 40
1.0
 40
1.0
 10
141.0717577967821
 20
259.8006785940794
 30
0.0
 10
140.5329445074369
 20
259.8253110430489
 30
0.0
 10
139.6044906616662
 20
259.6521948807113
 30
0.0
 10
139.1108081529503
 20
259.4354982317356
 30
0.0
  0
ENDBLK
  5
384
330
381
100
AcDbEntity
  8
0
100
AcDbBlockEnd
  0
BLOCK
  5
388
330
386
100
AcDbEntity
  8
0
100
AcDbBlockBegin
  2
block 129
 70
     0
 71
     0
 10
0.0
 20
0.0
 30
0.0
  3
block 129
  1

  0
SPLINE
  5
38A
330
386
100
AcDbEntity
  8
0
 62
     7
420
 16777215
370
     9
100
AcDbSpline
210
0.0
220
0.0
230
1.0
 70
     8
 71
     3
 72
     8
 73
     4
 74
     0
 42
0.0000000001
 43
0.0000000001
 40
0.0
 40
0.0
 40
0.0
 40
0.0
 40
1.0
 40
1.0
 40
1.0
 40
1.0
 10
143.0330519503897
 20
259.4354982317356
 30
0.0
 10
142.5393694416738
 20
259.6521948807113
 30
0.0
 10
141.6105710861273
 20
259.8253110430489
 30
0.0
 10
141.0717577967821
 20
259.8006785940794
 30
0.0
  0
ENDBLK
  5
389
330
386
100
AcDbEntity
  8
0
100
AcDbBlockEnd
  0
BLOCK
  5
38D
330
38B
100
AcDbEntity
  8
0
100
AcDbBlockBegin
  2
block 130
 70
     0
 71
     0
 10
0.0
 20
0.0
 30
0.0
  3
block 130
  1

  0
POLYLINE
  5
38F
330
38B
100
AcDbEntity
  8
0
 62
     7
420
 16777215
370
     9
100
AcDb2dPolyline
 66
     1
 10
0.0
 20
0.0
 30
0.0
  0
VERTEX
  5
390
330
38F
100
AcDbEntity
  8
0
 62
     7
420
 16777215
370
     9
100
AcDbVertex
100
AcDb2dVertex
 10
143.1670662531744
 20
146.2433662961463
 30
0.0
  0
VERTEX
  5
391
330
38F
100
AcDbEntity
  8
0
 62
     7
420
 16777215
370
     9
100
AcDbVertex
100
AcDb2dVertex
 10
143.1670662531744
 20
258.9626585644553
 30
0.0
  0
SEQEND
  5
392
330
38F
100
AcDbEntity
  8
0
370
     9
  0
ENDBLK
  5
38E
330
38B
100
AcDbEntity
  8
0
100
AcDbBlockEnd
  0
BLOCK
  5
395
330
393
100
AcDbEntity
  8
0
100
AcDbBlockBegin
  2
block 131
 70
     0
 71
     0
 10
0.0
 20
0.0
 30
0.0
  3
block 131
  1

  0
POLYLINE
  5
397
330
393
100
AcDbEntity
  8
0
 62
     7
420
 16777215
370
     9
100
AcDb2dPolyline
 66
     1
 10
0.0
 20
0.0
 30
0.0
  0
VERTEX
  5
398
330
397
100
AcDbEntity
  8
0
 62
     7
420
 16777215
370
     9
100
AcDbVertex
100
AcDb2dVertex
 10
138.9764493403898
 20
258.9626585644553
 30
0.0
  0
VERTEX
  5
399
330
397
100
AcDbEntity
  8
0
 62
     7
420
 16777215
370
     9
100
AcDbVertex
100
AcDb2dVertex
 10
138.9764493403898
 20
146.2433662961463
 30
0.0
  0
SEQEND
  5
39A
330
397
100
AcDbEntity
  8
0
370
     9
  0
ENDBLK
  5
396
330
393
100
AcDbEntity
  8
0
100
AcDbBlockEnd
  0
BLOCK
  5
39D
330
39B
100
AcDbEntity
  8
0
100
AcDbBlockBegin
  2
block 132
 70
     0
 71
     0
 10
0.0
 20
0.0
 30
0.0
  3
block 132
  1

  0
POLYLINE
  5
39F
330
39B
100
AcDbEntity
  8
0
 62
     7
420
 16777215
370
     9
100
AcDb2dPolyline
 66
     1
 10
0.0
 20
0.0
 30
0.0
  0
VERTEX
  5
3A0
330
39F
100
AcDbEntity
  8
0
 62
     7
420
 16777215
370
     9
100
AcDbVertex
100
AcDb2dVertex
 10
111.9396666456823
 20
128.245142079227
 30
0.0
  0
VERTEX
  5
3A1
330
39F
100
AcDbEntity
  8
0
 62
     7
420
 16777215
370
     9
100
AcDbVertex
100
AcDb2dVertex
 10
113.457921227616
 20
128.2582334507073
 30
0.0
  0
SEQEND
  5
3A2
330
39F
100
AcDbEntity
  8
0
370
     9
  0
ENDBLK
  5
39E
330
39B
100
AcDbEntity
  8
0
100
AcDbBlockEnd
  0
BLOCK
  5
3A5
330
3A3
100
AcDbEntity
  8
0
100
AcDbBlockBegin
  2
block 133
 70
     0
 71
     0
 10
0.0
 20
0.0
 30
0.0
  3
block 133
  1

  0
POLYLINE
  5
3A7
330
3A3
100
AcDbEntity
  8
0
 62
     7
420
 16777215
370
     9
100
AcDb2dPolyline
 66
     1
 10
0.0
 20
0.0
 30
0.0
  0
VERTEX
  5
3A8
330
3A7
100
AcDbEntity
  8
0
 62
     7
420
 16777215
370
     9
100
AcDbVertex
100
AcDb2dVertex
 10
109.6445425193282
 20
128.2248160024551
 30
0.0
  0
VERTEX
  5
3A9
330
3A7
100
AcDbEntity
  8
0
 62
     7
420
 16777215
370
     9
100
AcDbVertex
100
AcDb2dVertex
 10
110.2681052135192
 20
128.2303281588678
 30
0.0
  0
SEQEND
  5
3AA
330
3A7
100
AcDbEntity
  8
0
370
     9
  0
ENDBLK
  5
3A6
330
3A3
100
AcDbEntity
  8
0
100
AcDbBlockEnd
  0
BLOCK
  5
3AD
330
3AB
100
AcDbEntity
  8
0
100
AcDbBlockBegin
  2
block 134
 70
     0
 71
     0
 10
0.0
 20
0.0
 30
0.0
  3
block 134
  1

  0
POLYLINE
  5
3AF
330
3AB
100
AcDbEntity
  8
0
 62
     7
420
 16777215
370
     9
100
AcDb2dPolyline
 66
     1
 10
0.0
 20
0.0
 30
0.0
  0
VERTEX
  5
3B0
330
3AF
100
AcDbEntity
  8
0
 62
     7
420
 16777215
370
     9
100
AcDbVertex
100
AcDb2dVertex
 10
113.457921227616
 20
149.1431050790226
 30
0.0
  0
VERTEX
  5
3B1
330
3AF
100
AcDbEntity
  8
0
 62
     7
420
 16777215
370
     9
100
AcDbVertex
100
AcDb2dVertex
 10
109.6445425193282
 20
149.1765225272749
 30
0.0
  0
SEQEND
  5
3B2
330
3AF
100
AcDbEntity
  8
0
370
     9
  0
ENDBLK
  5
3AE
330
3AB
100
AcDbEntity
  8
0
100
AcDbBlockEnd
  0
BLOCK
  5
3B5
330
3B3
100
AcDbEntity
  8
0
100
AcDbBlockBegin
  2
block 135
 70
     0
 71
     0
 10
0.0
 20
0.0
 30
0.0
  3
block 135
  1

  0
SPLINE
  5
3B7
330
3B3
100
AcDbEntity
  8
0
 62
     7
420
 16777215
370
     9
100
AcDbSpline
210
0.0
220
0.0
230
1.0
 70
     8
 71
     3
 72
     8
 73
     4
 74
     0
 42
0.0000000001
 43
0.0000000001
 40
0.0
 40
0.0
 40
0.0
 40
0.0
 40
1.0
 40
1.0
 40
1.0
 40
1.0
 10
113.834814922337
 20
142.0530938931375
 30
0.0
 10
113.8485953133688
 20
143.7911457120292
 30
0.0
 10
113.7645349280746
 20
147.2086826879272
 30
0.0
 10
113.6653161126453
 20
148.9439784286125
 30
0.0
  0
ENDBLK
  5
3B6
330
3B3
100
AcDbEntity
  8
0
100
AcDbBlockEnd
  0
BLOCK
  5
3BA
330
3B8
100
AcDbEntity
  8
0
100
AcDbBlockBegin
  2
block 136
 70
     0
 71
     0
 10
0.0
 20
0.0
 30
0.0
  3
block 136
  1

  0
SPLINE
  5
3BC
330
3B8
100
AcDbEntity
  8
0
 62
     7
420
 16777215
370
     9
100
AcDbSpline
210
0.0
220
0.0
230
1.0
 70
     8
 71
     3
 72
     8
 73
     4
 74
     0
 42
0.0000000001
 43
0.0000000001
 40
0.0
 40
0.0
 40
0.0
 40
0.0
 40
1.0
 40
1.0
 40
1.0
 40
1.0
 10
113.6653161126453
 20
128.4573601011175
 30
0.0
 10
113.7645349280746
 20
130.1926558418028
 30
0.0
 10
113.8485953133688
 20
133.6101928177008
 30
0.0
 10
113.834814922337
 20
135.3482446365925
 30
0.0
  0
ENDBLK
  5
3BB
330
3B8
100
AcDbEntity
  8
0
100
AcDbBlockEnd
  0
BLOCK
  5
3BF
330
3BD
100
AcDbEntity
  8
0
100
AcDbBlockBegin
  2
block 137
 70
     0
 71
     0
 10
0.0
 20
0.0
 30
0.0
  3
block 137
  1

  0
SPLINE
  5
3C1
330
3BD
100
AcDbEntity
  8
0
 62
     7
420
 16777215
370
     9
100
AcDbSpline
210
0.0
220
0.0
230
1.0
 70
     8
 71
     3
 72
    14
 73
    10
 74
     0
 42
0.0000000001
 43
0.0000000001
 40
0.0
 40
0.0
 40
0.0
 40
0.0
 40
1.0
 40
1.0
 40
1.0
 40
2.0
 40
2.0
 40
2.0
 40
3.0
 40
3.0
 40
3.0
 40
3.0
 10
156.7138796570314
 20
146.0321818035832
 30
0.0
 10
156.711123578825
 20
146.0638767029565
 30
0.0
 10
156.7087120103944
 20
146.0959161121055
 30
0.0
 10
156.6949316193626
 20
146.123821403945
 30
0.0
 10
156.6949316193626
 20
146.123821403945
 30
0.0
 10
156.6949316193626
 20
146.123821403945
 30
0.0
 10
156.6949316193626
 20
146.123821403945
 30
0.0
 10
156.6808067185549
 20
146.1527602251119
 30
0.0
 10
156.6556575049218
 20
146.1775649289692
 30
0.0
 10
156.6305082912887
 20
146.2023696328265
 30
0.0
  0
ENDBLK
  5
3C0
330
3BD
100
AcDbEntity
  8
0
100
AcDbBlockEnd
  0
BLOCK
  5
3C4
330
3C2
100
AcDbEntity
  8
0
100
AcDbBlockBegin
  2
block 138
 70
     0
 71
     0
 10
0.0
 20
0.0
 30
0.0
  3
block 138
  1

  0
POLYLINE
  5
3C6
330
3C2
100
AcDbEntity
  8
0
 62
     7
420
 16777215
370
     9
100
AcDb2dPolyline
 66
     1
 10
0.0
 20
0.0
 30
0.0
  0
VERTEX
  5
3C7
330
3C6
100
AcDbEntity
  8
0
 62
     7
420
 16777215
370
     9
100
AcDbVertex
100
AcDb2dVertex
 10
125.4282578974297
 20
146.0321818035832
 30
0.0
  0
VERTEX
  5
3C8
330
3C6
100
AcDbEntity
  8
0
 62
     7
420
 16777215
370
     9
100
AcDbVertex
100
AcDb2dVertex
 10
125.4613308359061
 20
142.2604887781668
 30
0.0
  0
SEQEND
  5
3C9
330
3C6
100
AcDbEntity
  8
0
370
     9
  0
ENDBLK
  5
3C5
330
3C2
100
AcDbEntity
  8
0
100
AcDbBlockEnd
  0
BLOCK
  5
3CC
330
3CA
100
AcDbEntity
  8
0
100
AcDbBlockBegin
  2
block 139
 70
     0
 71
     0
 10
0.0
 20
0.0
 30
0.0
  3
block 139
  1

  0
POLYLINE
  5
3CE
330
3CA
100
AcDbEntity
  8
0
 62
     7
420
 16777215
370
     9
100
AcDb2dPolyline
 66
     1
 10
0.0
 20
0.0
 30
0.0
  0
VERTEX
  5
3CF
330
3CE
100
AcDbEntity
  8
0
 62
     7
420
 16777215
370
     9
100
AcDbVertex
100
AcDb2dVertex
 10
156.6825292674339
 20
142.2604887781668
 30
0.0
  0
VERTEX
  5
3D0
330
3CE
100
AcDbEntity
  8
0
 62
     7
420
 16777215
370
     9
100
AcDbVertex
100
AcDb2dVertex
 10
156.7156022059103
 20
146.0321818035832
 30
0.0
  0
SEQEND
  5
3D1
330
3CE
100
AcDbEntity
  8
0
370
     9
  0
ENDBLK
  5
3CD
330
3CA
100
AcDbEntity
  8
0
100
AcDbBlockEnd
  0
BLOCK
  5
3D4
330
3D2
100
AcDbEntity
  8
0
100
AcDbBlockBegin
  2
block 140
 70
     0
 71
     0
 10
0.0
 20
0.0
 30
0.0
  3
block 140
  1

  0
SPLINE
  5
3D6
330
3D2
100
AcDbEntity
  8
0
 62
     7
420
 16777215
370
     9
100
AcDbSpline
210
0.0
220
0.0
230
1.0
 70
     8
 71
     3
 72
    14
 73
    10
 74
     0
 42
0.0000000001
 43
0.0000000001
 40
0.0
 40
0.0
 40
0.0
 40
0.0
 40
1.0
 40
1.0
 40
1.0
 40
2.0
 40
2.0
 40
2.0
 40
3.0
 40
3.0
 40
3.0
 40
3.0
 10
156.5960573137091
 20
142.0930570271298
 30
0.0
 10
156.621551037118
 20
142.1171727114356
 30
0.0
 10
156.6467002507511
 20
142.1416329055171
 30
0.0
 10
156.6608251515587
 20
142.1698827071324
 30
0.0
 10
156.6608251515587
 20
142.1698827071324
 30
0.0
 10
156.6608251515587
 20
142.1698827071324
 30
0.0
 10
156.6608251515587
 20
142.1698827071324
 30
0.0
 10
156.6746055425906
 20
142.1977879989719
 30
0.0
 10
156.6780506403485
 20
142.2291383885693
 30
0.0
 10
156.6808067185549
 20
142.2604887781668
 30
0.0
  0
ENDBLK
  5
3D5
330
3D2
100
AcDbEntity
  8
0
100
AcDbBlockEnd
  0
BLOCK
  5
3D9
330
3D7
100
AcDbEntity
  8
0
100
AcDbBlockBegin
  2
block 141
 70
     0
 71
     0
 10
0.0
 20
0.0
 30
0.0
  3
block 141
  1

  0
POLYLINE
  5
3DB
330
3D7
100
AcDbEntity
  8
0
 62
     7
420
 16777215
370
     9
100
AcDb2dPolyline
 66
     1
 10
0.0
 20
0.0
 30
0.0
  0
VERTEX
  5
3DC
330
3DB
100
AcDbEntity
  8
0
 62
     7
420
 16777215
370
     9
100
AcDbVertex
100
AcDb2dVertex
 10
127.7275161410933
 20
135.4533201182103
 30
0.0
  0
VERTEX
  5
3DD
330
3DB
100
AcDbEntity
  8
0
 62
     7
420
 16777215
370
     9
100
AcDbVertex
100
AcDb2dVertex
 10
128.0758155244232
 20
99.93436223362527
 30
0.0
  0
SEQEND
  5
3DE
330
3DB
100
AcDbEntity
  8
0
370
     9
  0
ENDBLK
  5
3DA
330
3D7
100
AcDbEntity
  8
0
100
AcDbBlockEnd
  0
BLOCK
  5
3E1
330
3DF
100
AcDbEntity
  8
0
100
AcDbBlockBegin
  2
block 142
 70
     0
 71
     0
 10
0.0
 20
0.0
 30
0.0
  3
block 142
  1

  0
POLYLINE
  5
3E3
330
3DF
100
AcDbEntity
  8
0
 62
     7
420
 16777215
370
     9
100
AcDb2dPolyline
 66
     1
 10
0.0
 20
0.0
 30
0.0
  0
VERTEX
  5
3E4
330
3E3
100
AcDbEntity
  8
0
 62
     7
420
 16777215
370
     9
100
AcDbVertex
100
AcDb2dVertex
 10
154.0680445789168
 20
99.93436223362527
 30
0.0
  0
VERTEX
  5
3E5
330
3E3
100
AcDbEntity
  8
0
 62
     7
420
 16777215
370
     9
100
AcDbVertex
100
AcDb2dVertex
 10
154.4163439622467
 20
135.4533201182103
 30
0.0
  0
SEQEND
  5
3E6
330
3E3
100
AcDbEntity
  8
0
370
     9
  0
ENDBLK
  5
3E2
330
3DF
100
AcDbEntity
  8
0
100
AcDbBlockEnd
  0
BLOCK
  5
3E9
330
3E7
100
AcDbEntity
  8
0
100
AcDbBlockBegin
  2
block 143
 70
     0
 71
     0
 10
0.0
 20
0.0
 30
0.0
  3
block 143
  1

  0
SPLINE
  5
3EB
330
3E7
100
AcDbEntity
  8
0
 62
     7
420
 16777215
370
     9
100
AcDbSpline
210
0.0
220
0.0
230
1.0
 70
     8
 71
     3
 72
    26
 73
    22
 74
     0
 42
0.0000000001
 43
0.0000000001
 40
0.0
 40
0.0
 40
0.0
 40
0.0
 40
1.0
 40
1.0
 40
1.0
 40
2.0
 40
2.0
 40
2.0
 40
3.0
 40
3.0
 40
3.0
 40
4.0
 40
4.0
 40
4.0
 40
5.0
 40
5.0
 40
5.0
 40
6.0
 40
6.0
 40
6.0
 40
7.0
 40
7.0
 40
7.0
 40
7.0
 10
153.6546328479614
 20
99.34972914409917
 30
0.0
 10
153.7131995098467
 20
99.37728992616286
 30
0.0
 10
153.7717661717321
 20
99.40485070822656
 30
0.0
 10
153.8227536185499
 20
99.44309129333993
 30
0.0
 10
153.8227536185499
 20
99.44309129333993
 30
0.0
 10
153.8227536185499
 20
99.44309129333993
 30
0.0
 10
153.8227536185499
 20
99.44309129333993
 30
0.0
 10
153.8747745946951
 20
99.4820208980049
 30
0.0
 10
153.9185273362212
 20
99.53197481549535
 30
0.0
 10
153.9529783138009
 20
99.58606285029535
 30
0.0
 10
153.9529783138009
 20
99.58606285029535
 30
0.0
 10
153.9529783138009
 20
99.58606285029535
 30
0.0
 10
153.9529783138009
 20
99.58606285029535
 30
0.0
 10
153.9877738011563
 20
99.64049539487114
 30
0.0
 10
154.0139565441168
 20
99.69940656653229
 30
0.0
 10
154.0273924253728
 20
99.75866224796923
 30
0.0
 10
154.0273924253728
 20
99.75866224796923
 30
0.0
 10
154.0273924253728
 20
99.75866224796923
 30
0.0
 10
154.0273924253728
 20
99.75866224796923
 30
0.0
 10
154.0404837968531
 20
99.81688440007878
 30
0.0
 10
154.0411728164047
 20
99.87545106196413
 30
0.0
 10
154.0422063457321
 20
99.93436223362527
 30
0.0
  0
ENDBLK
  5
3EA
330
3E7
100
AcDbEntity
  8
0
100
AcDbBlockEnd
  0
BLOCK
  5
3EE
330
3EC
100
AcDbEntity
  8
0
100
AcDbBlockBegin
  2
block 144
 70
     0
 71
     0
 10
0.0
 20
0.0
 30
0.0
  3
block 144
  1

  0
SPLINE
  5
3F0
330
3EC
100
AcDbEntity
  8
0
 62
     7
420
 16777215
370
     9
100
AcDbSpline
210
0.0
220
0.0
230
1.0
 70
     8
 71
     3
 72
    14
 73
    10
 74
     0
 42
0.0000000001
 43
0.0000000001
 40
0.0
 40
0.0
 40
0.0
 40
0.0
 40
1.0
 40
1.0
 40
1.0
 40
2.0
 40
2.0
 40
2.0
 40
3.0
 40
3.0
 40
3.0
 40
3.0
 10
125.4658094629914
 20
146.1444919904928
 30
0.0
 10
125.4582302479239
 20
146.1382908145285
 30
0.0
 10
125.4509955426322
 20
146.1320896385641
 30
0.0
 10
125.4489284839774
 20
146.123821403945
 30
0.0
 10
125.4489284839774
 20
146.123821403945
 30
0.0
 10
125.4489284839774
 20
146.123821403945
 30
0.0
 10
125.4489284839774
 20
146.123821403945
 30
0.0
 10
125.4489284839774
 20
146.1231323843934
 30
0.0
 10
125.4485839742016
 20
146.122098855066
 30
0.0
 10
125.4485839742016
 20
146.1214098355144
 30
0.0
  0
ENDBLK
  5
3EF
330
3EC
100
AcDbEntity
  8
0
100
AcDbBlockEnd
  0
BLOCK
  5
3F3
330
3F1
100
AcDbEntity
  8
0
100
AcDbBlockBegin
  2
block 145
 70
     0
 71
     0
 10
0.0
 20
0.0
 30
0.0
  3
block 145
  1

  0
POLYLINE
  5
3F5
330
3F1
100
AcDbEntity
  8
0
 62
     7
420
 16777215
370
     9
100
AcDb2dPolyline
 66
     1
 10
0.0
 20
0.0
 30
0.0
  0
VERTEX
  5
3F6
330
3F5
100
AcDbEntity
  8
0
 62
     7
420
 16777215
370
     9
100
AcDbVertex
100
AcDb2dVertex
 10
125.5316108301685
 20
142.1116605550228
 30
0.0
  0
VERTEX
  5
3F7
330
3F5
100
AcDbEntity
  8
0
 62
     7
420
 16777215
370
     9
100
AcDbVertex
100
AcDb2dVertex
 10
125.5474582798551
 20
142.0930570271298
 30
0.0
  0
SEQEND
  5
3F8
330
3F5
100
AcDbEntity
  8
0
370
     9
  0
ENDBLK
  5
3F4
330
3F1
100
AcDbEntity
  8
0
100
AcDbBlockEnd
  0
BLOCK
  5
3FB
330
3F9
100
AcDbEntity
  8
0
100
AcDbBlockBegin
  2
block 146
 70
     0
 71
     0
 10
0.0
 20
0.0
 30
0.0
  3
block 146
  1

  0
SPLINE
  5
3FD
330
3F9
100
AcDbEntity
  8
0
 62
     7
420
 16777215
370
     9
100
AcDbSpline
210
0.0
220
0.0
230
1.0
 70
     8
 71
     3
 72
    20
 73
    16
 74
     0
 42
0.0000000001
 43
0.0000000001
 40
0.0
 40
0.0
 40
0.0
 40
0.0
 40
1.0
 40
1.0
 40
1.0
 40
2.0
 40
2.0
 40
2.0
 40
3.0
 40
3.0
 40
3.0
 40
4.0
 40
4.0
 40
4.0
 40
5.0
 40
5.0
 40
5.0
 40
5.0
 10
128.1805464962653
 20
99.60948951504949
 30
0.0
 10
128.1839915940232
 20
99.60191029998197
 30
0.0
 10
128.1870921820054
 20
99.59398657513866
 30
0.0
 10
128.1905372797633
 20
99.58606285029535
 30
0.0
 10
128.1905372797633
 20
99.58606285029535
 30
0.0
 10
128.1905372797633
 20
99.58606285029535
 30
0.0
 10
128.1905372797633
 20
99.58606285029535
 30
0.0
 10
128.2174090422754
 20
99.52956324706477
 30
0.0
 10
128.2670184499901
 20
99.4813318784533
 30
0.0
 10
128.3211064847901
 20
99.44309129333993
 30
0.0
 10
128.3211064847901
 20
99.44309129333993
 30
0.0
 10
128.3211064847901
 20
99.44309129333993
 30
0.0
 10
128.3211064847901
 20
99.44309129333993
 30
0.0
 10
128.3741609902627
 20
99.40553972777815
 30
0.0
 10
128.4316941228207
 20
99.37763443593866
 30
0.0
 10
128.4892272553786
 20
99.34972914409917
 30
0.0
  0
ENDBLK
  5
3FC
330
3F9
100
AcDbEntity
  8
0
100
AcDbBlockEnd
  0
BLOCK
  5
400
330
3FE
100
AcDbEntity
  8
0
100
AcDbBlockBegin
  2
block 147
 70
     0
 71
     0
 10
0.0
 20
0.0
 30
0.0
  3
block 147
  1

  0
POLYLINE
  5
402
330
3FE
100
AcDbEntity
  8
0
 62
     7
420
 16777215
370
     9
100
AcDb2dPolyline
 66
     1
 10
0.0
 20
0.0
 30
0.0
  0
VERTEX
  5
403
330
402
100
AcDbEntity
  8
0
 62
     7
420
 16777215
370
     9
100
AcDbVertex
100
AcDb2dVertex
 10
156.1571518593447
 20
142.0530938931375
 30
0.0
  0
VERTEX
  5
404
330
402
100
AcDbEntity
  8
0
 62
     7
420
 16777215
370
     9
100
AcDbVertex
100
AcDb2dVertex
 10
156.1571518593447
 20
142.1574803552037
 30
0.0
  0
SEQEND
  5
405
330
402
100
AcDbEntity
  8
0
370
     9
  0
ENDBLK
  5
401
330
3FE
100
AcDbEntity
  8
0
100
AcDbBlockEnd
  0
BLOCK
  5
408
330
406
100
AcDbEntity
  8
0
100
AcDbBlockBegin
  2
block 148
 70
     0
 71
     0
 10
0.0
 20
0.0
 30
0.0
  3
block 148
  1

  0
POLYLINE
  5
40A
330
406
100
AcDbEntity
  8
0
 62
     7
420
 16777215
370
     9
100
AcDb2dPolyline
 66
     1
 10
0.0
 20
0.0
 30
0.0
  0
VERTEX
  5
40B
330
40A
100
AcDbEntity
  8
0
 62
     7
420
 16777215
370
     9
100
AcDbVertex
100
AcDb2dVertex
 10
157.0211823770415
 20
135.5597736389313
 30
0.0
  0
VERTEX
  5
40C
330
40A
100
AcDbEntity
  8
0
 62
     7
420
 16777215
370
     9
100
AcDbVertex
100
AcDb2dVertex
 10
156.994999634081
 20
138.5435728071019
 30
0.0
  0
SEQEND
  5
40D
330
40A
100
AcDbEntity
  8
0
370
     9
  0
ENDBLK
  5
409
330
406
100
AcDbEntity
  8
0
100
AcDbBlockEnd
  0
BLOCK
  5
410
330
40E
100
AcDbEntity
  8
0
100
AcDbBlockBegin
  2
block 149
 70
     0
 71
     0
 10
0.0
 20
0.0
 30
0.0
  3
block 149
  1

  0
SPLINE
  5
412
330
40E
100
AcDbEntity
  8
0
 62
     7
420
 16777215
370
     9
100
AcDbSpline
210
0.0
220
0.0
230
1.0
 70
     8
 71
     3
 72
     8
 73
     4
 74
     0
 42
0.0000000001
 43
0.0000000001
 40
0.0
 40
0.0
 40
0.0
 40
0.0
 40
1.0
 40
1.0
 40
1.0
 40
1.0
 10
156.994999634081
 20
138.5435728071019
 30
0.0
 10
157.0022343393727
 20
139.3790090134076
 30
0.0
 10
156.9591706173982
 20
141.0202535853006
 30
0.0
 10
156.9078386608046
 20
141.8546562622789
 30
0.0
  0
ENDBLK
  5
411
330
40E
100
AcDbEntity
  8
0
100
AcDbBlockEnd
  0
BLOCK
  5
415
330
413
100
AcDbEntity
  8
0
100
AcDbBlockBegin
  2
block 150
 70
     0
 71
     0
 10
0.0
 20
0.0
 30
0.0
  3
block 150
  1

  0
POLYLINE
  5
417
330
413
100
AcDbEntity
  8
0
 62
     7
420
 16777215
370
     9
100
AcDb2dPolyline
 66
     1
 10
0.0
 20
0.0
 30
0.0
  0
VERTEX
  5
418
330
417
100
AcDbEntity
  8
0
 62
     7
420
 16777215
370
     9
100
AcDbVertex
100
AcDb2dVertex
 10
113.834814922337
 20
135.3482446365925
 30
0.0
  0
VERTEX
  5
419
330
417
100
AcDbEntity
  8
0
 62
     7
420
 16777215
370
     9
100
AcDbVertex
100
AcDb2dVertex
 10
125.3321396699825
 20
135.3482446365925
 30
0.0
  0
SEQEND
  5
41A
330
417
100
AcDbEntity
  8
0
370
     9
  0
ENDBLK
  5
416
330
413
100
AcDbEntity
  8
0
100
AcDbBlockEnd
  0
BLOCK
  5
41D
330
41B
100
AcDbEntity
  8
0
100
AcDbBlockBegin
  2
block 151
 70
     0
 71
     0
 10
0.0
 20
0.0
 30
0.0
  3
block 151
  1

  0
POLYLINE
  5
41F
330
41B
100
AcDbEntity
  8
0
 62
     7
420
 16777215
370
     9
100
AcDb2dPolyline
 66
     1
 10
0.0
 20
0.0
 30
0.0
  0
VERTEX
  5
420
330
41F
100
AcDbEntity
  8
0
 62
     7
420
 16777215
370
     9
100
AcDbVertex
100
AcDb2dVertex
 10
125.4458278959953
 20
142.0530938931375
 30
0.0
  0
VERTEX
  5
421
330
41F
100
AcDbEntity
  8
0
 62
     7
420
 16777215
370
     9
100
AcDbVertex
100
AcDb2dVertex
 10
113.834814922337
 20
142.0530938931375
 30
0.0
  0
SEQEND
  5
422
330
41F
100
AcDbEntity
  8
0
370
     9
  0
ENDBLK
  5
41E
330
41B
100
AcDbEntity
  8
0
100
AcDbBlockEnd
  0
BLOCK
  5
425
330
423
100
AcDbEntity
  8
0
100
AcDbBlockBegin
  2
block 152
 70
     0
 71
     0
 10
0.0
 20
0.0
 30
0.0
  3
block 152
  1

  0
POLYLINE
  5
427
330
423
100
AcDbEntity
  8
0
 62
     7
420
 16777215
370
     9
100
AcDb2dPolyline
 66
     1
 10
0.0
 20
0.0
 30
0.0
  0
VERTEX
  5
428
330
427
100
AcDbEntity
  8
0
 62
     7
420
 16777215
370
     9
100
AcDbVertex
100
AcDb2dVertex
 10
138.9764493403898
 20
258.9626585644553
 30
0.0
  0
VERTEX
  5
429
330
427
100
AcDbEntity
  8
0
 62
     7
420
 16777215
370
     9
100
AcDbVertex
100
AcDb2dVertex
 10
143.1670662531744
 20
258.9626585644553
 30
0.0
  0
SEQEND
  5
42A
330
427
100
AcDbEntity
  8
0
370
     9
  0
ENDBLK
  5
426
330
423
100
AcDbEntity
  8
0
100
AcDbBlockEnd
  0
BLOCK
  5
42D
330
42B
100
AcDbEntity
  8
0
100
AcDbBlockBegin
  2
block 153
 70
     0
 71
     0
 10
0.0
 20
0.0
 30
0.0
  3
block 153
  1

  0
SPLINE
  5
42F
330
42B
100
AcDbEntity
  8
0
 62
     7
420
 16777215
370
     9
100
AcDbSpline
210
0.0
220
0.0
230
1.0
 70
     8
 71
     3
 72
    26
 73
    22
 74
     0
 42
0.0000000001
 43
0.0000000001
 40
0.0
 40
0.0
 40
0.0
 40
0.0
 40
1.0
 40
1.0
 40
1.0
 40
2.0
 40
2.0
 40
2.0
 40
3.0
 40
3.0
 40
3.0
 40
4.0
 40
4.0
 40
4.0
 40
5.0
 40
5.0
 40
5.0
 40
6.0
 40
6.0
 40
6.0
 40
7.0
 40
7.0
 40
7.0
 40
7.0
 10
143.0330519503897
 20
259.4354982317356
 30
0.0
 10
143.0537225369375
 20
259.4249906835738
 30
0.0
 10
143.0743931234852
 20
259.4146553902999
 30
0.0
 10
143.0919631220508
 20
259.4005304894922
 30
0.0
 10
143.0919631220508
 20
259.4005304894922
 30
0.0
 10
143.0919631220508
 20
259.4005304894922
 30
0.0
 10
143.0919631220508
 20
259.4005304894922
 30
0.0
 10
143.1109111597196
 20
259.3855443142451
 30
0.0
 10
143.1264140996304
 20
259.3662517668005
 30
0.0
 10
143.1388164515591
 20
259.3452366704769
 30
0.0
 10
143.1388164515591
 20
259.3452366704769
 30
0.0
 10
143.1388164515591
 20
259.3452366704769
 30
0.0
 10
143.1388164515591
 20
259.3452366704769
 30
0.0
 10
143.1481182155056
 20
259.3288724561266
 30
0.0
 10
143.1556974305731
 20
259.3114747124489
 30
0.0
 10
143.1601760576585
 20
259.2933879492196
 30
0.0
 10
143.1601760576585
 20
259.2933879492196
 30
0.0
 10
143.1601760576585
 20
259.2933879492196
 30
0.0
 10
143.1601760576585
 20
259.2933879492196
 30
0.0
 10
143.164310174968
 20
259.2759902055419
 30
0.0
 10
143.1656882140712
 20
259.2580756972005
 30
0.0
 10
143.1670662531744
 20
259.2399889339712
 30
0.0
  0
ENDBLK
  5
42E
330
42B
100
AcDbEntity
  8
0
100
AcDbBlockEnd
  0
BLOCK
  5
432
330
430
100
AcDbEntity
  8
0
100
AcDbBlockBegin
  2
block 154
 70
     0
 71
     0
 10
0.0
 20
0.0
 30
0.0
  3
block 154
  1

  0
SPLINE
  5
434
330
430
100
AcDbEntity
  8
0
 62
     7
420
 16777215
370
     9
100
AcDbSpline
210
0.0
220
0.0
230
1.0
 70
     8
 71
     3
 72
    26
 73
    22
 74
     0
 42
0.0000000001
 43
0.0000000001
 40
0.0
 40
0.0
 40
0.0
 40
0.0
 40
1.0
 40
1.0
 40
1.0
 40
2.0
 40
2.0
 40
2.0
 40
3.0
 40
3.0
 40
3.0
 40
4.0
 40
4.0
 40
4.0
 40
5.0
 40
5.0
 40
5.0
 40
6.0
 40
6.0
 40
6.0
 40
7.0
 40
7.0
 40
7.0
 40
7.0
 10
138.9764493403898
 20
259.2399889339712
 30
0.0
 10
138.9788609088204
 20
259.2630710889495
 30
0.0
 10
138.9812724772509
 20
259.2861532439279
 30
0.0
 10
138.9881626727669
 20
259.3078573598031
 30
0.0
 10
138.9881626727669
 20
259.3078573598031
 30
0.0
 10
138.9881626727669
 20
259.3078573598031
 30
0.0
 10
138.9881626727669
 20
259.3078573598031
 30
0.0
 10
138.9950528682828
 20
259.3307672598935
 30
0.0
 10
139.0074552202115
 20
259.3521268659928
 30
0.0
 10
139.0229581601223
 20
259.3710749036616
 30
0.0
 10
139.0229581601223
 20
259.3710749036616
 30
0.0
 10
139.0229581601223
 20
259.3710749036616
 30
0.0
 10
139.0229581601223
 20
259.3710749036616
 30
0.0
 10
139.0343269827235
 20
259.3858888240209
 30
0.0
 10
139.0481073737554
 20
259.399152450389
 30
0.0
 10
139.0632658038904
 20
259.4098322534387
 30
0.0
 10
139.0632658038904
 20
259.4098322534387
 30
0.0
 10
139.0632658038904
 20
259.4098322534387
 30
0.0
 10
139.0632658038904
 20
259.4098322534387
 30
0.0
 10
139.0780797242497
 20
259.4199952918247
 30
0.0
 10
139.0942716837121
 20
259.4277467617801
 30
0.0
 10
139.1108081529503
 20
259.4354982317356
 30
0.0
  0
ENDBLK
  5
433
330
430
100
AcDbEntity
  8
0
100
AcDbBlockEnd
  0
BLOCK
  5
437
330
435
100
AcDbEntity
  8
0
100
AcDbBlockBegin
  2
block 155
 70
     0
 71
     0
 10
0.0
 20
0.0
 30
0.0
  3
block 155
  1

  0
POLYLINE
  5
439
330
435
100
AcDbEntity
  8
0
 62
     7
420
 16777215
370
     9
100
AcDb2dPolyline
 66
     1
 10
0.0
 20
0.0
 30
0.0
  0
VERTEX
  5
43A
330
439
100
AcDbEntity
  8
0
 62
     7
420
 16777215
370
     9
100
AcDbVertex
100
AcDb2dVertex
 10
138.9764493403898
 20
258.9626585644553
 30
0.0
  0
VERTEX
  5
43B
330
439
100
AcDbEntity
  8
0
 62
     7
420
 16777215
370
     9
100
AcDbVertex
100
AcDb2dVertex
 10
143.1670662531744
 20
258.9626585644553
 30
0.0
  0
SEQEND
  5
43C
330
439
100
AcDbEntity
  8
0
370
     9
  0
ENDBLK
  5
438
330
435
100
AcDbEntity
  8
0
100
AcDbBlockEnd
  0
BLOCK
  5
43F
330
43D
100
AcDbEntity
  8
0
100
AcDbBlockBegin
  2
block 156
 70
     0
 71
     0
 10
0.0
 20
0.0
 30
0.0
  3
block 156
  1

  0
SPLINE
  5
441
330
43D
100
AcDbEntity
  8
0
 62
     7
420
 16777215
370
     9
100
AcDbSpline
210
0.0
220
0.0
230
1.0
 70
     8
 71
     3
 72
    62
 73
    58
 74
     0
 42
0.0000000001
 43
0.0000000001
 40
0.0
 40
0.0
 40
0.0
 40
0.0
 40
1.0
 40
1.0
 40
1.0
 40
2.0
 40
2.0
 40
2.0
 40
3.0
 40
3.0
 40
3.0
 40
4.0
 40
4.0
 40
4.0
 40
5.0
 40
5.0
 40
5.0
 40
6.0
 40
6.0
 40
6.0
 40
7.0
 40
7.0
 40
7.0
 40
8.0
 40
8.0
 40
8.0
 40
9.0
 40
9.0
 40
9.0
 40
10.0
 40
10.0
 40
10.0
 40
11.0
 40
11.0
 40
11.0
 40
12.0
 40
12.0
 40
12.0
 40
13.0
 40
13.0
 40
13.0
 40
14.0
 40
14.0
 40
14.0
 40
15.0
 40
15.0
 40
15.0
 40
16.0
 40
16.0
 40
16.0
 40
17.0
 40
17.0
 40
17.0
 40
18.0
 40
18.0
 40
18.0
 40
19.0
 40
19.0
 40
19.0
 40
19.0
 10
111.9396666456823
 20
128.245142079227
 30
0.0
 10
111.9320874306147
 20
128.2454865890028
 30
0.0
 10
111.9241637057714
 20
128.2458310987786
 30
0.0
 10
111.9007370410173
 20
128.2472091378818
 30
0.0
 10
111.9007370410173
 20
128.2472091378818
 30
0.0
 10
111.9007370410173
 20
128.2472091378818
 30
0.0
 10
111.9007370410173
 20
128.2472091378818
 30
0.0
 10
111.8755878273842
 20
128.2489316867608
 30
0.0
 10
111.8332131249612
 20
128.2513432551914
 30
0.0
 10
111.7798141097128
 20
128.2540993333977
 30
0.0
 10
111.7798141097128
 20
128.2540993333977
 30
0.0
 10
111.7798141097128
 20
128.2540993333977
 30
0.0
 10
111.7798141097128
 20
128.2540993333977
 30
0.0
 10
111.7257260749128
 20
128.2571999213799
 30
0.0
 10
111.6602692175116
 20
128.2599559995863
 30
0.0
 10
111.586888635267
 20
128.2623675680169
 30
0.0
 10
111.586888635267
 20
128.2623675680169
 30
0.0
 10
111.586888635267
 20
128.2623675680169
 30
0.0
 10
111.586888635267
 20
128.2623675680169
 30
0.0
 10
111.510751974816
 20
128.2651236462232
 30
0.0
 10
111.4256580601944
 20
128.267190704878
 30
0.0
 10
111.336774538039
 20
128.2682242342054
 30
0.0
 10
111.336774538039
 20
128.2682242342054
 30
0.0
 10
111.336774538039
 20
128.2682242342054
 30
0.0
 10
111.336774538039
 20
128.2682242342054
 30
0.0
 10
111.2633939557944
 20
128.2692577635328
 30
0.0
 10
111.1872572953434
 20
128.2692577635328
 30
0.0
 10
111.1111206348925
 20
128.2685687439812
 30
0.0
 10
111.1111206348925
 20
128.2685687439812
 30
0.0
 10
111.1111206348925
 20
128.2685687439812
 30
0.0
 10
111.1111206348925
 20
128.2685687439812
 30
0.0
 10
111.0315388766836
 20
128.2678797244296
 30
0.0
 10
110.9519571184747
 20
128.2665016853264
 30
0.0
 10
110.8751314384721
 20
128.2644346266716
 30
0.0
 10
110.8751314384721
 20
128.2644346266716
 30
0.0
 10
110.8751314384721
 20
128.2644346266716
 30
0.0
 10
110.8751314384721
 20
128.2644346266716
 30
0.0
 10
110.7817692892313
 20
128.2616785484653
 30
0.0
 10
110.6921967475243
 20
128.2578889409315
 30
0.0
 10
110.6129594990912
 20
128.2534103138461
 30
0.0
 10
110.6129594990912
 20
128.2534103138461
 30
0.0
 10
110.6129594990912
 20
128.2534103138461
 30
0.0
 10
110.6129594990912
 20
128.2534103138461
 30
0.0
 10
110.5347557799855
 20
128.2496207063124
 30
0.0
 10
110.4661983346021
 20
128.245142079227
 30
0.0
 10
110.4107322606989
 20
128.2413524716933
 30
0.0
 10
110.4107322606989
 20
128.2413524716933
 30
0.0
 10
110.4107322606989
 20
128.2413524716933
 30
0.0
 10
110.4107322606989
 20
128.2413524716933
 30
0.0
 10
110.3573332454505
 20
128.2375628641595
 30
0.0
 10
110.3156475625791
 20
128.2341177664016
 30
0.0
 10
110.293943446704
 20
128.2327397272984
 30
0.0
 10
110.293943446704
 20
128.2327397272984
 30
0.0
 10
110.293943446704
 20
128.2327397272984
 30
0.0
 10
110.293943446704
 20
128.2327397272984
 30
0.0
 10
110.2784405067931
 20
128.2313616881952
 30
0.0
 10
110.2732728601562
 20
128.2306726686436
 30
0.0
 10
110.2681052135192
 20
128.2303281588678
 30
0.0
  0
ENDBLK
  5
440
330
43D
100
AcDbEntity
  8
0
100
AcDbBlockEnd
  0
BLOCK
  5
444
330
442
100
AcDbEntity
  8
0
100
AcDbBlockBegin
  2
block 157
 70
     0
 71
     0
 10
0.0
 20
0.0
 30
0.0
  3
block 157
  1

  0
POLYLINE
  5
446
330
442
100
AcDbEntity
  8
0
 62
     7
420
 16777215
370
     9
100
AcDb2dPolyline
 66
     1
 10
0.0
 20
0.0
 30
0.0
  0
VERTEX
  5
447
330
446
100
AcDbEntity
  8
0
 62
     7
420
 16777215
370
     9
100
AcDbVertex
100
AcDb2dVertex
 10
109.6445425193282
 20
128.2248160024551
 30
0.0
  0
VERTEX
  5
448
330
446
100
AcDbEntity
  8
0
 62
     7
420
 16777215
370
     9
100
AcDbVertex
100
AcDb2dVertex
 10
109.6445425193282
 20
149.1765225272749
 30
0.0
  0
SEQEND
  5
449
330
446
100
AcDbEntity
  8
0
370
     9
  0
ENDBLK
  5
445
330
442
100
AcDbEntity
  8
0
100
AcDbBlockEnd
  0
BLOCK
  5
44C
330
44A
100
AcDbEntity
  8
0
100
AcDbBlockBegin
  2
block 158
 70
     0
 71
     0
 10
0.0
 20
0.0
 30
0.0
  3
block 158
  1

  0
SPLINE
  5
44E
330
44A
100
AcDbEntity
  8
0
 62
     7
420
 16777215
370
     9
100
AcDbSpline
210
0.0
220
0.0
230
1.0
 70
     8
 71
     3
 72
    26
 73
    22
 74
     0
 42
0.0000000001
 43
0.0000000001
 40
0.0
 40
0.0
 40
0.0
 40
0.0
 40
1.0
 40
1.0
 40
1.0
 40
2.0
 40
2.0
 40
2.0
 40
3.0
 40
3.0
 40
3.0
 40
4.0
 40
4.0
 40
4.0
 40
5.0
 40
5.0
 40
5.0
 40
6.0
 40
6.0
 40
6.0
 40
7.0
 40
7.0
 40
7.0
 40
7.0
 10
113.457921227616
 20
128.2582334507073
 30
0.0
 10
113.4865155390071
 20
128.2616785484653
 30
0.0
 10
113.5151098503981
 20
128.2658126657748
 30
0.0
 10
113.5412925933586
 20
128.2761479590487
 30
0.0
 10
113.5412925933586
 20
128.2761479590487
 30
0.0
 10
113.5412925933586
 20
128.2761479590487
 30
0.0
 10
113.5412925933586
 20
128.2761479590487
 30
0.0
 10
113.5691978851981
 20
128.2878612914258
 30
0.0
 10
113.5943470988313
 20
128.3074983486461
 30
0.0
 10
113.615017685379
 20
128.3309250134003
 30
0.0
 10
113.615017685379
 20
128.3309250134003
 30
0.0
 10
113.615017685379
 20
128.3309250134003
 30
0.0
 10
113.615017685379
 20
128.3309250134003
 30
0.0
 10
113.6305206252899
 20
128.3491840315175
 30
0.0
 10
113.6436119967701
 20
128.3698546180653
 30
0.0
 10
113.6511912118376
 20
128.392247753492
 30
0.0
 10
113.6511912118376
 20
128.392247753492
 30
0.0
 10
113.6511912118376
 20
128.392247753492
 30
0.0
 10
113.6511912118376
 20
128.392247753492
 30
0.0
 10
113.6587704269051
 20
128.4132628498156
 30
0.0
 10
113.6618710148873
 20
128.4353114754665
 30
0.0
 10
113.6653161126453
 20
128.4573601011175
 30
0.0
  0
ENDBLK
  5
44D
330
44A
100
AcDbEntity
  8
0
100
AcDbBlockEnd
  0
BLOCK
  5
451
330
44F
100
AcDbEntity
  8
0
100
AcDbBlockBegin
  2
block 159
 70
     0
 71
     0
 10
0.0
 20
0.0
 30
0.0
  3
block 159
  1

  0
SPLINE
  5
453
330
44F
100
AcDbEntity
  8
0
 62
     7
420
 16777215
370
     9
100
AcDbSpline
210
0.0
220
0.0
230
1.0
 70
     8
 71
     3
 72
    26
 73
    22
 74
     0
 42
0.0000000001
 43
0.0000000001
 40
0.0
 40
0.0
 40
0.0
 40
0.0
 40
1.0
 40
1.0
 40
1.0
 40
2.0
 40
2.0
 40
2.0
 40
3.0
 40
3.0
 40
3.0
 40
4.0
 40
4.0
 40
4.0
 40
5.0
 40
5.0
 40
5.0
 40
6.0
 40
6.0
 40
6.0
 40
7.0
 40
7.0
 40
7.0
 40
7.0
 10
113.6653161126453
 20
148.9439784286125
 30
0.0
 10
113.6604929757841
 20
148.9724004851156
 30
0.0
 10
113.6553253291472
 20
149.0009947965067
 30
0.0
 10
113.6439565065459
 20
149.0266607748035
 30
0.0
 10
113.6439565065459
 20
149.0266607748035
 30
0.0
 10
113.6439565065459
 20
149.0266607748035
 30
0.0
 10
113.6439565065459
 20
149.0266607748035
 30
0.0
 10
113.6312096448414
 20
149.0542215568672
 30
0.0
 10
113.6105390582937
 20
149.0786817509488
 30
0.0
 10
113.5860788642122
 20
149.0979742983934
 30
0.0
 10
113.5860788642122
 20
149.0979742983934
 30
0.0
 10
113.5860788642122
 20
149.0979742983934
 30
0.0
 10
113.5860788642122
 20
149.0979742983934
 30
0.0
 10
113.5671308265434
 20
149.1129604736405
 30
0.0
 10
113.545771220444
 20
149.1250183157933
 30
0.0
 10
113.5233780850173
 20
149.1320807661972
 30
0.0
 10
113.5233780850173
 20
149.1320807661972
 30
0.0
 10
113.5233780850173
 20
149.1320807661972
 30
0.0
 10
113.5233780850173
 20
149.1320807661972
 30
0.0
 10
113.5020184789179
 20
149.1386264519373
 30
0.0
 10
113.4799698532669
 20
149.14086576548
 30
0.0
 10
113.457921227616
 20
149.1431050790226
 30
0.0
  0
ENDBLK
  5
452
330
44F
100
AcDbEntity
  8
0
100
AcDbBlockEnd
  0
BLOCK
  5
456
330
454
100
AcDbEntity
  8
0
100
AcDbBlockBegin
  2
block 160
 70
     0
 71
     0
 10
0.0
 20
0.0
 30
0.0
  3
block 160
  1

  0
POLYLINE
  5
458
330
454
100
AcDbEntity
  8
0
 62
     7
420
 16777215
370
     9
100
AcDb2dPolyline
 66
     1
 10
0.0
 20
0.0
 30
0.0
  0
VERTEX
  5
459
330
458
100
AcDbEntity
  8
0
 62
     7
420
 16777215
370
     9
100
AcDbVertex
100
AcDb2dVertex
 10
113.834814922337
 20
135.3482446365925
 30
0.0
  0
VERTEX
  5
45A
330
458
100
AcDbEntity
  8
0
 62
     7
420
 16777215
370
     9
100
AcDbVertex
100
AcDb2dVertex
 10
113.834814922337
 20
142.0530938931375
 30
0.0
  0
SEQEND
  5
45B
330
458
100
AcDbEntity
  8
0
370
     9
  0
ENDBLK
  5
457
330
454
100
AcDbEntity
  8
0
100
AcDbBlockEnd
  0
BLOCK
  5
45E
330
45C
100
AcDbEntity
  8
0
100
AcDbBlockBegin
  2
block 161
 70
     0
 71
     0
 10
0.0
 20
0.0
 30
0.0
  3
block 161
  1

  0
SPLINE
  5
460
330
45C
100
AcDbEntity
  8
0
 62
     7
420
 16777215
370
     9
100
AcDbSpline
210
0.0
220
0.0
230
1.0
 70
    24
 71
     3
 72
   170
 73
   166
 74
     0
 42
0.0000000001
 43
0.0000000001
 40
0.0
 40
0.0
 40
0.0
 40
0.0
 40
1.0
 40
1.0
 40
1.0
 40
2.0
 40
2.0
 40
2.0
 40
3.0
 40
3.0
 40
3.0
 40
4.0
 40
4.0
 40
4.0
 40
5.0
 40
5.0
 40
5.0
 40
6.0
 40
6.0
 40
6.0
 40
7.0
 40
7.0
 40
7.0
 40
8.0
 40
8.0
 40
8.0
 40
9.0
 40
9.0
 40
9.0
 40
10.0
 40
10.0
 40
10.0
 40
11.0
 40
11.0
 40
11.0
 40
12.0
 40
12.0
 40
12.0
 40
13.0
 40
13.0
 40
13.0
 40
14.0
 40
14.0
 40
14.0
 40
15.0
 40
15.0
 40
15.0
 40
16.0
 40
16.0
 40
16.0
 40
17.0
 40
17.0
 40
17.0
 40
18.0
 40
18.0
 40
18.0
 40
19.0
 40
19.0
 40
19.0
 40
20.0
 40
20.0
 40
20.0
 40
21.0
 40
21.0
 40
21.0
 40
22.0
 40
22.0
 40
22.0
 40
23.0
 40
23.0
 40
23.0
 40
24.0
 40
24.0
 40
24.0
 40
25.0
 40
25.0
 40
25.0
 40
26.0
 40
26.0
 40
26.0
 40
27.0
 40
27.0
 40
27.0
 40
28.0
 40
28.0
 40
28.0
 40
29.0
 40
29.0
 40
29.0
 40
30.0
 40
30.0
 40
30.0
 40
31.0
 40
31.0
 40
31.0
 40
32.0
 40
32.0
 40
32.0
 40
33.0
 40
33.0
 40
33.0
 40
34.0
 40
34.0
 40
34.0
 40
35.0
 40
35.0
 40
35.0
 40
36.0
 40
36.0
 40
36.0
 40
37.0
 40
37.0
 40
37.0
 40
38.0
 40
38.0
 40
38.0
 40
39.0
 40
39.0
 40
39.0
 40
40.0
 40
40.0
 40
40.0
 40
41.0
 40
41.0
 40
41.0
 40
42.0
 40
42.0
 40
42.0
 40
43.0
 40
43.0
 40
43.0
 40
44.0
 40
44.0
 40
44.0
 40
45.0
 40
45.0
 40
45.0
 40
46.0
 40
46.0
 40
46.0
 40
47.0
 40
47.0
 40
47.0
 40
48.0
 40
48.0
 40
48.0
 40
49.0
 40
49.0
 40
49.0
 40
50.0
 40
50.0
 40
50.0
 40
51.0
 40
51.0
 40
51.0
 40
52.0
 40
52.0
 40
52.0
 40
53.0
 40
53.0
 40
53.0
 40
54.0
 40
54.0
 40
54.0
 40
55.0
 40
55.0
 40
55.0
 40
55.0
 10
156.5061402622263
 20
146.2433662961463
 30
0.0
 10
156.4954604591766
 20
146.2433662961463
 30
0.0
 10
156.4847806561269
 20
146.2433662961463
 30
0.0
 10
156.4486071296683
 20
146.2433662961463
 30
0.0
 10
156.4486071296683
 20
146.2433662961463
 30
0.0
 10
156.4486071296683
 20
146.2433662961463
 30
0.0
 10
156.4486071296683
 20
146.2433662961463
 30
0.0
 10
156.4103665445549
 20
146.2433662961463
 30
0.0
 10
156.3431871382747
 20
146.2433662961463
 30
0.0
 10
156.254648125895
 20
146.2433662961463
 30
0.0
 10
156.254648125895
 20
146.2433662961463
 30
0.0
 10
156.254648125895
 20
146.2433662961463
 30
0.0
 10
156.254648125895
 20
146.2433662961463
 30
0.0
 10
156.1605969571027
 20
146.2433662961463
 30
0.0
 10
156.0431191235562
 20
146.2433662961463
 30
0.0
 10
155.899803056825
 20
146.2433662961463
 30
0.0
 10
155.899803056825
 20
146.2433662961463
 30
0.0
 10
155.899803056825
 20
146.2433662961463
 30
0.0
 10
155.899803056825
 20
146.2433662961463
 30
0.0
 10
155.740984050183
 20
146.2433662961463
 30
0.0
 10
155.5504701441677
 20
146.2433662961463
 30
0.0
 10
155.3310174169855
 20
146.2433662961463
 30
0.0
 10
155.3310174169855
 20
146.2433662961463
 30
0.0
 10
155.3310174169855
 20
146.2433662961463
 30
0.0
 10
155.3310174169855
 20
146.2433662961463
 30
0.0
 10
155.0946837107894
 20
146.2433662961463
 30
0.0
 10
154.8245880465652
 20
146.2433662961463
 30
0.0
 10
154.5224529731919
 20
146.2433662961463
 30
0.0
 10
154.5224529731919
 20
146.2433662961463
 30
0.0
 10
154.5224529731919
 20
146.2433662961463
 30
0.0
 10
154.5224529731919
 20
146.2433662961463
 30
0.0
 10
154.1986137839435
 20
146.2433662961463
 30
0.0
 10
153.8379120486849
 20
146.2433662961463
 30
0.0
 10
153.4434483553983
 20
146.2433662961463
 30
0.0
 10
153.4434483553983
 20
146.2433662961463
 30
0.0
 10
153.4434483553983
 20
146.2433662961463
 30
0.0
 10
153.4434483553983
 20
146.2433662961463
 30
0.0
 10
153.1282219105448
 20
146.2433662961463
 30
0.0
 10
152.7912913498162
 20
146.2433662961463
 30
0.0
 10
152.4343792220913
 20
146.2433662961463
 30
0.0
 10
152.4343792220913
 20
146.2433662961463
 30
0.0
 10
152.4343792220913
 20
146.2433662961463
 30
0.0
 10
152.4343792220913
 20
146.2433662961463
 30
0.0
 10
152.0609306251283
 20
146.2433662961463
 30
0.0
 10
151.6654334025143
 20
146.2433662961463
 30
0.0
 10
151.2506436324557
 20
146.2433662961463
 30
0.0
 10
151.2506436324557
 20
146.2433662961463
 30
0.0
 10
151.2506436324557
 20
146.2433662961463
 30
0.0
 10
151.2506436324557
 20
146.2433662961463
 30
0.0
 10
150.8186283736073
 20
146.2433662961463
 30
0.0
 10
150.3652535086595
 20
146.2433662961463
 30
0.0
 10
149.8932751158188
 20
146.2433662961463
 30
0.0
 10
149.8932751158188
 20
146.2433662961463
 30
0.0
 10
149.8932751158188
 20
146.2433662961463
 30
0.0
 10
149.8932751158188
 20
146.2433662961463
 30
0.0
 10
149.4040712341883
 20
146.2433662961463
 30
0.0
 10
148.8955748051131
 20
146.2433662961463
 30
0.0
 10
148.3705419067997
 20
146.2433662961463
 30
0.0
 10
148.3705419067997
 20
146.2433662961463
 30
0.0
 10
148.3705419067997
 20
146.2433662961463
 30
0.0
 10
148.3705419067997
 20
146.2433662961463
 30
0.0
 10
147.8300060685756
 20
146.2433662961463
 30
0.0
 10
147.2719002317857
 20
146.2433662961463
 30
0.0
 10
146.7007030235157
 20
146.2433662961463
 30
0.0
 10
146.7007030235157
 20
146.2433662961463
 30
0.0
 10
146.7007030235157
 20
146.2433662961463
 30
0.0
 10
146.7007030235157
 20
146.2433662961463
 30
0.0
 10
146.1164144437654
 20
146.2433662961463
 30
0.0
 10
145.5180009632074
 20
146.2433662961463
 30
0.0
 10
144.910285718703
 20
146.2433662961463
 30
0.0
 10
144.910285718703
 20
146.2433662961463
 30
0.0
 10
144.910285718703
 20
146.2433662961463
 30
0.0
 10
144.910285718703
 20
146.2433662961463
 30
0.0
 10
144.2929242004763
 20
146.2433662961463
 30
0.0
 10
143.6659164085272
 20
146.2433662961463
 30
0.0
 10
143.0337409699413
 20
146.2433662961463
 30
0.0
 10
143.0337409699413
 20
146.2433662961463
 30
0.0
 10
143.0337409699413
 20
146.2433662961463
 30
0.0
 10
143.0337409699413
 20
146.2433662961463
 30
0.0
 10
142.3967423944942
 20
146.2433662961463
 30
0.0
 10
141.7545761724101
 20
146.2433662961463
 30
0.0
 10
141.1124099503261
 20
146.2433662961463
 30
0.0
 10
141.1124099503261
 20
146.2433662961463
 30
0.0
 10
141.1124099503261
 20
146.2433662961463
 30
0.0
 10
141.1124099503261
 20
146.2433662961463
 30
0.0
 10
140.470243728242
 20
146.2433662961463
 30
0.0
 10
139.8277329963821
 20
146.2433662961463
 30
0.0
 10
139.1903899111592
 20
146.2433662961463
 30
0.0
 10
139.1903899111592
 20
146.2433662961463
 30
0.0
 10
139.1903899111592
 20
146.2433662961463
 30
0.0
 10
139.1903899111592
 20
146.2433662961463
 30
0.0
 10
138.5578699627974
 20
146.2433662961463
 30
0.0
 10
137.929828641521
 20
146.2433662961463
 30
0.0
 10
137.3117781037427
 20
146.2433662961463
 30
0.0
 10
137.3117781037427
 20
146.2433662961463
 30
0.0
 10
137.3117781037427
 20
146.2433662961463
 30
0.0
 10
137.3117781037427
 20
146.2433662961463
 30
0.0
 10
136.7030293299109
 20
146.2433662961463
 30
0.0
 10
136.1039268298013
 20
146.2433662961463
 30
0.0
 10
135.5182602109479
 20
146.2433662961463
 30
0.0
 10
135.5182602109479
 20
146.2433662961463
 30
0.0
 10
135.5182602109479
 20
146.2433662961463
 30
0.0
 10
135.5182602109479
 20
146.2433662961463
 30
0.0
 10
134.9456849635746
 20
146.2433662961463
 30
0.0
 10
134.3865455974575
 20
146.2433662961463
 30
0.0
 10
133.8442872103543
 20
146.2433662961463
 30
0.0
 10
133.8442872103543
 20
146.2433662961463
 30
0.0
 10
133.8442872103543
 20
146.2433662961463
 30
0.0
 10
133.8442872103543
 20
146.2433662961463
 30
0.0
 10
133.3182207827135
 20
146.2433662961463
 30
0.0
 10
132.8076572949836
 20
146.2433662961463
 30
0.0
 10
132.3170753742499
 20
146.2433662961463
 30
0.0
 10
132.3170753742499
 20
146.2433662961463
 30
0.0
 10
132.3170753742499
 20
146.2433662961463
 30
0.0
 10
132.3170753742499
 20
146.2433662961463
 30
0.0
 10
131.8433744325301
 20
146.2433662961463
 30
0.0
 10
131.3882770187034
 20
146.2433662961463
 30
0.0
 10
130.9538501914244
 20
146.2433662961463
 30
0.0
 10
130.9538501914244
 20
146.2433662961463
 30
0.0
 10
130.9538501914244
 20
146.2433662961463
 30
0.0
 10
130.9538501914244
 20
146.2433662961463
 30
0.0
 10
130.5369933627111
 20
146.2433662961463
 30
0.0
 10
130.1397735912181
 20
146.2433662961463
 30
0.0
 10
129.7639134258245
 20
146.2433662961463
 30
0.0
 10
129.7639134258245
 20
146.2433662961463
 30
0.0
 10
129.7639134258245
 20
146.2433662961463
 30
0.0
 10
129.7639134258245
 20
146.2433662961463
 30
0.0
 10
129.4052787492206
 20
146.2433662961463
 30
0.0
 10
129.0662811298372
 20
146.2433662961463
 30
0.0
 10
128.7486431165531
 20
146.2433662961463
 30
0.0
 10
128.7486431165531
 20
146.2433662961463
 30
0.0
 10
128.7486431165531
 20
146.2433662961463
 30
0.0
 10
128.7486431165531
 20
146.2433662961463
 30
0.0
 10
128.3514233450602
 20
146.2433662961463
 30
0.0
 10
127.9879655315952
 20
146.2433662961463
 30
0.0
 10
127.6610257543646
 20
146.2433662961463
 30
0.0
 10
127.6610257543646
 20
146.2433662961463
 30
0.0
 10
127.6610257543646
 20
146.2433662961463
 30
0.0
 10
127.6610257543646
 20
146.2433662961463
 30
0.0
 10
127.3557900930092
 20
146.2433662961463
 30
0.0
 10
127.0829383505787
 20
146.2433662961463
 30
0.0
 10
126.8438485661761
 20
146.2433662961463
 30
0.0
 10
126.8438485661761
 20
146.2433662961463
 30
0.0
 10
126.8438485661761
 20
146.2433662961463
 30
0.0
 10
126.8438485661761
 20
146.2433662961463
 30
0.0
 10
126.6212952510118
 20
146.2433662961463
 30
0.0
 10
126.4283697765659
 20
146.2433662961463
 30
0.0
 10
126.2664501819417
 20
146.2433662961463
 30
0.0
 10
126.2664501819417
 20
146.2433662961463
 30
0.0
 10
126.2664501819417
 20
146.2433662961463
 30
0.0
 10
126.2664501819417
 20
146.2433662961463
 30
0.0
 10
126.12072254678
 20
146.2433662961463
 30
0.0
 10
126.0004886350271
 20
146.2433662961463
 30
0.0
 10
125.9036813880284
 20
146.2433662961463
 30
0.0
 10
125.9036813880284
 20
146.2433662961463
 30
0.0
 10
125.9036813880284
 20
146.2433662961463
 30
0.0
 10
125.9036813880284
 20
146.2433662961463
 30
0.0
 10
125.8127308072182
 20
146.2433662961463
 30
0.0
 10
125.7431398325074
 20
146.2433662961463
 30
0.0
 10
125.7017986594118
 20
146.2433662961463
 30
0.0
 10
125.7017986594118
 20
146.2433662961463
 30
0.0
 10
125.7017986594118
 20
146.2433662961463
 30
0.0
 10
125.7017986594118
 20
146.2433662961463
 30
0.0
 10
125.6639025840742
 20
146.2433662961463
 30
0.0
 10
125.650811212594
 20
146.2433662961463
 30
0.0
 10
125.6377198411137
 20
146.2433662961463
 30
0.0
  0
ENDBLK
  5
45F
330
45C
100
AcDbEntity
  8
0
100
AcDbBlockEnd
  0
BLOCK
  5
463
330
461
100
AcDbEntity
  8
0
100
AcDbBlockBegin
  2
block 162
 70
     0
 71
     0
 10
0.0
 20
0.0
 30
0.0
  3
block 162
  1

  0
SPLINE
  5
465
330
461
100
AcDbEntity
  8
0
 62
     7
420
 16777215
370
     9
100
AcDbSpline
210
0.0
220
0.0
230
1.0
 70
     8
 71
     3
 72
    14
 73
    10
 74
     0
 42
0.0000000001
 43
0.0000000001
 40
0.0
 40
0.0
 40
0.0
 40
0.0
 40
1.0
 40
1.0
 40
1.0
 40
2.0
 40
2.0
 40
2.0
 40
3.0
 40
3.0
 40
3.0
 40
3.0
 10
156.5061402622263
 20
146.2433662961463
 30
0.0
 10
156.5364571224963
 20
146.2402657081641
 30
0.0
 10
156.5671184925422
 20
146.2375096299577
 30
0.0
 10
156.5926122159511
 20
146.2244182584775
 30
0.0
 10
156.5926122159511
 20
146.2244182584775
 30
0.0
 10
156.5926122159511
 20
146.2244182584775
 30
0.0
 10
156.5926122159511
 20
146.2244182584775
 30
0.0
 10
156.6122492731715
 20
146.2147719847552
 30
0.0
 10
156.6291302521855
 20
146.1989245350686
 30
0.0
 10
156.6460112311995
 20
146.183077085382
 30
0.0
  0
ENDBLK
  5
464
330
461
100
AcDbEntity
  8
0
100
AcDbBlockEnd
  0
BLOCK
  5
468
330
466
100
AcDbEntity
  8
0
100
AcDbBlockBegin
  2
block 163
 70
     0
 71
     0
 10
0.0
 20
0.0
 30
0.0
  3
block 163
  1

  0
SPLINE
  5
46A
330
466
100
AcDbEntity
  8
0
 62
     7
420
 16777215
370
     9
100
AcDbSpline
210
0.0
220
0.0
230
1.0
 70
     8
 71
     3
 72
    14
 73
    10
 74
     0
 42
0.0000000001
 43
0.0000000001
 40
0.0
 40
0.0
 40
0.0
 40
0.0
 40
1.0
 40
1.0
 40
1.0
 40
2.0
 40
2.0
 40
2.0
 40
3.0
 40
3.0
 40
3.0
 40
3.0
 10
156.6966541682415
 20
146.1145196399985
 30
0.0
 10
156.6994102464479
 20
146.1096965031374
 30
0.0
 10
156.7025108344301
 20
146.105217876052
 30
0.0
 10
156.7049224028607
 20
146.1003947391909
 30
0.0
 10
156.7049224028607
 20
146.1003947391909
 30
0.0
 10
156.7049224028607
 20
146.1003947391909
 30
0.0
 10
156.7049224028607
 20
146.1003947391909
 30
0.0
 10
156.7142241668072
 20
146.0797241526431
 30
0.0
 10
156.7149131863587
 20
146.0556084683374
 30
0.0
 10
156.7152576961345
 20
146.0321818035832
 30
0.0
  0
ENDBLK
  5
469
330
466
100
AcDbEntity
  8
0
100
AcDbBlockEnd
  0
BLOCK
  5
46D
330
46B
100
AcDbEntity
  8
0
100
AcDbBlockBegin
  2
block 164
 70
     0
 71
     0
 10
0.0
 20
0.0
 30
0.0
  3
block 164
  1

  0
SPLINE
  5
46F
330
46B
100
AcDbEntity
  8
0
 62
     7
420
 16777215
370
     9
100
AcDbSpline
210
0.0
220
0.0
230
1.0
 70
     8
 71
     3
 72
    14
 73
    10
 74
     0
 42
0.0000000001
 43
0.0000000001
 40
0.0
 40
0.0
 40
0.0
 40
0.0
 40
1.0
 40
1.0
 40
1.0
 40
2.0
 40
2.0
 40
2.0
 40
3.0
 40
3.0
 40
3.0
 40
3.0
 10
125.5140408316029
 20
146.2006470839476
 30
0.0
 10
125.5319553399443
 20
146.2127049261004
 30
0.0
 10
125.5502143580615
 20
146.2247627682533
 30
0.0
 10
125.5695069055061
 20
146.2316529637692
 30
0.0
 10
125.5695069055061
 20
146.2316529637692
 30
0.0
 10
125.5695069055061
 20
146.2316529637692
 30
0.0
 10
125.5695069055061
 20
146.2316529637692
 30
0.0
 10
125.5912110213813
 20
146.2395766886125
 30
0.0
 10
125.6142931763596
 20
146.2412992374915
 30
0.0
 10
125.6377198411137
 20
146.2433662961463
 30
0.0
  0
ENDBLK
  5
46E
330
46B
100
AcDbEntity
  8
0
100
AcDbBlockEnd
  0
BLOCK
  5
472
330
470
100
AcDbEntity
  8
0
100
AcDbBlockBegin
  2
block 165
 70
     0
 71
     0
 10
0.0
 20
0.0
 30
0.0
  3
block 165
  1

  0
SPLINE
  5
474
330
470
100
AcDbEntity
  8
0
 62
     7
420
 16777215
370
     9
100
AcDbSpline
210
0.0
220
0.0
230
1.0
 70
     8
 71
     3
 72
    14
 73
    10
 74
     0
 42
0.0000000001
 43
0.0000000001
 40
0.0
 40
0.0
 40
0.0
 40
0.0
 40
1.0
 40
1.0
 40
1.0
 40
2.0
 40
2.0
 40
2.0
 40
3.0
 40
3.0
 40
3.0
 40
3.0
 10
156.6825292674339
 20
142.2604887781668
 30
0.0
 10
156.6818402478823
 20
142.2294828983451
 30
0.0
 10
156.6808067185549
 20
142.1981325087477
 30
0.0
 10
156.6635812297651
 20
142.1750503537693
 30
0.0
 10
156.6635812297651
 20
142.1750503537693
 30
0.0
 10
156.6635812297651
 20
142.1750503537693
 30
0.0
 10
156.6635812297651
 20
142.1750503537693
 30
0.0
 10
156.6625477004377
 20
142.1736723146661
 30
0.0
 10
156.6622031906619
 20
142.1729832951146
 30
0.0
 10
156.6615141711103
 20
142.172294275563
 30
0.0
  0
ENDBLK
  5
473
330
470
100
AcDbEntity
  8
0
100
AcDbBlockEnd
  0
BLOCK
  5
477
330
475
100
AcDbEntity
  8
0
100
AcDbBlockBegin
  2
block 166
 70
     0
 71
     0
 10
0.0
 20
0.0
 30
0.0
  3
block 166
  1

  0
SPLINE
  5
479
330
475
100
AcDbEntity
  8
0
 62
     7
420
 16777215
370
     9
100
AcDbSpline
210
0.0
220
0.0
230
1.0
 70
    24
 71
     3
 72
   170
 73
   166
 74
     0
 42
0.0000000001
 43
0.0000000001
 40
0.0
 40
0.0
 40
0.0
 40
0.0
 40
1.0
 40
1.0
 40
1.0
 40
2.0
 40
2.0
 40
2.0
 40
3.0
 40
3.0
 40
3.0
 40
4.0
 40
4.0
 40
4.0
 40
5.0
 40
5.0
 40
5.0
 40
6.0
 40
6.0
 40
6.0
 40
7.0
 40
7.0
 40
7.0
 40
8.0
 40
8.0
 40
8.0
 40
9.0
 40
9.0
 40
9.0
 40
10.0
 40
10.0
 40
10.0
 40
11.0
 40
11.0
 40
11.0
 40
12.0
 40
12.0
 40
12.0
 40
13.0
 40
13.0
 40
13.0
 40
14.0
 40
14.0
 40
14.0
 40
15.0
 40
15.0
 40
15.0
 40
16.0
 40
16.0
 40
16.0
 40
17.0
 40
17.0
 40
17.0
 40
18.0
 40
18.0
 40
18.0
 40
19.0
 40
19.0
 40
19.0
 40
20.0
 40
20.0
 40
20.0
 40
21.0
 40
21.0
 40
21.0
 40
22.0
 40
22.0
 40
22.0
 40
23.0
 40
23.0
 40
23.0
 40
24.0
 40
24.0
 40
24.0
 40
25.0
 40
25.0
 40
25.0
 40
26.0
 40
26.0
 40
26.0
 40
27.0
 40
27.0
 40
27.0
 40
28.0
 40
28.0
 40
28.0
 40
29.0
 40
29.0
 40
29.0
 40
30.0
 40
30.0
 40
30.0
 40
31.0
 40
31.0
 40
31.0
 40
32.0
 40
32.0
 40
32.0
 40
33.0
 40
33.0
 40
33.0
 40
34.0
 40
34.0
 40
34.0
 40
35.0
 40
35.0
 40
35.0
 40
36.0
 40
36.0
 40
36.0
 40
37.0
 40
37.0
 40
37.0
 40
38.0
 40
38.0
 40
38.0
 40
39.0
 40
39.0
 40
39.0
 40
40.0
 40
40.0
 40
40.0
 40
41.0
 40
41.0
 40
41.0
 40
42.0
 40
42.0
 40
42.0
 40
43.0
 40
43.0
 40
43.0
 40
44.0
 40
44.0
 40
44.0
 40
45.0
 40
45.0
 40
45.0
 40
46.0
 40
46.0
 40
46.0
 40
47.0
 40
47.0
 40
47.0
 40
48.0
 40
48.0
 40
48.0
 40
49.0
 40
49.0
 40
49.0
 40
50.0
 40
50.0
 40
50.0
 40
51.0
 40
51.0
 40
51.0
 40
52.0
 40
52.0
 40
52.0
 40
53.0
 40
53.0
 40
53.0
 40
54.0
 40
54.0
 40
54.0
 40
55.0
 40
55.0
 40
55.0
 40
55.0
 10
125.6707927795902
 20
142.0530938931375
 30
0.0
 10
125.6835396412946
 20
142.0530938931375
 30
0.0
 10
125.6966310127749
 20
142.0530938931375
 30
0.0
 10
125.7348715978883
 20
142.0530938931375
 30
0.0
 10
125.7348715978883
 20
142.0530938931375
 30
0.0
 10
125.7348715978883
 20
142.0530938931375
 30
0.0
 10
125.7348715978883
 20
142.0530938931375
 30
0.0
 10
125.7755237514322
 20
142.0530938931375
 30
0.0
 10
125.8454592359188
 20
142.0530938931375
 30
0.0
 10
125.936409816729
 20
142.0530938931375
 30
0.0
 10
125.936409816729
 20
142.0530938931375
 30
0.0
 10
125.936409816729
 20
142.0530938931375
 30
0.0
 10
125.936409816729
 20
142.0530938931375
 30
0.0
 10
126.0325280441761
 20
142.0530938931375
 30
0.0
 10
126.1524174461532
 20
142.0530938931375
 30
0.0
 10
126.298145081315
 20
142.0530938931375
 30
0.0
 10
126.298145081315
 20
142.0530938931375
 30
0.0
 10
126.298145081315
 20
142.0530938931375
 30
0.0
 10
126.298145081315
 20
142.0530938931375
 30
0.0
 10
126.4597201661634
 20
142.0530938931375
 30
0.0
 10
126.6523011308335
 20
142.0530938931375
 30
0.0
 10
126.8741654264462
 20
142.0530938931375
 30
0.0
 10
126.8741654264462
 20
142.0530938931375
 30
0.0
 10
126.8741654264462
 20
142.0530938931375
 30
0.0
 10
126.8741654264462
 20
142.0530938931375
 30
0.0
 10
127.1129107010729
 20
142.0530938931375
 30
0.0
 10
127.3854179337277
 20
142.0530938931375
 30
0.0
 10
127.6896200657557
 20
142.0530938931375
 30
0.0
 10
127.6896200657557
 20
142.0530938931375
 30
0.0
 10
127.6896200657557
 20
142.0530938931375
 30
0.0
 10
127.6896200657557
 20
142.0530938931375
 30
0.0
 10
128.0158708234347
 20
142.0530938931375
 30
0.0
 10
128.3786396173481
 20
142.0530938931375
 30
0.0
 10
128.7751703692894
 20
142.0530938931375
 30
0.0
 10
128.7751703692894
 20
142.0530938931375
 30
0.0
 10
128.7751703692894
 20
142.0530938931375
 30
0.0
 10
128.7751703692894
 20
142.0530938931375
 30
0.0
 10
129.0917748532461
 20
142.0530938931375
 30
0.0
 10
129.430083453078
 20
142.0530938931375
 30
0.0
 10
129.788373619906
 20
142.0530938931375
 30
0.0
 10
129.788373619906
 20
142.0530938931375
 30
0.0
 10
129.788373619906
 20
142.0530938931375
 30
0.0
 10
129.788373619906
 20
142.0530938931375
 30
0.0
 10
130.1628557461964
 20
142.0530938931375
 30
0.0
 10
130.5593864981378
 20
142.0530938931375
 30
0.0
 10
130.9755543072996
 20
142.0530938931375
 30
0.0
 10
130.9755543072996
 20
142.0530938931375
 30
0.0
 10
130.9755543072996
 20
142.0530938931375
 30
0.0
 10
130.9755543072996
 20
142.0530938931375
 30
0.0
 10
131.4089476052511
 20
142.0530938931375
 30
0.0
 10
131.8630114897505
 20
142.0530938931375
 30
0.0
 10
132.3356789021429
 20
142.0530938931375
 30
0.0
 10
132.3356789021429
 20
142.0530938931375
 30
0.0
 10
132.3356789021429
 20
142.0530938931375
 30
0.0
 10
132.3356789021429
 20
142.0530938931375
 30
0.0
 10
132.8252272935492
 20
142.0530938931375
 30
0.0
 10
133.3347572519517
 20
142.0530938931375
 30
0.0
 10
133.8597901502651
 20
142.0530938931375
 30
0.0
 10
133.8597901502651
 20
142.0530938931375
 30
0.0
 10
133.8597901502651
 20
142.0530938931375
 30
0.0
 10
133.8597901502651
 20
142.0530938931375
 30
0.0
 10
134.4010150080409
 20
142.0530938931375
 30
0.0
 10
134.9591208448307
 20
142.0530938931375
 30
0.0
 10
135.5299735433249
 20
142.0530938931375
 30
0.0
 10
135.5299735433249
 20
142.0530938931375
 30
0.0
 10
135.5299735433249
 20
142.0530938931375
 30
0.0
 10
135.5299735433249
 20
142.0530938931375
 30
0.0
 10
136.114606632851
 20
142.0530938931375
 30
0.0
 10
136.7123310938574
 20
142.0530938931375
 30
0.0
 10
137.3200463383618
 20
142.0530938931375
 30
0.0
 10
137.3200463383618
 20
142.0530938931375
 30
0.0
 10
137.3200463383618
 20
142.0530938931375
 30
0.0
 10
137.3200463383618
 20
142.0530938931375
 30
0.0
 10
137.9367188370369
 20
142.0530938931375
 30
0.0
 10
138.5630376094344
 20
142.0530938931375
 30
0.0
 10
139.194179518693
 20
142.0530938931375
 30
0.0
 10
139.194179518693
 20
142.0530938931375
 30
0.0
 10
139.194179518693
 20
142.0530938931375
 30
0.0
 10
139.194179518693
 20
142.0530938931375
 30
0.0
 10
139.8301445648127
 20
142.0530938931375
 30
0.0
 10
140.4712772575694
 20
142.0530938931375
 30
0.0
 10
141.1120654405503
 20
142.0530938931375
 30
0.0
 10
141.1120654405503
 20
142.0530938931375
 30
0.0
 10
141.1120654405503
 20
142.0530938931375
 30
0.0
 10
141.1120654405503
 20
142.0530938931375
 30
0.0
 10
141.7531981333069
 20
142.0530938931375
 30
0.0
 10
142.3939863162878
 20
142.0530938931375
 30
0.0
 10
143.0296068526317
 20
142.0530938931375
 30
0.0
 10
143.0296068526317
 20
142.0530938931375
 30
0.0
 10
143.0296068526317
 20
142.0530938931375
 30
0.0
 10
143.0296068526317
 20
142.0530938931375
 30
0.0
 10
143.6604042521145
 20
142.0530938931375
 30
0.0
 10
144.2860340049604
 20
142.0530938931375
 30
0.0
 10
144.9020174840839
 20
142.0530938931375
 30
0.0
 10
144.9020174840839
 20
142.0530938931375
 30
0.0
 10
144.9020174840839
 20
142.0530938931375
 30
0.0
 10
144.9020174840839
 20
142.0530938931375
 30
0.0
 10
145.5083546894852
 20
142.0530938931375
 30
0.0
 10
146.1057346407157
 20
142.0530938931375
 30
0.0
 10
146.6886451813628
 20
142.0530938931375
 30
0.0
 10
146.6886451813628
 20
142.0530938931375
 30
0.0
 10
146.6886451813628
 20
142.0530938931375
 30
0.0
 10
146.6886451813628
 20
142.0530938931375
 30
0.0
 10
147.2588088603055
 20
142.0530938931375
 30
0.0
 10
147.8155366579921
 20
142.0530938931375
 30
0.0
 10
148.3550389668889
 20
142.0530938931375
 30
0.0
 10
148.3550389668889
 20
142.0530938931375
 30
0.0
 10
148.3550389668889
 20
142.0530938931375
 30
0.0
 10
148.3550389668889
 20
142.0530938931375
 30
0.0
 10
148.8790383358749
 20
142.0530938931375
 30
0.0
 10
149.3865012356226
 20
142.0530938931375
 30
0.0
 10
149.87432707815
 20
142.0530938931375
 30
0.0
 10
149.87432707815
 20
142.0530938931375
 30
0.0
 10
149.87432707815
 20
142.0530938931375
 30
0.0
 10
149.87432707815
 20
142.0530938931375
 30
0.0
 10
150.3452719416634
 20
142.0530938931375
 30
0.0
 10
150.7976132772837
 20
142.0530938931375
 30
0.0
 10
151.2292840263563
 20
142.0530938931375
 30
0.0
 10
151.2292840263563
 20
142.0530938931375
 30
0.0
 10
151.2292840263563
 20
142.0530938931375
 30
0.0
 10
151.2292840263563
 20
142.0530938931375
 30
0.0
 10
151.6430402670875
 20
142.0530938931375
 30
0.0
 10
152.0375039603742
 20
142.0530938931375
 30
0.0
 10
152.4102635377856
 20
142.0530938931375
 30
0.0
 10
152.4102635377856
 20
142.0530938931375
 30
0.0
 10
152.4102635377856
 20
142.0530938931375
 30
0.0
 10
152.4102635377856
 20
142.0530938931375
 30
0.0
 10
152.766142136183
 20
142.0530938931375
 30
0.0
 10
153.1023836773601
 20
142.0530938931375
 30
0.0
 10
153.416921102662
 20
142.0530938931375
 30
0.0
 10
153.416921102662
 20
142.0530938931375
 30
0.0
 10
153.416921102662
 20
142.0530938931375
 30
0.0
 10
153.416921102662
 20
142.0530938931375
 30
0.0
 10
153.8110402861728
 20
142.0530938931375
 30
0.0
 10
154.170708492104
 20
142.0530938931375
 30
0.0
 10
154.4938586618008
 20
142.0530938931375
 30
0.0
 10
154.4938586618008
 20
142.0530938931375
 30
0.0
 10
154.4938586618008
 20
142.0530938931375
 30
0.0
 10
154.4938586618008
 20
142.0530938931375
 30
0.0
 10
154.7956492253983
 20
142.0530938931375
 30
0.0
 10
155.0650558700709
 20
142.0530938931375
 30
0.0
 10
155.3007005567155
 20
142.0530938931375
 30
0.0
 10
155.3007005567155
 20
142.0530938931375
 30
0.0
 10
155.3007005567155
 20
142.0530938931375
 30
0.0
 10
155.3007005567155
 20
142.0530938931375
 30
0.0
 10
155.5198087741218
 20
142.0530938931375
 30
0.0
 10
155.7096336605855
 20
142.0530938931375
 30
0.0
 10
155.8684526672276
 20
142.0530938931375
 30
0.0
 10
155.8684526672276
 20
142.0530938931375
 30
0.0
 10
155.8684526672276
 20
142.0530938931375
 30
0.0
 10
155.8684526672276
 20
142.0530938931375
 30
0.0
 10
156.0110797144072
 20
142.0530938931375
 30
0.0
 10
156.1285575479536
 20
142.0530938931375
 30
0.0
 10
156.2222642069702
 20
142.0530938931375
 30
0.0
 10
156.2222642069702
 20
142.0530938931375
 30
0.0
 10
156.2222642069702
 20
142.0530938931375
 30
0.0
 10
156.2222642069702
 20
142.0530938931375
 30
0.0
 10
156.310458709574
 20
142.0530938931375
 30
0.0
 10
156.3776381158543
 20
142.0530938931375
 30
0.0
 10
156.4162232107435
 20
142.0530938931375
 30
0.0
 10
156.4162232107435
 20
142.0530938931375
 30
0.0
 10
156.4162232107435
 20
142.0530938931375
 30
0.0
 10
156.4162232107435
 20
142.0530938931375
 30
0.0
 10
156.4520522274263
 20
142.0530938931375
 30
0.0
 10
156.4623875207001
 20
142.0530938931375
 30
0.0
 10
156.4730673237498
 20
142.0530938931375
 30
0.0
  0
ENDBLK
  5
478
330
475
100
AcDbEntity
  8
0
100
AcDbBlockEnd
  0
BLOCK
  5
47C
330
47A
100
AcDbEntity
  8
0
100
AcDbBlockBegin
  2
block 167
 70
     0
 71
     0
 10
0.0
 20
0.0
 30
0.0
  3
block 167
  1

  0
SPLINE
  5
47E
330
47A
100
AcDbEntity
  8
0
 62
     7
420
 16777215
370
     9
100
AcDbSpline
210
0.0
220
0.0
230
1.0
 70
     8
 71
     3
 72
    20
 73
    16
 74
     0
 42
0.0000000001
 43
0.0000000001
 40
0.0
 40
0.0
 40
0.0
 40
0.0
 40
1.0
 40
1.0
 40
1.0
 40
2.0
 40
2.0
 40
2.0
 40
3.0
 40
3.0
 40
3.0
 40
4.0
 40
4.0
 40
4.0
 40
5.0
 40
5.0
 40
5.0
 40
5.0
 10
125.5502143580615
 20
142.0975356542152
 30
0.0
 10
125.5357449474781
 20
142.1071819279375
 30
0.0
 10
125.5212755368946
 20
142.1168282016598
 30
0.0
 10
125.5092176947418
 20
142.1288860438127
 30
0.0
 10
125.5092176947418
 20
142.1288860438127
 30
0.0
 10
125.5092176947418
 20
142.1288860438127
 30
0.0
 10
125.5092176947418
 20
142.1288860438127
 30
0.0
 10
125.4923367157277
 20
142.1464560423782
 30
0.0
 10
125.4799343637991
 20
142.1695381973566
 30
0.0
 10
125.4730441682832
 20
142.1933093718865
 30
0.0
 10
125.4730441682832
 20
142.1933093718865
 30
0.0
 10
125.4730441682832
 20
142.1933093718865
 30
0.0
 10
125.4730441682832
 20
142.1933093718865
 30
0.0
 10
125.4661539727672
 20
142.2150134877617
 30
0.0
 10
125.4637424043367
 20
142.2377511329642
 30
0.0
 10
125.4613308359061
 20
142.2604887781668
 30
0.0
  0
ENDBLK
  5
47D
330
47A
100
AcDbEntity
  8
0
100
AcDbBlockEnd
  0
BLOCK
  5
481
330
47F
100
AcDbEntity
  8
0
100
AcDbBlockBegin
  2
block 168
 70
     0
 71
     0
 10
0.0
 20
0.0
 30
0.0
  3
block 168
  1

  0
SPLINE
  5
483
330
47F
100
AcDbEntity
  8
0
 62
     7
420
 16777215
370
     9
100
AcDbSpline
210
0.0
220
0.0
230
1.0
 70
     8
 71
     3
 72
    14
 73
    10
 74
     0
 42
0.0000000001
 43
0.0000000001
 40
0.0
 40
0.0
 40
0.0
 40
0.0
 40
1.0
 40
1.0
 40
1.0
 40
2.0
 40
2.0
 40
2.0
 40
3.0
 40
3.0
 40
3.0
 40
3.0
 10
154.0680445789168
 20
99.93436223362527
 30
0.0
 10
154.062532422504
 20
99.8416891039361
 30
0.0
 10
154.0570202660913
 20
99.74936048402273
 30
0.0
 10
154.010166936583
 20
99.67701343110554
 30
0.0
 10
154.010166936583
 20
99.67701343110554
 30
0.0
 10
154.010166936583
 20
99.67701343110554
 30
0.0
 10
154.010166936583
 20
99.67701343110554
 30
0.0
 10
153.9984536042059
 20
99.65875441298833
 30
0.0
 10
153.9843287033983
 20
99.64187343397433
 30
0.0
 10
153.9698592928149
 20
99.6253369647361
 30
0.0
  0
ENDBLK
  5
482
330
47F
100
AcDbEntity
  8
0
100
AcDbBlockEnd
  0
BLOCK
  5
486
330
484
100
AcDbEntity
  8
0
100
AcDbBlockBegin
  2
block 169
 70
     0
 71
     0
 10
0.0
 20
0.0
 30
0.0
  3
block 169
  1

  0
SPLINE
  5
488
330
484
100
AcDbEntity
  8
0
 62
     7
420
 16777215
370
     9
100
AcDbSpline
210
0.0
220
0.0
230
1.0
 70
     8
 71
     3
 72
    14
 73
    10
 74
     0
 42
0.0000000001
 43
0.0000000001
 40
0.0
 40
0.0
 40
0.0
 40
0.0
 40
1.0
 40
1.0
 40
1.0
 40
2.0
 40
2.0
 40
2.0
 40
3.0
 40
3.0
 40
3.0
 40
3.0
 10
153.8265432260837
 20
99.44756992042528
 30
0.0
 10
153.7669430348709
 20
99.40760678643292
 30
0.0
 10
153.7073428436582
 20
99.36798816221636
 30
0.0
 10
153.6415414764811
 20
99.34525051701382
 30
0.0
 10
153.6415414764811
 20
99.34525051701382
 30
0.0
 10
153.6415414764811
 20
99.34525051701382
 30
0.0
 10
153.6415414764811
 20
99.34525051701382
 30
0.0
 10
153.5781516777346
 20
99.32320189136287
 30
0.0
 10
153.5085607030238
 20
99.31734522517434
 30
0.0
 10
153.4393142380888
 20
99.31183306876159
 30
0.0
  0
ENDBLK
  5
487
330
484
100
AcDbEntity
  8
0
100
AcDbBlockEnd
  0
BLOCK
  5
48B
330
489
100
AcDbEntity
  8
0
100
AcDbBlockBegin
  2
block 170
 70
     0
 71
     0
 10
0.0
 20
0.0
 30
0.0
  3
block 170
  1

  0
SPLINE
  5
48D
330
489
100
AcDbEntity
  8
0
 62
     7
420
 16777215
370
     9
100
AcDbSpline
210
0.0
220
0.0
230
1.0
 70
    24
 71
     3
 72
   170
 73
   166
 74
     0
 42
0.0000000001
 43
0.0000000001
 40
0.0
 40
0.0
 40
0.0
 40
0.0
 40
1.0
 40
1.0
 40
1.0
 40
2.0
 40
2.0
 40
2.0
 40
3.0
 40
3.0
 40
3.0
 40
4.0
 40
4.0
 40
4.0
 40
5.0
 40
5.0
 40
5.0
 40
6.0
 40
6.0
 40
6.0
 40
7.0
 40
7.0
 40
7.0
 40
8.0
 40
8.0
 40
8.0
 40
9.0
 40
9.0
 40
9.0
 40
10.0
 40
10.0
 40
10.0
 40
11.0
 40
11.0
 40
11.0
 40
12.0
 40
12.0
 40
12.0
 40
13.0
 40
13.0
 40
13.0
 40
14.0
 40
14.0
 40
14.0
 40
15.0
 40
15.0
 40
15.0
 40
16.0
 40
16.0
 40
16.0
 40
17.0
 40
17.0
 40
17.0
 40
18.0
 40
18.0
 40
18.0
 40
19.0
 40
19.0
 40
19.0
 40
20.0
 40
20.0
 40
20.0
 40
21.0
 40
21.0
 40
21.0
 40
22.0
 40
22.0
 40
22.0
 40
23.0
 40
23.0
 40
23.0
 40
24.0
 40
24.0
 40
24.0
 40
25.0
 40
25.0
 40
25.0
 40
26.0
 40
26.0
 40
26.0
 40
27.0
 40
27.0
 40
27.0
 40
28.0
 40
28.0
 40
28.0
 40
29.0
 40
29.0
 40
29.0
 40
30.0
 40
30.0
 40
30.0
 40
31.0
 40
31.0
 40
31.0
 40
32.0
 40
32.0
 40
32.0
 40
33.0
 40
33.0
 40
33.0
 40
34.0
 40
34.0
 40
34.0
 40
35.0
 40
35.0
 40
35.0
 40
36.0
 40
36.0
 40
36.0
 40
37.0
 40
37.0
 40
37.0
 40
38.0
 40
38.0
 40
38.0
 40
39.0
 40
39.0
 40
39.0
 40
40.0
 40
40.0
 40
40.0
 40
41.0
 40
41.0
 40
41.0
 40
42.0
 40
42.0
 40
42.0
 40
43.0
 40
43.0
 40
43.0
 40
44.0
 40
44.0
 40
44.0
 40
45.0
 40
45.0
 40
45.0
 40
46.0
 40
46.0
 40
46.0
 40
47.0
 40
47.0
 40
47.0
 40
48.0
 40
48.0
 40
48.0
 40
49.0
 40
49.0
 40
49.0
 40
50.0
 40
50.0
 40
50.0
 40
51.0
 40
51.0
 40
51.0
 40
52.0
 40
52.0
 40
52.0
 40
53.0
 40
53.0
 40
53.0
 40
54.0
 40
54.0
 40
54.0
 40
55.0
 40
55.0
 40
55.0
 40
55.0
 10
128.7045458652512
 20
99.31183306876159
 30
0.0
 10
128.7148811585251
 20
99.31183306876159
 30
0.0
 10
128.725216451799
 20
99.31183306876159
 30
0.0
 10
128.7558778218448
 20
99.31183306876159
 30
0.0
 10
128.7558778218448
 20
99.31183306876159
 30
0.0
 10
128.7558778218448
 20
99.31183306876159
 30
0.0
 10
128.7558778218448
 20
99.31183306876159
 30
0.0
 10
128.7886062505455
 20
99.31183306876159
 30
0.0
 10
128.8447613440003
 20
99.31183306876159
 30
0.0
 10
128.9174529066933
 20
99.31183306876159
 30
0.0
 10
128.9174529066933
 20
99.31183306876159
 30
0.0
 10
128.9174529066933
 20
99.31183306876159
 30
0.0
 10
128.9174529066933
 20
99.31183306876159
 30
0.0
 10
128.9949676062474
 20
99.31183306876159
 30
0.0
 10
129.0914303434703
 20
99.31183306876159
 30
0.0
 10
129.2082191574652
 20
99.31183306876159
 30
0.0
 10
129.2082191574652
 20
99.31183306876159
 30
0.0
 10
129.2082191574652
 20
99.31183306876159
 30
0.0
 10
129.2082191574652
 20
99.31183306876159
 30
0.0
 10
129.3398218918194
 20
99.31183306876159
 30
0.0
 10
129.4969183495824
 20
99.31183306876159
 30
0.0
 10
129.678475001427
 20
99.31183306876159
 30
0.0
 10
129.678475001427
 20
99.31183306876159
 30
0.0
 10
129.678475001427
 20
99.31183306876159
 30
0.0
 10
129.678475001427
 20
99.31183306876159
 30
0.0
 10
129.8682998878907
 20
99.31183306876159
 30
0.0
 10
130.0843075173149
 20
99.31183306876159
 30
0.0
 10
130.325808870148
 20
99.31183306876159
 30
0.0
 10
130.325808870148
 20
99.31183306876159
 30
0.0
 10
130.325808870148
 20
99.31183306876159
 30
0.0
 10
130.325808870148
 20
99.31183306876159
 30
0.0
 10
130.5876362997531
 20
99.31183306876159
 30
0.0
 10
130.8790915700766
 20
99.31183306876159
 30
0.0
 10
131.1974186029123
 20
99.31183306876159
 30
0.0
 10
131.1974186029123
 20
99.31183306876159
 30
0.0
 10
131.1974186029123
 20
99.31183306876159
 30
0.0
 10
131.1974186029123
 20
99.31183306876159
 30
0.0
 10
131.4516668174499
 20
99.31183306876159
 30
0.0
 10
131.7231405207773
 20
99.31183306876159
 30
0.0
 10
132.0108061835671
 20
99.31183306876159
 30
0.0
 10
132.0108061835671
 20
99.31183306876159
 30
0.0
 10
132.0108061835671
 20
99.31183306876159
 30
0.0
 10
132.0108061835671
 20
99.31183306876159
 30
0.0
 10
132.3119077276129
 20
99.31183306876159
 30
0.0
 10
132.6302347604486
 20
99.31183306876159
 30
0.0
 10
132.9644092429708
 20
99.31183306876159
 30
0.0
 10
132.9644092429708
 20
99.31183306876159
 30
0.0
 10
132.9644092429708
 20
99.31183306876159
 30
0.0
 10
132.9644092429708
 20
99.31183306876159
 30
0.0
 10
133.3120196067492
 20
99.31183306876159
 30
0.0
 10
133.6768554593173
 20
99.31183306876159
 30
0.0
 10
134.0565052322447
 20
99.31183306876159
 30
0.0
 10
134.0565052322447
 20
99.31183306876159
 30
0.0
 10
134.0565052322447
 20
99.31183306876159
 30
0.0
 10
134.0565052322447
 20
99.31183306876159
 30
0.0
 10
134.4495908864282
 20
99.31183306876159
 30
0.0
 10
134.8585239902982
 20
99.31183306876159
 30
0.0
 10
135.2805484656485
 20
99.31183306876159
 30
0.0
 10
135.2805484656485
 20
99.31183306876159
 30
0.0
 10
135.2805484656485
 20
99.31183306876159
 30
0.0
 10
135.2805484656485
 20
99.31183306876159
 30
0.0
 10
135.7146307831517
 20
99.31183306876159
 30
0.0
 10
136.1631825112383
 20
99.31183306876159
 30
0.0
 10
136.621725022823
 20
99.31183306876159
 30
0.0
 10
136.621725022823
 20
99.31183306876159
 30
0.0
 10
136.621725022823
 20
99.31183306876159
 30
0.0
 10
136.621725022823
 20
99.31183306876159
 30
0.0
 10
137.0909473374574
 20
99.31183306876159
 30
0.0
 10
137.5711939649172
 20
99.31183306876159
 30
0.0
 10
138.0586752976688
 20
99.31183306876159
 30
0.0
 10
138.0586752976688
 20
99.31183306876159
 30
0.0
 10
138.0586752976688
 20
99.31183306876159
 30
0.0
 10
138.0586752976688
 20
99.31183306876159
 30
0.0
 10
138.5540803552637
 20
99.31183306876159
 30
0.0
 10
139.0570646279261
 20
99.31183306876159
 30
0.0
 10
139.5641830178981
 20
99.31183306876159
 30
0.0
 10
139.5641830178981
 20
99.31183306876159
 30
0.0
 10
139.5641830178981
 20
99.31183306876159
 30
0.0
 10
139.5641830178981
 20
99.31183306876159
 30
0.0
 10
140.0750910154038
 20
99.31183306876159
 30
0.0
 10
140.5897886204433
 20
99.31183306876159
 30
0.0
 10
141.1041417157069
 20
99.31183306876159
 30
0.0
 10
141.1041417157069
 20
99.31183306876159
 30
0.0
 10
141.1041417157069
 20
99.31183306876159
 30
0.0
 10
141.1041417157069
 20
99.31183306876159
 30
0.0
 10
141.6188393207464
 20
99.31183306876159
 30
0.0
 10
142.1335369257859
 20
99.31183306876159
 30
0.0
 10
142.64375590374
 20
99.31183306876159
 30
0.0
 10
142.64375590374
 20
99.31183306876159
 30
0.0
 10
142.64375590374
 20
99.31183306876159
 30
0.0
 10
142.64375590374
 20
99.31183306876159
 30
0.0
 10
143.1505297839362
 20
99.31183306876159
 30
0.0
 10
143.652825037047
 20
99.31183306876159
 30
0.0
 10
144.1475410750903
 20
99.31183306876159
 30
0.0
 10
144.1475410750903
 20
99.31183306876159
 30
0.0
 10
144.1475410750903
 20
99.31183306876159
 30
0.0
 10
144.1475410750903
 20
99.31183306876159
 30
0.0
 10
144.6346778980661
 20
99.31183306876159
 30
0.0
 10
145.1142355059743
 20
99.31183306876159
 30
0.0
 10
145.5824242912813
 20
99.31183306876159
 30
0.0
 10
145.5824242912813
 20
99.31183306876159
 30
0.0
 10
145.5824242912813
 20
99.31183306876159
 30
0.0
 10
145.5824242912813
 20
99.31183306876159
 30
0.0
 10
146.0402777833145
 20
99.31183306876159
 30
0.0
 10
146.4874514722979
 20
99.31183306876159
 30
0.0
 10
146.9201557506979
 20
99.31183306876159
 30
0.0
 10
146.9201557506979
 20
99.31183306876159
 30
0.0
 10
146.9201557506979
 20
99.31183306876159
 30
0.0
 10
146.9201557506979
 20
99.31183306876159
 30
0.0
 10
147.3411466967208
 20
99.31183306876159
 30
0.0
 10
147.7487017614876
 20
99.31183306876159
 30
0.0
 10
148.1404093765679
 20
99.31183306876159
 30
0.0
 10
148.1404093765679
 20
99.31183306876159
 30
0.0
 10
148.1404093765679
 20
99.31183306876159
 30
0.0
 10
148.1404093765679
 20
99.31183306876159
 30
0.0
 10
148.5186811103921
 20
99.31183306876159
 30
0.0
 10
148.8817944140812
 20
99.31183306876159
 30
0.0
 10
149.2283712485322
 20
99.31183306876159
 30
0.0
 10
149.2283712485322
 20
99.31183306876159
 30
0.0
 10
149.2283712485322
 20
99.31183306876159
 30
0.0
 10
149.2283712485322
 20
99.31183306876159
 30
0.0
 10
149.5608231821755
 20
99.31183306876159
 30
0.0
 10
149.8774276661322
 20
99.31183306876159
 30
0.0
 10
150.1771511710749
 20
99.31183306876159
 30
0.0
 10
150.1771511710749
 20
99.31183306876159
 30
0.0
 10
150.1771511710749
 20
99.31183306876159
 30
0.0
 10
150.1771511710749
 20
99.31183306876159
 30
0.0
 10
150.4627497752099
 20
99.31183306876159
 30
0.0
 10
150.7328454394341
 20
99.31183306876159
 30
0.0
 10
150.9853711050926
 20
99.31183306876159
 30
0.0
 10
150.9853711050926
 20
99.31183306876159
 30
0.0
 10
150.9853711050926
 20
99.31183306876159
 30
0.0
 10
150.9853711050926
 20
99.31183306876159
 30
0.0
 10
151.3016310792735
 20
99.31183306876159
 30
0.0
 10
151.5906747811665
 20
99.31183306876159
 30
0.0
 10
151.850090642341
 20
99.31183306876159
 30
0.0
 10
151.850090642341
 20
99.31183306876159
 30
0.0
 10
151.850090642341
 20
99.31183306876159
 30
0.0
 10
151.850090642341
 20
99.31183306876159
 30
0.0
 10
152.0891804267436
 20
99.31183306876159
 30
0.0
 10
152.3027764877372
 20
99.31183306876159
 30
0.0
 10
152.4901898057703
 20
99.31183306876159
 30
0.0
 10
152.4901898057703
 20
99.31183306876159
 30
0.0
 10
152.4901898057703
 20
99.31183306876159
 30
0.0
 10
152.4901898057703
 20
99.31183306876159
 30
0.0
 10
152.6696793989601
 20
99.31183306876159
 30
0.0
 10
152.8247087980684
 20
99.31183306876159
 30
0.0
 10
152.953899963992
 20
99.31183306876159
 30
0.0
 10
152.953899963992
 20
99.31183306876159
 30
0.0
 10
152.953899963992
 20
99.31183306876159
 30
0.0
 10
152.953899963992
 20
99.31183306876159
 30
0.0
 10
153.0682772095563
 20
99.31183306876159
 30
0.0
 10
153.1626728881244
 20
99.31183306876159
 30
0.0
 10
153.2381205290238
 20
99.31183306876159
 30
0.0
 10
153.2381205290238
 20
99.31183306876159
 30
0.0
 10
153.2381205290238
 20
99.31183306876159
 30
0.0
 10
153.2381205290238
 20
99.31183306876159
 30
0.0
 10
153.308745033062
 20
99.31183306876159
 30
0.0
 10
153.362833067862
 20
99.31183306876159
 30
0.0
 10
153.3934944379079
 20
99.31183306876159
 30
0.0
 10
153.3934944379079
 20
99.31183306876159
 30
0.0
 10
153.3934944379079
 20
99.31183306876159
 30
0.0
 10
153.3934944379079
 20
99.31183306876159
 30
0.0
 10
153.4224332590748
 20
99.31183306876159
 30
0.0
 10
153.4310460034696
 20
99.31183306876159
 30
0.0
 10
153.4393142380888
 20
99.31183306876159
 30
0.0
  0
ENDBLK
  5
48C
330
489
100
AcDbEntity
  8
0
100
AcDbBlockEnd
  0
BLOCK
  5
490
330
48E
100
AcDbEntity
  8
0
100
AcDbBlockBegin
  2
block 171
 70
     0
 71
     0
 10
0.0
 20
0.0
 30
0.0
  3
block 171
  1

  0
POLYLINE
  5
492
330
48E
100
AcDbEntity
  8
0
 62
     7
420
 16777215
370
     9
100
AcDb2dPolyline
 66
     1
 10
0.0
 20
0.0
 30
0.0
  0
VERTEX
  5
493
330
492
100
AcDbEntity
  8
0
 62
     7
420
 16777215
370
     9
100
AcDbVertex
100
AcDb2dVertex
 10
128.7045458652512
 20
99.31183306876159
 30
0.0
  0
VERTEX
  5
494
330
492
100
AcDbEntity
  8
0
 62
     7
420
 16777215
370
     9
100
AcDbVertex
100
AcDb2dVertex
 10
128.4892272553786
 20
99.35799737871828
 30
0.0
  0
SEQEND
  5
495
330
492
100
AcDbEntity
  8
0
370
     9
  0
ENDBLK
  5
491
330
48E
100
AcDbEntity
  8
0
100
AcDbBlockEnd
  0
BLOCK
  5
498
330
496
100
AcDbEntity
  8
0
100
AcDbBlockBegin
  2
block 172
 70
     0
 71
     0
 10
0.0
 20
0.0
 30
0.0
  3
block 172
  1

  0
SPLINE
  5
49A
330
496
100
AcDbEntity
  8
0
 62
     7
420
 16777215
370
     9
100
AcDbSpline
210
0.0
220
0.0
230
1.0
 70
     8
 71
     3
 72
    26
 73
    22
 74
     0
 42
0.0000000001
 43
0.0000000001
 40
0.0
 40
0.0
 40
0.0
 40
0.0
 40
1.0
 40
1.0
 40
1.0
 40
2.0
 40
2.0
 40
2.0
 40
3.0
 40
3.0
 40
3.0
 40
4.0
 40
4.0
 40
4.0
 40
5.0
 40
5.0
 40
5.0
 40
6.0
 40
6.0
 40
6.0
 40
7.0
 40
7.0
 40
7.0
 40
7.0
 10
157.0211823770415
 20
135.5597736389313
 30
0.0
 10
157.0177372792836
 20
135.529801288437
 30
0.0
 10
157.0139476717498
 20
135.5001734477186
 30
0.0
 10
157.0029233589243
 20
135.4729571754307
 30
0.0
 10
157.0029233589243
 20
135.4729571754307
 30
0.0
 10
157.0029233589243
 20
135.4729571754307
 30
0.0
 10
157.0029233589243
 20
135.4729571754307
 30
0.0
 10
156.9908655167715
 20
135.4433293347122
 30
0.0
 10
156.9701949302237
 20
135.4171465917517
 30
0.0
 10
156.9450457165906
 20
135.3961314954281
 30
0.0
 10
156.9450457165906
 20
135.3961314954281
 30
0.0
 10
156.9450457165906
 20
135.3961314954281
 30
0.0
 10
156.9450457165906
 20
135.3961314954281
 30
0.0
 10
156.9254086593702
 20
135.3802840457415
 30
0.0
 10
156.9033600337193
 20
135.3671926742612
 30
0.0
 10
156.8795888591893
 20
135.3599579689695
 30
0.0
 10
156.8795888591893
 20
135.3599579689695
 30
0.0
 10
156.8795888591893
 20
135.3599579689695
 30
0.0
 10
156.8795888591893
 20
135.3599579689695
 30
0.0
 10
156.8578847433141
 20
135.3527232636778
 30
0.0
 10
156.8348025883358
 20
135.350656205023
 30
0.0
 10
156.8117204333575
 20
135.3482446365925
 30
0.0
  0
ENDBLK
  5
499
330
496
100
AcDbEntity
  8
0
100
AcDbBlockEnd
  0
BLOCK
  5
49D
330
49B
100
AcDbEntity
  8
0
100
AcDbBlockBegin
  2
block 173
 70
     0
 71
     0
 10
0.0
 20
0.0
 30
0.0
  3
block 173
  1

  0
SPLINE
  5
49F
330
49B
100
AcDbEntity
  8
0
 62
     7
420
 16777215
370
     9
100
AcDbSpline
210
0.0
220
0.0
230
1.0
 70
    24
 71
     3
 72
   170
 73
   166
 74
     0
 42
0.0000000001
 43
0.0000000001
 40
0.0
 40
0.0
 40
0.0
 40
0.0
 40
1.0
 40
1.0
 40
1.0
 40
2.0
 40
2.0
 40
2.0
 40
3.0
 40
3.0
 40
3.0
 40
4.0
 40
4.0
 40
4.0
 40
5.0
 40
5.0
 40
5.0
 40
6.0
 40
6.0
 40
6.0
 40
7.0
 40
7.0
 40
7.0
 40
8.0
 40
8.0
 40
8.0
 40
9.0
 40
9.0
 40
9.0
 40
10.0
 40
10.0
 40
10.0
 40
11.0
 40
11.0
 40
11.0
 40
12.0
 40
12.0
 40
12.0
 40
13.0
 40
13.0
 40
13.0
 40
14.0
 40
14.0
 40
14.0
 40
15.0
 40
15.0
 40
15.0
 40
16.0
 40
16.0
 40
16.0
 40
17.0
 40
17.0
 40
17.0
 40
18.0
 40
18.0
 40
18.0
 40
19.0
 40
19.0
 40
19.0
 40
20.0
 40
20.0
 40
20.0
 40
21.0
 40
21.0
 40
21.0
 40
22.0
 40
22.0
 40
22.0
 40
23.0
 40
23.0
 40
23.0
 40
24.0
 40
24.0
 40
24.0
 40
25.0
 40
25.0
 40
25.0
 40
26.0
 40
26.0
 40
26.0
 40
27.0
 40
27.0
 40
27.0
 40
28.0
 40
28.0
 40
28.0
 40
29.0
 40
29.0
 40
29.0
 40
30.0
 40
30.0
 40
30.0
 40
31.0
 40
31.0
 40
31.0
 40
32.0
 40
32.0
 40
32.0
 40
33.0
 40
33.0
 40
33.0
 40
34.0
 40
34.0
 40
34.0
 40
35.0
 40
35.0
 40
35.0
 40
36.0
 40
36.0
 40
36.0
 40
37.0
 40
37.0
 40
37.0
 40
38.0
 40
38.0
 40
38.0
 40
39.0
 40
39.0
 40
39.0
 40
40.0
 40
40.0
 40
40.0
 40
41.0
 40
41.0
 40
41.0
 40
42.0
 40
42.0
 40
42.0
 40
43.0
 40
43.0
 40
43.0
 40
44.0
 40
44.0
 40
44.0
 40
45.0
 40
45.0
 40
45.0
 40
46.0
 40
46.0
 40
46.0
 40
47.0
 40
47.0
 40
47.0
 40
48.0
 40
48.0
 40
48.0
 40
49.0
 40
49.0
 40
49.0
 40
50.0
 40
50.0
 40
50.0
 40
51.0
 40
51.0
 40
51.0
 40
52.0
 40
52.0
 40
52.0
 40
53.0
 40
53.0
 40
53.0
 40
54.0
 40
54.0
 40
54.0
 40
55.0
 40
55.0
 40
55.0
 40
55.0
 10
125.3321396699825
 20
135.3482446365925
 30
0.0
 10
125.3545328054093
 20
135.3482446365925
 30
0.0
 10
125.3772704506118
 20
135.3482446365925
 30
0.0
 10
125.4485839742016
 20
135.3482446365925
 30
0.0
 10
125.4485839742016
 20
135.3482446365925
 30
0.0
 10
125.4485839742016
 20
135.3482446365925
 30
0.0
 10
125.4485839742016
 20
135.3482446365925
 30
0.0
 10
125.5226535759978
 20
135.3482446365925
 30
0.0
 10
125.6494331734908
 20
135.3482446365925
 30
0.0
 10
125.8137643365456
 20
135.3482446365925
 30
0.0
 10
125.8137643365456
 20
135.3482446365925
 30
0.0
 10
125.8137643365456
 20
135.3482446365925
 30
0.0
 10
125.8137643365456
 20
135.3482446365925
 30
0.0
 10
125.9842966755647
 20
135.3482446365925
 30
0.0
 10
126.1944476388003
 20
135.3482446365925
 30
0.0
 10
126.4473178142347
 20
135.3482446365925
 30
0.0
 10
126.4473178142347
 20
135.3482446365925
 30
0.0
 10
126.4473178142347
 20
135.3482446365925
 30
0.0
 10
126.4473178142347
 20
135.3482446365925
 30
0.0
 10
126.6419658375596
 20
135.3482446365925
 30
0.0
 10
126.8617630745175
 20
135.3482446365925
 30
0.0
 10
127.1053314860054
 20
135.3482446365925
 30
0.0
 10
127.1053314860054
 20
135.3482446365925
 30
0.0
 10
127.1053314860054
 20
135.3482446365925
 30
0.0
 10
127.1053314860054
 20
135.3482446365925
 30
0.0
 10
127.3520004854755
 20
135.3482446365925
 30
0.0
 10
127.6231296790271
 20
135.3482446365925
 30
0.0
 10
127.9169965177812
 20
135.3482446365925
 30
0.0
 10
127.9169965177812
 20
135.3482446365925
 30
0.0
 10
127.9169965177812
 20
135.3482446365925
 30
0.0
 10
127.9169965177812
 20
135.3482446365925
 30
0.0
 10
128.2136194347417
 20
135.3482446365925
 30
0.0
 10
128.5336690164563
 20
135.3482446365925
 30
0.0
 10
128.8757672238219
 20
135.3482446365925
 30
0.0
 10
128.8757672238219
 20
135.3482446365925
 30
0.0
 10
128.8757672238219
 20
135.3482446365925
 30
0.0
 10
128.8757672238219
 20
135.3482446365925
 30
0.0
 10
129.2192434702907
 20
135.3482446365925
 30
0.0
 10
129.5837348130831
 20
135.3482446365925
 30
0.0
 10
129.9688967424232
 20
135.3482446365925
 30
0.0
 10
129.9688967424232
 20
135.3482446365925
 30
0.0
 10
129.9688967424232
 20
135.3482446365925
 30
0.0
 10
129.9688967424232
 20
135.3482446365925
 30
0.0
 10
130.3533696522117
 20
135.3482446365925
 30
0.0
 10
130.7578241289964
 20
135.3482446365925
 30
0.0
 10
131.1798486043467
 20
135.3482446365925
 30
0.0
 10
131.1798486043467
 20
135.3482446365925
 30
0.0
 10
131.1798486043467
 20
135.3482446365925
 30
0.0
 10
131.1798486043467
 20
135.3482446365925
 30
0.0
 10
131.5991170014906
 20
135.3482446365925
 30
0.0
 10
132.0359553972002
 20
135.3482446365925
 30
0.0
 10
132.4879522230447
 20
135.3482446365925
 30
0.0
 10
132.4879522230447
 20
135.3482446365925
 30
0.0
 10
132.4879522230447
 20
135.3482446365925
 30
0.0
 10
132.4879522230447
 20
135.3482446365925
 30
0.0
 10
132.9347814022524
 20
135.3482446365925
 30
0.0
 10
133.396769011595
 20
135.3482446365925
 30
0.0
 10
133.8704699533148
 20
135.3482446365925
 30
0.0
 10
133.8704699533148
 20
135.3482446365925
 30
0.0
 10
133.8704699533148
 20
135.3482446365925
 30
0.0
 10
133.8704699533148
 20
135.3482446365925
 30
0.0
 10
134.3369361897428
 20
135.3482446365925
 30
0.0
 10
134.8151157585479
 20
135.3482446365925
 30
0.0
 10
135.3029416010752
 20
135.3482446365925
 30
0.0
 10
135.3029416010752
 20
135.3482446365925
 30
0.0
 10
135.3029416010752
 20
135.3482446365925
 30
0.0
 10
135.3029416010752
 20
135.3482446365925
 30
0.0
 10
135.9358060592128
 20
135.3482446365925
 30
0.0
 10
136.5848624768128
 20
135.3482446365925
 30
0.0
 10
137.2445986974625
 20
135.3482446365925
 30
0.0
 10
137.2445986974625
 20
135.3482446365925
 30
0.0
 10
137.2445986974625
 20
135.3482446365925
 30
0.0
 10
137.2445986974625
 20
135.3482446365925
 30
0.0
 10
137.8822862924612
 20
135.3482446365925
 30
0.0
 10
138.5292756514064
 20
135.3482446365925
 30
0.0
 10
139.1817771667643
 20
135.3482446365925
 30
0.0
 10
139.1817771667643
 20
135.3482446365925
 30
0.0
 10
139.1817771667643
 20
135.3482446365925
 30
0.0
 10
139.1817771667643
 20
135.3482446365925
 30
0.0
 10
139.8087849587133
 20
135.3482446365925
 30
0.0
 10
140.4399268679719
 20
135.3482446365925
 30
0.0
 10
141.0717577967821
 20
135.3482446365925
 30
0.0
 10
141.0717577967821
 20
135.3482446365925
 30
0.0
 10
141.0717577967821
 20
135.3482446365925
 30
0.0
 10
141.0717577967821
 20
135.3482446365925
 30
0.0
 10
141.707378333126
 20
135.3482446365925
 30
0.0
 10
142.3433433792458
 20
135.3482446365925
 30
0.0
 10
142.9748297982801
 20
135.3482446365925
 30
0.0
 10
142.9748297982801
 20
135.3482446365925
 30
0.0
 10
142.9748297982801
 20
135.3482446365925
 30
0.0
 10
142.9748297982801
 20
135.3482446365925
 30
0.0
 10
143.6311209211718
 20
135.3482446365925
 30
0.0
 10
144.2825889072024
 20
135.3482446365925
 30
0.0
 10
144.9237215999591
 20
135.3482446365925
 30
0.0
 10
144.9237215999591
 20
135.3482446365925
 30
0.0
 10
144.9237215999591
 20
135.3482446365925
 30
0.0
 10
144.9237215999591
 20
135.3482446365925
 30
0.0
 10
145.5865584085909
 20
135.3482446365925
 30
0.0
 10
146.2383709043972
 20
135.3482446365925
 30
0.0
 10
146.8739914407412
 20
135.3482446365925
 30
0.0
 10
146.8739914407412
 20
135.3482446365925
 30
0.0
 10
146.8739914407412
 20
135.3482446365925
 30
0.0
 10
146.8739914407412
 20
135.3482446365925
 30
0.0
 10
147.3631953223717
 20
135.3482446365925
 30
0.0
 10
147.84275293028
 20
135.3482446365925
 30
0.0
 10
148.3105972058112
 20
135.3482446365925
 30
0.0
 10
148.3105972058112
 20
135.3482446365925
 30
0.0
 10
148.3105972058112
 20
135.3482446365925
 30
0.0
 10
148.3105972058112
 20
135.3482446365925
 30
0.0
 10
148.7849871670825
 20
135.3482446365925
 30
0.0
 10
149.247319286201
 20
135.3482446365925
 30
0.0
 10
149.6944929751844
 20
135.3482446365925
 30
0.0
 10
149.6944929751844
 20
135.3482446365925
 30
0.0
 10
149.6944929751844
 20
135.3482446365925
 30
0.0
 10
149.6944929751844
 20
135.3482446365925
 30
0.0
 10
150.146489801029
 20
135.3482446365925
 30
0.0
 10
150.5829836869627
 20
135.3482446365925
 30
0.0
 10
151.0022520841067
 20
135.3482446365925
 30
0.0
 10
151.0022520841067
 20
135.3482446365925
 30
0.0
 10
151.0022520841067
 20
135.3482446365925
 30
0.0
 10
151.0022520841067
 20
135.3482446365925
 30
0.0
 10
151.4235875399054
 20
135.3482446365925
 30
0.0
 10
151.8266639775869
 20
135.3482446365925
 30
0.0
 10
152.2104478678238
 20
135.3482446365925
 30
0.0
 10
152.2104478678238
 20
135.3482446365925
 30
0.0
 10
152.2104478678238
 20
135.3482446365925
 30
0.0
 10
152.2104478678238
 20
135.3482446365925
 30
0.0
 10
152.593887248285
 20
135.3482446365925
 30
0.0
 10
152.9573450617499
 20
135.3482446365925
 30
0.0
 10
153.2990987593397
 20
135.3482446365925
 30
0.0
 10
153.2990987593397
 20
135.3482446365925
 30
0.0
 10
153.2990987593397
 20
135.3482446365925
 30
0.0
 10
153.2990987593397
 20
135.3482446365925
 30
0.0
 10
153.6391299080505
 20
135.3482446365925
 30
0.0
 10
153.9574569408862
 20
135.3482446365925
 30
0.0
 10
154.2523573089677
 20
135.3482446365925
 30
0.0
 10
154.2523573089677
 20
135.3482446365925
 30
0.0
 10
154.2523573089677
 20
135.3482446365925
 30
0.0
 10
154.2523573089677
 20
135.3482446365925
 30
0.0
 10
154.5441570890671
 20
135.3482446365925
 30
0.0
 10
154.8132192239639
 20
135.3482446365925
 30
0.0
 10
155.058165674555
 20
135.3482446365925
 30
0.0
 10
155.058165674555
 20
135.3482446365925
 30
0.0
 10
155.058165674555
 20
135.3482446365925
 30
0.0
 10
155.058165674555
 20
135.3482446365925
 30
0.0
 10
155.2993225176123
 20
135.3482446365925
 30
0.0
 10
155.5170526959155
 20
135.3482446365925
 30
0.0
 10
155.7096336605855
 20
135.3482446365925
 30
0.0
 10
155.7096336605855
 20
135.3482446365925
 30
0.0
 10
155.7096336605855
 20
135.3482446365925
 30
0.0
 10
155.7096336605855
 20
135.3482446365925
 30
0.0
 10
155.9600922675893
 20
135.3482446365925
 30
0.0
 10
156.1681761721702
 20
135.3482446365925
 30
0.0
 10
156.3362969427587
 20
135.3482446365925
 30
0.0
 10
156.3362969427587
 20
135.3482446365925
 30
0.0
 10
156.3362969427587
 20
135.3482446365925
 30
0.0
 10
156.3362969427587
 20
135.3482446365925
 30
0.0
 10
156.4989055569345
 20
135.3482446365925
 30
0.0
 10
156.6239626055485
 20
135.3482446365925
 30
0.0
 10
156.6969986780173
 20
135.3482446365925
 30
0.0
 10
156.6969986780173
 20
135.3482446365925
 30
0.0
 10
156.6969986780173
 20
135.3482446365925
 30
0.0
 10
156.6969986780173
 20
135.3482446365925
 30
0.0
 10
156.7672786722798
 20
135.3482446365925
 30
0.0
 10
156.7896718077065
 20
135.3482446365925
 30
0.0
 10
156.8117204333575
 20
135.3482446365925
 30
0.0
  0
ENDBLK
  5
49E
330
49B
100
AcDbEntity
  8
0
100
AcDbBlockEnd
  0
BLOCK
  5
4A2
330
4A0
100
AcDbEntity
  8
0
100
AcDbBlockBegin
  2
block 174
 70
     0
 71
     0
 10
0.0
 20
0.0
 30
0.0
  3
block 174
  1

  0
SPLINE
  5
4A4
330
4A0
100
AcDbEntity
  8
0
 62
     7
420
 16777215
370
     9
100
AcDbSpline
210
0.0
220
0.0
230
1.0
 70
     8
 71
     3
 72
    14
 73
    10
 74
     0
 42
0.0000000001
 43
0.0000000001
 40
0.0
 40
0.0
 40
0.0
 40
0.0
 40
1.0
 40
1.0
 40
1.0
 40
2.0
 40
2.0
 40
2.0
 40
3.0
 40
3.0
 40
3.0
 40
3.0
 10
125.2094941897991
 20
135.5597736389313
 30
0.0
 10
125.2022594845074
 20
135.4963838401848
 30
0.0
 10
125.1950247792157
 20
135.4329940414383
 30
0.0
 10
125.2170734048666
 20
135.3999211029619
 30
0.0
 10
125.2170734048666
 20
135.3999211029619
 30
0.0
 10
125.2170734048666
 20
135.3999211029619
 30
0.0
 10
125.2170734048666
 20
135.3999211029619
 30
0.0
 10
125.2346434034322
 20
135.3730493404498
 30
0.0
 10
125.2715059494424
 20
135.3661591449338
 30
0.0
 10
125.3083684954526
 20
135.3589244396421
 30
0.0
  0
ENDBLK
  5
4A3
330
4A0
100
AcDbEntity
  8
0
100
AcDbBlockEnd
  0
BLOCK
  5
4A7
330
4A5
100
AcDbEntity
  8
0
100
AcDbBlockBegin
  2
block 175
 70
     0
 71
     0
 10
0.0
 20
0.0
 30
0.0
  3
block 175
  1

  0
SPLINE
  5
4A9
330
4A5
100
AcDbEntity
  8
0
 62
     7
420
 16777215
370
     9
100
AcDbSpline
210
0.0
220
0.0
230
1.0
 70
    24
 71
     3
 72
   170
 73
   166
 74
     0
 42
0.0000000001
 43
0.0000000001
 40
0.0
 40
0.0
 40
0.0
 40
0.0
 40
1.0
 40
1.0
 40
1.0
 40
2.0
 40
2.0
 40
2.0
 40
3.0
 40
3.0
 40
3.0
 40
4.0
 40
4.0
 40
4.0
 40
5.0
 40
5.0
 40
5.0
 40
6.0
 40
6.0
 40
6.0
 40
7.0
 40
7.0
 40
7.0
 40
8.0
 40
8.0
 40
8.0
 40
9.0
 40
9.0
 40
9.0
 40
10.0
 40
10.0
 40
10.0
 40
11.0
 40
11.0
 40
11.0
 40
12.0
 40
12.0
 40
12.0
 40
13.0
 40
13.0
 40
13.0
 40
14.0
 40
14.0
 40
14.0
 40
15.0
 40
15.0
 40
15.0
 40
16.0
 40
16.0
 40
16.0
 40
17.0
 40
17.0
 40
17.0
 40
18.0
 40
18.0
 40
18.0
 40
19.0
 40
19.0
 40
19.0
 40
20.0
 40
20.0
 40
20.0
 40
21.0
 40
21.0
 40
21.0
 40
22.0
 40
22.0
 40
22.0
 40
23.0
 40
23.0
 40
23.0
 40
24.0
 40
24.0
 40
24.0
 40
25.0
 40
25.0
 40
25.0
 40
26.0
 40
26.0
 40
26.0
 40
27.0
 40
27.0
 40
27.0
 40
28.0
 40
28.0
 40
28.0
 40
29.0
 40
29.0
 40
29.0
 40
30.0
 40
30.0
 40
30.0
 40
31.0
 40
31.0
 40
31.0
 40
32.0
 40
32.0
 40
32.0
 40
33.0
 40
33.0
 40
33.0
 40
34.0
 40
34.0
 40
34.0
 40
35.0
 40
35.0
 40
35.0
 40
36.0
 40
36.0
 40
36.0
 40
37.0
 40
37.0
 40
37.0
 40
38.0
 40
38.0
 40
38.0
 40
39.0
 40
39.0
 40
39.0
 40
40.0
 40
40.0
 40
40.0
 40
41.0
 40
41.0
 40
41.0
 40
42.0
 40
42.0
 40
42.0
 40
43.0
 40
43.0
 40
43.0
 40
44.0
 40
44.0
 40
44.0
 40
45.0
 40
45.0
 40
45.0
 40
46.0
 40
46.0
 40
46.0
 40
47.0
 40
47.0
 40
47.0
 40
48.0
 40
48.0
 40
48.0
 40
49.0
 40
49.0
 40
49.0
 40
50.0
 40
50.0
 40
50.0
 40
51.0
 40
51.0
 40
51.0
 40
52.0
 40
52.0
 40
52.0
 40
53.0
 40
53.0
 40
53.0
 40
54.0
 40
54.0
 40
54.0
 40
55.0
 40
55.0
 40
55.0
 40
55.0
 10
156.6987212268963
 20
142.0530938931375
 30
0.0
 10
156.6766726012454
 20
142.0530938931375
 30
0.0
 10
156.6546239755944
 20
142.0530938931375
 30
0.0
 10
156.5850330008836
 20
142.0530938931375
 30
0.0
 10
156.5850330008836
 20
142.0530938931375
 30
0.0
 10
156.5850330008836
 20
142.0530938931375
 30
0.0
 10
156.5850330008836
 20
142.0530938931375
 30
0.0
 10
156.5123414381906
 20
142.0530938931375
 30
0.0
 10
156.3879734091282
 20
142.0530938931375
 30
0.0
 10
156.2263983242798
 20
142.0530938931375
 30
0.0
 10
156.2263983242798
 20
142.0530938931375
 30
0.0
 10
156.2263983242798
 20
142.0530938931375
 30
0.0
 10
156.2263983242798
 20
142.0530938931375
 30
0.0
 10
156.0596555927944
 20
142.0530938931375
 30
0.0
 10
155.8532942370925
 20
142.0530938931375
 30
0.0
 10
155.6049026887435
 20
142.0530938931375
 30
0.0
 10
155.6049026887435
 20
142.0530938931375
 30
0.0
 10
155.6049026887435
 20
142.0530938931375
 30
0.0
 10
155.6049026887435
 20
142.0530938931375
 30
0.0
 10
155.4133552534008
 20
142.0530938931375
 30
0.0
 10
155.1970031142008
 20
142.0530938931375
 30
0.0
 10
154.9575688200225
 20
142.0530938931375
 30
0.0
 10
154.9575688200225
 20
142.0530938931375
 30
0.0
 10
154.9575688200225
 20
142.0530938931375
 30
0.0
 10
154.9575688200225
 20
142.0530938931375
 30
0.0
 10
154.7143449183104
 20
142.0530938931375
 30
0.0
 10
154.4473498420683
 20
142.0530938931375
 30
0.0
 10
154.1576171206238
 20
142.0530938931375
 30
0.0
 10
154.1576171206238
 20
142.0530938931375
 30
0.0
 10
154.1576171206238
 20
142.0530938931375
 30
0.0
 10
154.1576171206238
 20
142.0530938931375
 30
0.0
 10
153.864783811197
 20
142.0530938931375
 30
0.0
 10
153.5488683467919
 20
142.0530938931375
 30
0.0
 10
153.2115932762875
 20
142.0530938931375
 30
0.0
 10
153.2115932762875
 20
142.0530938931375
 30
0.0
 10
153.2115932762875
 20
142.0530938931375
 30
0.0
 10
153.2115932762875
 20
142.0530938931375
 30
0.0
 10
152.8722511471283
 20
142.0530938931375
 30
0.0
 10
152.5112049020939
 20
142.0530938931375
 30
0.0
 10
152.1305215998391
 20
142.0530938931375
 30
0.0
 10
152.1305215998391
 20
142.0530938931375
 30
0.0
 10
152.1305215998391
 20
142.0530938931375
 30
0.0
 10
152.1305215998391
 20
142.0530938931375
 30
0.0
 10
151.7494937878085
 20
142.0530938931375
 30
0.0
 10
151.3491734283334
 20
142.0530938931375
 30
0.0
 10
150.9309385605169
 20
142.0530938931375
 30
0.0
 10
150.9309385605169
 20
142.0530938931375
 30
0.0
 10
150.9309385605169
 20
142.0530938931375
 30
0.0
 10
150.9309385605169
 20
142.0530938931375
 30
0.0
 10
150.5147707513551
 20
142.0530938931375
 30
0.0
 10
150.0813774534035
 20
142.0530938931375
 30
0.0
 10
149.6324812155411
 20
142.0530938931375
 30
0.0
 10
149.6324812155411
 20
142.0530938931375
 30
0.0
 10
149.6324812155411
 20
142.0530938931375
 30
0.0
 10
149.6324812155411
 20
142.0530938931375
 30
0.0
 10
149.1884081145398
 20
142.0530938931375
 30
0.0
 10
148.7295210931793
 20
142.0530938931375
 30
0.0
 10
148.2582317198902
 20
142.0530938931375
 30
0.0
 10
148.2582317198902
 20
142.0530938931375
 30
0.0
 10
148.2582317198902
 20
142.0530938931375
 30
0.0
 10
148.2582317198902
 20
142.0530938931375
 30
0.0
 10
147.7941770518927
 20
142.0530938931375
 30
0.0
 10
147.3184090515182
 20
142.0530938931375
 30
0.0
 10
146.8323057578698
 20
142.0530938931375
 30
0.0
 10
146.8323057578698
 20
142.0530938931375
 30
0.0
 10
146.8323057578698
 20
142.0530938931375
 30
0.0
 10
146.8323057578698
 20
142.0530938931375
 30
0.0
 10
146.2011638486113
 20
142.0530938931375
 30
0.0
 10
145.5538299798903
 20
142.0530938931375
 30
0.0
 10
144.8958163081196
 20
142.0530938931375
 30
0.0
 10
144.8958163081196
 20
142.0530938931375
 30
0.0
 10
144.8958163081196
 20
142.0530938931375
 30
0.0
 10
144.8958163081196
 20
142.0530938931375
 30
0.0
 10
144.2591622424482
 20
142.0530938931375
 30
0.0
 10
143.6125173932788
 20
142.0530938931375
 30
0.0
 10
142.9610494072483
 20
142.0530938931375
 30
0.0
 10
142.9610494072483
 20
142.0530938931375
 30
0.0
 10
142.9610494072483
 20
142.0530938931375
 30
0.0
 10
142.9610494072483
 20
142.0530938931375
 30
0.0
 10
142.3343861250751
 20
142.0530938931375
 30
0.0
 10
141.7028997060407
 20
142.0530938931375
 30
0.0
 10
141.0717577967821
 20
142.0530938931375
 30
0.0
 10
141.0717577967821
 20
142.0530938931375
 30
0.0
 10
141.0717577967821
 20
142.0530938931375
 30
0.0
 10
141.0717577967821
 20
142.0530938931375
 30
0.0
 10
140.4444054950573
 20
142.0530938931375
 30
0.0
 10
139.817742212884
 20
142.0530938931375
 30
0.0
 10
139.1952130480204
 20
142.0530938931375
 30
0.0
 10
139.1952130480204
 20
142.0530938931375
 30
0.0
 10
139.1952130480204
 20
142.0530938931375
 30
0.0
 10
139.1952130480204
 20
142.0530938931375
 30
0.0
 10
138.5475346695236
 20
142.0530938931375
 30
0.0
 10
137.9050239376637
 20
142.0530938931375
 30
0.0
 10
137.2718149697504
 20
142.0530938931375
 30
0.0
 10
137.2718149697504
 20
142.0530938931375
 30
0.0
 10
137.2718149697504
 20
142.0530938931375
 30
0.0
 10
137.2718149697504
 20
142.0530938931375
 30
0.0
 10
136.6169018859619
 20
142.0530938931375
 30
0.0
 10
135.972668605223
 20
142.0530938931375
 30
0.0
 10
135.3442827741708
 20
142.0530938931375
 30
0.0
 10
135.3442827741708
 20
142.0530938931375
 30
0.0
 10
135.3442827741708
 20
142.0530938931375
 30
0.0
 10
135.3442827741708
 20
142.0530938931375
 30
0.0
 10
134.8602465391772
 20
142.0530938931375
 30
0.0
 10
134.3851675583543
 20
142.0530938931375
 30
0.0
 10
133.9221464196842
 20
142.0530938931375
 30
0.0
 10
133.9221464196842
 20
142.0530938931375
 30
0.0
 10
133.9221464196842
 20
142.0530938931375
 30
0.0
 10
133.9221464196842
 20
142.0530938931375
 30
0.0
 10
133.4515460659466
 20
142.0530938931375
 30
0.0
 10
132.9933480641377
 20
142.0530938931375
 30
0.0
 10
132.5496194729123
 20
142.0530938931375
 30
0.0
 10
132.5496194729123
 20
142.0530938931375
 30
0.0
 10
132.5496194729123
 20
142.0530938931375
 30
0.0
 10
132.5496194729123
 20
142.0530938931375
 30
0.0
 10
132.1010677448257
 20
142.0530938931375
 30
0.0
 10
131.6673299370983
 20
142.0530938931375
 30
0.0
 10
131.2511621279365
 20
142.0530938931375
 30
0.0
 10
131.2511621279365
 20
142.0530938931375
 30
0.0
 10
131.2511621279365
 20
142.0530938931375
 30
0.0
 10
131.2511621279365
 20
142.0530938931375
 30
0.0
 10
130.8318937307926
 20
142.0530938931375
 30
0.0
 10
130.43053984199
 20
142.0530938931375
 30
0.0
 10
130.0484785006321
 20
142.0530938931375
 30
0.0
 10
130.0484785006321
 20
142.0530938931375
 30
0.0
 10
130.0484785006321
 20
142.0530938931375
 30
0.0
 10
130.0484785006321
 20
142.0530938931375
 30
0.0
 10
129.6664171592741
 20
142.0530938931375
 30
0.0
 10
129.3039928751366
 20
142.0530938931375
 30
0.0
 10
128.9632727068742
 20
142.0530938931375
 30
0.0
 10
128.9632727068742
 20
142.0530938931375
 30
0.0
 10
128.9632727068742
 20
142.0530938931375
 30
0.0
 10
128.9632727068742
 20
142.0530938931375
 30
0.0
 10
128.6239305777149
 20
142.0530938931375
 30
0.0
 10
128.3062925644309
 20
142.0530938931375
 30
0.0
 10
128.0113921963493
 20
142.0530938931375
 30
0.0
 10
128.0113921963493
 20
142.0530938931375
 30
0.0
 10
128.0113921963493
 20
142.0530938931375
 30
0.0
 10
128.0113921963493
 20
142.0530938931375
 30
0.0
 10
127.71959241625
 20
142.0530938931375
 30
0.0
 10
127.4505302813532
 20
142.0530938931375
 30
0.0
 10
127.2055838307621
 20
142.0530938931375
 30
0.0
 10
127.2055838307621
 20
142.0530938931375
 30
0.0
 10
127.2055838307621
 20
142.0530938931375
 30
0.0
 10
127.2055838307621
 20
142.0530938931375
 30
0.0
 10
126.964082477929
 20
142.0530938931375
 30
0.0
 10
126.7456632800742
 20
142.0530938931375
 30
0.0
 10
126.5523932958526
 20
142.0530938931375
 30
0.0
 10
126.5523932958526
 20
142.0530938931375
 30
0.0
 10
126.5523932958526
 20
142.0530938931375
 30
0.0
 10
126.5523932958526
 20
142.0530938931375
 30
0.0
 10
126.3012456692972
 20
142.0530938931375
 30
0.0
 10
126.0924727451647
 20
142.0530938931375
 30
0.0
 10
125.9233184452488
 20
142.0530938931375
 30
0.0
 10
125.9233184452488
 20
142.0530938931375
 30
0.0
 10
125.9233184452488
 20
142.0530938931375
 30
0.0
 10
125.9233184452488
 20
142.0530938931375
 30
0.0
 10
125.7600208115214
 20
142.0530938931375
 30
0.0
 10
125.6342747433558
 20
142.0530938931375
 30
0.0
 10
125.5605496513354
 20
142.0530938931375
 30
0.0
 10
125.5605496513354
 20
142.0530938931375
 30
0.0
 10
125.5605496513354
 20
142.0530938931375
 30
0.0
 10
125.5605496513354
 20
142.0530938931375
 30
0.0
 10
125.4899251472972
 20
142.0530938931375
 30
0.0
 10
125.4675320118704
 20
142.0530938931375
 30
0.0
 10
125.4451388764437
 20
142.0530938931375
 30
0.0
  0
ENDBLK
  5
4A8
330
4A5
100
AcDbEntity
  8
0
100
AcDbBlockEnd
  0
BLOCK
  5
4AC
330
4AA
100
AcDbEntity
  8
0
100
AcDbBlockBegin
  2
block 176
 70
     0
 71
     0
 10
0.0
 20
0.0
 30
0.0
  3
block 176
  1

  0
SPLINE
  5
4AE
330
4AA
100
AcDbEntity
  8
0
 62
     7
420
 16777215
370
     9
100
AcDbSpline
210
0.0
220
0.0
230
1.0
 70
     8
 71
     3
 72
    26
 73
    22
 74
     0
 42
0.0000000001
 43
0.0000000001
 40
0.0
 40
0.0
 40
0.0
 40
0.0
 40
1.0
 40
1.0
 40
1.0
 40
2.0
 40
2.0
 40
2.0
 40
3.0
 40
3.0
 40
3.0
 40
4.0
 40
4.0
 40
4.0
 40
5.0
 40
5.0
 40
5.0
 40
6.0
 40
6.0
 40
6.0
 40
7.0
 40
7.0
 40
7.0
 40
7.0
 10
156.9078386608046
 20
141.8546562622789
 30
0.0
 10
156.9030155239435
 20
141.8829060638942
 30
0.0
 10
156.8978478773065
 20
141.9115003752853
 30
0.0
 10
156.8857900351536
 20
141.93733860847
 30
0.0
 10
156.8857900351536
 20
141.93733860847
 30
0.0
 10
156.8857900351536
 20
141.93733860847
 30
0.0
 10
156.8857900351536
 20
141.93733860847
 30
0.0
 10
156.8730431734492
 20
141.9648993905337
 30
0.0
 10
156.8520280771256
 20
141.9890150748394
 30
0.0
 10
156.8275678830441
 20
142.008307622284
 30
0.0
 10
156.8275678830441
 20
142.008307622284
 30
0.0
 10
156.8275678830441
 20
142.008307622284
 30
0.0
 10
156.8275678830441
 20
142.008307622284
 30
0.0
 10
156.8082753355995
 20
142.023466052419
 30
0.0
 10
156.7872602392759
 20
142.0351793847961
 30
0.0
 10
156.7645225940734
 20
142.0424140900878
 30
0.0
 10
156.7645225940734
 20
142.0424140900878
 30
0.0
 10
156.7645225940734
 20
142.0424140900878
 30
0.0
 10
156.7645225940734
 20
142.0424140900878
 30
0.0
 10
156.743162987974
 20
142.0489597758279
 30
0.0
 10
156.7211143623231
 20
142.0510268344827
 30
0.0
 10
156.6987212268963
 20
142.0530938931375
 30
0.0
  0
ENDBLK
  5
4AD
330
4AA
100
AcDbEntity
  8
0
100
AcDbBlockEnd
  0
BLOCK
  5
4B1
330
4AF
100
AcDbEntity
  8
0
100
AcDbBlockBegin
  2
block 177
 70
     0
 71
     0
 10
0.0
 20
0.0
 30
0.0
  3
block 177
  1

  0
POLYLINE
  5
4B3
330
4AF
100
AcDbEntity
  8
0
 62
     7
420
 16777215
370
     9
100
AcDb2dPolyline
 66
     1
 10
0.0
 20
0.0
 30
0.0
  0
VERTEX
  5
4B4
330
4B3
100
AcDbEntity
  8
0
 62
     7
420
 16777215
370
     9
100
AcDbVertex
100
AcDb2dVertex
 10
125.4451388764437
 20
142.0530938931375
 30
0.0
  0
VERTEX
  5
4B5
330
4B3
100
AcDbEntity
  8
0
 62
     7
420
 16777215
370
     9
100
AcDbVertex
100
AcDb2dVertex
 10
125.4000080958144
 20
142.0334568359171
 30
0.0
  0
SEQEND
  5
4B6
330
4B3
100
AcDbEntity
  8
0
370
     9
  0
ENDBLK
  5
4B2
330
4AF
100
AcDbEntity
  8
0
100
AcDbBlockEnd
  0
BLOCK
  5
4B9
330
4B7
100
AcDbEntity
  8
0
100
AcDbBlockBegin
  2
block 178
 70
     0
 71
     0
 10
0.0
 20
0.0
 30
0.0
  3
block 178
  1

  0
POLYLINE
  5
4BB
330
4B7
100
AcDbEntity
  8
0
 62
     7
420
 16777215
370
     9
100
AcDb2dPolyline
 66
     1
 10
0.0
 20
0.0
 30
0.0
  0
VERTEX
  5
4BC
330
4BB
100
AcDbEntity
  8
0
 62
     7
420
 16777215
370
     9
100
AcDbVertex
100
AcDb2dVertex
 10
113.834814922337
 20
138.700669264865
 30
0.0
  0
VERTEX
  5
4BD
330
4BB
100
AcDbEntity
  8
0
 62
     7
420
 16777215
370
     9
100
AcDbVertex
100
AcDb2dVertex
 10
113.834814922337
 20
142.0530938931375
 30
0.0
  0
SEQEND
  5
4BE
330
4BB
100
AcDbEntity
  8
0
370
     9
  0
ENDBLK
  5
4BA
330
4B7
100
AcDbEntity
  8
0
100
AcDbBlockEnd
  0
BLOCK
  5
4C1
330
4BF
100
AcDbEntity
  8
0
100
AcDbBlockBegin
  2
block 179
 70
     0
 71
     0
 10
0.0
 20
0.0
 30
0.0
  3
block 179
  1

  0
POLYLINE
  5
4C3
330
4BF
100
AcDbEntity
  8
0
 62
     7
420
 16777215
370
     9
100
AcDb2dPolyline
 66
     1
 10
0.0
 20
0.0
 30
0.0
  0
VERTEX
  5
4C4
330
4C3
100
AcDbEntity
  8
0
 62
     7
420
 16777215
370
     9
100
AcDbVertex
100
AcDb2dVertex
 10
113.834814922337
 20
135.3482446365925
 30
0.0
  0
VERTEX
  5
4C5
330
4C3
100
AcDbEntity
  8
0
 62
     7
420
 16777215
370
     9
100
AcDbVertex
100
AcDb2dVertex
 10
113.834814922337
 20
138.700669264865
 30
0.0
  0
SEQEND
  5
4C6
330
4C3
100
AcDbEntity
  8
0
370
     9
  0
ENDBLK
  5
4C2
330
4BF
100
AcDbEntity
  8
0
100
AcDbBlockEnd
  0
BLOCK
  5
4C9
330
4C7
100
AcDbEntity
  8
0
100
AcDbBlockBegin
  2
block 180
 70
     0
 71
     0
 10
0.0
 20
0.0
 30
0.0
  3
block 180
  1

  0
POLYLINE
  5
4CB
330
4C7
100
AcDbEntity
  8
0
 62
     7
420
 16777215
370
     9
100
AcDb2dPolyline
 66
     1
 10
0.0
 20
0.0
 30
0.0
  0
VERTEX
  5
4CC
330
4CB
100
AcDbEntity
  8
0
 62
     7
420
 16777215
370
     9
100
AcDbVertex
100
AcDb2dVertex
 10
125.3321396699825
 20
135.3482446365925
 30
0.0
  0
VERTEX
  5
4CD
330
4CB
100
AcDbEntity
  8
0
 62
     7
420
 16777215
370
     9
100
AcDbVertex
100
AcDb2dVertex
 10
125.2801186938373
 20
135.3682262035886
 30
0.0
  0
SEQEND
  5
4CE
330
4CB
100
AcDbEntity
  8
0
370
     9
  0
ENDBLK
  5
4CA
330
4C7
100
AcDbEntity
  8
0
100
AcDbBlockEnd
  0
BLOCK
  5
4D1
330
4CF
100
AcDbEntity
  8
0
100
AcDbBlockBegin
  2
block 181
 70
     0
 71
     0
 10
0.0
 20
0.0
 30
0.0
  3
block 181
  1

  0
POLYLINE
  5
4D3
330
4CF
100
AcDbEntity
  8
0
 62
     7
420
 16777215
370
     9
100
AcDb2dPolyline
 66
     1
 10
0.0
 20
0.0
 30
0.0
  0
VERTEX
  5
4D4
330
4D3
100
AcDbEntity
  8
0
 62
     7
420
 16777215
370
     9
100
AcDbVertex
100
AcDb2dVertex
 10
125.3934624100742
 20
142.0338013456929
 30
0.0
  0
VERTEX
  5
4D5
330
4D3
100
AcDbEntity
  8
0
 62
     7
420
 16777215
370
     9
100
AcDbVertex
100
AcDb2dVertex
 10
125.4451388764437
 20
142.0530938931375
 30
0.0
  0
SEQEND
  5
4D6
330
4D3
100
AcDbEntity
  8
0
370
     9
  0
ENDBLK
  5
4D2
330
4CF
100
AcDbEntity
  8
0
100
AcDbBlockEnd
  0
BLOCK
  5
4D9
330
4D7
100
AcDbEntity
  8
0
100
AcDbBlockBegin
  2
block 182
 70
     0
 71
     0
 10
0.0
 20
0.0
 30
0.0
  3
block 182
  1

  0
POLYLINE
  5
4DB
330
4D7
100
AcDbEntity
  8
0
 62
     7
420
 16777215
370
     9
100
AcDb2dPolyline
 66
     1
 10
0.0
 20
0.0
 30
0.0
  0
VERTEX
  5
4DC
330
4DB
100
AcDbEntity
  8
0
 62
     7
420
 16777215
370
     9
100
AcDbVertex
100
AcDb2dVertex
 10
125.4451388764437
 20
142.0530938931375
 30
0.0
  0
VERTEX
  5
4DD
330
4DB
100
AcDbEntity
  8
0
 62
     7
420
 16777215
370
     9
100
AcDbVertex
100
AcDb2dVertex
 10
125.3469535903418
 20
142.0165758569031
 30
0.0
  0
SEQEND
  5
4DE
330
4DB
100
AcDbEntity
  8
0
370
     9
  0
ENDBLK
  5
4DA
330
4D7
100
AcDbEntity
  8
0
100
AcDbBlockEnd
  0
BLOCK
  5
4E1
330
4DF
100
AcDbEntity
  8
0
100
AcDbBlockBegin
  2
block 183
 70
     0
 71
     0
 10
0.0
 20
0.0
 30
0.0
  3
block 183
  1

  0
POLYLINE
  5
4E3
330
4DF
100
AcDbEntity
  8
0
 62
     7
420
 16777215
370
     9
100
AcDb2dPolyline
 66
     1
 10
0.0
 20
0.0
 30
0.0
  0
VERTEX
  5
4E4
330
4E3
100
AcDbEntity
  8
0
 62
     7
420
 16777215
370
     9
100
AcDbVertex
100
AcDb2dVertex
 10
157.0211823770415
 20
135.3379093433186
 30
0.0
  0
VERTEX
  5
4E5
330
4E3
100
AcDbEntity
  8
0
 62
     7
420
 16777215
370
     9
100
AcDbVertex
100
AcDb2dVertex
 10
157.0211823770415
 20
135.3379093433186
 30
0.0
  0
SEQEND
  5
4E6
330
4E3
100
AcDbEntity
  8
0
370
     9
  0
ENDBLK
  5
4E2
330
4DF
100
AcDbEntity
  8
0
100
AcDbBlockEnd
  0
BLOCK
  5
4E9
330
4E7
100
AcDbEntity
  8
0
100
AcDbBlockBegin
  2
block 184
 70
     0
 71
     0
 10
0.0
 20
0.0
 30
0.0
  3
block 184
  1

  0
INSERT
  5
4EC
330
4E7
100
AcDbEntity
  8
0
100
AcDbBlockReference
  2
block 185
 10
0.0
 20
0.0
 30
0.0
  0
INSERT
  5
4F8
330
4E7
100
AcDbEntity
  8
0
100
AcDbBlockReference
  2
block 187
 10
0.0
 20
0.0
 30
0.0
  0
INSERT
  5
56C
330
4E7
100
AcDbEntity
  8
0
100
AcDbBlockReference
  2
block 193
 10
0.0
 20
0.0
 30
0.0
  0
INSERT
  5
574
330
4E7
100
AcDbEntity
  8
0
100
AcDbBlockReference
  2
block 194
 10
0.0
 20
0.0
 30
0.0
  0
INSERT
  5
57C
330
4E7
100
AcDbEntity
  8
0
100
AcDbBlockReference
  2
block 195
 10
0.0
 20
0.0
 30
0.0
  0
INSERT
  5
584
330
4E7
100
AcDbEntity
  8
0
100
AcDbBlockReference
  2
block 196
 10
0.0
 20
0.0
 30
0.0
  0
ENDBLK
  5
4EA
330
4E7
100
AcDbEntity
  8
0
100
AcDbBlockEnd
  0
BLOCK
  5
4ED
330
4EB
100
AcDbEntity
  8
0
100
AcDbBlockBegin
  2
block 185
 70
     0
 71
     0
 10
0.0
 20
0.0
 30
0.0
  3
block 185
  1

  0
INSERT
  5
4F0
330
4EB
100
AcDbEntity
  8
0
100
AcDbBlockReference
  2
block 186
 10
0.0
 20
0.0
 30
0.0
  0
ENDBLK
  5
4EE
330
4EB
100
AcDbEntity
  8
0
100
AcDbBlockEnd
  0
BLOCK
  5
4F1
330
4EF
100
AcDbEntity
  8
0
100
AcDbBlockBegin
  2
block 186
 70
     0
 71
     0
 10
0.0
 20
0.0
 30
0.0
  3
block 186
  1

  0
POLYLINE
  5
4F3
330
4EF
100
AcDbEntity
  8
0
 62
     7
420
 16777215
370
     9
100
AcDb2dPolyline
 66
     1
 10
0.0
 20
0.0
 30
0.0
  0
VERTEX
  5
4F4
330
4F3
100
AcDbEntity
  8
0
 62
     7
420
 16777215
370
     9
100
AcDbVertex
100
AcDb2dVertex
 10
157.0211823770415
 20
92.60698381221655
 30
0.0
  0
VERTEX
  5
4F5
330
4F3
100
AcDbEntity
  8
0
 62
     7
420
 16777215
370
     9
100
AcDbVertex
100
AcDb2dVertex
 10
154.5069500332811
 20
92.60698381221655
 30
0.0
  0
SEQEND
  5
4F6
330
4F3
100
AcDbEntity
  8
0
370
     9
  0
ENDBLK
  5
4F2
330
4EF
100
AcDbEntity
  8
0
100
AcDbBlockEnd
  0
BLOCK
  5
4F9
330
4F7
100
AcDbEntity
  8
0
100
AcDbBlockBegin
  2
block 187
 70
     0
 71
     0
 10
0.0
 20
0.0
 30
0.0
  3
block 187
  1

  0
INSERT
  5
4FC
330
4F7
100
AcDbEntity
  8
0
100
AcDbBlockReference
  2
block 188
 10
0.0
 20
0.0
 30
0.0
  0
INSERT
  5
564
330
4F7
100
AcDbEntity
  8
0
100
AcDbBlockReference
  2
block 192
 10
0.0
 20
0.0
 30
0.0
  0
ENDBLK
  5
4FA
330
4F7
100
AcDbEntity
  8
0
100
AcDbBlockEnd
  0
BLOCK
  5
4FD
330
4FB
100
AcDbEntity
  8
0
100
AcDbBlockBegin
  2
block 188
 70
     0
 71
     0
 10
0.0
 20
0.0
 30
0.0
  3
block 188
  1

  0
INSERT
  5
500
330
4FB
100
AcDbEntity
  8
0
100
AcDbBlockReference
  2
block 189
 10
0.0
 20
0.0
 30
0.0
  0
ENDBLK
  5
4FE
330
4FB
100
AcDbEntity
  8
0
100
AcDbBlockEnd
  0
BLOCK
  5
501
330
4FF
100
AcDbEntity
  8
0
100
AcDbBlockBegin
  2
block 189
 70
     0
 71
     0
 10
0.0
 20
0.0
 30
0.0
  3
block 189
  1

  0
INSERT
  5
504
330
4FF
100
AcDbEntity
  8
0
100
AcDbBlockReference
  2
block 190
 10
0.0
 20
0.0
 30
0.0
  0
INSERT
  5
52B
330
4FF
100
AcDbEntity
  8
0
100
AcDbBlockReference
  2
block 191
 10
0.0
 20
0.0
 30
0.0
  0
ENDBLK
  5
502
330
4FF
100
AcDbEntity
  8
0
100
AcDbBlockEnd
  0
BLOCK
  5
505
330
503
100
AcDbEntity
  8
0
100
AcDbBlockBegin
  2
block 190
 70
     0
 71
     0
 10
0.0
 20
0.0
 30
0.0
  3
block 190
  1

  0
POLYLINE
  5
507
330
503
100
AcDbEntity
  8
0
370
     0
100
AcDb2dPolyline
 66
     1
 10
0.0
 20
0.0
 30
0.0
  0
VERTEX
  5
508
330
507
100
AcDbEntity
  8
0
370
     0
100
AcDbVertex
100
AcDb2dVertex
 10
157.0215268868173
 20
92.60595028288917
 30
0.0
  0
VERTEX
  5
509
330
507
100
AcDbEntity
  8
0
370
     0
100
AcDbVertex
100
AcDb2dVertex
 10
154.5062610137295
 20
92.18633737596943
 30
0.0
  0
VERTEX
  5
50A
330
507
100
AcDbEntity
  8
0
370
     0
100
AcDbVertex
100
AcDb2dVertex
 10
154.5062610137295
 20
93.02590769958469
 30
0.0
  0
VERTEX
  5
50B
330
507
100
AcDbEntity
  8
0
370
     0
100
AcDbVertex
100
AcDb2dVertex
 10
157.0215268868173
 20
92.60595028288917
 30
0.0
  0
SEQEND
  5
50C
330
507
100
AcDbEntity
  8
0
370
     0
  0
HATCH
  5
50D
330
503
100
AcDbEntity
  8
0
 62
     7
420
 16777215
100
AcDbHatch
 10
0.0
 20
0.0
 30
0.0
210
0.0
220
0.0
230
1.0
  2
SOLID
 70
     1
 71
     0
 91
        1
 92
        1
 93
        3
 72
     1
 10
157.0215268868173
 20
92.60595028288917
 11
154.5062610137295
 21
92.18633737596943
 72
     1
 10
154.5062610137295
 20
92.18633737596943
 11
154.5062610137295
 21
93.02590769958469
 72
     1
 10
154.5062610137295
 20
93.02590769958469
 11
157.0215268868173
 21
92.60595028288917
 97
        0
 75
     2
 76
     1
 98
        0
  0
POLYLINE
  5
50E
330
503
100
AcDbEntity
  8
0
370
     0
100
AcDb2dPolyline
 66
     1
 10
0.0
 20
0.0
 30
0.0
  0
VERTEX
  5
50F
330
50E
100
AcDbEntity
  8
0
370
     0
100
AcDbVertex
100
AcDb2dVertex
 10
112.1587748630886
 20
93.02590769958469
 30
0.0
  0
VERTEX
  5
510
330
50E
100
AcDbEntity
  8
0
370
     0
100
AcDbVertex
100
AcDb2dVertex
 10
112.1587748630886
 20
92.18633737596943
 30
0.0
  0
VERTEX
  5
511
330
50E
100
AcDbEntity
  8
0
370
     0
100
AcDbVertex
100
AcDb2dVertex
 10
109.6435089900008
 20
92.60595028288917
 30
0.0
  0
VERTEX
  5
512
330
50E
100
AcDbEntity
  8
0
370
     0
100
AcDbVertex
100
AcDb2dVertex
 10
112.1587748630886
 20
93.02590769958469
 30
0.0
  0
SEQEND
  5
513
330
50E
100
AcDbEntity
  8
0
370
     0
  0
HATCH
  5
514
330
503
100
AcDbEntity
  8
0
 62
     7
420
 16777215
100
AcDbHatch
 10
0.0
 20
0.0
 30
0.0
210
0.0
220
0.0
230
1.0
  2
SOLID
 70
     1
 71
     0
 91
        1
 92
        1
 93
        3
 72
     1
 10
112.1587748630886
 20
93.02590769958469
 11
112.1587748630886
 21
92.18633737596943
 72
     1
 10
112.1587748630886
 20
92.18633737596943
 11
109.6435089900008
 21
92.60595028288917
 72
     1
 10
109.6435089900008
 20
92.60595028288917
 11
112.1587748630886
 21
93.02590769958469
 97
        0
 75
     2
 76
     1
 98
        0
  0
POLYLINE
  5
515
330
503
100
AcDbEntity
  8
0
370
     0
100
AcDb2dPolyline
 66
     1
 10
0.0
 20
0.0
 30
0.0
  0
VERTEX
  5
516
330
515
100
AcDbEntity
  8
0
370
     0
100
AcDbVertex
100
AcDb2dVertex
 10
96.00505598578206
 20
37.65733006295183
 30
0.0
  0
VERTEX
  5
517
330
515
100
AcDbEntity
  8
0
370
     0
100
AcDbVertex
100
AcDb2dVertex
 10
93.48979011269424
 20
37.65733006295183
 30
0.0
  0
VERTEX
  5
518
330
515
100
AcDbEntity
  8
0
370
     0
100
AcDbVertex
100
AcDb2dVertex
 10
93.48979011269424
 20
38.07728747964736
 30
0.0
  0
VERTEX
  5
519
330
515
100
AcDbEntity
  8
0
370
     0
100
AcDbVertex
100
AcDb2dVertex
 10
96.00505598578206
 20
37.65733006295183
 30
0.0
  0
SEQEND
  5
51A
330
515
100
AcDbEntity
  8
0
370
     0
  0
HATCH
  5
51B
330
503
100
AcDbEntity
  8
0
 62
     7
420
 16777215
100
AcDbHatch
 10
0.0
 20
0.0
 30
0.0
210
0.0
220
0.0
230
1.0
  2
SOLID
 70
     1
 71
     0
 91
        1
 92
        1
 93
        3
 72
     1
 10
96.00505598578206
 20
37.65733006295183
 11
93.48979011269424
 21
37.65733006295183
 72
     1
 10
93.48979011269424
 20
37.65733006295183
 11
93.48979011269424
 21
38.07728747964736
 72
     1
 10
93.48979011269424
 20
38.07728747964736
 11
96.00505598578206
 21
37.65733006295183
 97
        0
 75
     2
 76
     1
 98
        0
  0
POLYLINE
  5
51C
330
503
100
AcDbEntity
  8
0
370
     0
100
AcDb2dPolyline
 66
     1
 10
0.0
 20
0.0
 30
0.0
  0
VERTEX
  5
51D
330
51C
100
AcDbEntity
  8
0
370
     0
100
AcDbVertex
100
AcDb2dVertex
 10
96.00505598578206
 20
37.65733006295183
 30
0.0
  0
VERTEX
  5
51E
330
51C
100
AcDbEntity
  8
0
370
     0
100
AcDbVertex
100
AcDb2dVertex
 10
93.48979011269424
 20
37.24116225379006
 30
0.0
  0
VERTEX
  5
51F
330
51C
100
AcDbEntity
  8
0
370
     0
100
AcDbVertex
100
AcDb2dVertex
 10
93.48979011269424
 20
37.65733006295183
 30
0.0
  0
VERTEX
  5
520
330
51C
100
AcDbEntity
  8
0
370
     0
100
AcDbVertex
100
AcDb2dVertex
 10
96.00505598578206
 20
37.65733006295183
 30
0.0
  0
SEQEND
  5
521
330
51C
100
AcDbEntity
  8
0
370
     0
  0
HATCH
  5
522
330
503
100
AcDbEntity
  8
0
 62
     7
420
 16777215
100
AcDbHatch
 10
0.0
 20
0.0
 30
0.0
210
0.0
220
0.0
230
1.0
  2
SOLID
 70
     1
 71
     0
 91
        1
 92
        1
 93
        3
 72
     1
 10
96.00505598578206
 20
37.65733006295183
 11
93.48979011269424
 21
37.24116225379006
 72
     1
 10
93.48979011269424
 20
37.24116225379006
 11
93.48979011269424
 21
37.65733006295183
 72
     1
 10
93.48979011269424
 20
37.65733006295183
 11
96.00505598578206
 21
37.65733006295183
 97
        0
 75
     2
 76
     1
 98
        0
  0
POLYLINE
  5
523
330
503
100
AcDbEntity
  8
0
370
     0
100
AcDb2dPolyline
 66
     1
 10
0.0
 20
0.0
 30
0.0
  0
VERTEX
  5
524
330
523
100
AcDbEntity
  8
0
370
     0
100
AcDbVertex
100
AcDb2dVertex
 10
66.67159887072937
 20
38.07728747964736
 30
0.0
  0
VERTEX
  5
525
330
523
100
AcDbEntity
  8
0
370
     0
100
AcDbVertex
100
AcDb2dVertex
 10
66.67159887072937
 20
37.24116225379006
 30
0.0
  0
VERTEX
  5
526
330
523
100
AcDbEntity
  8
0
370
     0
100
AcDbVertex
100
AcDb2dVertex
 10
64.15633299764154
 20
37.65733006295183
 30
0.0
  0
VERTEX
  5
527
330
523
100
AcDbEntity
  8
0
370
     0
100
AcDbVertex
100
AcDb2dVertex
 10
66.67159887072937
 20
38.07728747964736
 30
0.0
  0
SEQEND
  5
528
330
523
100
AcDbEntity
  8
0
370
     0
  0
HATCH
  5
529
330
503
100
AcDbEntity
  8
0
 62
     7
420
 16777215
100
AcDbHatch
 10
0.0
 20
0.0
 30
0.0
210
0.0
220
0.0
230
1.0
  2
SOLID
 70
     1
 71
     0
 91
        1
 92
        1
 93
        3
 72
     1
 10
66.67159887072937
 20
38.07728747964736
 11
66.67159887072937
 21
37.24116225379006
 72
     1
 10
66.67159887072937
 20
37.24116225379006
 11
64.15633299764154
 21
37.65733006295183
 72
     1
 10
64.15633299764154
 20
37.65733006295183
 11
66.67159887072937
 21
38.07728747964736
 97
        0
 75
     2
 76
     1
 98
        0
  0
ENDBLK
  5
506
330
503
100
AcDbEntity
  8
0
100
AcDbBlockEnd
  0
BLOCK
  5
52C
330
52A
100
AcDbEntity
  8
0
100
AcDbBlockBegin
  2
block 191
 70
     0
 71
     0
 10
0.0
 20
0.0
 30
0.0
  3
block 191
  1

  0
POLYLINE
  5
52E
330
52A
100
AcDbEntity
  8
0
 62
     7
420
 16777215
370
     9
100
AcDb2dPolyline
 66
     1
 10
0.0
 20
0.0
 30
0.0
  0
VERTEX
  5
52F
330
52E
100
AcDbEntity
  8
0
 62
     7
420
 16777215
370
     9
100
AcDbVertex
100
AcDb2dVertex
 10
66.67159887072937
 20
37.24116225379006
 30
0.0
  0
VERTEX
  5
530
330
52E
100
AcDbEntity
  8
0
 62
     7
420
 16777215
370
     9
100
AcDbVertex
100
AcDb2dVertex
 10
64.15633299764154
 20
37.65733006295183
 30
0.0
  0
SEQEND
  5
531
330
52E
100
AcDbEntity
  8
0
370
     9
  0
POLYLINE
  5
532
330
52A
100
AcDbEntity
  8
0
 62
     7
420
 16777215
370
     9
100
AcDb2dPolyline
 66
     1
 10
0.0
 20
0.0
 30
0.0
  0
VERTEX
  5
533
330
532
100
AcDbEntity
  8
0
 62
     7
420
 16777215
370
     9
100
AcDbVertex
100
AcDb2dVertex
 10
64.15633299764154
 20
37.65733006295183
 30
0.0
  0
VERTEX
  5
534
330
532
100
AcDbEntity
  8
0
 62
     7
420
 16777215
370
     9
100
AcDbVertex
100
AcDb2dVertex
 10
66.67159887072937
 20
38.07728747964736
 30
0.0
  0
SEQEND
  5
535
330
532
100
AcDbEntity
  8
0
370
     9
  0
POLYLINE
  5
536
330
52A
100
AcDbEntity
  8
0
 62
     7
420
 16777215
370
     9
100
AcDb2dPolyline
 66
     1
 10
0.0
 20
0.0
 30
0.0
  0
VERTEX
  5
537
330
536
100
AcDbEntity
  8
0
 62
     7
420
 16777215
370
     9
100
AcDbVertex
100
AcDb2dVertex
 10
66.67159887072937
 20
37.24116225379006
 30
0.0
  0
VERTEX
  5
538
330
536
100
AcDbEntity
  8
0
 62
     7
420
 16777215
370
     9
100
AcDbVertex
100
AcDb2dVertex
 10
66.67159887072937
 20
38.07728747964736
 30
0.0
  0
SEQEND
  5
539
330
536
100
AcDbEntity
  8
0
370
     9
  0
POLYLINE
  5
53A
330
52A
100
AcDbEntity
  8
0
 62
     7
420
 16777215
370
     9
100
AcDb2dPolyline
 66
     1
 10
0.0
 20
0.0
 30
0.0
  0
VERTEX
  5
53B
330
53A
100
AcDbEntity
  8
0
 62
     7
420
 16777215
370
     9
100
AcDbVertex
100
AcDb2dVertex
 10
93.48979011269424
 20
38.07728747964736
 30
0.0
  0
VERTEX
  5
53C
330
53A
100
AcDbEntity
  8
0
 62
     7
420
 16777215
370
     9
100
AcDbVertex
100
AcDb2dVertex
 10
96.00505598578206
 20
37.65733006295183
 30
0.0
  0
SEQEND
  5
53D
330
53A
100
AcDbEntity
  8
0
370
     9
  0
POLYLINE
  5
53E
330
52A
100
AcDbEntity
  8
0
 62
     7
420
 16777215
370
     9
100
AcDb2dPolyline
 66
     1
 10
0.0
 20
0.0
 30
0.0
  0
VERTEX
  5
53F
330
53E
100
AcDbEntity
  8
0
 62
     7
420
 16777215
370
     9
100
AcDbVertex
100
AcDb2dVertex
 10
96.00505598578206
 20
37.65733006295183
 30
0.0
  0
VERTEX
  5
540
330
53E
100
AcDbEntity
  8
0
 62
     7
420
 16777215
370
     9
100
AcDbVertex
100
AcDb2dVertex
 10
93.48979011269424
 20
37.24116225379006
 30
0.0
  0
SEQEND
  5
541
330
53E
100
AcDbEntity
  8
0
370
     9
  0
POLYLINE
  5
542
330
52A
100
AcDbEntity
  8
0
 62
     7
420
 16777215
370
     9
100
AcDb2dPolyline
 66
     1
 10
0.0
 20
0.0
 30
0.0
  0
VERTEX
  5
543
330
542
100
AcDbEntity
  8
0
 62
     7
420
 16777215
370
     9
100
AcDbVertex
100
AcDb2dVertex
 10
93.48979011269424
 20
38.07728747964736
 30
0.0
  0
VERTEX
  5
544
330
542
100
AcDbEntity
  8
0
 62
     7
420
 16777215
370
     9
100
AcDbVertex
100
AcDb2dVertex
 10
93.48979011269424
 20
37.65733006295183
 30
0.0
  0
VERTEX
  5
545
330
542
100
AcDbEntity
  8
0
 62
     7
420
 16777215
370
     9
100
AcDbVertex
100
AcDb2dVertex
 10
93.48979011269424
 20
37.24116225379006
 30
0.0
  0
SEQEND
  5
546
330
542
100
AcDbEntity
  8
0
370
     9
  0
POLYLINE
  5
547
330
52A
100
AcDbEntity
  8
0
 62
     7
420
 16777215
370
     9
100
AcDb2dPolyline
 66
     1
 10
0.0
 20
0.0
 30
0.0
  0
VERTEX
  5
548
330
547
100
AcDbEntity
  8
0
 62
     7
420
 16777215
370
     9
100
AcDbVertex
100
AcDb2dVertex
 10
96.00505598578206
 20
37.65733006295183
 30
0.0
  0
VERTEX
  5
549
330
547
100
AcDbEntity
  8
0
 62
     7
420
 16777215
370
     9
100
AcDbVertex
100
AcDb2dVertex
 10
93.48979011269424
 20
37.65733006295183
 30
0.0
  0
SEQEND
  5
54A
330
547
100
AcDbEntity
  8
0
370
     9
  0
POLYLINE
  5
54B
330
52A
100
AcDbEntity
  8
0
 62
     7
420
 16777215
370
     9
100
AcDb2dPolyline
 66
     1
 10
0.0
 20
0.0
 30
0.0
  0
VERTEX
  5
54C
330
54B
100
AcDbEntity
  8
0
 62
     7
420
 16777215
370
     9
100
AcDbVertex
100
AcDb2dVertex
 10
154.5062610137295
 20
93.02590769958469
 30
0.0
  0
VERTEX
  5
54D
330
54B
100
AcDbEntity
  8
0
 62
     7
420
 16777215
370
     9
100
AcDbVertex
100
AcDb2dVertex
 10
157.0215268868173
 20
92.60595028288917
 30
0.0
  0
SEQEND
  5
54E
330
54B
100
AcDbEntity
  8
0
370
     9
  0
POLYLINE
  5
54F
330
52A
100
AcDbEntity
  8
0
 62
     7
420
 16777215
370
     9
100
AcDb2dPolyline
 66
     1
 10
0.0
 20
0.0
 30
0.0
  0
VERTEX
  5
550
330
54F
100
AcDbEntity
  8
0
 62
     7
420
 16777215
370
     9
100
AcDbVertex
100
AcDb2dVertex
 10
157.0215268868173
 20
92.60595028288917
 30
0.0
  0
VERTEX
  5
551
330
54F
100
AcDbEntity
  8
0
 62
     7
420
 16777215
370
     9
100
AcDbVertex
100
AcDb2dVertex
 10
154.5062610137295
 20
92.18633737596943
 30
0.0
  0
SEQEND
  5
552
330
54F
100
AcDbEntity
  8
0
370
     9
  0
POLYLINE
  5
553
330
52A
100
AcDbEntity
  8
0
 62
     7
420
 16777215
370
     9
100
AcDb2dPolyline
 66
     1
 10
0.0
 20
0.0
 30
0.0
  0
VERTEX
  5
554
330
553
100
AcDbEntity
  8
0
 62
     7
420
 16777215
370
     9
100
AcDbVertex
100
AcDb2dVertex
 10
154.5062610137295
 20
93.02590769958469
 30
0.0
  0
VERTEX
  5
555
330
553
100
AcDbEntity
  8
0
 62
     7
420
 16777215
370
     9
100
AcDbVertex
100
AcDb2dVertex
 10
154.5062610137295
 20
92.18633737596943
 30
0.0
  0
SEQEND
  5
556
330
553
100
AcDbEntity
  8
0
370
     9
  0
POLYLINE
  5
557
330
52A
100
AcDbEntity
  8
0
 62
     7
420
 16777215
370
     9
100
AcDb2dPolyline
 66
     1
 10
0.0
 20
0.0
 30
0.0
  0
VERTEX
  5
558
330
557
100
AcDbEntity
  8
0
 62
     7
420
 16777215
370
     9
100
AcDbVertex
100
AcDb2dVertex
 10
112.1587748630886
 20
92.18633737596943
 30
0.0
  0
VERTEX
  5
559
330
557
100
AcDbEntity
  8
0
 62
     7
420
 16777215
370
     9
100
AcDbVertex
100
AcDb2dVertex
 10
109.6435089900008
 20
92.60595028288917
 30
0.0
  0
SEQEND
  5
55A
330
557
100
AcDbEntity
  8
0
370
     9
  0
POLYLINE
  5
55B
330
52A
100
AcDbEntity
  8
0
 62
     7
420
 16777215
370
     9
100
AcDb2dPolyline
 66
     1
 10
0.0
 20
0.0
 30
0.0
  0
VERTEX
  5
55C
330
55B
100
AcDbEntity
  8
0
 62
     7
420
 16777215
370
     9
100
AcDbVertex
100
AcDb2dVertex
 10
109.6435089900008
 20
92.60595028288917
 30
0.0
  0
VERTEX
  5
55D
330
55B
100
AcDbEntity
  8
0
 62
     7
420
 16777215
370
     9
100
AcDbVertex
100
AcDb2dVertex
 10
112.1587748630886
 20
93.02590769958469
 30
0.0
  0
SEQEND
  5
55E
330
55B
100
AcDbEntity
  8
0
370
     9
  0
POLYLINE
  5
55F
330
52A
100
AcDbEntity
  8
0
 62
     7
420
 16777215
370
     9
100
AcDb2dPolyline
 66
     1
 10
0.0
 20
0.0
 30
0.0
  0
VERTEX
  5
560
330
55F
100
AcDbEntity
  8
0
 62
     7
420
 16777215
370
     9
100
AcDbVertex
100
AcDb2dVertex
 10
112.1587748630886
 20
92.18633737596943
 30
0.0
  0
VERTEX
  5
561
330
55F
100
AcDbEntity
  8
0
 62
     7
420
 16777215
370
     9
100
AcDbVertex
100
AcDb2dVertex
 10
112.1587748630886
 20
93.02590769958469
 30
0.0
  0
SEQEND
  5
562
330
55F
100
AcDbEntity
  8
0
370
     9
  0
ENDBLK
  5
52D
330
52A
100
AcDbEntity
  8
0
100
AcDbBlockEnd
  0
BLOCK
  5
565
330
563
100
AcDbEntity
  8
0
100
AcDbBlockBegin
  2
block 192
 70
     0
 71
     0
 10
0.0
 20
0.0
 30
0.0
  3
block 192
  1

  0
POLYLINE
  5
567
330
563
100
AcDbEntity
  8
0
 62
     7
420
 16777215
370
     9
100
AcDb2dPolyline
 66
     1
 10
0.0
 20
0.0
 30
0.0
  0
VERTEX
  5
568
330
567
100
AcDbEntity
  8
0
 62
     7
420
 16777215
370
     9
100
AcDbVertex
100
AcDb2dVertex
 10
109.6445425193282
 20
92.60698381221655
 30
0.0
  0
VERTEX
  5
569
330
567
100
AcDbEntity
  8
0
 62
     7
420
 16777215
370
     9
100
AcDbVertex
100
AcDb2dVertex
 10
112.1584303533128
 20
92.60698381221655
 30
0.0
  0
SEQEND
  5
56A
330
567
100
AcDbEntity
  8
0
370
     9
  0
ENDBLK
  5
566
330
563
100
AcDbEntity
  8
0
100
AcDbBlockEnd
  0
BLOCK
  5
56D
330
56B
100
AcDbEntity
  8
0
100
AcDbBlockBegin
  2
block 193
 70
     0
 71
     0
 10
0.0
 20
0.0
 30
0.0
  3
block 193
  1

  0
POLYLINE
  5
56F
330
56B
100
AcDbEntity
  8
0
 62
     7
420
 16777215
370
     9
100
AcDb2dPolyline
 66
     1
 10
0.0
 20
0.0
 30
0.0
  0
VERTEX
  5
570
330
56F
100
AcDbEntity
  8
0
 62
     7
420
 16777215
370
     9
100
AcDbVertex
100
AcDb2dVertex
 10
157.0211823770415
 20
134.9189854559504
 30
0.0
  0
VERTEX
  5
571
330
56F
100
AcDbEntity
  8
0
 62
     7
420
 16777215
370
     9
100
AcDbVertex
100
AcDb2dVertex
 10
157.0211823770415
 20
92.18771541507262
 30
0.0
  0
SEQEND
  5
572
330
56F
100
AcDbEntity
  8
0
370
     9
  0
ENDBLK
  5
56E
330
56B
100
AcDbEntity
  8
0
100
AcDbBlockEnd
  0
BLOCK
  5
575
330
573
100
AcDbEntity
  8
0
100
AcDbBlockBegin
  2
block 194
 70
     0
 71
     0
 10
0.0
 20
0.0
 30
0.0
  3
block 194
  1

  0
POLYLINE
  5
577
330
573
100
AcDbEntity
  8
0
 62
     7
420
 16777215
370
     9
100
AcDb2dPolyline
 66
     1
 10
0.0
 20
0.0
 30
0.0
  0
VERTEX
  5
578
330
577
100
AcDbEntity
  8
0
 62
     7
420
 16777215
370
     9
100
AcDbVertex
100
AcDb2dVertex
 10
109.6445425193282
 20
128.6247918521544
 30
0.0
  0
VERTEX
  5
579
330
577
100
AcDbEntity
  8
0
 62
     7
420
 16777215
370
     9
100
AcDbVertex
100
AcDb2dVertex
 10
109.6445425193282
 20
92.18771541507262
 30
0.0
  0
SEQEND
  5
57A
330
577
100
AcDbEntity
  8
0
370
     9
  0
ENDBLK
  5
576
330
573
100
AcDbEntity
  8
0
100
AcDbBlockEnd
  0
BLOCK
  5
57D
330
57B
100
AcDbEntity
  8
0
100
AcDbBlockBegin
  2
block 195
 70
     0
 71
     0
 10
0.0
 20
0.0
 30
0.0
  3
block 195
  1

  0
POLYLINE
  5
57F
330
57B
100
AcDbEntity
  8
0
 62
     7
420
 16777215
370
     9
100
AcDb2dPolyline
 66
     1
 10
0.0
 20
0.0
 30
0.0
  0
VERTEX
  5
580
330
57F
100
AcDbEntity
  8
0
 62
     7
420
 16777215
370
     9
100
AcDbVertex
100
AcDb2dVertex
 10
157.0211823770415
 20
92.60698381221655
 30
0.0
  0
VERTEX
  5
581
330
57F
100
AcDbEntity
  8
0
 62
     7
420
 16777215
370
     9
100
AcDbVertex
100
AcDb2dVertex
 10
109.6445425193282
 20
92.60698381221655
 30
0.0
  0
SEQEND
  5
582
330
57F
100
AcDbEntity
  8
0
370
     9
  0
ENDBLK
  5
57E
330
57B
100
AcDbEntity
  8
0
100
AcDbBlockEnd
  0
BLOCK
  5
585
330
583
100
AcDbEntity
  8
0
100
AcDbBlockBegin
  2
block 196
 70
     0
 71
     0
 10
0.0
 20
0.0
 30
0.0
  3
block 196
  1

  0
MTEXT
  5
587
330
583
100
AcDbEntity
  8
0
 62
     7
420
 16777215
100
AcDbMText
 10
130.5800570846856
 20
93.03107534622164
 30
0.0
 40
2.398890470823883
 41
0.0
 71
     7
 72
     1
  1
\fArial|b1|i0|c0|p34;\W0.75;113.1
 73
     1
 44
1.0
  0
ENDBLK
  5
586
330
583
100
AcDbEntity
  8
0
100
AcDbBlockEnd
  0
ENDSEC
  0
SECTION
  2
ENTITIES
  0
INSERT
  5
3C
330
1F
100
AcDbEntity
  8
0
100
AcDbBlockReference
  2
block 2
 10
0.0
 20
0.0
 30
0.0
  0
INSERT
  5
44
330
1F
100
AcDbEntity
  8
0
100
AcDbBlockReference
  2
block 3
 10
0.0
 20
0.0
 30
0.0
  0
INSERT
  5
4C
330
1F
100
AcDbEntity
  8
0
100
AcDbBlockReference
  2
block 4
 10
0.0
 20
0.0
 30
0.0
  0
INSERT
  5
51
330
1F
100
AcDbEntity
  8
0
100
AcDbBlockReference
  2
block 5
 10
0.0
 20
0.0
 30
0.0
  0
INSERT
  5
56
330
1F
100
AcDbEntity
  8
0
100
AcDbBlockReference
  2
block 6
 10
0.0
 20
0.0
 30
0.0
  0
INSERT
  5
5B
330
1F
100
AcDbEntity
  8
0
100
AcDbBlockReference
  2
block 7
 10
0.0
 20
0.0
 30
0.0
  0
INSERT
  5
60
330
1F
100
AcDbEntity
  8
0
100
AcDbBlockReference
  2
block 8
 10
0.0
 20
0.0
 30
0.0
  0
INSERT
  5
68
330
1F
100
AcDbEntity
  8
0
100
AcDbBlockReference
  2
block 9
 10
0.0
 20
0.0
 30
0.0
  0
INSERT
  5
70
330
1F
100
AcDbEntity
  8
0
100
AcDbBlockReference
  2
block 10
 10
0.0
 20
0.0
 30
0.0
  0
INSERT
  5
78
330
1F
100
AcDbEntity
  8
0
100
AcDbBlockReference
  2
block 11
 10
0.0
 20
0.0
 30
0.0
  0
INSERT
  5
80
330
1F
100
AcDbEntity
  8
0
100
AcDbBlockReference
  2
block 12
 10
0.0
 20
0.0
 30
0.0
  0
INSERT
  5
85
330
1F
100
AcDbEntity
  8
0
100
AcDbBlockReference
  2
block 13
 10
0.0
 20
0.0
 30
0.0
  0
INSERT
  5
8D
330
1F
100
AcDbEntity
  8
0
100
AcDbBlockReference
  2
block 14
 10
0.0
 20
0.0
 30
0.0
  0
INSERT
  5
95
330
1F
100
AcDbEntity
  8
0
100
AcDbBlockReference
  2
block 15
 10
0.0
 20
0.0
 30
0.0
  0
INSERT
  5
9A
330
1F
100
AcDbEntity
  8
0
100
AcDbBlockReference
  2
block 16
 10
0.0
 20
0.0
 30
0.0
  0
INSERT
  5
9F
330
1F
100
AcDbEntity
  8
0
100
AcDbBlockReference
  2
block 17
 10
0.0
 20
0.0
 30
0.0
  0
INSERT
  5
A4
330
1F
100
AcDbEntity
  8
0
100
AcDbBlockReference
  2
block 18
 10
0.0
 20
0.0
 30
0.0
  0
INSERT
  5
AC
330
1F
100
AcDbEntity
  8
0
100
AcDbBlockReference
  2
block 19
 10
0.0
 20
0.0
 30
0.0
  0
INSERT
  5
B4
330
1F
100
AcDbEntity
  8
0
100
AcDbBlockReference
  2
block 20
 10
0.0
 20
0.0
 30
0.0
  0
INSERT
  5
B9
330
1F
100
AcDbEntity
  8
0
100
AcDbBlockReference
  2
block 21
 10
0.0
 20
0.0
 30
0.0
  0
INSERT
  5
BE
330
1F
100
AcDbEntity
  8
0
100
AcDbBlockReference
  2
block 22
 10
0.0
 20
0.0
 30
0.0
  0
INSERT
  5
C6
330
1F
100
AcDbEntity
  8
0
100
AcDbBlockReference
  2
block 23
 10
0.0
 20
0.0
 30
0.0
  0
INSERT
  5
CE
330
1F
100
AcDbEntity
  8
0
100
AcDbBlockReference
  2
block 24
 10
0.0
 20
0.0
 30
0.0
  0
INSERT
  5
D6
330
1F
100
AcDbEntity
  8
0
100
AcDbBlockReference
  2
block 25
 10
0.0
 20
0.0
 30
0.0
  0
INSERT
  5
DE
330
1F
100
AcDbEntity
  8
0
100
AcDbBlockReference
  2
block 26
 10
0.0
 20
0.0
 30
0.0
  0
INSERT
  5
E3
330
1F
100
AcDbEntity
  8
0
100
AcDbBlockReference
  2
block 27
 10
0.0
 20
0.0
 30
0.0
  0
INSERT
  5
E8
330
1F
100
AcDbEntity
  8
0
100
AcDbBlockReference
  2
block 28
 10
0.0
 20
0.0
 30
0.0
  0
INSERT
  5
F0
330
1F
100
AcDbEntity
  8
0
100
AcDbBlockReference
  2
block 29
 10
0.0
 20
0.0
 30
0.0
  0
INSERT
  5
F8
330
1F
100
AcDbEntity
  8
0
100
AcDbBlockReference
  2
block 30
 10
0.0
 20
0.0
 30
0.0
  0
INSERT
  5
FD
330
1F
100
AcDbEntity
  8
0
100
AcDbBlockReference
  2
block 31
 10
0.0
 20
0.0
 30
0.0
  0
INSERT
  5
102
330
1F
100
AcDbEntity
  8
0
100
AcDbBlockReference
  2
block 32
 10
0.0
 20
0.0
 30
0.0
  0
INSERT
  5
107
330
1F
100
AcDbEntity
  8
0
100
AcDbBlockReference
  2
block 33
 10
0.0
 20
0.0
 30
0.0
  0
INSERT
  5
10C
330
1F
100
AcDbEntity
  8
0
100
AcDbBlockReference
  2
block 34
 10
0.0
 20
0.0
 30
0.0
  0
INSERT
  5
114
330
1F
100
AcDbEntity
  8
0
100
AcDbBlockReference
  2
block 35
 10
0.0
 20
0.0
 30
0.0
  0
INSERT
  5
11C
330
1F
100
AcDbEntity
  8
0
100
AcDbBlockReference
  2
block 36
 10
0.0
 20
0.0
 30
0.0
  0
INSERT
  5
121
330
1F
100
AcDbEntity
  8
0
100
AcDbBlockReference
  2
block 37
 10
0.0
 20
0.0
 30
0.0
  0
INSERT
  5
126
330
1F
100
AcDbEntity
  8
0
100
AcDbBlockReference
  2
block 38
 10
0.0
 20
0.0
 30
0.0
  0
INSERT
  5
12B
330
1F
100
AcDbEntity
  8
0
100
AcDbBlockReference
  2
block 39
 10
0.0
 20
0.0
 30
0.0
  0
INSERT
  5
133
330
1F
100
AcDbEntity
  8
0
100
AcDbBlockReference
  2
block 40
 10
0.0
 20
0.0
 30
0.0
  0
INSERT
  5
13B
330
1F
100
AcDbEntity
  8
0
100
AcDbBlockReference
  2
block 41
 10
0.0
 20
0.0
 30
0.0
  0
INSERT
  5
143
330
1F
100
AcDbEntity
  8
0
100
AcDbBlockReference
  2
block 42
 10
0.0
 20
0.0
 30
0.0
  0
INSERT
  5
14B
330
1F
100
AcDbEntity
  8
0
100
AcDbBlockReference
  2
block 43
 10
0.0
 20
0.0
 30
0.0
  0
INSERT
  5
150
330
1F
100
AcDbEntity
  8
0
100
AcDbBlockReference
  2
block 44
 10
0.0
 20
0.0
 30
0.0
  0
INSERT
  5
155
330
1F
100
AcDbEntity
  8
0
100
AcDbBlockReference
  2
block 45
 10
0.0
 20
0.0
 30
0.0
  0
INSERT
  5
15A
330
1F
100
AcDbEntity
  8
0
100
AcDbBlockReference
  2
block 46
 10
0.0
 20
0.0
 30
0.0
  0
INSERT
  5
15F
330
1F
100
AcDbEntity
  8
0
100
AcDbBlockReference
  2
block 47
 10
0.0
 20
0.0
 30
0.0
  0
INSERT
  5
164
330
1F
100
AcDbEntity
  8
0
100
AcDbBlockReference
  2
block 48
 10
0.0
 20
0.0
 30
0.0
  0
INSERT
  5
16C
330
1F
100
AcDbEntity
  8
0
100
AcDbBlockReference
  2
block 49
 10
0.0
 20
0.0
 30
0.0
  0
INSERT
  5
174
330
1F
100
AcDbEntity
  8
0
100
AcDbBlockReference
  2
block 50
 10
0.0
 20
0.0
 30
0.0
  0
INSERT
  5
17C
330
1F
100
AcDbEntity
  8
0
100
AcDbBlockReference
  2
block 51
 10
0.0
 20
0.0
 30
0.0
  0
INSERT
  5
184
330
1F
100
AcDbEntity
  8
0
100
AcDbBlockReference
  2
block 52
 10
0.0
 20
0.0
 30
0.0
  0
INSERT
  5
189
330
1F
100
AcDbEntity
  8
0
100
AcDbBlockReference
  2
block 53
 10
0.0
 20
0.0
 30
0.0
  0
INSERT
  5
191
330
1F
100
AcDbEntity
  8
0
100
AcDbBlockReference
  2
block 54
 10
0.0
 20
0.0
 30
0.0
  0
INSERT
  5
196
330
1F
100
AcDbEntity
  8
0
100
AcDbBlockReference
  2
block 55
 10
0.0
 20
0.0
 30
0.0
  0
INSERT
  5
19E
330
1F
100
AcDbEntity
  8
0
100
AcDbBlockReference
  2
block 56
 10
0.0
 20
0.0
 30
0.0
  0
INSERT
  5
1A6
330
1F
100
AcDbEntity
  8
0
100
AcDbBlockReference
  2
block 57
 10
0.0
 20
0.0
 30
0.0
  0
INSERT
  5
1AE
330
1F
100
AcDbEntity
  8
0
100
AcDbBlockReference
  2
block 58
 10
0.0
 20
0.0
 30
0.0
  0
INSERT
  5
1B3
330
1F
100
AcDbEntity
  8
0
100
AcDbBlockReference
  2
block 59
 10
0.0
 20
0.0
 30
0.0
  0
INSERT
  5
1B8
330
1F
100
AcDbEntity
  8
0
100
AcDbBlockReference
  2
block 60
 10
0.0
 20
0.0
 30
0.0
  0
INSERT
  5
1C0
330
1F
100
AcDbEntity
  8
0
100
AcDbBlockReference
  2
block 61
 10
0.0
 20
0.0
 30
0.0
  0
INSERT
  5
1C8
330
1F
100
AcDbEntity
  8
0
100
AcDbBlockReference
  2
block 62
 10
0.0
 20
0.0
 30
0.0
  0
INSERT
  5
1D0
330
1F
100
AcDbEntity
  8
0
100
AcDbBlockReference
  2
block 63
 10
0.0
 20
0.0
 30
0.0
  0
INSERT
  5
1D8
330
1F
100
AcDbEntity
  8
0
100
AcDbBlockReference
  2
block 64
 10
0.0
 20
0.0
 30
0.0
  0
INSERT
  5
1E0
330
1F
100
AcDbEntity
  8
0
100
AcDbBlockReference
  2
block 65
 10
0.0
 20
0.0
 30
0.0
  0
INSERT
  5
25F
330
1F
100
AcDbEntity
  8
0
100
AcDbBlockReference
  2
block 82
 10
0.0
 20
0.0
 30
0.0
  0
INSERT
  5
267
330
1F
100
AcDbEntity
  8
0
100
AcDbBlockReference
  2
block 83
 10
0.0
 20
0.0
 30
0.0
  0
INSERT
  5
26F
330
1F
100
AcDbEntity
  8
0
100
AcDbBlockReference
  2
block 84
 10
0.0
 20
0.0
 30
0.0
  0
INSERT
  5
274
330
1F
100
AcDbEntity
  8
0
100
AcDbBlockReference
  2
block 85
 10
0.0
 20
0.0
 30
0.0
  0
INSERT
  5
279
330
1F
100
AcDbEntity
  8
0
100
AcDbBlockReference
  2
block 86
 10
0.0
 20
0.0
 30
0.0
  0
INSERT
  5
27E
330
1F
100
AcDbEntity
  8
0
100
AcDbBlockReference
  2
block 87
 10
0.0
 20
0.0
 30
0.0
  0
INSERT
  5
283
330
1F
100
AcDbEntity
  8
0
100
AcDbBlockReference
  2
block 88
 10
0.0
 20
0.0
 30
0.0
  0
INSERT
  5
288
330
1F
100
AcDbEntity
  8
0
100
AcDbBlockReference
  2
block 89
 10
0.0
 20
0.0
 30
0.0
  0
INSERT
  5
28D
330
1F
100
AcDbEntity
  8
0
100
AcDbBlockReference
  2
block 90
 10
0.0
 20
0.0
 30
0.0
  0
INSERT
  5
292
330
1F
100
AcDbEntity
  8
0
100
AcDbBlockReference
  2
block 91
 10
0.0
 20
0.0
 30
0.0
  0
INSERT
  5
297
330
1F
100
AcDbEntity
  8
0
100
AcDbBlockReference
  2
block 92
 10
0.0
 20
0.0
 30
0.0
  0
INSERT
  5
29F
330
1F
100
AcDbEntity
  8
0
100
AcDbBlockReference
  2
block 93
 10
0.0
 20
0.0
 30
0.0
  0
INSERT
  5
2A7
330
1F
100
AcDbEntity
  8
0
100
AcDbBlockReference
  2
block 94
 10
0.0
 20
0.0
 30
0.0
  0
INSERT
  5
2AC
330
1F
100
AcDbEntity
  8
0
100
AcDbBlockReference
  2
block 95
 10
0.0
 20
0.0
 30
0.0
  0
INSERT
  5
2B1
330
1F
100
AcDbEntity
  8
0
100
AcDbBlockReference
  2
block 96
 10
0.0
 20
0.0
 30
0.0
  0
INSERT
  5
2B6
330
1F
100
AcDbEntity
  8
0
100
AcDbBlockReference
  2
block 97
 10
0.0
 20
0.0
 30
0.0
  0
INSERT
  5
2BB
330
1F
100
AcDbEntity
  8
0
100
AcDbBlockReference
  2
block 98
 10
0.0
 20
0.0
 30
0.0
  0
INSERT
  5
2C3
330
1F
100
AcDbEntity
  8
0
100
AcDbBlockReference
  2
block 99
 10
0.0
 20
0.0
 30
0.0
  0
INSERT
  5
2CB
330
1F
100
AcDbEntity
  8
0
100
AcDbBlockReference
  2
block 100
 10
0.0
 20
0.0
 30
0.0
  0
INSERT
  5
2D3
330
1F
100
AcDbEntity
  8
0
100
AcDbBlockReference
  2
block 101
 10
0.0
 20
0.0
 30
0.0
  0
INSERT
  5
2D8
330
1F
100
AcDbEntity
  8
0
100
AcDbBlockReference
  2
block 102
 10
0.0
 20
0.0
 30
0.0
  0
INSERT
  5
2DD
330
1F
100
AcDbEntity
  8
0
100
AcDbBlockReference
  2
block 103
 10
0.0
 20
0.0
 30
0.0
  0
INSERT
  5
2E2
330
1F
100
AcDbEntity
  8
0
100
AcDbBlockReference
  2
block 104
 10
0.0
 20
0.0
 30
0.0
  0
INSERT
  5
2E7
330
1F
100
AcDbEntity
  8
0
100
AcDbBlockReference
  2
block 105
 10
0.0
 20
0.0
 30
0.0
  0
INSERT
  5
2EC
330
1F
100
AcDbEntity
  8
0
100
AcDbBlockReference
  2
block 106
 10
0.0
 20
0.0
 30
0.0
  0
INSERT
  5
2F1
330
1F
100
AcDbEntity
  8
0
100
AcDbBlockReference
  2
block 107
 10
0.0
 20
0.0
 30
0.0
  0
INSERT
  5
2F9
330
1F
100
AcDbEntity
  8
0
100
AcDbBlockReference
  2
block 108
 10
0.0
 20
0.0
 30
0.0
  0
INSERT
  5
301
330
1F
100
AcDbEntity
  8
0
100
AcDbBlockReference
  2
block 109
 10
0.0
 20
0.0
 30
0.0
  0
INSERT
  5
309
330
1F
100
AcDbEntity
  8
0
100
AcDbBlockReference
  2
block 110
 10
0.0
 20
0.0
 30
0.0
  0
INSERT
  5
30E
330
1F
100
AcDbEntity
  8
0
100
AcDbBlockReference
  2
block 111
 10
0.0
 20
0.0
 30
0.0
  0
INSERT
  5
313
330
1F
100
AcDbEntity
  8
0
100
AcDbBlockReference
  2
block 112
 10
0.0
 20
0.0
 30
0.0
  0
INSERT
  5
318
330
1F
100
AcDbEntity
  8
0
100
AcDbBlockReference
  2
block 113
 10
0.0
 20
0.0
 30
0.0
  0
INSERT
  5
31D
330
1F
100
AcDbEntity
  8
0
100
AcDbBlockReference
  2
block 114
 10
0.0
 20
0.0
 30
0.0
  0
INSERT
  5
325
330
1F
100
AcDbEntity
  8
0
100
AcDbBlockReference
  2
block 115
 10
0.0
 20
0.0
 30
0.0
  0
INSERT
  5
32D
330
1F
100
AcDbEntity
  8
0
100
AcDbBlockReference
  2
block 116
 10
0.0
 20
0.0
 30
0.0
  0
INSERT
  5
372
330
1F
100
AcDbEntity
  8
0
100
AcDbBlockReference
  2
block 126
 10
0.0
 20
0.0
 30
0.0
  0
INSERT
  5
37A
330
1F
100
AcDbEntity
  8
0
100
AcDbBlockReference
  2
block 127
 10
0.0
 20
0.0
 30
0.0
  0
INSERT
  5
382
330
1F
100
AcDbEntity
  8
0
100
AcDbBlockReference
  2
block 128
 10
0.0
 20
0.0
 30
0.0
  0
INSERT
  5
387
330
1F
100
AcDbEntity
  8
0
100
AcDbBlockReference
  2
block 129
 10
0.0
 20
0.0
 30
0.0
  0
INSERT
  5
38C
330
1F
100
AcDbEntity
  8
0
100
AcDbBlockReference
  2
block 130
 10
0.0
 20
0.0
 30
0.0
  0
INSERT
  5
394
330
1F
100
AcDbEntity
  8
0
100
AcDbBlockReference
  2
block 131
 10
0.0
 20
0.0
 30
0.0
  0
INSERT
  5
39C
330
1F
100
AcDbEntity
  8
0
100
AcDbBlockReference
  2
block 132
 10
0.0
 20
0.0
 30
0.0
  0
INSERT
  5
3A4
330
1F
100
AcDbEntity
  8
0
100
AcDbBlockReference
  2
block 133
 10
0.0
 20
0.0
 30
0.0
  0
INSERT
  5
3AC
330
1F
100
AcDbEntity
  8
0
100
AcDbBlockReference
  2
block 134
 10
0.0
 20
0.0
 30
0.0
  0
INSERT
  5
3B4
330
1F
100
AcDbEntity
  8
0
100
AcDbBlockReference
  2
block 135
 10
0.0
 20
0.0
 30
0.0
  0
INSERT
  5
3B9
330
1F
100
AcDbEntity
  8
0
100
AcDbBlockReference
  2
block 136
 10
0.0
 20
0.0
 30
0.0
  0
INSERT
  5
3BE
330
1F
100
AcDbEntity
  8
0
100
AcDbBlockReference
  2
block 137
 10
0.0
 20
0.0
 30
0.0
  0
INSERT
  5
3C3
330
1F
100
AcDbEntity
  8
0
100
AcDbBlockReference
  2
block 138
 10
0.0
 20
0.0
 30
0.0
  0
INSERT
  5
3CB
330
1F
100
AcDbEntity
  8
0
100
AcDbBlockReference
  2
block 139
 10
0.0
 20
0.0
 30
0.0
  0
INSERT
  5
3D3
330
1F
100
AcDbEntity
  8
0
100
AcDbBlockReference
  2
block 140
 10
0.0
 20
0.0
 30
0.0
  0
INSERT
  5
3D8
330
1F
100
AcDbEntity
  8
0
100
AcDbBlockReference
  2
block 141
 10
0.0
 20
0.0
 30
0.0
  0
INSERT
  5
3E0
330
1F
100
AcDbEntity
  8
0
100
AcDbBlockReference
  2
block 142
 10
0.0
 20
0.0
 30
0.0
  0
INSERT
  5
3E8
330
1F
100
AcDbEntity
  8
0
100
AcDbBlockReference
  2
block 143
 10
0.0
 20
0.0
 30
0.0
  0
INSERT
  5
3ED
330
1F
100
AcDbEntity
  8
0
100
AcDbBlockReference
  2
block 144
 10
0.0
 20
0.0
 30
0.0
  0
INSERT
  5
3F2
330
1F
100
AcDbEntity
  8
0
100
AcDbBlockReference
  2
block 145
 10
0.0
 20
0.0
 30
0.0
  0
INSERT
  5
3FA
330
1F
100
AcDbEntity
  8
0
100
AcDbBlockReference
  2
block 146
 10
0.0
 20
0.0
 30
0.0
  0
INSERT
  5
3FF
330
1F
100
AcDbEntity
  8
0
100
AcDbBlockReference
  2
block 147
 10
0.0
 20
0.0
 30
0.0
  0
INSERT
  5
407
330
1F
100
AcDbEntity
  8
0
100
AcDbBlockReference
  2
block 148
 10
0.0
 20
0.0
 30
0.0
  0
INSERT
  5
40F
330
1F
100
AcDbEntity
  8
0
100
AcDbBlockReference
  2
block 149
 10
0.0
 20
0.0
 30
0.0
  0
INSERT
  5
414
330
1F
100
AcDbEntity
  8
0
100
AcDbBlockReference
  2
block 150
 10
0.0
 20
0.0
 30
0.0
  0
INSERT
  5
41C
330
1F
100
AcDbEntity
  8
0
100
AcDbBlockReference
  2
block 151
 10
0.0
 20
0.0
 30
0.0
  0
INSERT
  5
424
330
1F
100
AcDbEntity
  8
0
100
AcDbBlockReference
  2
block 152
 10
0.0
 20
0.0
 30
0.0
  0
INSERT
  5
42C
330
1F
100
AcDbEntity
  8
0
100
AcDbBlockReference
  2
block 153
 10
0.0
 20
0.0
 30
0.0
  0
INSERT
  5
431
330
1F
100
AcDbEntity
  8
0
100
AcDbBlockReference
  2
block 154
 10
0.0
 20
0.0
 30
0.0
  0
INSERT
  5
436
330
1F
100
AcDbEntity
  8
0
100
AcDbBlockReference
  2
block 155
 10
0.0
 20
0.0
 30
0.0
  0
INSERT
  5
43E
330
1F
100
AcDbEntity
  8
0
100
AcDbBlockReference
  2
block 156
 10
0.0
 20
0.0
 30
0.0
  0
INSERT
  5
443
330
1F
100
AcDbEntity
  8
0
100
AcDbBlockReference
  2
block 157
 10
0.0
 20
0.0
 30
0.0
  0
INSERT
  5
44B
330
1F
100
AcDbEntity
  8
0
100
AcDbBlockReference
  2
block 158
 10
0.0
 20
0.0
 30
0.0
  0
INSERT
  5
450
330
1F
100
AcDbEntity
  8
0
100
AcDbBlockReference
  2
block 159
 10
0.0
 20
0.0
 30
0.0
  0
INSERT
  5
455
330
1F
100
AcDbEntity
  8
0
100
AcDbBlockReference
  2
block 160
 10
0.0
 20
0.0
 30
0.0
  0
INSERT
  5
45D
330
1F
100
AcDbEntity
  8
0
100
AcDbBlockReference
  2
block 161
 10
0.0
 20
0.0
 30
0.0
  0
INSERT
  5
462
330
1F
100
AcDbEntity
  8
0
100
AcDbBlockReference
  2
block 162
 10
0.0
 20
0.0
 30
0.0
  0
INSERT
  5
467
330
1F
100
AcDbEntity
  8
0
100
AcDbBlockReference
  2
block 163
 10
0.0
 20
0.0
 30
0.0
  0
INSERT
  5
46C
330
1F
100
AcDbEntity
  8
0
100
AcDbBlockReference
  2
block 164
 10
0.0
 20
0.0
 30
0.0
  0
INSERT
  5
471
330
1F
100
AcDbEntity
  8
0
100
AcDbBlockReference
  2
block 165
 10
0.0
 20
0.0
 30
0.0
  0
INSERT
  5
476
330
1F
100
AcDbEntity
  8
0
100
AcDbBlockReference
  2
block 166
 10
0.0
 20
0.0
 30
0.0
  0
INSERT
  5
47B
330
1F
100
AcDbEntity
  8
0
100
AcDbBlockReference
  2
block 167
 10
0.0
 20
0.0
 30
0.0
  0
INSERT
  5
480
330
1F
100
AcDbEntity
  8
0
100
AcDbBlockReference
  2
block 168
 10
0.0
 20
0.0
 30
0.0
  0
INSERT
  5
485
330
1F
100
AcDbEntity
  8
0
100
AcDbBlockReference
  2
block 169
 10
0.0
 20
0.0
 30
0.0
  0
INSERT
  5
48A
330
1F
100
AcDbEntity
  8
0
100
AcDbBlockReference
  2
block 170
 10
0.0
 20
0.0
 30
0.0
  0
INSERT
  5
48F
330
1F
100
AcDbEntity
  8
0
100
AcDbBlockReference
  2
block 171
 10
0.0
 20
0.0
 30
0.0
  0
INSERT
  5
497
330
1F
100
AcDbEntity
  8
0
100
AcDbBlockReference
  2
block 172
 10
0.0
 20
0.0
 30
0.0
  0
INSERT
  5
49C
330
1F
100
AcDbEntity
  8
0
100
AcDbBlockReference
  2
block 173
 10
0.0
 20
0.0
 30
0.0
  0
INSERT
  5
4A1
330
1F
100
AcDbEntity
  8
0
100
AcDbBlockReference
  2
block 174
 10
0.0
 20
0.0
 30
0.0
  0
INSERT
  5
4A6
330
1F
100
AcDbEntity
  8
0
100
AcDbBlockReference
  2
block 175
 10
0.0
 20
0.0
 30
0.0
  0
INSERT
  5
4AB
330
1F
100
AcDbEntity
  8
0
100
AcDbBlockReference
  2
block 176
 10
0.0
 20
0.0
 30
0.0
  0
INSERT
  5
4B0
330
1F
100
AcDbEntity
  8
0
100
AcDbBlockReference
  2
block 177
 10
0.0
 20
0.0
 30
0.0
  0
INSERT
  5
4B8
330
1F
100
AcDbEntity
  8
0
100
AcDbBlockReference
  2
block 178
 10
0.0
 20
0.0
 30
0.0
  0
INSERT
  5
4C0
330
1F
100
AcDbEntity
  8
0
100
AcDbBlockReference
  2
block 179
 10
0.0
 20
0.0
 30
0.0
  0
INSERT
  5
4C8
330
1F
100
AcDbEntity
  8
0
100
AcDbBlockReference
  2
block 180
 10
0.0
 20
0.0
 30
0.0
  0
INSERT
  5
4D0
330
1F
100
AcDbEntity
  8
0
100
AcDbBlockReference
  2
block 181
 10
0.0
 20
0.0
 30
0.0
  0
INSERT
  5
4D8
330
1F
100
AcDbEntity
  8
0
100
AcDbBlockReference
  2
block 182
 10
0.0
 20
0.0
 30
0.0
  0
INSERT
  5
4E0
330
1F
100
AcDbEntity
  8
0
100
AcDbBlockReference
  2
block 183
 10
0.0
 20
0.0
 30
0.0
  0
INSERT
  5
4E8
330
1F
100
AcDbEntity
  8
0
100
AcDbBlockReference
  2
block 184
 10
0.0
 20
0.0
 30
0.0
  0
ENDSEC
  0
SECTION
  2
OBJECTS
  0
DICTIONARY
  5
C
330
0
100
AcDbDictionary
281
     1
  3
ACAD_GROUP
350
D
  3
ACAD_LAYOUT
350
1A
  3
ACAD_MLINESTYLE
350
17
  3
ACAD_PLOTSETTINGS
350
19
  3
ACAD_PLOTSTYLENAME
350
E
  3
ACAD_TABLESTYLE
350
588
  3
ACAD_VISUALSTYLE
350
2A
  0
DICTIONARY
  5
D
102
{ACAD_REACTORS
330
C
102
}
330
C
100
AcDbDictionary
281
     1
  0
DICTIONARY
  5
1A
102
{ACAD_REACTORS
330
C
102
}
330
C
100
AcDbDictionary
281
     1
  3
Layout1
350
1E
  3
Layout2
350
26
  3
Model
350
22
  0
DICTIONARY
  5
17
102
{ACAD_REACTORS
330
C
102
}
330
C
100
AcDbDictionary
281
     1
  3
Standard
350
18
  0
DICTIONARY
  5
19
102
{ACAD_REACTORS
330
C
102
}
330
C
100
AcDbDictionary
281
     1
  0
ACDBDICTIONARYWDFLT
  5
E
102
{ACAD_REACTORS
330
C
102
}
330
C
100
AcDbDictionary
281
     1
  3
Normal
350
F
100
AcDbDictionaryWithDefault
340
F
  0
DICTIONARY
  5
588
102
{ACAD_REACTORS
330
C
102
}
330
C
100
AcDbDictionary
281
     1
  0
DICTIONARY
  5
2A
102
{ACAD_REACTORS
330
C
102
}
330
C
100
AcDbDictionary
281
     1
  3
2dWireframe
350
2F
  3
3D Hidden
350
31
  3
3dWireframe
350
30
  3
Basic
350
32
  3
Brighten
350
36
  3
ColorChange
350
3A
  3
Conceptual
350
34
  3
Dim
350
35
  3
Facepattern
350
39
  3
Flat
350
2B
  3
FlatWithEdges
350
2C
  3
Gouraud
350
2D
  3
GouraudWithEdges
350
2E
  3
Linepattern
350
38
  3
Realistic
350
33
  3
Thicken
350
37
  0
LAYOUT
  5
1E
102
{ACAD_REACTORS
330
1A
102
}
330
1A
100
AcDbPlotSettings
  1

  2
none_device
  4

  6

 40
0.0
 41
0.0
 42
0.0
 43
0.0
 44
0.0
 45
0.0
 46
0.0
 47
0.0
 48
0.0
 49
0.0
140
0.0
141
0.0
142
1.0
143
1.0
 70
   688
 72
     0
 73
     0
 74
     5
  7

 75
    16
 76
     0
 77
     2
 78
   300
147
1.0
148
0.0
149
0.0
100
AcDbLayout
  1
Layout1
 70
     1
 71
     1
 10
0.0
 20
0.0
 11
12.0
 21
9.0
 12
0.0
 22
0.0
 32
0.0
 14
1.000000000000000E+20
 24
1.000000000000000E+20
 34
1.000000000000000E+20
 15
-1.000000000000000E+20
 25
-1.000000000000000E+20
 35
-1.000000000000000E+20
146
0.0
 13
0.0
 23
0.0
 33
0.0
 16
1.0
 26
0.0
 36
0.0
 17
0.0
 27
1.0
 37
0.0
 76
     0
330
1B
  0
LAYOUT
  5
26
102
{ACAD_REACTORS
330
1A
102
}
330
1A
100
AcDbPlotSettings
  1

  2
none_device
  4

  6

 40
0.0
 41
0.0
 42
0.0
 43
0.0
 44
0.0
 45
0.0
 46
0.0
 47
0.0
 48
0.0
 49
0.0
140
0.0
141
0.0
142
1.0
143
1.0
 70
   688
 72
     0
 73
     0
 74
     5
  7

 75
    16
 76
     0
 77
     2
 78
   300
147
1.0
148
0.0
149
0.0
100
AcDbLayout
  1
Layout2
 70
     1
 71
     2
 10
0.0
 20
0.0
 11
0.0
 21
0.0
 12
0.0
 22
0.0
 32
0.0
 14
0.0
 24
0.0
 34
0.0
 15
0.0
 25
0.0
 35
0.0
146
0.0
 13
0.0
 23
0.0
 33
0.0
 16
1.0
 26
0.0
 36
0.0
 17
0.0
 27
1.0
 37
0.0
 76
     0
330
23
  0
LAYOUT
  5
22
102
{ACAD_REACTORS
330
1A
102
}
330
1A
100
AcDbPlotSettings
  1

  2
none_device
  4

  6

 40
0.0
 41
0.0
 42
0.0
 43
0.0
 44
0.0
 45
0.0
 46
0.0
 47
0.0
 48
0.0
 49
0.0
140
0.0
141
0.0
142
1.0
143
1.0
 70
  1712
 72
     0
 73
     0
 74
     0
  7

 75
     0
 76
     0
 77
     2
 78
   300
147
1.0
148
0.0
149
0.0
100
AcDbLayout
  1
Model
 70
     1
 71
     0
 10
0.0
 20
0.0
 11
12.0
 21
9.0
 12
0.0
 22
0.0
 32
0.0
 14
1.000000000000000E+20
 24
1.000000000000000E+20
 34
1.000000000000000E+20
 15
-1.000000000000000E+20
 25
-1.000000000000000E+20
 35
-1.000000000000000E+20
146
0.0
 13
0.0
 23
0.0
 33
0.0
 16
1.0
 26
0.0
 36
0.0
 17
0.0
 27
1.0
 37
0.0
 76
     0
330
1F
331
29
  0
MLINESTYLE
  5
18
102
{ACAD_REACTORS
330
17
102
}
330
17
100
AcDbMlineStyle
  2
Standard
 70
     0
  3

 62
   256
 51
90.0
 52
90.0
 71
     2
 49
0.5
 62
   256
  6
BYLAYER
 49
-0.5
 62
   256
  6
BYLAYER
  0
ACDBPLACEHOLDER
  5
F
102
{ACAD_REACTORS
330
E
102
}
330
E
  0
VISUALSTYLE
  5
2F
102
{ACAD_REACTORS
330
2A
102
}
330
2A
100
AcDbVisualStyle
  2
2dWireframe
 70
     4
 71
     0
 72
     2
 73
     0
 90
        0
 40
-0.6
 41
-30.0
 62
     5
 63
     7
421
 16777215
 74
     1
 91
        4
 64
     7
 65
   257
 75
     1
175
     1
 42
1.0
 92
        0
 66
   257
 43
1.0
 76
     1
 77
     6
 78
     2
 67
     7
 79
     5
170
     0
171
     0
290
     0
174
     0
 93
        1
 44
0.0
173
     0
291
     0
 45
0.0
1001
ACAD
1000
AcDbSavedByObjectVersion
1070
     0
  0
VISUALSTYLE
  5
31
102
{ACAD_REACTORS
330
2A
102
}
330
2A
100
AcDbVisualStyle
  2
3D Hidden
 70
     6
 71
     1
 72
     2
 73
     2
 90
        0
 40
-0.6
 41
-30.0
 62
     5
 63
     7
421
 16777215
 74
     2
 91
        2
 64
     7
 65
   257
 75
     2
175
     1
 42
40.0
 92
        0
 66
   257
 43
1.0
 76
     1
 77
     6
 78
     2
 67
     7
 79
     3
170
     0
171
     0
290
     0
174
     0
 93
        1
 44
0.0
173
     0
291
     0
 45
0.0
1001
ACAD
1000
AcDbSavedByObjectVersion
1070
     0
  0
VISUALSTYLE
  5
30
102
{ACAD_REACTORS
330
2A
102
}
330
2A
100
AcDbVisualStyle
  2
3dWireframe
 70
     5
 71
     0
 72
     2
 73
     0
 90
        0
 40
-0.6
 41
-30.0
 62
     5
 63
     7
421
 16777215
 74
     1
 91
        4
 64
     7
 65
   257
 75
     1
175
     1
 42
1.0
 92
        0
 66
   257
 43
1.0
 76
     1
 77
     6
 78
     2
 67
     7
 79
     5
170
     0
171
     0
290
     0
174
     0
 93
        1
 44
0.0
173
     0
291
     0
 45
0.0
1001
ACAD
1000
AcDbSavedByObjectVersion
1070
     0
  0
VISUALSTYLE
  5
32
102
{ACAD_REACTORS
330
2A
102
}
330
2A
100
AcDbVisualStyle
  2
Basic
 70
     7
 71
     1
 72
     0
 73
     1
 90
        0
 40
-0.6
 41
-30.0
 62
     5
 63
     7
421
 16777215
 74
     0
 91
        4
 64
     7
 65
   257
 75
     1
175
     1
 42
1.0
 92
        8
 66
     7
 43
1.0
 76
     1
 77
     6
 78
     2
 67
     7
 79
     5
170
     0
171
     0
290
     0
174
     0
 93
        1
 44
0.0
173
     0
291
     1
 45
0.0
1001
ACAD
1000
AcDbSavedByObjectVersion
1070
     0
  0
VISUALSTYLE
  5
36
102
{ACAD_REACTORS
330
2A
102
}
330
2A
100
AcDbVisualStyle
  2
Brighten
 70
    12
 71
     2
 72
     2
 73
     0
 90
        0
 40
-0.6
 41
-30.0
 62
     5
 63
     7
421
 16777215
 74
     1
 91
        4
 64
     7
 65
   257
 75
     1
175
     1
 42
1.0
 92
        8
 66
     7
 43
1.0
 76
     1
 77
     6
 78
     2
 67
     7
 79
     5
170
     0
171
     0
290
     0
174
     0
 93
        1
 44
50.0
173
     0
291
     1
 45
0.0
1001
ACAD
1000
AcDbSavedByObjectVersion
1070
     0
  0
VISUALSTYLE
  5
3A
102
{ACAD_REACTORS
330
2A
102
}
330
2A
100
AcDbVisualStyle
  2
ColorChange
 70
    16
 71
     2
 72
     2
 73
     3
 90
        0
 40
-0.6
 41
-30.0
 62
     5
 63
     8
421
  8421504
 74
     1
 91
        4
 64
     7
 65
   257
 75
     1
175
     1
 42
1.0
 92
        8
 66
     8
424
  8421504
 43
1.0
 76
     1
 77
     6
 78
     2
 67
     7
 79
     5
170
     0
171
     0
290
     0
174
     0
 93
        1
 44
0.0
173
     0
291
     1
 45
0.0
1001
ACAD
1000
AcDbSavedByObjectVersion
1070
     0
  0
VISUALSTYLE
  5
34
102
{ACAD_REACTORS
330
2A
102
}
330
2A
100
AcDbVisualStyle
  2
Conceptual
 70
     9
 71
     3
 72
     2
 73
     0
 90
        0
 40
-0.6
 41
-30.0
 62
     5
 63
     7
421
 16777215
 74
     2
 91
        2
 64
     7
 65
   257
 75
     1
175
     1
 42
40.0
 92
        8
 66
     7
 43
1.0
 76
     1
 77
     6
 78
     2
 67
     7
 79
     3
170
     0
171
     0
290
     0
174
     0
 93
        1
 44
0.0
173
     0
291
     0
 45
0.0
1001
ACAD
1000
AcDbSavedByObjectVersion
1070
     0
  0
VISUALSTYLE
  5
35
102
{ACAD_REACTORS
330
2A
102
}
330
2A
100
AcDbVisualStyle
  2
Dim
 70
    11
 71
     2
 72
     2
 73
     0
 90
        0
 40
-0.6
 41
-30.0
 62
     5
 63
     7
421
 16777215
 74
     1
 91
        4
 64
     7
 65
   257
 75
     1
175
     1
 42
1.0
 92
        8
 66
     7
 43
1.0
 76
     1
 77
     6
 78
     2
 67
     7
 79
     5
170
     0
171
     0
290
     0
174
     0
 93
        1
 44
-50.0
173
     0
291
     1
 45
0.0
1001
ACAD
1000
AcDbSavedByObjectVersion
1070
     0
  0
VISUALSTYLE
  5
39
102
{ACAD_REACTORS
330
2A
102
}
330
2A
100
AcDbVisualStyle
  2
Facepattern
 70
    15
 71
     2
 72
     2
 73
     0
 90
        0
 40
-0.6
 41
-30.0
 62
     5
 63
     7
421
 16777215
 74
     1
 91
        4
 64
     7
 65
   257
 75
     1
175
     1
 42
1.0
 92
        8
 66
     7
 43
1.0
 76
     1
 77
     6
 78
     2
 67
     7
 79
     5
170
     0
171
     0
290
     0
174
     0
 93
        1
 44
0.0
173
     0
291
     1
 45
0.0
1001
ACAD
1000
AcDbSavedByObjectVersion
1070
     0
  0
VISUALSTYLE
  5
2B
102
{ACAD_REACTORS
330
2A
102
}
330
2A
100
AcDbVisualStyle
  2
Flat
 70
     0
 71
     2
 72
     1
 73
     1
 90
        2
 40
-0.6
 41
30.0
 62
     5
 63
     7
421
 16777215
 74
     0
 91
        4
 64
     7
 65
   257
 75
     1
175
     1
 42
1.0
 92
        8
 66
     7
 43
1.0
 76
     1
 77
     6
 78
     2
 67
     7
 79
     5
170
     0
171
     0
290
     0
174
     0
 93
       13
 44
0.0
173
     0
291
     1
 45
0.0
1001
ACAD
1000
AcDbSavedByObjectVersion
1070
     0
  0
VISUALSTYLE
  5
2C
102
{ACAD_REACTORS
330
2A
102
}
330
2A
100
AcDbVisualStyle
  2
FlatWithEdges
 70
     1
 71
     2
 72
     1
 73
     1
 90
        2
 40
-0.6
 41
30.0
 62
     5
 63
     7
421
 16777215
 74
     1
 91
        4
 64
     7
 65
   257
 75
     1
175
     1
 42
1.0
 92
        0
 66
   257
 43
1.0
 76
     1
 77
     6
 78
     2
 67
     7
 79
     5
170
     0
171
     0
290
     0
174
     0
 93
       13
 44
0.0
173
     0
291
     1
 45
0.0
1001
ACAD
1000
AcDbSavedByObjectVersion
1070
     0
  0
VISUALSTYLE
  5
2D
102
{ACAD_REACTORS
330
2A
102
}
330
2A
100
AcDbVisualStyle
  2
Gouraud
 70
     2
 71
     2
 72
     2
 73
     1
 90
        2
 40
-0.6
 41
30.0
 62
     5
 63
     7
421
 16777215
 74
     0
 91
        4
 64
     7
 65
   257
 75
     1
175
     1
 42
1.0
 92
        0
 66
     7
 43
1.0
 76
     1
 77
     6
 78
     2
 67
     7
 79
     5
170
     0
171
     0
290
     0
174
     0
 93
       13
 44
0.0
173
     0
291
     1
 45
0.0
1001
ACAD
1000
AcDbSavedByObjectVersion
1070
     0
  0
VISUALSTYLE
  5
2E
102
{ACAD_REACTORS
330
2A
102
}
330
2A
100
AcDbVisualStyle
  2
GouraudWithEdges
 70
     3
 71
     2
 72
     2
 73
     1
 90
        2
 40
-0.6
 41
30.0
 62
     5
 63
     7
421
 16777215
 74
     1
 91
        4
 64
     7
 65
   257
 75
     1
175
     1
 42
1.0
 92
        0
 66
   257
 43
1.0
 76
     1
 77
     6
 78
     2
 67
     7
 79
     5
170
     0
171
     0
290
     0
174
     0
 93
       13
 44
0.0
173
     0
291
     1
 45
0.0
1001
ACAD
1000
AcDbSavedByObjectVersion
1070
     0
  0
VISUALSTYLE
  5
38
102
{ACAD_REACTORS
330
2A
102
}
330
2A
100
AcDbVisualStyle
  2
Linepattern
 70
    14
 71
     2
 72
     2
 73
     0
 90
        0
 40
-0.6
 41
-30.0
 62
     5
 63
     7
421
 16777215
 74
     1
 91
        4
 64
     7
 65
   257
 75
     7
175
     7
 42
1.0
 92
        8
 66
     7
 43
1.0
 76
     1
 77
     6
 78
     2
 67
     7
 79
     5
170
     0
171
     0
290
     0
174
     0
 93
        1
 44
0.0
173
     0
291
     1
 45
0.0
1001
ACAD
1000
AcDbSavedByObjectVersion
1070
     0
  0
VISUALSTYLE
  5
33
102
{ACAD_REACTORS
330
2A
102
}
330
2A
100
AcDbVisualStyle
  2
Realistic
 70
     8
 71
     2
 72
     2
 73
     0
 90
        0
 40
-0.6
 41
-30.0
 62
     5
 63
     7
421
 16777215
 74
     1
 91
        0
 64
     7
 65
   257
 75
     1
175
     1
 42
1.0
 92
        8
 66
     8
424
  7895160
 43
1.0
 76
     1
 77
     6
 78
     2
 67
     7
 79
     5
170
     0
171
     0
290
     0
174
     0
 93
       13
 44
0.0
173
     0
291
     0
 45
0.0
1001
ACAD
1000
AcDbSavedByObjectVersion
1070
     0
  0
VISUALSTYLE
  5
37
102
{ACAD_REACTORS
330
2A
102
}
330
2A
100
AcDbVisualStyle
  2
Thicken
 70
    13
 71
     2
 72
     2
 73
     0
 90
        0
 40
-0.6
 41
-30.0
 62
     5
 63
     7
421
 16777215
 74
     1
 91
        4
 64
     7
 65
   257
 75
     1
175
     1
 42
1.0
 92
       12
 66
     7
 43
1.0
 76
     1
 77
     6
 78
     2
 67
     7
 79
     5
170
     0
171
     0
290
     0
174
     0
 93
        1
 44
0.0
173
     0
291
     1
 45
0.0
1001
ACAD
1000
AcDbSavedByObjectVersion
1070
     0
  0
ENDSEC
  0
EOF
