  0
SECTION
  2
HEADER
  9
$ACADVER
  1
AC1018
  9
$ACADMAINTVER
 70
     0
  9
$DWGCODEPAGE
  3
ASCII
  9
$INSBASE
 10
0.0
 20
0.0
 30
0.0
  9
$EXTMIN
 10
1.000000000000000E+20
 20
1.000000000000000E+20
 30
1.000000000000000E+20
  9
$EXTMAX
 10
-1.000000000000000E+20
 20
-1.000000000000000E+20
 30
-1.000000000000000E+20
  9
$LIMMIN
 10
0.0
 20
0.0
  9
$LIMMAX
 10
12.0
 20
9.0
  9
$ORTHOMODE
 70
     0
  9
$REGENMODE
 70
     1
  9
$FILLMODE
 70
     1
  9
$QTEXTMODE
 70
     0
  9
$MIRRTEXT
 70
     1
  9
$LTSCALE
 40
1.0
  9
$ATTMODE
 70
     1
  9
$TEXTSIZE
 40
0.2
  9
$TRACEWID
 40
0.05
  9
$TEXTSTYLE
  7
Standard
  9
$CLAYER
  8
0
  9
$CELTYPE
  6
ByLayer
  9
$CECOLOR
 62
   256
  9
$CELTSCALE
 40
1.0
  9
$DISPSILH
 70
     0
  9
$DIMSCALE
 40
1.0
  9
$DIMASZ
 40
0.18
  9
$DIMEXO
 40
0.0625
  9
$DIMDLI
 40
0.38
  9
$DIMRND
 40
0.0
  9
$DIMDLE
 40
0.0
  9
$DIMEXE
 40
0.18
  9
$DIMTP
 40
0.0
  9
$DIMTM
 40
0.0
  9
$DIMTXT
 40
0.18
  9
$DIMCEN
 40
0.09
  9
$DIMTSZ
 40
0.0
  9
$DIMTOL
 70
     0
  9
$DIMLIM
 70
     0
  9
$DIMTIH
 70
     1
  9
$DIMTOH
 70
     1
  9
$DIMSE1
 70
     0
  9
$DIMSE2
 70
     0
  9
$DIMTAD
 70
     0
  9
$DIMZIN
 70
     0
  9
$DIMBLK
  1

  9
$DIMASO
 70
     1
  9
$DIMSHO
 70
     1
  9
$DIMPOST
  1

  9
$DIMAPOST
  1

  9
$DIMALT
 70
     0
  9
$DIMALTD
 70
     2
  9
$DIMALTF
 40
25.4
  9
$DIMLFAC
 40
1.0
  9
$DIMTOFL
 70
     0
  9
$DIMTVP
 40
0.0
  9
$DIMTIX
 70
     0
  9
$DIMSOXD
 70
     0
  9
$DIMSAH
 70
     0
  9
$DIMBLK1
  1

  9
$DIMBLK2
  1

  9
$DIMSTYLE
  2
Standard
  9
$DIMCLRD
 70
     0
  9
$DIMCLRE
 70
     0
  9
$DIMCLRT
 70
     0
  9
$DIMTFAC
 40
1.0
  9
$DIMGAP
 40
0.09
  9
$DIMJUST
 70
     0
  9
$DIMSD1
 70
     0
  9
$DIMSD2
 70
     0
  9
$DIMTOLJ
 70
     1
  9
$DIMTZIN
 70
     0
  9
$DIMALTZ
 70
     0
  9
$DIMALTTZ
 70
     0
  9
$DIMUPT
 70
     0
  9
$DIMDEC
 70
     4
  9
$DIMTDEC
 70
     4
  9
$DIMALTU
 70
     2
  9
$DIMALTTD
 70
     2
  9
$DIMTXSTY
  7
Standard
  9
$DIMAUNIT
 70
     0
  9
$DIMADEC
 70
     0
  9
$DIMALTRND
 40
0.0
  9
$DIMAZIN
 70
     0
  9
$DIMDSEP
 70
    46
  9
$DIMATFIT
 70
     3
  9
$DIMFRAC
 70
     0
  9
$DIMLDRBLK
  1

  9
$DIMLUNIT
 70
     2
  9
$DIMLWD
 70
    -2
  9
$DIMLWE
 70
    -2
  9
$DIMTMOVE
 70
     0
  9
$LUNITS
 70
     2
  9
$LUPREC
 70
     4
  9
$SKETCHINC
 40
0.1
  9
$FILLETRAD
 40
0.5
  9
$AUNITS
 70
     0
  9
$AUPREC
 70
     0
  9
$MENU
  1
.
  9
$ELEVATION
 40
0.0
  9
$PELEVATION
 40
0.0
  9
$THICKNESS
 40
0.0
  9
$LIMCHECK
 70
     0
  9
$CHAMFERA
 40
0.5
  9
$CHAMFERB
 40
0.5
  9
$CHAMFERC
 40
1.0
  9
$CHAMFERD
 40
0.0
  9
$SKPOLY
 70
     0
  9
$TDCREATE
 40
2456966.965074502
  9
$TDUCREATE
 40
2456966.923407835
  9
$TDUPDATE
 40
2456966.965074514
  9
$TDUUPDATE
 40
2456966.923407847
  9
$TDINDWG
 40
0.0000000116
  9
$TDUSRTIMER
 40
0.0000000116
  9
$USRTIMER
 70
     1
  9
$ANGBASE
 50
0.0
  9
$ANGDIR
 70
     0
  9
$PDMODE
 70
     0
  9
$PDSIZE
 40
0.0
  9
$PLINEWID
 40
0.0
  9
$SPLFRAME
 70
     0
  9
$SPLINETYPE
 70
     6
  9
$SPLINESEGS
 70
     8
  9
$HANDSEED
  5
1F5
  9
$SURFTAB1
 70
     6
  9
$SURFTAB2
 70
     6
  9
$SURFTYPE
 70
     6
  9
$SURFU
 70
     6
  9
$SURFV
 70
     6
  9
$UCSBASE
  2

  9
$UCSNAME
  2

  9
$UCSORG
 10
0.0
 20
0.0
 30
0.0
  9
$UCSXDIR
 10
1.0
 20
0.0
 30
0.0
  9
$UCSYDIR
 10
0.0
 20
1.0
 30
0.0
  9
$UCSORTHOREF
  2

  9
$UCSORTHOVIEW
 70
     0
  9
$UCSORGTOP
 10
0.0
 20
0.0
 30
0.0
  9
$UCSORGBOTTOM
 10
0.0
 20
0.0
 30
0.0
  9
$UCSORGLEFT
 10
0.0
 20
0.0
 30
0.0
  9
$UCSORGRIGHT
 10
0.0
 20
0.0
 30
0.0
  9
$UCSORGFRONT
 10
0.0
 20
0.0
 30
0.0
  9
$UCSORGBACK
 10
0.0
 20
0.0
 30
0.0
  9
$PUCSBASE
  2

  9
$PUCSNAME
  2

  9
$PUCSORG
 10
0.0
 20
0.0
 30
0.0
  9
$PUCSXDIR
 10
1.0
 20
0.0
 30
0.0
  9
$PUCSYDIR
 10
0.0
 20
1.0
 30
0.0
  9
$PUCSORTHOREF
  2

  9
$PUCSORTHOVIEW
 70
     0
  9
$PUCSORGTOP
 10
0.0
 20
0.0
 30
0.0
  9
$PUCSORGBOTTOM
 10
0.0
 20
0.0
 30
0.0
  9
$PUCSORGLEFT
 10
0.0
 20
0.0
 30
0.0
  9
$PUCSORGRIGHT
 10
0.0
 20
0.0
 30
0.0
  9
$PUCSORGFRONT
 10
0.0
 20
0.0
 30
0.0
  9
$PUCSORGBACK
 10
0.0
 20
0.0
 30
0.0
  9
$USERI1
 70
     0
  9
$USERI2
 70
     0
  9
$USERI3
 70
     0
  9
$USERI4
 70
     0
  9
$USERI5
 70
     0
  9
$USERR1
 40
0.0
  9
$USERR2
 40
0.0
  9
$USERR3
 40
0.0
  9
$USERR4
 40
0.0
  9
$USERR5
 40
0.0
  9
$WORLDVIEW
 70
     1
  9
$SHADEDGE
 70
     3
  9
$SHADEDIF
 70
    70
  9
$TILEMODE
 70
     1
  9
$MAXACTVP
 70
    64
  9
$PINSBASE
 10
0.0
 20
0.0
 30
0.0
  9
$PLIMCHECK
 70
     0
  9
$PEXTMIN
 10
1.000000000000000E+20
 20
1.000000000000000E+20
 30
1.000000000000000E+20
  9
$PEXTMAX
 10
-1.000000000000000E+20
 20
-1.000000000000000E+20
 30
-1.000000000000000E+20
  9
$PLIMMIN
 10
0.0
 20
0.0
  9
$PLIMMAX
 10
12.0
 20
9.0
  9
$UNITMODE
 70
     0
  9
$VISRETAIN
 70
     1
  9
$PLINEGEN
 70
     0
  9
$PSLTSCALE
 70
     1
  9
$TREEDEPTH
 70
  3020
  9
$CMLSTYLE
  2
Standard
  9
$CMLJUST
 70
     0
  9
$CMLSCALE
 40
1.0
  9
$PROXYGRAPHICS
 70
     1
  9
$MEASUREMENT
 70
     0
  9
$CELWEIGHT
370
    -1
  9
$ENDCAPS
280
     0
  9
$JOINSTYLE
280
     0
  9
$LWDISPLAY
290
     1
  9
$INSUNITS
 70
     1
  9
$HYPERLINKBASE
  1

  9
$STYLESHEET
  1

  9
$XEDIT
290
     1
  9
$CEPSNTYPE
380
     0
  9
$PSTYLEMODE
290
     1
  9
$FINGERPRINTGUID
  2
{253EE5C6-A9CD-4CE0-87E8-35941D7148C5}
  9
$VERSIONGUID
  2
{FAEB1C32-E019-11D5-929B-00C0DF256EC4}
  9
$EXTNAMES
290
     1
  9
$PSVPSCALE
 40
0.0
  9
$OLESTARTUP
290
     0
  9
$SORTENTS
280
   127
  9
$INDEXCTL
280
     0
  9
$HIDETEXT
280
     1
  9
$XCLIPFRAME
290
     0
  9
$HALOGAP
280
     0
  9
$OBSCOLOR
 70
   257
  9
$OBSLTYPE
280
     0
  9
$INTERSECTIONDISPLAY
280
     0
  9
$INTERSECTIONCOLOR
 70
   257
  9
$DIMASSOC
280
     2
  9
$PROJECTNAME
  1

  0
ENDSEC
  0
SECTION
  2
CLASSES
  0
CLASS
  1
ACDBDICTIONARYWDFLT
  2
AcDbDictionaryWithDefault
  3
ObjectDBX Classes
 90
        0
 91
        3
280
     0
281
     0
  0
CLASS
  1
VISUALSTYLE
  2
AcDbVisualStyle
  3
ObjectDBX Classes
 90
     4095
 91
        3
280
     0
281
     0
  0
ENDSEC
  0
SECTION
  2
TABLES
  0
TABLE
  2
VPORT
  5
8
330
0
100
AcDbSymbolTable
 70
     1
  0
VPORT
  5
29
330
8
100
AcDbSymbolTableRecord
100
AcDbViewportTableRecord
  2
*Active
 70
     0
 10
0.0
 20
0.0
 11
1.0
 21
1.0
 12
0.0
 22
0.0
 13
0.0
 23
0.0
 14
0.5
 24
0.5
 15
0.5
 25
0.5
 16
0.0
 26
0.0
 36
1.0
 17
105.0008952513716
 27
148.5000775824991
 37
0.0
 40
297.0001551649982
 41
0.7070763662937379
 42
50.0
 43
0.0
 44
0.0
 50
0.0
 51
0.0
 71
     0
 72
   100
 73
     1
 74
     3
 75
     0
 76
     0
 77
     0
 78
     0
281
     0
 65
     1
110
0.0
120
0.0
130
0.0
111
1.0
121
0.0
131
0.0
112
0.0
122
1.0
132
0.0
 79
     0
146
0.0
  0
ENDTAB
  0
TABLE
  2
LTYPE
  5
5
330
0
100
AcDbSymbolTable
 70
     1
  0
LTYPE
  5
14
330
5
100
AcDbSymbolTableRecord
100
AcDbLinetypeTableRecord
  2
ByBlock
 70
     0
  3

 72
    65
 73
     0
 40
0.0
  0
LTYPE
  5
15
330
5
100
AcDbSymbolTableRecord
100
AcDbLinetypeTableRecord
  2
ByLayer
 70
     0
  3

 72
    65
 73
     0
 40
0.0
  0
LTYPE
  5
16
330
5
100
AcDbSymbolTableRecord
100
AcDbLinetypeTableRecord
  2
Continuous
 70
     0
  3
Solid line
 72
    65
 73
     0
 40
0.0
  0
ENDTAB
  0
TABLE
  2
LAYER
  5
2
330
0
100
AcDbSymbolTable
 70
     2
  0
LAYER
  5
10
330
2
100
AcDbSymbolTableRecord
100
AcDbLayerTableRecord
  2
0
 70
     0
 62
     7
  6
Continuous
370
    -3
390
F
  0
LAYER
  5
3B
330
2
100
AcDbSymbolTableRecord
100
AcDbLayerTableRecord
  2
Capa 1
 70
     0
 62
     7
  6
Continuous
370
    -3
390
F
  0
ENDTAB
  0
TABLE
  2
STYLE
  5
3
330
0
100
AcDbSymbolTable
 70
     1
  0
STYLE
  5
11
330
3
100
AcDbSymbolTableRecord
100
AcDbTextStyleTableRecord
  2
Standard
 70
     0
 40
0.0
 41
1.0
 50
0.0
 71
     0
 42
0.2
  3
txt
  4

  0
ENDTAB
  0
TABLE
  2
VIEW
  5
6
330
0
100
AcDbSymbolTable
 70
     0
  0
ENDTAB
  0
TABLE
  2
UCS
  5
7
330
0
100
AcDbSymbolTable
 70
     0
  0
ENDTAB
  0
TABLE
  2
APPID
  5
9
330
0
100
AcDbSymbolTable
 70
     1
  0
APPID
  5
12
330
9
100
AcDbSymbolTableRecord
100
AcDbRegAppTableRecord
  2
ACAD
 70
     0
  0
ENDTAB
  0
TABLE
  2
DIMSTYLE
  5
A
330
0
100
AcDbSymbolTable
 70
     1
100
AcDbDimStyleTable
  0
DIMSTYLE
105
27
330
A
100
AcDbSymbolTableRecord
100
AcDbDimStyleTableRecord
  2
Standard
 70
     0
340
11
  0
ENDTAB
  0
TABLE
  2
BLOCK_RECORD
  5
1
330
0
100
AcDbSymbolTable
 70
     5
  0
BLOCK_RECORD
  5
1F
330
1
100
AcDbSymbolTableRecord
100
AcDbBlockTableRecord
  2
*Model_Space
340
22
  0
BLOCK_RECORD
  5
1B
330
1
100
AcDbSymbolTableRecord
100
AcDbBlockTableRecord
  2
*Paper_Space
340
1E
  0
BLOCK_RECORD
  5
23
330
1
100
AcDbSymbolTableRecord
100
AcDbBlockTableRecord
  2
*Paper_Space0
340
26
  0
BLOCK_RECORD
  5
5C
330
1
100
AcDbSymbolTableRecord
100
AcDbBlockTableRecord
  2
block 2
340
0
102
{BLKREFS
331
5D
102
}
  0
BLOCK_RECORD
  5
8E
330
1
100
AcDbSymbolTableRecord
100
AcDbBlockTableRecord
  2
block 3
340
0
102
{BLKREFS
331
8F
102
}
  0
BLOCK_RECORD
  5
16E
330
1
100
AcDbSymbolTableRecord
100
AcDbBlockTableRecord
  2
block 4
340
0
102
{BLKREFS
331
16F
102
}
  0
BLOCK_RECORD
  5
1C9
330
1
100
AcDbSymbolTableRecord
100
AcDbBlockTableRecord
  2
block 5
340
0
102
{BLKREFS
331
1CA
102
}
  0
ENDTAB
  0
ENDSEC
  0
SECTION
  2
BLOCKS
  0
BLOCK
  5
20
330
1F
100
AcDbEntity
  8
0
100
AcDbBlockBegin
  2
*Model_Space
 70
     0
 71
     0
 10
0.0
 20
0.0
 30
0.0
  3
*Model_Space
  1

  0
ENDBLK
  5
21
330
1F
100
AcDbEntity
  8
0
100
AcDbBlockEnd
  0
BLOCK
  5
1C
330
1B
100
AcDbEntity
 67
     1
  8
0
100
AcDbBlockBegin
  2
*Paper_Space
 70
     0
 71
     0
 10
0.0
 20
0.0
 30
0.0
  3
*Paper_Space
  1

  0
ENDBLK
  5
1D
330
1B
100
AcDbEntity
 67
     1
  8
0
100
AcDbBlockEnd
  0
BLOCK
  5
24
330
23
100
AcDbEntity
  8
0
100
AcDbBlockBegin
  2
*Paper_Space0
 70
     0
 71
     0
 10
0.0
 20
0.0
 30
0.0
  3
*Paper_Space0
  1

  0
ENDBLK
  5
25
330
23
100
AcDbEntity
  8
0
100
AcDbBlockEnd
  0
BLOCK
  5
5E
330
5C
100
AcDbEntity
  8
0
100
AcDbBlockBegin
  2
block 2
 70
     0
 71
     0
 10
0.0
 20
0.0
 30
0.0
  3
block 2
  1

  0
POLYLINE
  5
60
330
5C
100
AcDbEntity
  8
Capa 1
370
     0
100
AcDb2dPolyline
 66
     1
 10
0.0
 20
0.0
 30
0.0
  0
VERTEX
  5
61
330
60
100
AcDbEntity
  8
Capa 1
370
     0
100
AcDbVertex
100
AcDb2dVertex
 10
39.05707328201166
 20
207.0586434881166
 30
0.0
  0
VERTEX
  5
62
330
60
100
AcDbEntity
  8
Capa 1
370
     0
100
AcDbVertex
100
AcDb2dVertex
 10
174.576194767399
 20
207.0586434881166
 30
0.0
  0
VERTEX
  5
63
330
60
100
AcDbEntity
  8
Capa 1
370
     0
100
AcDbVertex
100
AcDb2dVertex
 10
174.576194767399
 20
112.4259421942185
 30
0.0
  0
VERTEX
  5
64
330
60
100
AcDbEntity
  8
Capa 1
370
     0
100
AcDbVertex
100
AcDb2dVertex
 10
39.05707328201166
 20
112.4259421942185
 30
0.0
  0
VERTEX
  5
65
330
60
100
AcDbEntity
  8
Capa 1
370
     0
100
AcDbVertex
100
AcDb2dVertex
 10
39.05707328201166
 20
207.0586434881166
 30
0.0
  0
SEQEND
  5
66
330
60
100
AcDbEntity
  8
Capa 1
370
     0
  0
SPLINE
  5
67
330
5C
100
AcDbEntity
  8
Capa 1
 62
     7
370
     9
100
AcDbSpline
210
0.0
220
0.0
230
1.0
 70
     8
 71
     3
 72
    11
 73
     7
 74
     0
 42
0.0000000001
 43
0.0000000001
 40
0.0
 40
0.0
 40
0.0
 40
0.0
 40
1.0
 40
1.0
 40
1.0
 40
2.0
 40
2.0
 40
2.0
 40
2.0
 10
46.88984754451336
 20
185.3214546744815
 30
0.0
 10
46.88984754451336
 20
184.6593068854013
 30
0.0
 10
47.42728279475538
 20
184.1211826156077
 30
0.0
 10
48.09011960338721
 20
184.1211826156077
 30
0.0
 10
48.75295641201904
 20
184.1211826156077
 30
0.0
 10
49.29039166226106
 20
184.6593068854013
 30
0.0
 10
49.29039166226106
 20
185.3214546744815
 30
0.0
  0
SPLINE
  5
68
330
5C
100
AcDbEntity
  8
Capa 1
 62
     7
370
     9
100
AcDbSpline
210
0.0
220
0.0
230
1.0
 70
     8
 71
     3
 72
    11
 73
     7
 74
     0
 42
0.0000000001
 43
0.0000000001
 40
0.0
 40
0.0
 40
0.0
 40
0.0
 40
1.0
 40
1.0
 40
1.0
 40
2.0
 40
2.0
 40
2.0
 40
2.0
 10
49.29039166226106
 20
196.1218361456914
 30
0.0
 10
49.29039166226106
 20
196.7839839347716
 30
0.0
 10
48.75226739246745
 20
197.3214191850137
 30
0.0
 10
48.09011960338721
 20
197.3214191850137
 30
0.0
 10
47.42728279475538
 20
197.3214191850137
 30
0.0
 10
46.88984754451336
 20
196.7839839347716
 30
0.0
 10
46.88984754451336
 20
196.1218361456914
 30
0.0
  0
SPLINE
  5
69
330
5C
100
AcDbEntity
  8
Capa 1
 62
     7
370
     9
100
AcDbSpline
210
0.0
220
0.0
230
1.0
 70
     8
 71
     3
 72
    11
 73
     7
 74
     0
 42
0.0000000001
 43
0.0000000001
 40
0.0
 40
0.0
 40
0.0
 40
0.0
 40
1.0
 40
1.0
 40
1.0
 40
2.0
 40
2.0
 40
2.0
 40
2.0
 10
106.8896700971741
 20
185.3214546744815
 30
0.0
 10
106.8896700971741
 20
184.6593068854013
 30
0.0
 10
107.4284833865193
 20
184.1211826156077
 30
0.0
 10
108.089942156048
 20
184.1211826156077
 30
0.0
 10
108.754157003783
 20
184.1211826156077
 30
0.0
 10
109.2888361758186
 20
184.6593068854013
 30
0.0
 10
109.2888361758186
 20
185.3214546744815
 30
0.0
  0
SPLINE
  5
6A
330
5C
100
AcDbEntity
  8
Capa 1
 62
     7
370
     9
100
AcDbSpline
210
0.0
220
0.0
230
1.0
 70
     8
 71
     3
 72
    11
 73
     7
 74
     0
 42
0.0000000001
 43
0.0000000001
 40
0.0
 40
0.0
 40
0.0
 40
0.0
 40
1.0
 40
1.0
 40
1.0
 40
2.0
 40
2.0
 40
2.0
 40
2.0
 10
109.2902142149218
 20
196.1218361456914
 30
0.0
 10
109.2902142149218
 20
196.7839839347716
 30
0.0
 10
108.7527789646798
 20
197.3214191850137
 30
0.0
 10
108.089942156048
 20
197.3214191850137
 30
0.0
 10
107.4271053474161
 20
197.3214191850137
 30
0.0
 10
106.8910481362773
 20
196.7839839347716
 30
0.0
 10
106.8910481362773
 20
196.1218361456914
 30
0.0
  0
POLYLINE
  5
6B
330
5C
100
AcDbEntity
  8
Capa 1
 62
     7
370
     9
100
AcDb2dPolyline
 66
     1
 10
0.0
 20
0.0
 30
0.0
  0
VERTEX
  5
6C
330
6B
100
AcDbEntity
  8
Capa 1
 62
     7
370
     9
100
AcDbVertex
100
AcDb2dVertex
 10
109.2902142149218
 20
190.7219899198623
 30
0.0
  0
VERTEX
  5
6D
330
6B
100
AcDbEntity
  8
Capa 1
 62
     7
370
     9
100
AcDbVertex
100
AcDb2dVertex
 10
109.2902142149218
 20
190.7219899198623
 30
0.0
  0
SEQEND
  5
6E
330
6B
100
AcDbEntity
  8
Capa 1
370
     9
  0
POLYLINE
  5
6F
330
5C
100
AcDbEntity
  8
Capa 1
 62
     7
370
     9
100
AcDb2dPolyline
 66
     1
 10
0.0
 20
0.0
 30
0.0
  0
VERTEX
  5
70
330
6F
100
AcDbEntity
  8
Capa 1
 62
     7
370
     9
100
AcDbVertex
100
AcDb2dVertex
 10
46.72999500854394
 20
190.7219899198623
 30
0.0
  0
VERTEX
  5
71
330
6F
100
AcDbEntity
  8
Capa 1
 62
     7
370
     9
100
AcDbVertex
100
AcDb2dVertex
 10
46.72999500854394
 20
190.7219899198623
 30
0.0
  0
SEQEND
  5
72
330
6F
100
AcDbEntity
  8
Capa 1
370
     9
  0
POLYLINE
  5
73
330
5C
100
AcDbEntity
  8
Capa 1
 62
     7
370
     9
100
AcDb2dPolyline
 66
     1
 10
0.0
 20
0.0
 30
0.0
  0
VERTEX
  5
74
330
73
100
AcDbEntity
  8
Capa 1
 62
     7
370
     9
100
AcDbVertex
100
AcDb2dVertex
 10
109.2902142149218
 20
190.8418793218393
 30
0.0
  0
VERTEX
  5
75
330
73
100
AcDbEntity
  8
Capa 1
 62
     7
370
     9
100
AcDbVertex
100
AcDb2dVertex
 10
109.2902142149218
 20
202.241018783383
 30
0.0
  0
SEQEND
  5
76
330
73
100
AcDbEntity
  8
Capa 1
370
     9
  0
POLYLINE
  5
77
330
5C
100
AcDbEntity
  8
Capa 1
 62
     7
370
     9
100
AcDb2dPolyline
 66
     1
 10
0.0
 20
0.0
 30
0.0
  0
VERTEX
  5
78
330
77
100
AcDbEntity
  8
Capa 1
 62
     7
370
     9
100
AcDbVertex
100
AcDb2dVertex
 10
46.72999500854394
 20
190.8418793218393
 30
0.0
  0
VERTEX
  5
79
330
77
100
AcDbEntity
  8
Capa 1
 62
     7
370
     9
100
AcDbVertex
100
AcDb2dVertex
 10
46.72999500854394
 20
202.241018783383
 30
0.0
  0
SEQEND
  5
7A
330
77
100
AcDbEntity
  8
Capa 1
370
     9
  0
POLYLINE
  5
7B
330
5C
100
AcDbEntity
  8
Capa 1
 62
     7
370
     9
100
AcDb2dPolyline
 66
     1
 10
0.0
 20
0.0
 30
0.0
  0
VERTEX
  5
7C
330
7B
100
AcDbEntity
  8
Capa 1
 62
     7
370
     9
100
AcDbVertex
100
AcDb2dVertex
 10
108.0403327483333
 20
202.1211293814059
 30
0.0
  0
VERTEX
  5
7D
330
7B
100
AcDbEntity
  8
Capa 1
 62
     7
370
     9
100
AcDbVertex
100
AcDb2dVertex
 10
47.98056549468403
 20
202.1211293814059
 30
0.0
  0
SEQEND
  5
7E
330
7B
100
AcDbEntity
  8
Capa 1
370
     9
  0
POLYLINE
  5
7F
330
5C
100
AcDbEntity
  8
Capa 1
370
     0
100
AcDb2dPolyline
 66
     1
 10
0.0
 20
0.0
 30
0.0
  0
VERTEX
  5
80
330
7F
100
AcDbEntity
  8
Capa 1
370
     0
100
AcDbVertex
100
AcDb2dVertex
 10
107.7592127712837
 20
202.5145595453651
 30
0.0
  0
VERTEX
  5
81
330
7F
100
AcDbEntity
  8
Capa 1
370
     0
100
AcDbVertex
100
AcDb2dVertex
 10
109.2902142149218
 20
202.1045929121677
 30
0.0
  0
VERTEX
  5
82
330
7F
100
AcDbEntity
  8
Capa 1
370
     0
100
AcDbVertex
100
AcDb2dVertex
 10
107.7592127712837
 20
201.6946262789702
 30
0.0
  0
VERTEX
  5
83
330
7F
100
AcDbEntity
  8
Capa 1
370
     0
100
AcDbVertex
100
AcDb2dVertex
 10
107.7592127712837
 20
202.5145595453651
 30
0.0
  0
SEQEND
  5
84
330
7F
100
AcDbEntity
  8
Capa 1
370
     0
  0
HATCH
  5
85
330
5C
100
AcDbEntity
  8
Capa 1
 62
     7
100
AcDbHatch
 10
0.0
 20
0.0
 30
0.0
210
0.0
220
0.0
230
1.0
  2
SOLID
 70
     1
 71
     0
 91
        1
 92
        1
 93
        3
 72
     1
 10
107.7592127712837
 20
202.5145595453651
 11
109.2902142149218
 21
202.1045929121677
 72
     1
 10
109.2902142149218
 20
202.1045929121677
 11
107.7592127712837
 21
201.6946262789702
 72
     1
 10
107.7592127712837
 20
201.6946262789702
 11
107.7592127712837
 21
202.5145595453651
 97
        0
 75
     2
 76
     1
 98
        0
  0
POLYLINE
  5
86
330
5C
100
AcDbEntity
  8
Capa 1
370
     0
100
AcDb2dPolyline
 66
     1
 10
0.0
 20
0.0
 30
0.0
  0
VERTEX
  5
87
330
86
100
AcDbEntity
  8
Capa 1
370
     0
100
AcDbVertex
100
AcDb2dVertex
 10
48.25961841307893
 20
202.5145595453651
 30
0.0
  0
VERTEX
  5
88
330
86
100
AcDbEntity
  8
Capa 1
370
     0
100
AcDbVertex
100
AcDb2dVertex
 10
46.72999500854394
 20
202.1045929121677
 30
0.0
  0
VERTEX
  5
89
330
86
100
AcDbEntity
  8
Capa 1
370
     0
100
AcDbVertex
100
AcDb2dVertex
 10
48.25961841307893
 20
201.6946262789702
 30
0.0
  0
VERTEX
  5
8A
330
86
100
AcDbEntity
  8
Capa 1
370
     0
100
AcDbVertex
100
AcDb2dVertex
 10
48.25961841307893
 20
202.5145595453651
 30
0.0
  0
SEQEND
  5
8B
330
86
100
AcDbEntity
  8
Capa 1
370
     0
  0
HATCH
  5
8C
330
5C
100
AcDbEntity
  8
Capa 1
 62
     7
100
AcDbHatch
 10
0.0
 20
0.0
 30
0.0
210
0.0
220
0.0
230
1.0
  2
SOLID
 70
     1
 71
     0
 91
        1
 92
        1
 93
        3
 72
     1
 10
48.25961841307893
 20
202.5145595453651
 11
46.72999500854394
 21
202.1045929121677
 72
     1
 10
46.72999500854394
 20
202.1045929121677
 11
48.25961841307893
 21
201.6946262789702
 72
     1
 10
48.25961841307893
 20
201.6946262789702
 11
48.25961841307893
 21
202.5145595453651
 97
        0
 75
     2
 76
     1
 98
        0
  0
ENDBLK
  5
5F
330
5C
100
AcDbEntity
  8
0
100
AcDbBlockEnd
  0
BLOCK
  5
90
330
8E
100
AcDbEntity
  8
0
100
AcDbBlockBegin
  2
block 3
 70
     0
 71
     0
 10
0.0
 20
0.0
 30
0.0
  3
block 3
  1

  0
POLYLINE
  5
92
330
8E
100
AcDbEntity
  8
Capa 1
370
     0
100
AcDb2dPolyline
 66
     1
 10
0.0
 20
0.0
 30
0.0
  0
VERTEX
  5
93
330
92
100
AcDbEntity
  8
Capa 1
370
     0
100
AcDbVertex
100
AcDb2dVertex
 10
39.05707328201166
 20
207.0586434881166
 30
0.0
  0
VERTEX
  5
94
330
92
100
AcDbEntity
  8
Capa 1
370
     0
100
AcDbVertex
100
AcDb2dVertex
 10
174.576194767399
 20
207.0586434881166
 30
0.0
  0
VERTEX
  5
95
330
92
100
AcDbEntity
  8
Capa 1
370
     0
100
AcDbVertex
100
AcDb2dVertex
 10
174.576194767399
 20
112.4259421942185
 30
0.0
  0
VERTEX
  5
96
330
92
100
AcDbEntity
  8
Capa 1
370
     0
100
AcDbVertex
100
AcDb2dVertex
 10
39.05707328201166
 20
112.4259421942185
 30
0.0
  0
VERTEX
  5
97
330
92
100
AcDbEntity
  8
Capa 1
370
     0
100
AcDbVertex
100
AcDb2dVertex
 10
39.05707328201166
 20
207.0586434881166
 30
0.0
  0
SEQEND
  5
98
330
92
100
AcDbEntity
  8
Capa 1
370
     0
  0
POLYLINE
  5
99
330
8E
100
AcDbEntity
  8
Capa 1
 62
     7
370
     9
100
AcDb2dPolyline
 66
     1
 10
0.0
 20
0.0
 30
0.0
  0
VERTEX
  5
9A
330
99
100
AcDbEntity
  8
Capa 1
 62
     7
370
     9
100
AcDbVertex
100
AcDb2dVertex
 10
46.88984754451336
 20
150.9035500333411
 30
0.0
  0
VERTEX
  5
9B
330
99
100
AcDbEntity
  8
Capa 1
 62
     7
370
     9
100
AcDbVertex
100
AcDb2dVertex
 10
46.88984754451336
 20
121.5044638059992
 30
0.0
  0
SEQEND
  5
9C
330
99
100
AcDbEntity
  8
Capa 1
370
     9
  0
POLYLINE
  5
9D
330
8E
100
AcDbEntity
  8
Capa 1
 62
     7
370
     9
100
AcDb2dPolyline
 66
     1
 10
0.0
 20
0.0
 30
0.0
  0
VERTEX
  5
9E
330
9D
100
AcDbEntity
  8
Capa 1
 62
     7
370
     9
100
AcDbVertex
100
AcDb2dVertex
 10
49.29039166226106
 20
143.9816596180444
 30
0.0
  0
VERTEX
  5
9F
330
9D
100
AcDbEntity
  8
Capa 1
 62
     7
370
     9
100
AcDbVertex
100
AcDb2dVertex
 10
49.29039166226106
 20
150.9035500333411
 30
0.0
  0
SEQEND
  5
A0
330
9D
100
AcDbEntity
  8
Capa 1
370
     9
  0
POLYLINE
  5
A1
330
8E
100
AcDbEntity
  8
Capa 1
 62
     7
370
     9
100
AcDb2dPolyline
 66
     1
 10
0.0
 20
0.0
 30
0.0
  0
VERTEX
  5
A2
330
A1
100
AcDbEntity
  8
Capa 1
 62
     7
370
     9
100
AcDbVertex
100
AcDb2dVertex
 10
49.29039166226106
 20
133.7814141762715
 30
0.0
  0
VERTEX
  5
A3
330
A1
100
AcDbEntity
  8
Capa 1
 62
     7
370
     9
100
AcDbVertex
100
AcDb2dVertex
 10
49.29039166226106
 20
142.2852934820241
 30
0.0
  0
SEQEND
  5
A4
330
A1
100
AcDbEntity
  8
Capa 1
370
     9
  0
POLYLINE
  5
A5
330
8E
100
AcDbEntity
  8
Capa 1
 62
     7
370
     9
100
AcDb2dPolyline
 66
     1
 10
0.0
 20
0.0
 30
0.0
  0
VERTEX
  5
A6
330
A5
100
AcDbEntity
  8
Capa 1
 62
     7
370
     9
100
AcDbVertex
100
AcDb2dVertex
 10
49.29039166226106
 20
123.5811687344985
 30
0.0
  0
VERTEX
  5
A7
330
A5
100
AcDbEntity
  8
Capa 1
 62
     7
370
     9
100
AcDbVertex
100
AcDb2dVertex
 10
49.29039166226106
 20
132.0850480402511
 30
0.0
  0
SEQEND
  5
A8
330
A5
100
AcDbEntity
  8
Capa 1
370
     9
  0
POLYLINE
  5
A9
330
8E
100
AcDbEntity
  8
Capa 1
 62
     7
370
     9
100
AcDb2dPolyline
 66
     1
 10
0.0
 20
0.0
 30
0.0
  0
VERTEX
  5
AA
330
A9
100
AcDbEntity
  8
Capa 1
 62
     7
370
     9
100
AcDbVertex
100
AcDb2dVertex
 10
49.29039166226106
 20
121.5044638059992
 30
0.0
  0
VERTEX
  5
AB
330
A9
100
AcDbEntity
  8
Capa 1
 62
     7
370
     9
100
AcDbVertex
100
AcDb2dVertex
 10
49.29039166226106
 20
121.8779124029623
 30
0.0
  0
SEQEND
  5
AC
330
A9
100
AcDbEntity
  8
Capa 1
370
     9
  0
SPLINE
  5
AD
330
8E
100
AcDbEntity
  8
Capa 1
 62
     7
370
     9
100
AcDbSpline
210
0.0
220
0.0
230
1.0
 70
     8
 71
     3
 72
    11
 73
     7
 74
     0
 42
0.0000000001
 43
0.0000000001
 40
0.0
 40
0.0
 40
0.0
 40
0.0
 40
1.0
 40
1.0
 40
1.0
 40
2.0
 40
2.0
 40
2.0
 40
2.0
 10
46.88984754451336
 20
116.1039285606185
 30
0.0
 10
46.88984754451336
 20
115.4410917519866
 30
0.0
 10
47.42728279475538
 20
114.9036565017446
 30
0.0
 10
48.09011960338721
 20
114.9036565017446
 30
0.0
 10
48.75295641201904
 20
114.9036565017446
 30
0.0
 10
49.29039166226106
 20
115.4410917519866
 30
0.0
 10
49.29039166226106
 20
116.1039285606185
 30
0.0
  0
POLYLINE
  5
AE
330
8E
100
AcDbEntity
  8
Capa 1
 62
     7
370
     9
100
AcDb2dPolyline
 66
     1
 10
0.0
 20
0.0
 30
0.0
  0
VERTEX
  5
AF
330
AE
100
AcDbEntity
  8
Capa 1
 62
     7
370
     9
100
AcDbVertex
100
AcDb2dVertex
 10
46.88984754451336
 20
121.5044638059992
 30
0.0
  0
VERTEX
  5
B0
330
AE
100
AcDbEntity
  8
Capa 1
 62
     7
370
     9
100
AcDbVertex
100
AcDb2dVertex
 10
46.88984754451336
 20
116.1039285606185
 30
0.0
  0
SEQEND
  5
B1
330
AE
100
AcDbEntity
  8
Capa 1
370
     9
  0
POLYLINE
  5
B2
330
8E
100
AcDbEntity
  8
Capa 1
 62
     7
370
     9
100
AcDb2dPolyline
 66
     1
 10
0.0
 20
0.0
 30
0.0
  0
VERTEX
  5
B3
330
B2
100
AcDbEntity
  8
Capa 1
 62
     7
370
     9
100
AcDbVertex
100
AcDb2dVertex
 10
49.29039166226106
 20
116.1039285606185
 30
0.0
  0
VERTEX
  5
B4
330
B2
100
AcDbEntity
  8
Capa 1
 62
     7
370
     9
100
AcDbVertex
100
AcDb2dVertex
 10
49.29039166226106
 20
121.5044638059992
 30
0.0
  0
SEQEND
  5
B5
330
B2
100
AcDbEntity
  8
Capa 1
370
     9
  0
POLYLINE
  5
B6
330
8E
100
AcDbEntity
  8
Capa 1
 62
     7
370
     9
100
AcDb2dPolyline
 66
     1
 10
0.0
 20
0.0
 30
0.0
  0
VERTEX
  5
B7
330
B6
100
AcDbEntity
  8
Capa 1
 62
     7
370
     9
100
AcDbVertex
100
AcDb2dVertex
 10
49.29039166226106
 20
121.8903147548909
 30
0.0
  0
VERTEX
  5
B8
330
B6
100
AcDbEntity
  8
Capa 1
 62
     7
370
     9
100
AcDbVertex
100
AcDb2dVertex
 10
106.9158528401346
 20
121.8903147548909
 30
0.0
  0
SEQEND
  5
B9
330
B6
100
AcDbEntity
  8
Capa 1
370
     9
  0
POLYLINE
  5
BA
330
8E
100
AcDbEntity
  8
Capa 1
 62
     7
370
     9
100
AcDb2dPolyline
 66
     1
 10
0.0
 20
0.0
 30
0.0
  0
VERTEX
  5
BB
330
BA
100
AcDbEntity
  8
Capa 1
 62
     7
370
     9
100
AcDbVertex
100
AcDb2dVertex
 10
106.8896700971741
 20
123.5687663825698
 30
0.0
  0
VERTEX
  5
BC
330
BA
100
AcDbEntity
  8
Capa 1
 62
     7
370
     9
100
AcDbVertex
100
AcDb2dVertex
 10
49.28970264270947
 20
123.5687663825698
 30
0.0
  0
SEQEND
  5
BD
330
BA
100
AcDbEntity
  8
Capa 1
370
     9
  0
POLYLINE
  5
BE
330
8E
100
AcDbEntity
  8
Capa 1
 62
     7
370
     9
100
AcDb2dPolyline
 66
     1
 10
0.0
 20
0.0
 30
0.0
  0
VERTEX
  5
BF
330
BE
100
AcDbEntity
  8
Capa 1
 62
     7
370
     9
100
AcDbVertex
100
AcDb2dVertex
 10
49.29039166226106
 20
132.0891821575607
 30
0.0
  0
VERTEX
  5
C0
330
BE
100
AcDbEntity
  8
Capa 1
 62
     7
370
     9
100
AcDbVertex
100
AcDb2dVertex
 10
106.9158528401346
 20
132.0891821575607
 30
0.0
  0
SEQEND
  5
C1
330
BE
100
AcDbEntity
  8
Capa 1
370
     9
  0
POLYLINE
  5
C2
330
8E
100
AcDbEntity
  8
Capa 1
 62
     7
370
     9
100
AcDb2dPolyline
 66
     1
 10
0.0
 20
0.0
 30
0.0
  0
VERTEX
  5
C3
330
C2
100
AcDbEntity
  8
Capa 1
 62
     7
370
     9
100
AcDbVertex
100
AcDb2dVertex
 10
106.8896700971741
 20
133.7690118243428
 30
0.0
  0
VERTEX
  5
C4
330
C2
100
AcDbEntity
  8
Capa 1
 62
     7
370
     9
100
AcDbVertex
100
AcDb2dVertex
 10
49.28970264270947
 20
133.7690118243428
 30
0.0
  0
SEQEND
  5
C5
330
C2
100
AcDbEntity
  8
Capa 1
370
     9
  0
POLYLINE
  5
C6
330
8E
100
AcDbEntity
  8
Capa 1
 62
     7
370
     9
100
AcDb2dPolyline
 66
     1
 10
0.0
 20
0.0
 30
0.0
  0
VERTEX
  5
C7
330
C6
100
AcDbEntity
  8
Capa 1
 62
     7
370
     9
100
AcDbVertex
100
AcDb2dVertex
 10
49.29039166226106
 20
142.2894275993337
 30
0.0
  0
VERTEX
  5
C8
330
C6
100
AcDbEntity
  8
Capa 1
 62
     7
370
     9
100
AcDbVertex
100
AcDb2dVertex
 10
106.9158528401346
 20
142.2894275993337
 30
0.0
  0
SEQEND
  5
C9
330
C6
100
AcDbEntity
  8
Capa 1
370
     9
  0
POLYLINE
  5
CA
330
8E
100
AcDbEntity
  8
Capa 1
 62
     7
370
     9
100
AcDb2dPolyline
 66
     1
 10
0.0
 20
0.0
 30
0.0
  0
VERTEX
  5
CB
330
CA
100
AcDbEntity
  8
Capa 1
 62
     7
370
     9
100
AcDbVertex
100
AcDb2dVertex
 10
106.8896700971741
 20
143.9692572661158
 30
0.0
  0
VERTEX
  5
CC
330
CA
100
AcDbEntity
  8
Capa 1
 62
     7
370
     9
100
AcDbVertex
100
AcDb2dVertex
 10
49.28970264270947
 20
143.9692572661158
 30
0.0
  0
SEQEND
  5
CD
330
CA
100
AcDbEntity
  8
Capa 1
370
     9
  0
POLYLINE
  5
CE
330
8E
100
AcDbEntity
  8
Capa 1
 62
     7
370
     9
100
AcDb2dPolyline
 66
     1
 10
0.0
 20
0.0
 30
0.0
  0
VERTEX
  5
CF
330
CE
100
AcDbEntity
  8
Capa 1
 62
     7
370
     9
100
AcDbVertex
100
AcDb2dVertex
 10
106.8896700971741
 20
121.8517296600017
 30
0.0
  0
VERTEX
  5
D0
330
CE
100
AcDbEntity
  8
Capa 1
 62
     7
370
     9
100
AcDbVertex
100
AcDb2dVertex
 10
106.8896700971741
 20
121.5044638059992
 30
0.0
  0
SEQEND
  5
D1
330
CE
100
AcDbEntity
  8
Capa 1
370
     9
  0
POLYLINE
  5
D2
330
8E
100
AcDbEntity
  8
Capa 1
 62
     7
370
     9
100
AcDb2dPolyline
 66
     1
 10
0.0
 20
0.0
 30
0.0
  0
VERTEX
  5
D3
330
D2
100
AcDbEntity
  8
Capa 1
 62
     7
370
     9
100
AcDbVertex
100
AcDb2dVertex
 10
106.8896700971741
 20
132.0519751017747
 30
0.0
  0
VERTEX
  5
D4
330
D2
100
AcDbEntity
  8
Capa 1
 62
     7
370
     9
100
AcDbVertex
100
AcDb2dVertex
 10
106.8896700971741
 20
123.5687663825698
 30
0.0
  0
SEQEND
  5
D5
330
D2
100
AcDbEntity
  8
Capa 1
370
     9
  0
POLYLINE
  5
D6
330
8E
100
AcDbEntity
  8
Capa 1
 62
     7
370
     9
100
AcDb2dPolyline
 66
     1
 10
0.0
 20
0.0
 30
0.0
  0
VERTEX
  5
D7
330
D6
100
AcDbEntity
  8
Capa 1
 62
     7
370
     9
100
AcDbVertex
100
AcDb2dVertex
 10
106.8896700971741
 20
142.2522205435477
 30
0.0
  0
VERTEX
  5
D8
330
D6
100
AcDbEntity
  8
Capa 1
 62
     7
370
     9
100
AcDbVertex
100
AcDb2dVertex
 10
106.8896700971741
 20
133.7690118243428
 30
0.0
  0
SEQEND
  5
D9
330
D6
100
AcDbEntity
  8
Capa 1
370
     9
  0
POLYLINE
  5
DA
330
8E
100
AcDbEntity
  8
Capa 1
 62
     7
370
     9
100
AcDb2dPolyline
 66
     1
 10
0.0
 20
0.0
 30
0.0
  0
VERTEX
  5
DB
330
DA
100
AcDbEntity
  8
Capa 1
 62
     7
370
     9
100
AcDbVertex
100
AcDb2dVertex
 10
106.8896700971741
 20
150.9035500333411
 30
0.0
  0
VERTEX
  5
DC
330
DA
100
AcDbEntity
  8
Capa 1
 62
     7
370
     9
100
AcDbVertex
100
AcDb2dVertex
 10
106.8896700971741
 20
143.9692572661158
 30
0.0
  0
SEQEND
  5
DD
330
DA
100
AcDbEntity
  8
Capa 1
370
     9
  0
POLYLINE
  5
DE
330
8E
100
AcDbEntity
  8
Capa 1
 62
     7
370
     9
100
AcDb2dPolyline
 66
     1
 10
0.0
 20
0.0
 30
0.0
  0
VERTEX
  5
DF
330
DE
100
AcDbEntity
  8
Capa 1
 62
     7
370
     9
100
AcDbVertex
100
AcDb2dVertex
 10
109.2902142149218
 20
150.0629461803984
 30
0.0
  0
VERTEX
  5
E0
330
DE
100
AcDbEntity
  8
Capa 1
 62
     7
370
     9
100
AcDbVertex
100
AcDb2dVertex
 10
109.2902142149218
 20
150.9035500333411
 30
0.0
  0
SEQEND
  5
E1
330
DE
100
AcDbEntity
  8
Capa 1
370
     9
  0
POLYLINE
  5
E2
330
8E
100
AcDbEntity
  8
Capa 1
 62
     7
370
     9
100
AcDb2dPolyline
 66
     1
 10
0.0
 20
0.0
 30
0.0
  0
VERTEX
  5
E3
330
E2
100
AcDbEntity
  8
Capa 1
 62
     7
370
     9
100
AcDbVertex
100
AcDb2dVertex
 10
109.2902142149218
 20
121.5044638059992
 30
0.0
  0
VERTEX
  5
E4
330
E2
100
AcDbEntity
  8
Capa 1
 62
     7
370
     9
100
AcDbVertex
100
AcDb2dVertex
 10
109.2902142149218
 20
148.6242733566736
 30
0.0
  0
SEQEND
  5
E5
330
E2
100
AcDbEntity
  8
Capa 1
370
     9
  0
SPLINE
  5
E6
330
8E
100
AcDbEntity
  8
Capa 1
 62
     7
370
     9
100
AcDbSpline
210
0.0
220
0.0
230
1.0
 70
     8
 71
     3
 72
    11
 73
     7
 74
     0
 42
0.0000000001
 43
0.0000000001
 40
0.0
 40
0.0
 40
0.0
 40
0.0
 40
1.0
 40
1.0
 40
1.0
 40
2.0
 40
2.0
 40
2.0
 40
2.0
 10
106.8896700971741
 20
116.1039285606185
 30
0.0
 10
106.8896700971741
 20
115.4410917519866
 30
0.0
 10
107.4284833865193
 20
114.9036565017446
 30
0.0
 10
108.089942156048
 20
114.9036565017446
 30
0.0
 10
108.754157003783
 20
114.9036565017446
 30
0.0
 10
109.2888361758186
 20
115.4410917519866
 30
0.0
 10
109.2888361758186
 20
116.1039285606185
 30
0.0
  0
POLYLINE
  5
E7
330
8E
100
AcDbEntity
  8
Capa 1
 62
     7
370
     9
100
AcDb2dPolyline
 66
     1
 10
0.0
 20
0.0
 30
0.0
  0
VERTEX
  5
E8
330
E7
100
AcDbEntity
  8
Capa 1
 62
     7
370
     9
100
AcDbVertex
100
AcDb2dVertex
 10
106.8896700971741
 20
121.5044638059992
 30
0.0
  0
VERTEX
  5
E9
330
E7
100
AcDbEntity
  8
Capa 1
 62
     7
370
     9
100
AcDbVertex
100
AcDb2dVertex
 10
106.8896700971741
 20
116.1039285606185
 30
0.0
  0
SEQEND
  5
EA
330
E7
100
AcDbEntity
  8
Capa 1
370
     9
  0
POLYLINE
  5
EB
330
8E
100
AcDbEntity
  8
Capa 1
 62
     7
370
     9
100
AcDb2dPolyline
 66
     1
 10
0.0
 20
0.0
 30
0.0
  0
VERTEX
  5
EC
330
EB
100
AcDbEntity
  8
Capa 1
 62
     7
370
     9
100
AcDbVertex
100
AcDb2dVertex
 10
109.2902142149218
 20
116.1039285606185
 30
0.0
  0
VERTEX
  5
ED
330
EB
100
AcDbEntity
  8
Capa 1
 62
     7
370
     9
100
AcDbVertex
100
AcDb2dVertex
 10
109.2902142149218
 20
121.5044638059992
 30
0.0
  0
SEQEND
  5
EE
330
EB
100
AcDbEntity
  8
Capa 1
370
     9
  0
POLYLINE
  5
EF
330
8E
100
AcDbEntity
  8
Capa 1
 62
     7
370
     9
100
AcDb2dPolyline
 66
     1
 10
0.0
 20
0.0
 30
0.0
  0
VERTEX
  5
F0
330
EF
100
AcDbEntity
  8
Capa 1
 62
     7
370
     9
100
AcDbVertex
100
AcDb2dVertex
 10
109.2902142149218
 20
148.623584337122
 30
0.0
  0
VERTEX
  5
F1
330
EF
100
AcDbEntity
  8
Capa 1
 62
     7
370
     9
100
AcDbVertex
100
AcDb2dVertex
 10
109.2902142149218
 20
150.06363519995
 30
0.0
  0
SEQEND
  5
F2
330
EF
100
AcDbEntity
  8
Capa 1
370
     9
  0
POLYLINE
  5
F3
330
8E
100
AcDbEntity
  8
Capa 1
 62
     7
370
     9
100
AcDb2dPolyline
 66
     1
 10
0.0
 20
0.0
 30
0.0
  0
VERTEX
  5
F4
330
F3
100
AcDbEntity
  8
Capa 1
 62
     7
370
     9
100
AcDbVertex
100
AcDb2dVertex
 10
49.29039166226106
 20
150.9035500333411
 30
0.0
  0
VERTEX
  5
F5
330
F3
100
AcDbEntity
  8
Capa 1
 62
     7
370
     9
100
AcDbVertex
100
AcDb2dVertex
 10
46.88984754451336
 20
150.9035500333411
 30
0.0
  0
SEQEND
  5
F6
330
F3
100
AcDbEntity
  8
Capa 1
370
     9
  0
SPLINE
  5
F7
330
8E
100
AcDbEntity
  8
Capa 1
 62
     7
370
     9
100
AcDbSpline
210
0.0
220
0.0
230
1.0
 70
     8
 71
     3
 72
    71
 73
    67
 74
     0
 42
0.0000000001
 43
0.0000000001
 40
0.0
 40
0.0
 40
0.0
 40
0.0
 40
1.0
 40
1.0
 40
1.0
 40
2.0
 40
2.0
 40
2.0
 40
3.0
 40
3.0
 40
3.0
 40
4.0
 40
4.0
 40
4.0
 40
5.0
 40
5.0
 40
5.0
 40
6.0
 40
6.0
 40
6.0
 40
7.0
 40
7.0
 40
7.0
 40
8.0
 40
8.0
 40
8.0
 40
9.0
 40
9.0
 40
9.0
 40
10.0
 40
10.0
 40
10.0
 40
11.0
 40
11.0
 40
11.0
 40
12.0
 40
12.0
 40
12.0
 40
13.0
 40
13.0
 40
13.0
 40
14.0
 40
14.0
 40
14.0
 40
15.0
 40
15.0
 40
15.0
 40
16.0
 40
16.0
 40
16.0
 40
17.0
 40
17.0
 40
17.0
 40
18.0
 40
18.0
 40
18.0
 40
19.0
 40
19.0
 40
19.0
 40
20.0
 40
20.0
 40
20.0
 40
21.0
 40
21.0
 40
21.0
 40
22.0
 40
22.0
 40
22.0
 40
22.0
 10
49.29039166226106
 20
121.8779124029623
 30
0.0
 10
49.29039166226106
 20
121.8779124029623
 30
0.0
 10
49.27730029078081
 20
121.8958269113036
 30
0.0
 10
49.27730029078081
 20
121.8958269113036
 30
0.0
 10
49.26972107571329
 20
121.9068512241291
 30
0.0
 10
49.25731872378463
 20
121.9233876933673
 30
0.0
 10
49.24284931320119
 20
121.9454363190183
 30
0.0
 10
49.23527009813368
 20
121.9564606318438
 30
0.0
 10
49.22700186351457
 20
121.9688629837724
 30
0.0
 10
49.21735558979228
 20
121.9826433748043
 30
0.0
 10
49.20908735517317
 20
121.9964237658361
 30
0.0
 10
49.19944108145087
 20
122.010204156868
 30
0.0
 10
49.18910578817699
 20
122.025362587003
 30
0.0
 10
49.18014853400629
 20
122.040521017138
 30
0.0
 10
49.16912422118081
 20
122.0584355254794
 30
0.0
 10
49.15878892790693
 20
122.0749719947177
 30
0.0
 10
49.14845363463304
 20
122.0915084639559
 30
0.0
 10
49.13742932180756
 20
122.1108010114005
 30
0.0
 10
49.12640500898208
 20
122.130093558845
 30
0.0
 10
49.10366736377954
 20
122.1686786537342
 30
0.0
 10
49.08092971857699
 20
122.2100198268298
 30
0.0
 10
49.05888109292604
 20
122.2541170781317
 30
0.0
 10
49.03821050637826
 20
122.2982143294336
 30
0.0
 10
49.01616188072731
 20
122.346445698045
 30
0.0
 10
48.99824737238591
 20
122.3974331448629
 30
0.0
 10
48.97964384449292
 20
122.4470425525775
 30
0.0
 10
48.96379639480629
 20
122.5021641167049
 30
0.0
 10
48.95208306242922
 20
122.5572856808323
 30
0.0
 10
48.94036973005215
 20
122.6137852840629
 30
0.0
 10
48.93485757363941
 20
122.6716629263966
 30
0.0
 10
48.93485757363941
 20
122.7295405687304
 30
0.0
 10
48.93485757363941
 20
122.7598574290004
 30
0.0
 10
48.9362356127426
 20
122.7887962501673
 30
0.0
 10
48.93899169094897
 20
122.816357032231
 30
0.0
 10
48.94174776915534
 20
122.8466738925011
 30
0.0
 10
48.94725992556808
 20
122.8742346745648
 30
0.0
 10
48.95208306242922
 20
122.9017954566285
 30
0.0
 10
48.95828423839355
 20
122.9293562386922
 30
0.0
 10
48.96517443390947
 20
122.9569170207559
 30
0.0
 10
48.9720646294254
 20
122.9844778028195
 30
0.0
 10
48.9810218835961
 20
123.0120385848832
 30
0.0
 10
48.9899791377668
 20
123.0368432887406
 30
0.0
 10
48.99824737238591
 20
123.0630260317011
 30
0.0
 10
49.0168509002789
 20
123.1140134785189
 30
0.0
 10
49.03821050637826
 20
123.1608668080272
 30
0.0
 10
49.06025913202922
 20
123.2049640593291
 30
0.0
 10
49.08230775768018
 20
123.2504393497342
 30
0.0
 10
49.10435638333113
 20
123.2917805228297
 30
0.0
 10
49.12709402853368
 20
123.3289875786157
 30
0.0
 10
49.13742932180756
 20
123.3482801260603
 30
0.0
 10
49.14845363463304
 20
123.3675726735049
 30
0.0
 10
49.15878892790693
 20
123.3841091427431
 30
0.0
 10
49.170502260284
 20
123.4020236510845
 30
0.0
 10
49.18014853400629
 20
123.4185601203227
 30
0.0
 10
49.18979480772858
 20
123.4337185504577
 30
0.0
 10
49.20908735517317
 20
123.4640354107278
 30
0.0
 10
49.22700186351457
 20
123.4915961927915
 30
0.0
 10
49.2421602936496
 20
123.5122667793393
 30
0.0
 10
49.24973950871711
 20
123.5232910921648
 30
0.0
 10
49.25594068468145
 20
123.532937365887
 30
0.0
 10
49.26283088019737
 20
123.5412056005061
 30
0.0
 10
49.2683430366101
 20
123.5508518742284
 30
0.0
 10
49.27385519302285
 20
123.5577420697444
 30
0.0
 10
49.27730029078081
 20
123.5632542261571
 30
0.0
 10
49.28625754495151
 20
123.5756565780858
 30
0.0
 10
49.29039166226106
 20
123.5811687344985
 30
0.0
 10
49.29039166226106
 20
123.5811687344985
 30
0.0
  0
POLYLINE
  5
F8
330
8E
100
AcDbEntity
  8
Capa 1
 62
     7
370
     9
100
AcDb2dPolyline
 66
     1
 10
0.0
 20
0.0
 30
0.0
  0
VERTEX
  5
F9
330
F8
100
AcDbEntity
  8
Capa 1
 62
     7
370
     9
100
AcDbVertex
100
AcDb2dVertex
 10
49.28487950584832
 20
132.0850480402511
 30
0.0
  0
VERTEX
  5
FA
330
F8
100
AcDbEntity
  8
Capa 1
 62
     7
370
     9
100
AcDbVertex
100
AcDb2dVertex
 10
49.27936734943558
 20
132.0933162748702
 30
0.0
  0
VERTEX
  5
FB
330
F8
100
AcDbEntity
  8
Capa 1
 62
     7
370
     9
100
AcDbVertex
100
AcDb2dVertex
 10
49.22837990261775
 20
132.166352347339
 30
0.0
  0
VERTEX
  5
FC
330
F8
100
AcDbEntity
  8
Capa 1
 62
     7
370
     9
100
AcDbVertex
100
AcDb2dVertex
 10
49.14156343911711
 20
132.3041562576575
 30
0.0
  0
VERTEX
  5
FD
330
F8
100
AcDbEntity
  8
Capa 1
 62
     7
370
     9
100
AcDbVertex
100
AcDb2dVertex
 10
49.02580815444961
 20
132.5260205532702
 30
0.0
  0
VERTEX
  5
FE
330
F8
100
AcDbEntity
  8
Capa 1
 62
     7
370
     9
100
AcDbVertex
100
AcDb2dVertex
 10
48.95277208198082
 20
132.7533970052957
 30
0.0
  0
VERTEX
  5
FF
330
F8
100
AcDbEntity
  8
Capa 1
 62
     7
370
     9
100
AcDbVertex
100
AcDb2dVertex
 10
48.93485757363941
 20
132.9587248316702
 30
0.0
  0
VERTEX
  5
100
330
F8
100
AcDbEntity
  8
Capa 1
 62
     7
370
     9
100
AcDbVertex
100
AcDb2dVertex
 10
48.96655247301266
 20
133.1626746189416
 30
0.0
  0
VERTEX
  5
101
330
F8
100
AcDbEntity
  8
Capa 1
 62
     7
370
     9
100
AcDbVertex
100
AcDb2dVertex
 10
49.05888109292604
 20
133.4024534228957
 30
0.0
  0
VERTEX
  5
102
330
F8
100
AcDbEntity
  8
Capa 1
 62
     7
370
     9
100
AcDbVertex
100
AcDb2dVertex
 10
49.16774618207763
 20
133.5995130146511
 30
0.0
  0
VERTEX
  5
103
330
F8
100
AcDbEntity
  8
Capa 1
 62
     7
370
     9
100
AcDbVertex
100
AcDb2dVertex
 10
49.26489793885214
 20
133.7469631986918
 30
0.0
  0
VERTEX
  5
104
330
F8
100
AcDbEntity
  8
Capa 1
 62
     7
370
     9
100
AcDbVertex
100
AcDb2dVertex
 10
49.29039166226106
 20
133.7814141762715
 30
0.0
  0
SEQEND
  5
105
330
F8
100
AcDbEntity
  8
Capa 1
370
     9
  0
POLYLINE
  5
106
330
8E
100
AcDbEntity
  8
Capa 1
 62
     7
370
     9
100
AcDb2dPolyline
 66
     1
 10
0.0
 20
0.0
 30
0.0
  0
VERTEX
  5
107
330
106
100
AcDbEntity
  8
Capa 1
 62
     7
370
     9
100
AcDbVertex
100
AcDb2dVertex
 10
49.28487950584832
 20
142.2852934820241
 30
0.0
  0
VERTEX
  5
108
330
106
100
AcDbEntity
  8
Capa 1
 62
     7
370
     9
100
AcDbVertex
100
AcDb2dVertex
 10
49.27936734943558
 20
142.2935617166432
 30
0.0
  0
VERTEX
  5
109
330
106
100
AcDbEntity
  8
Capa 1
 62
     7
370
     9
100
AcDbVertex
100
AcDb2dVertex
 10
49.22837990261775
 20
142.366597789112
 30
0.0
  0
VERTEX
  5
10A
330
106
100
AcDbEntity
  8
Capa 1
 62
     7
370
     9
100
AcDbVertex
100
AcDb2dVertex
 10
49.14156343911711
 20
142.5030236603273
 30
0.0
  0
VERTEX
  5
10B
330
106
100
AcDbEntity
  8
Capa 1
 62
     7
370
     9
100
AcDbVertex
100
AcDb2dVertex
 10
49.02580815444961
 20
142.7262659950432
 30
0.0
  0
VERTEX
  5
10C
330
106
100
AcDbEntity
  8
Capa 1
 62
     7
370
     9
100
AcDbVertex
100
AcDb2dVertex
 10
48.95277208198082
 20
142.9536424470687
 30
0.0
  0
VERTEX
  5
10D
330
106
100
AcDbEntity
  8
Capa 1
 62
     7
370
     9
100
AcDbVertex
100
AcDb2dVertex
 10
48.93485757363941
 20
143.1589702734432
 30
0.0
  0
VERTEX
  5
10E
330
106
100
AcDbEntity
  8
Capa 1
 62
     7
370
     9
100
AcDbVertex
100
AcDb2dVertex
 10
48.96655247301266
 20
143.3629200607145
 30
0.0
  0
VERTEX
  5
10F
330
106
100
AcDbEntity
  8
Capa 1
 62
     7
370
     9
100
AcDbVertex
100
AcDb2dVertex
 10
49.05888109292604
 20
143.6026988646686
 30
0.0
  0
VERTEX
  5
110
330
106
100
AcDbEntity
  8
Capa 1
 62
     7
370
     9
100
AcDbVertex
100
AcDb2dVertex
 10
49.16774618207763
 20
143.7983804173209
 30
0.0
  0
VERTEX
  5
111
330
106
100
AcDbEntity
  8
Capa 1
 62
     7
370
     9
100
AcDbVertex
100
AcDb2dVertex
 10
49.26489793885214
 20
143.9458306013616
 30
0.0
  0
VERTEX
  5
112
330
106
100
AcDbEntity
  8
Capa 1
 62
     7
370
     9
100
AcDbVertex
100
AcDb2dVertex
 10
49.29039166226106
 20
143.9816596180444
 30
0.0
  0
SEQEND
  5
113
330
106
100
AcDbEntity
  8
Capa 1
370
     9
  0
SPLINE
  5
114
330
8E
100
AcDbEntity
  8
Capa 1
 62
     7
370
     9
100
AcDbSpline
210
0.0
220
0.0
230
1.0
 70
     8
 71
     3
 72
    50
 73
    46
 74
     0
 42
0.0000000001
 43
0.0000000001
 40
0.0
 40
0.0
 40
0.0
 40
0.0
 40
1.0
 40
1.0
 40
1.0
 40
2.0
 40
2.0
 40
2.0
 40
3.0
 40
3.0
 40
3.0
 40
4.0
 40
4.0
 40
4.0
 40
5.0
 40
5.0
 40
5.0
 40
6.0
 40
6.0
 40
6.0
 40
7.0
 40
7.0
 40
7.0
 40
8.0
 40
8.0
 40
8.0
 40
9.0
 40
9.0
 40
9.0
 40
10.0
 40
10.0
 40
10.0
 40
11.0
 40
11.0
 40
11.0
 40
12.0
 40
12.0
 40
12.0
 40
13.0
 40
13.0
 40
13.0
 40
14.0
 40
14.0
 40
14.0
 40
15.0
 40
15.0
 40
15.0
 40
15.0
 10
48.09011960338721
 20
149.4786576006481
 30
0.0
 10
48.11354626814135
 20
149.4786576006481
 30
0.0
 10
48.13697293289549
 20
149.4759015224417
 30
0.0
 10
48.15902155854644
 20
149.470389366029
 30
0.0
 10
48.1810701841974
 20
149.4648772096163
 30
0.0
 10
48.20311880984836
 20
149.4566089749972
 30
0.0
 10
48.22378939639612
 20
149.4462736817233
 30
0.0
 10
48.24445998294389
 20
149.4359383884494
 30
0.0
 10
48.26375253038848
 20
149.4228470169691
 30
0.0
 10
48.28166703872988
 20
149.4083776063857
 30
0.0
 10
48.29889252751969
 20
149.3939081958023
 30
0.0
 10
48.31473997720631
 20
149.3766827070124
 30
0.0
 10
48.32989840734134
 20
149.3594572182226
 30
0.0
 10
48.35883722850822
 20
149.3243172210914
 30
0.0
 10
48.38157487371077
 20
149.2829760479959
 30
0.0
 10
48.39742232339739
 20
149.238878796694
 30
0.0
 10
48.40431251891331
 20
149.2175191905946
 30
0.0
 10
48.40982467532606
 20
149.1947815453921
 30
0.0
 10
48.41326977308402
 20
149.1713548806379
 30
0.0
 10
48.41671487084198
 20
149.149306254987
 30
0.0
 10
48.41878192949675
 20
149.1258795902328
 30
0.0
 10
48.41878192949675
 20
149.1031419450303
 30
0.0
 10
48.41878192949675
 20
149.0804042998277
 30
0.0
 10
48.41671487084198
 20
149.0569776350736
 30
0.0
 10
48.41326977308402
 20
149.0342399898711
 30
0.0
 10
48.40982467532606
 20
149.0108133251169
 30
0.0
 10
48.40293447981013
 20
148.9894537190175
 30
0.0
 10
48.39604428429421
 20
148.9674050933666
 30
0.0
 10
48.38846506922669
 20
148.9453564677156
 30
0.0
 10
48.37950781505599
 20
148.9239968616163
 30
0.0
 10
48.36848350223051
 20
148.9040152946201
 30
0.0
 10
48.35677016985344
 20
148.8833447080723
 30
0.0
 10
48.34367879837319
 20
148.8647411801793
 30
0.0
 10
48.32920938778975
 20
148.8475156913895
 30
0.0
 10
48.31473997720631
 20
148.8296011830481
 30
0.0
 10
48.2982035079681
 20
148.8130647138099
 30
0.0
 10
48.28028899962669
 20
148.7985953032265
 30
0.0
 10
48.26306351083689
 20
148.784125892643
 30
0.0
 10
48.2437709633923
 20
148.7717235407144
 30
0.0
 10
48.22378939639612
 20
148.7606992278889
 30
0.0
 10
48.20311880984836
 20
148.7510529541666
 30
0.0
 10
48.1810701841974
 20
148.7427847195475
 30
0.0
 10
48.15902155854644
 20
148.7372725631348
 30
0.0
 10
48.1355948937923
 20
148.731760406722
 30
0.0
 10
48.11354626814135
 20
148.7290043285157
 30
0.0
 10
48.09011960338721
 20
148.7290043285157
 30
0.0
  0
SPLINE
  5
115
330
8E
100
AcDbEntity
  8
Capa 1
 62
     7
370
     9
100
AcDbSpline
210
0.0
220
0.0
230
1.0
 70
     8
 71
     3
 72
    47
 73
    43
 74
     0
 42
0.0000000001
 43
0.0000000001
 40
0.0
 40
0.0
 40
0.0
 40
0.0
 40
1.0
 40
1.0
 40
1.0
 40
2.0
 40
2.0
 40
2.0
 40
3.0
 40
3.0
 40
3.0
 40
4.0
 40
4.0
 40
4.0
 40
5.0
 40
5.0
 40
5.0
 40
6.0
 40
6.0
 40
6.0
 40
7.0
 40
7.0
 40
7.0
 40
8.0
 40
8.0
 40
8.0
 40
9.0
 40
9.0
 40
9.0
 40
10.0
 40
10.0
 40
10.0
 40
11.0
 40
11.0
 40
11.0
 40
12.0
 40
12.0
 40
12.0
 40
13.0
 40
13.0
 40
13.0
 40
14.0
 40
14.0
 40
14.0
 40
14.0
 10
48.09011960338721
 20
148.7290043285157
 30
0.0
 10
48.06669293863307
 20
148.7290043285157
 30
0.0
 10
48.04326627387893
 20
148.731760406722
 30
0.0
 10
48.02121764822797
 20
148.7372725631348
 30
0.0
 10
47.99916902257702
 20
148.7427847195475
 30
0.0
 10
47.97643137737447
 20
148.7510529541666
 30
0.0
 10
47.9564498103783
 20
148.7613882474405
 30
0.0
 10
47.93577922383052
 20
148.7717235407144
 30
0.0
 10
47.91648667638594
 20
148.7848149121946
 30
0.0
 10
47.89857216804454
 20
148.799284322778
 30
0.0
 10
47.88065765970314
 20
148.8137537333615
 30
0.0
 10
47.86412119046492
 20
148.8296011830481
 30
0.0
 10
47.85034079943308
 20
148.8482047109411
 30
0.0
 10
47.83518236929805
 20
148.8654301997309
 30
0.0
 10
47.82278001736938
 20
148.8861007862787
 30
0.0
 10
47.81175570454391
 20
148.9053933337233
 30
0.0
 10
47.80004237216684
 20
148.9246858811679
 30
0.0
 10
47.79108511799613
 20
148.9467345068188
 30
0.0
 10
47.78281688337702
 20
148.9680941129182
 30
0.0
 10
47.76834747279359
 20
149.0128803837717
 30
0.0
 10
47.76076825772607
 20
149.0576666546252
 30
0.0
 10
47.76145727727766
 20
149.1038309645819
 30
0.0
 10
47.76145727727766
 20
149.1520623331933
 30
0.0
 10
47.76834747279359
 20
149.1968486040468
 30
0.0
 10
47.78419492248021
 20
149.2402568357972
 30
0.0
 10
47.79177413754773
 20
149.2623054614481
 30
0.0
 10
47.80073139171843
 20
149.2836650675475
 30
0.0
 10
47.81175570454391
 20
149.3036466345437
 30
0.0
 10
47.82346903692098
 20
149.3229391819882
 30
0.0
 10
47.83656040840123
 20
149.3429207489844
 30
0.0
 10
47.85102981898467
 20
149.3601462377742
 30
0.0
 10
47.86549922956811
 20
149.3780607461156
 30
0.0
 10
47.88203569880633
 20
149.3945972153539
 30
0.0
 10
47.89857216804454
 20
149.4090666259373
 30
0.0
 10
47.91717569593753
 20
149.4235360365207
 30
0.0
 10
47.93715726293371
 20
149.4359383884494
 30
0.0
 10
47.95782784948148
 20
149.4469627012749
 30
0.0
 10
47.97712039692607
 20
149.4566089749972
 30
0.0
 10
47.99916902257702
 20
149.4648772096163
 30
0.0
 10
48.02121764822797
 20
149.4697003464774
 30
0.0
 10
48.04464431298211
 20
149.4759015224417
 30
0.0
 10
48.06669293863307
 20
149.4786576006481
 30
0.0
 10
48.09011960338721
 20
149.4786576006481
 30
0.0
  0
SPLINE
  5
116
330
8E
100
AcDbEntity
  8
Capa 1
 62
     7
370
     9
100
AcDbSpline
210
0.0
220
0.0
230
1.0
 70
    11
 71
     3
 72
    17
 73
    13
 74
     0
 42
0.0000000001
 43
0.0000000001
 40
0.0
 40
0.0
 40
0.0
 40
0.0
 40
1.0
 40
1.0
 40
1.0
 40
2.0
 40
2.0
 40
2.0
 40
3.0
 40
3.0
 40
3.0
 40
4.0
 40
4.0
 40
4.0
 40
4.0
 10
48.40500153846491
 20
149.1038309645819
 30
0.0
 10
48.40500153846491
 20
149.2781529111347
 30
0.0
 10
48.26375253038848
 20
149.418023880108
 30
0.0
 10
48.09011960338721
 20
149.418023880108
 30
0.0
 10
47.91648667638594
 20
149.418023880108
 30
0.0
 10
47.77454864875792
 20
149.2781529111347
 30
0.0
 10
47.77454864875792
 20
149.1038309645819
 30
0.0
 10
47.77454864875792
 20
148.929509018029
 30
0.0
 10
47.91648667638594
 20
148.7896380490558
 30
0.0
 10
48.09011960338721
 20
148.7896380490558
 30
0.0
 10
48.26375253038848
 20
148.7896380490558
 30
0.0
 10
48.40500153846491
 20
148.929509018029
 30
0.0
 10
48.40500153846491
 20
149.1038309645819
 30
0.0
  0
POLYLINE
  5
117
330
8E
100
AcDbEntity
  8
Capa 1
 62
     7
370
     9
100
AcDb2dPolyline
 66
     1
 10
0.0
 20
0.0
 30
0.0
  0
VERTEX
  5
118
330
117
100
AcDbEntity
  8
Capa 1
 62
     7
370
     9
100
AcDbVertex
100
AcDb2dVertex
 10
109.2902142149218
 20
150.9035500333411
 30
0.0
  0
VERTEX
  5
119
330
117
100
AcDbEntity
  8
Capa 1
 62
     7
370
     9
100
AcDbVertex
100
AcDb2dVertex
 10
106.8910481362773
 20
150.9035500333411
 30
0.0
  0
SEQEND
  5
11A
330
117
100
AcDbEntity
  8
Capa 1
370
     9
  0
SPLINE
  5
11B
330
8E
100
AcDbEntity
  8
Capa 1
 62
     7
370
     9
100
AcDbSpline
210
0.0
220
0.0
230
1.0
 70
     8
 71
     3
 72
    50
 73
    46
 74
     0
 42
0.0000000001
 43
0.0000000001
 40
0.0
 40
0.0
 40
0.0
 40
0.0
 40
1.0
 40
1.0
 40
1.0
 40
2.0
 40
2.0
 40
2.0
 40
3.0
 40
3.0
 40
3.0
 40
4.0
 40
4.0
 40
4.0
 40
5.0
 40
5.0
 40
5.0
 40
6.0
 40
6.0
 40
6.0
 40
7.0
 40
7.0
 40
7.0
 40
8.0
 40
8.0
 40
8.0
 40
9.0
 40
9.0
 40
9.0
 40
10.0
 40
10.0
 40
10.0
 40
11.0
 40
11.0
 40
11.0
 40
12.0
 40
12.0
 40
12.0
 40
13.0
 40
13.0
 40
13.0
 40
14.0
 40
14.0
 40
14.0
 40
15.0
 40
15.0
 40
15.0
 40
15.0
 10
108.089942156048
 20
149.4786576006481
 30
0.0
 10
108.1119907816989
 20
149.4786576006481
 30
0.0
 10
108.1367954855562
 20
149.4759015224417
 30
0.0
 10
108.1588441112072
 20
149.470389366029
 30
0.0
 10
108.1808927368582
 20
149.4648772096163
 30
0.0
 10
108.2029413625091
 20
149.4566089749972
 30
0.0
 10
108.2236119490569
 20
149.4462736817233
 30
0.0
 10
108.2442825356047
 20
149.4359383884494
 30
0.0
 10
108.2635750830492
 20
149.4228470169691
 30
0.0
 10
108.2814895913907
 20
149.4083776063857
 30
0.0
 10
108.299404099732
 20
149.3939081958023
 30
0.0
 10
108.3159405689703
 20
149.3766827070124
 30
0.0
 10
108.3297209600021
 20
149.3594572182226
 30
0.0
 10
108.3600378202722
 20
149.3243172210914
 30
0.0
 10
108.3820864459231
 20
149.2829760479959
 30
0.0
 10
108.3972448760582
 20
149.238878796694
 30
0.0
 10
108.4041350715741
 20
149.2175191905946
 30
0.0
 10
108.4096472279868
 20
149.1947815453921
 30
0.0
 10
108.4137813452964
 20
149.1713548806379
 30
0.0
 10
108.4179154626059
 20
149.149306254987
 30
0.0
 10
108.4192935017091
 20
149.1258795902328
 30
0.0
 10
108.4192935017091
 20
149.1031419450303
 30
0.0
 10
108.4192935017091
 20
149.0804042998277
 30
0.0
 10
108.4179154626059
 20
149.0569776350736
 30
0.0
 10
108.4137813452964
 20
149.0342399898711
 30
0.0
 10
108.4096472279868
 20
149.0108133251169
 30
0.0
 10
108.4041350715741
 20
148.9894537190175
 30
0.0
 10
108.395866836955
 20
148.9674050933666
 30
0.0
 10
108.388976641439
 20
148.9453564677156
 30
0.0
 10
108.3793303677168
 20
148.9239968616163
 30
0.0
 10
108.3683060548913
 20
148.9040152946201
 30
0.0
 10
108.3572817420658
 20
148.8833447080723
 30
0.0
 10
108.343501351034
 20
148.8647411801793
 30
0.0
 10
108.3297209600021
 20
148.8475156913895
 30
0.0
 10
108.3145625298671
 20
148.8296011830481
 30
0.0
 10
108.299404099732
 20
148.8130647138099
 30
0.0
 10
108.2801115522875
 20
148.7985953032265
 30
0.0
 10
108.2635750830492
 20
148.784125892643
 30
0.0
 10
108.2442825356047
 20
148.7717235407144
 30
0.0
 10
108.2222339099537
 20
148.7606992278889
 30
0.0
 10
108.2029413625091
 20
148.7510529541666
 30
0.0
 10
108.1808927368582
 20
148.7427847195475
 30
0.0
 10
108.1588441112072
 20
148.7372725631348
 30
0.0
 10
108.1367954855562
 20
148.731760406722
 30
0.0
 10
108.1133688208021
 20
148.7290043285157
 30
0.0
 10
108.089942156048
 20
148.7290043285157
 30
0.0
  0
SPLINE
  5
11C
330
8E
100
AcDbEntity
  8
Capa 1
 62
     7
370
     9
100
AcDbSpline
210
0.0
220
0.0
230
1.0
 70
     8
 71
     3
 72
    47
 73
    43
 74
     0
 42
0.0000000001
 43
0.0000000001
 40
0.0
 40
0.0
 40
0.0
 40
0.0
 40
1.0
 40
1.0
 40
1.0
 40
2.0
 40
2.0
 40
2.0
 40
3.0
 40
3.0
 40
3.0
 40
4.0
 40
4.0
 40
4.0
 40
5.0
 40
5.0
 40
5.0
 40
6.0
 40
6.0
 40
6.0
 40
7.0
 40
7.0
 40
7.0
 40
8.0
 40
8.0
 40
8.0
 40
9.0
 40
9.0
 40
9.0
 40
10.0
 40
10.0
 40
10.0
 40
11.0
 40
11.0
 40
11.0
 40
12.0
 40
12.0
 40
12.0
 40
13.0
 40
13.0
 40
13.0
 40
14.0
 40
14.0
 40
14.0
 40
14.0
 10
108.089942156048
 20
148.7290043285157
 30
0.0
 10
108.067893530397
 20
148.7290043285157
 30
0.0
 10
108.0430888265397
 20
148.731760406722
 30
0.0
 10
108.0210402008887
 20
148.7372725631348
 30
0.0
 10
107.9989915752378
 20
148.7427847195475
 30
0.0
 10
107.9769429495868
 20
148.7510529541666
 30
0.0
 10
107.9576504021422
 20
148.7613882474405
 30
0.0
 10
107.9356017764913
 20
148.7717235407144
 30
0.0
 10
107.9163092290467
 20
148.7848149121946
 30
0.0
 10
107.8997727598085
 20
148.799284322778
 30
0.0
 10
107.8804802123639
 20
148.8137537333615
 30
0.0
 10
107.8639437431257
 20
148.8296011830481
 30
0.0
 10
107.8501633520938
 20
148.8482047109411
 30
0.0
 10
107.836382961062
 20
148.8654301997309
 30
0.0
 10
107.8226025700301
 20
148.8861007862787
 30
0.0
 10
107.8115782572047
 20
148.9053933337233
 30
0.0
 10
107.8005539443792
 20
148.9246858811679
 30
0.0
 10
107.7909076706569
 20
148.9467345068188
 30
0.0
 10
107.784017475141
 20
148.9680941129182
 30
0.0
 10
107.7688590450059
 20
149.0128803837717
 30
0.0
 10
107.7605908103868
 20
149.0576666546252
 30
0.0
 10
107.7605908103868
 20
149.1038309645819
 30
0.0
 10
107.7605908103868
 20
149.1520623331933
 30
0.0
 10
107.7688590450059
 20
149.1968486040468
 30
0.0
 10
107.784017475141
 20
149.2402568357972
 30
0.0
 10
107.7909076706569
 20
149.2623054614481
 30
0.0
 10
107.8005539443792
 20
149.2836650675475
 30
0.0
 10
107.8115782572047
 20
149.3036466345437
 30
0.0
 10
107.8226025700301
 20
149.3229391819882
 30
0.0
 10
107.836382961062
 20
149.3429207489844
 30
0.0
 10
107.8501633520938
 20
149.3601462377742
 30
0.0
 10
107.8666998213321
 20
149.3780607461156
 30
0.0
 10
107.8804802123639
 20
149.3945972153539
 30
0.0
 10
107.8997727598085
 20
149.4090666259373
 30
0.0
 10
107.9176872681499
 20
149.4235360365207
 30
0.0
 10
107.9356017764913
 20
149.4359383884494
 30
0.0
 10
107.9576504021422
 20
149.4469627012749
 30
0.0
 10
107.9769429495868
 20
149.4566089749972
 30
0.0
 10
107.9989915752378
 20
149.4648772096163
 30
0.0
 10
108.0210402008887
 20
149.4697003464774
 30
0.0
 10
108.0444668656429
 20
149.4759015224417
 30
0.0
 10
108.067893530397
 20
149.4786576006481
 30
0.0
 10
108.089942156048
 20
149.4786576006481
 30
0.0
  0
POLYLINE
  5
11D
330
8E
100
AcDbEntity
  8
Capa 1
 62
     7
370
     9
100
AcDb2dPolyline
 66
     1
 10
0.0
 20
0.0
 30
0.0
  0
VERTEX
  5
11E
330
11D
100
AcDbEntity
  8
Capa 1
 62
     7
370
     9
100
AcDbVertex
100
AcDb2dVertex
 10
109.1951295168021
 20
150.0629461803984
 30
0.0
  0
VERTEX
  5
11F
330
11D
100
AcDbEntity
  8
Capa 1
 62
     7
370
     9
100
AcDbVertex
100
AcDb2dVertex
 10
109.1951295168021
 20
148.6228953175704
 30
0.0
  0
SEQEND
  5
120
330
11D
100
AcDbEntity
  8
Capa 1
370
     9
  0
POLYLINE
  5
121
330
8E
100
AcDbEntity
  8
Capa 1
 62
     7
370
     9
100
AcDb2dPolyline
 66
     1
 10
0.0
 20
0.0
 30
0.0
  0
VERTEX
  5
122
330
121
100
AcDbEntity
  8
Capa 1
 62
     7
370
     9
100
AcDbVertex
100
AcDb2dVertex
 10
109.1951295168021
 20
150.0629461803984
 30
0.0
  0
VERTEX
  5
123
330
121
100
AcDbEntity
  8
Capa 1
 62
     7
370
     9
100
AcDbVertex
100
AcDb2dVertex
 10
109.2902142149218
 20
150.0629461803984
 30
0.0
  0
SEQEND
  5
124
330
121
100
AcDbEntity
  8
Capa 1
370
     9
  0
POLYLINE
  5
125
330
8E
100
AcDbEntity
  8
Capa 1
 62
     7
370
     9
100
AcDb2dPolyline
 66
     1
 10
0.0
 20
0.0
 30
0.0
  0
VERTEX
  5
126
330
125
100
AcDbEntity
  8
Capa 1
 62
     7
370
     9
100
AcDbVertex
100
AcDb2dVertex
 10
109.1951295168021
 20
148.623584337122
 30
0.0
  0
VERTEX
  5
127
330
125
100
AcDbEntity
  8
Capa 1
 62
     7
370
     9
100
AcDbVertex
100
AcDb2dVertex
 10
109.2902142149218
 20
148.623584337122
 30
0.0
  0
SEQEND
  5
128
330
125
100
AcDbEntity
  8
Capa 1
370
     9
  0
POLYLINE
  5
129
330
8E
100
AcDbEntity
  8
Capa 1
 62
     7
370
     9
100
AcDb2dPolyline
 66
     1
 10
0.0
 20
0.0
 30
0.0
  0
VERTEX
  5
12A
330
129
100
AcDbEntity
  8
Capa 1
 62
     7
370
     9
100
AcDbVertex
100
AcDb2dVertex
 10
106.8951822535869
 20
143.9472086404648
 30
0.0
  0
VERTEX
  5
12B
330
129
100
AcDbEntity
  8
Capa 1
 62
     7
370
     9
100
AcDbVertex
100
AcDb2dVertex
 10
106.9020724491028
 20
143.9403184449489
 30
0.0
  0
VERTEX
  5
12C
330
129
100
AcDbEntity
  8
Capa 1
 62
     7
370
     9
100
AcDbVertex
100
AcDb2dVertex
 10
106.9516818568174
 20
143.8672823724801
 30
0.0
  0
VERTEX
  5
12D
330
129
100
AcDbEntity
  8
Capa 1
 62
     7
370
     9
100
AcDbVertex
100
AcDb2dVertex
 10
107.0384983203181
 20
143.7294784621616
 30
0.0
  0
VERTEX
  5
12E
330
129
100
AcDbEntity
  8
Capa 1
 62
     7
370
     9
100
AcDbVertex
100
AcDb2dVertex
 10
107.1528755658824
 20
143.5062361274457
 30
0.0
  0
VERTEX
  5
12F
330
129
100
AcDbEntity
  8
Capa 1
 62
     7
370
     9
100
AcDbVertex
100
AcDb2dVertex
 10
107.2272896774544
 20
143.2802377145235
 30
0.0
  0
VERTEX
  5
130
330
129
100
AcDbEntity
  8
Capa 1
 62
     7
370
     9
100
AcDbVertex
100
AcDb2dVertex
 10
107.2438261466926
 20
143.0735318490457
 30
0.0
  0
VERTEX
  5
131
330
129
100
AcDbEntity
  8
Capa 1
 62
     7
370
     9
100
AcDbVertex
100
AcDb2dVertex
 10
107.2135092864225
 20
142.8695820617744
 30
0.0
  0
VERTEX
  5
132
330
129
100
AcDbEntity
  8
Capa 1
 62
     7
370
     9
100
AcDbVertex
100
AcDb2dVertex
 10
107.1211806665091
 20
142.6298032578203
 30
0.0
  0
VERTEX
  5
133
330
129
100
AcDbEntity
  8
Capa 1
 62
     7
370
     9
100
AcDbVertex
100
AcDb2dVertex
 10
107.0123155773576
 20
142.4341217051681
 30
0.0
  0
VERTEX
  5
134
330
129
100
AcDbEntity
  8
Capa 1
 62
     7
370
     9
100
AcDbVertex
100
AcDb2dVertex
 10
106.9144748010314
 20
142.2880495602305
 30
0.0
  0
VERTEX
  5
135
330
129
100
AcDbEntity
  8
Capa 1
 62
     7
370
     9
100
AcDbVertex
100
AcDb2dVertex
 10
106.8896700971741
 20
142.2522205435477
 30
0.0
  0
SEQEND
  5
136
330
129
100
AcDbEntity
  8
Capa 1
370
     9
  0
POLYLINE
  5
137
330
8E
100
AcDbEntity
  8
Capa 1
 62
     7
370
     9
100
AcDb2dPolyline
 66
     1
 10
0.0
 20
0.0
 30
0.0
  0
VERTEX
  5
138
330
137
100
AcDbEntity
  8
Capa 1
 62
     7
370
     9
100
AcDbVertex
100
AcDb2dVertex
 10
106.8951822535869
 20
133.7469631986918
 30
0.0
  0
VERTEX
  5
139
330
137
100
AcDbEntity
  8
Capa 1
 62
     7
370
     9
100
AcDbVertex
100
AcDb2dVertex
 10
106.9020724491028
 20
133.7400730031759
 30
0.0
  0
VERTEX
  5
13A
330
137
100
AcDbEntity
  8
Capa 1
 62
     7
370
     9
100
AcDbVertex
100
AcDb2dVertex
 10
106.9516818568174
 20
133.6670369307072
 30
0.0
  0
VERTEX
  5
13B
330
137
100
AcDbEntity
  8
Capa 1
 62
     7
370
     9
100
AcDbVertex
100
AcDb2dVertex
 10
107.0384983203181
 20
133.5292330203887
 30
0.0
  0
VERTEX
  5
13C
330
137
100
AcDbEntity
  8
Capa 1
 62
     7
370
     9
100
AcDbVertex
100
AcDb2dVertex
 10
107.1528755658824
 20
133.307368724776
 30
0.0
  0
VERTEX
  5
13D
330
137
100
AcDbEntity
  8
Capa 1
 62
     7
370
     9
100
AcDbVertex
100
AcDb2dVertex
 10
107.2272896774544
 20
133.0799922727505
 30
0.0
  0
VERTEX
  5
13E
330
137
100
AcDbEntity
  8
Capa 1
 62
     7
370
     9
100
AcDbVertex
100
AcDb2dVertex
 10
107.2438261466926
 20
132.8732864072728
 30
0.0
  0
VERTEX
  5
13F
330
137
100
AcDbEntity
  8
Capa 1
 62
     7
370
     9
100
AcDbVertex
100
AcDb2dVertex
 10
107.2135092864225
 20
132.6707146591046
 30
0.0
  0
VERTEX
  5
140
330
137
100
AcDbEntity
  8
Capa 1
 62
     7
370
     9
100
AcDbVertex
100
AcDb2dVertex
 10
107.1211806665091
 20
132.4295578160473
 30
0.0
  0
VERTEX
  5
141
330
137
100
AcDbEntity
  8
Capa 1
 62
     7
370
     9
100
AcDbVertex
100
AcDb2dVertex
 10
107.0123155773576
 20
132.2338762633951
 30
0.0
  0
VERTEX
  5
142
330
137
100
AcDbEntity
  8
Capa 1
 62
     7
370
     9
100
AcDbVertex
100
AcDb2dVertex
 10
106.9144748010314
 20
132.0878041184575
 30
0.0
  0
VERTEX
  5
143
330
137
100
AcDbEntity
  8
Capa 1
 62
     7
370
     9
100
AcDbVertex
100
AcDb2dVertex
 10
106.8896700971741
 20
132.0519751017747
 30
0.0
  0
SEQEND
  5
144
330
137
100
AcDbEntity
  8
Capa 1
370
     9
  0
SPLINE
  5
145
330
8E
100
AcDbEntity
  8
Capa 1
 62
     7
370
     9
100
AcDbSpline
210
0.0
220
0.0
230
1.0
 70
     8
 71
     3
 72
    71
 73
    67
 74
     0
 42
0.0000000001
 43
0.0000000001
 40
0.0
 40
0.0
 40
0.0
 40
0.0
 40
1.0
 40
1.0
 40
1.0
 40
2.0
 40
2.0
 40
2.0
 40
3.0
 40
3.0
 40
3.0
 40
4.0
 40
4.0
 40
4.0
 40
5.0
 40
5.0
 40
5.0
 40
6.0
 40
6.0
 40
6.0
 40
7.0
 40
7.0
 40
7.0
 40
8.0
 40
8.0
 40
8.0
 40
9.0
 40
9.0
 40
9.0
 40
10.0
 40
10.0
 40
10.0
 40
11.0
 40
11.0
 40
11.0
 40
12.0
 40
12.0
 40
12.0
 40
13.0
 40
13.0
 40
13.0
 40
14.0
 40
14.0
 40
14.0
 40
15.0
 40
15.0
 40
15.0
 40
16.0
 40
16.0
 40
16.0
 40
17.0
 40
17.0
 40
17.0
 40
18.0
 40
18.0
 40
18.0
 40
19.0
 40
19.0
 40
19.0
 40
20.0
 40
20.0
 40
20.0
 40
21.0
 40
21.0
 40
21.0
 40
22.0
 40
22.0
 40
22.0
 40
22.0
 10
106.8896700971741
 20
123.554985991538
 30
0.0
 10
106.8896700971741
 20
123.554985991538
 30
0.0
 10
106.8938042144837
 20
123.5494738351253
 30
0.0
 10
106.9020724491028
 20
123.5384495222998
 30
0.0
 10
106.9103406837219
 20
123.5274252094743
 30
0.0
 10
106.9227430356506
 20
123.5095107011329
 30
0.0
 10
106.9379014657856
 20
123.4874620754819
 30
0.0
 10
106.9447916613015
 20
123.4764377626565
 30
0.0
 10
106.9544379350238
 20
123.4640354107278
 30
0.0
 10
106.9627061696429
 20
123.450255019696
 30
0.0
 10
106.970974404262
 20
123.4364746286641
 30
0.0
 10
106.9819987170875
 20
123.4226942376323
 30
0.0
 10
106.9902669517066
 20
123.4075358074972
 30
0.0
 10
106.9999132254289
 20
123.3923773773622
 30
0.0
 10
107.0109375382544
 20
123.375840908124
 30
0.0
 10
107.0205838119767
 20
123.3579263997826
 30
0.0
 10
107.0316081248021
 20
123.3400118914412
 30
0.0
 10
107.0426324376276
 20
123.3220973830998
 30
0.0
 10
107.0536567504531
 20
123.3041828747584
 30
0.0
 10
107.0757053761041
 20
123.264219740766
 30
0.0
 10
107.0991320408582
 20
123.2242566067737
 30
0.0
 10
107.119802627406
 20
123.1801593554718
 30
0.0
 10
107.1418512530569
 20
123.1346840650667
 30
0.0
 10
107.1638998787079
 20
123.0864526964552
 30
0.0
 10
107.1818143870493
 20
123.0354652496374
 30
0.0
 10
107.1997288953907
 20
122.9844778028195
 30
0.0
 10
107.2162653646289
 20
122.9321123168985
 30
0.0
 10
107.2272896774544
 20
122.8756127136679
 30
0.0
 10
107.2383139902798
 20
122.8191131104374
 30
0.0
 10
107.2452041857958
 20
122.7612354681036
 30
0.0
 10
107.2452041857958
 20
122.7033578257699
 30
0.0
 10
107.2452041857958
 20
122.674419004603
 30
0.0
 10
107.2438261466926
 20
122.6454801834361
 30
0.0
 10
107.2410700684862
 20
122.615163323166
 30
0.0
 10
107.2369359511767
 20
122.5876025411024
 30
0.0
 10
107.2328018338671
 20
122.5586637199355
 30
0.0
 10
107.2272896774544
 20
122.5311029378718
 30
0.0
 10
107.2217775210416
 20
122.5021641167049
 30
0.0
 10
107.2162653646289
 20
122.4746033346412
 30
0.0
 10
107.2066190909066
 20
122.4470425525775
 30
0.0
 10
107.1997288953907
 20
122.4222378487202
 30
0.0
 10
107.1914606607716
 20
122.3946770666565
 30
0.0
 10
107.1804363479461
 20
122.3698723627992
 30
0.0
 10
107.1638998787079
 20
122.3202629550845
 30
0.0
 10
107.1418512530569
 20
122.2734096255762
 30
0.0
 10
107.119802627406
 20
122.226556296068
 30
0.0
 10
107.097754001755
 20
122.1824590447661
 30
0.0
 10
107.0757053761041
 20
122.1411178716705
 30
0.0
 10
107.0536567504531
 20
122.1025327767813
 30
0.0
 10
107.0426324376276
 20
122.08461826844
 30
0.0
 10
107.0316081248021
 20
122.0653257209954
 30
0.0
 10
107.0205838119767
 20
122.0487892517571
 30
0.0
 10
107.0095594991512
 20
122.0308747434158
 30
0.0
 10
106.9985351863257
 20
122.0143382741775
 30
0.0
 10
106.9902669517066
 20
121.9991798440425
 30
0.0
 10
106.970974404262
 20
121.9688629837724
 30
0.0
 10
106.9530598959206
 20
121.9426802408119
 30
0.0
 10
106.9379014657856
 20
121.920631615161
 30
0.0
 10
106.9310112702697
 20
121.9096073023355
 30
0.0
 10
106.9241210747537
 20
121.8999610286132
 30
0.0
 10
106.9172308792378
 20
121.8903147548909
 30
0.0
 10
106.9103406837219
 20
121.8820465202718
 30
0.0
 10
106.9062065664123
 20
121.8751563247559
 30
0.0
 10
106.9020724491028
 20
121.86826612924
 30
0.0
 10
106.8938042144837
 20
121.8572418164145
 30
0.0
 10
106.8896700971741
 20
121.8517296600017
 30
0.0
 10
106.8896700971741
 20
121.8517296600017
 30
0.0
  0
SPLINE
  5
146
330
8E
100
AcDbEntity
  8
Capa 1
 62
     7
370
     9
100
AcDbSpline
210
0.0
220
0.0
230
1.0
 70
    11
 71
     3
 72
    17
 73
    13
 74
     0
 42
0.0000000001
 43
0.0000000001
 40
0.0
 40
0.0
 40
0.0
 40
0.0
 40
1.0
 40
1.0
 40
1.0
 40
2.0
 40
2.0
 40
2.0
 40
3.0
 40
3.0
 40
3.0
 40
4.0
 40
4.0
 40
4.0
 40
4.0
 10
108.4055131106773
 20
149.1038309645819
 30
0.0
 10
108.4055131106773
 20
149.2781529111347
 30
0.0
 10
108.2635750830492
 20
149.418023880108
 30
0.0
 10
108.089942156048
 20
149.418023880108
 30
0.0
 10
107.9163092290467
 20
149.418023880108
 30
0.0
 10
107.7743712014187
 20
149.2781529111347
 30
0.0
 10
107.7743712014187
 20
149.1038309645819
 30
0.0
 10
107.7743712014187
 20
148.929509018029
 30
0.0
 10
107.9163092290467
 20
148.7896380490558
 30
0.0
 10
108.089942156048
 20
148.7896380490558
 30
0.0
 10
108.2635750830492
 20
148.7896380490558
 30
0.0
 10
108.4055131106773
 20
148.929509018029
 30
0.0
 10
108.4055131106773
 20
149.1038309645819
 30
0.0
  0
POLYLINE
  5
147
330
8E
100
AcDbEntity
  8
Capa 1
 62
     7
370
     9
100
AcDb2dPolyline
 66
     1
 10
0.0
 20
0.0
 30
0.0
  0
VERTEX
  5
148
330
147
100
AcDbEntity
  8
Capa 1
 62
     7
370
     9
100
AcDbVertex
100
AcDb2dVertex
 10
49.29039166226106
 20
121.5044638059992
 30
0.0
  0
VERTEX
  5
149
330
147
100
AcDbEntity
  8
Capa 1
 62
     7
370
     9
100
AcDbVertex
100
AcDb2dVertex
 10
46.88984754451336
 20
121.5044638059992
 30
0.0
  0
SEQEND
  5
14A
330
147
100
AcDbEntity
  8
Capa 1
370
     9
  0
POLYLINE
  5
14B
330
8E
100
AcDbEntity
  8
Capa 1
 62
     7
370
     9
100
AcDb2dPolyline
 66
     1
 10
0.0
 20
0.0
 30
0.0
  0
VERTEX
  5
14C
330
14B
100
AcDbEntity
  8
Capa 1
 62
     7
370
     9
100
AcDbVertex
100
AcDb2dVertex
 10
109.2902142149218
 20
121.5044638059992
 30
0.0
  0
VERTEX
  5
14D
330
14B
100
AcDbEntity
  8
Capa 1
 62
     7
370
     9
100
AcDbVertex
100
AcDb2dVertex
 10
106.8910481362773
 20
121.5044638059992
 30
0.0
  0
SEQEND
  5
14E
330
14B
100
AcDbEntity
  8
Capa 1
370
     9
  0
POLYLINE
  5
14F
330
8E
100
AcDbEntity
  8
Capa 1
 62
     7
370
     9
100
AcDb2dPolyline
 66
     1
 10
0.0
 20
0.0
 30
0.0
  0
VERTEX
  5
150
330
14F
100
AcDbEntity
  8
Capa 1
 62
     7
370
     9
100
AcDbVertex
100
AcDb2dVertex
 10
48.09011960338721
 20
115.0235459037217
 30
0.0
  0
VERTEX
  5
151
330
14F
100
AcDbEntity
  8
Capa 1
 62
     7
370
     9
100
AcDbVertex
100
AcDb2dVertex
 10
48.09011960338721
 20
115.0235459037217
 30
0.0
  0
SEQEND
  5
152
330
14F
100
AcDbEntity
  8
Capa 1
370
     9
  0
POLYLINE
  5
153
330
8E
100
AcDbEntity
  8
Capa 1
 62
     7
370
     9
100
AcDb2dPolyline
 66
     1
 10
0.0
 20
0.0
 30
0.0
  0
VERTEX
  5
154
330
153
100
AcDbEntity
  8
Capa 1
 62
     7
370
     9
100
AcDbVertex
100
AcDb2dVertex
 10
47.97023020141014
 20
115.0235459037217
 30
0.0
  0
VERTEX
  5
155
330
153
100
AcDbEntity
  8
Capa 1
 62
     7
370
     9
100
AcDbVertex
100
AcDb2dVertex
 10
44.13032424038605
 20
115.0235459037217
 30
0.0
  0
SEQEND
  5
156
330
153
100
AcDbEntity
  8
Capa 1
370
     9
  0
POLYLINE
  5
157
330
8E
100
AcDbEntity
  8
Capa 1
 62
     7
370
     9
100
AcDb2dPolyline
 66
     1
 10
0.0
 20
0.0
 30
0.0
  0
VERTEX
  5
158
330
157
100
AcDbEntity
  8
Capa 1
 62
     7
370
     9
100
AcDbVertex
100
AcDb2dVertex
 10
46.88984754451336
 20
150.8436053323525
 30
0.0
  0
VERTEX
  5
159
330
157
100
AcDbEntity
  8
Capa 1
 62
     7
370
     9
100
AcDbVertex
100
AcDb2dVertex
 10
44.12963522083445
 20
150.8436053323525
 30
0.0
  0
SEQEND
  5
15A
330
157
100
AcDbEntity
  8
Capa 1
370
     9
  0
POLYLINE
  5
15B
330
8E
100
AcDbEntity
  8
Capa 1
 62
     7
370
     9
100
AcDb2dPolyline
 66
     1
 10
0.0
 20
0.0
 30
0.0
  0
VERTEX
  5
15C
330
15B
100
AcDbEntity
  8
Capa 1
 62
     7
370
     9
100
AcDbVertex
100
AcDb2dVertex
 10
44.24952462281152
 20
116.2734273703102
 30
0.0
  0
VERTEX
  5
15D
330
15B
100
AcDbEntity
  8
Capa 1
 62
     7
370
     9
100
AcDbVertex
100
AcDb2dVertex
 10
44.24952462281152
 20
149.593723865764
 30
0.0
  0
SEQEND
  5
15E
330
15B
100
AcDbEntity
  8
Capa 1
370
     9
  0
POLYLINE
  5
15F
330
8E
100
AcDbEntity
  8
Capa 1
370
     0
100
AcDb2dPolyline
 66
     1
 10
0.0
 20
0.0
 30
0.0
  0
VERTEX
  5
160
330
15F
100
AcDbEntity
  8
Capa 1
370
     0
100
AcDbVertex
100
AcDb2dVertex
 10
44.64226576721915
 20
116.5531693082567
 30
0.0
  0
VERTEX
  5
161
330
15F
100
AcDbEntity
  8
Capa 1
370
     0
100
AcDbVertex
100
AcDb2dVertex
 10
44.2329881535733
 20
115.0235459037217
 30
0.0
  0
VERTEX
  5
162
330
15F
100
AcDbEntity
  8
Capa 1
370
     0
100
AcDbVertex
100
AcDb2dVertex
 10
43.82233250082427
 20
116.5531693082567
 30
0.0
  0
VERTEX
  5
163
330
15F
100
AcDbEntity
  8
Capa 1
370
     0
100
AcDbVertex
100
AcDb2dVertex
 10
44.64226576721915
 20
116.5531693082567
 30
0.0
  0
SEQEND
  5
164
330
15F
100
AcDbEntity
  8
Capa 1
370
     0
  0
HATCH
  5
165
330
8E
100
AcDbEntity
  8
Capa 1
 62
     7
100
AcDbHatch
 10
0.0
 20
0.0
 30
0.0
210
0.0
220
0.0
230
1.0
  2
SOLID
 70
     1
 71
     0
 91
        1
 92
        1
 93
        3
 72
     1
 10
44.64226576721915
 20
116.5531693082567
 11
44.2329881535733
 21
115.0235459037217
 72
     1
 10
44.2329881535733
 20
115.0235459037217
 11
43.82233250082427
 21
116.5531693082567
 72
     1
 10
43.82233250082427
 20
116.5531693082567
 11
44.64226576721915
 21
116.5531693082567
 97
        0
 75
     2
 76
     1
 98
        0
  0
POLYLINE
  5
166
330
8E
100
AcDbEntity
  8
Capa 1
370
     0
100
AcDb2dPolyline
 66
     1
 10
0.0
 20
0.0
 30
0.0
  0
VERTEX
  5
167
330
166
100
AcDbEntity
  8
Capa 1
370
     0
100
AcDbVertex
100
AcDb2dVertex
 10
44.64226576721915
 20
149.3146709473691
 30
0.0
  0
VERTEX
  5
168
330
166
100
AcDbEntity
  8
Capa 1
370
     0
100
AcDbVertex
100
AcDb2dVertex
 10
44.2329881535733
 20
150.8429163128009
 30
0.0
  0
VERTEX
  5
169
330
166
100
AcDbEntity
  8
Capa 1
370
     0
100
AcDbVertex
100
AcDb2dVertex
 10
43.82233250082427
 20
149.3146709473691
 30
0.0
  0
VERTEX
  5
16A
330
166
100
AcDbEntity
  8
Capa 1
370
     0
100
AcDbVertex
100
AcDb2dVertex
 10
44.64226576721915
 20
149.3146709473691
 30
0.0
  0
SEQEND
  5
16B
330
166
100
AcDbEntity
  8
Capa 1
370
     0
  0
HATCH
  5
16C
330
8E
100
AcDbEntity
  8
Capa 1
 62
     7
100
AcDbHatch
 10
0.0
 20
0.0
 30
0.0
210
0.0
220
0.0
230
1.0
  2
SOLID
 70
     1
 71
     0
 91
        1
 92
        1
 93
        3
 72
     1
 10
44.64226576721915
 20
149.3146709473691
 11
44.2329881535733
 21
150.8429163128009
 72
     1
 10
44.2329881535733
 20
150.8429163128009
 11
43.82233250082427
 21
149.3146709473691
 72
     1
 10
43.82233250082427
 20
149.3146709473691
 11
44.64226576721915
 21
149.3146709473691
 97
        0
 75
     2
 76
     1
 98
        0
  0
ENDBLK
  5
91
330
8E
100
AcDbEntity
  8
0
100
AcDbBlockEnd
  0
BLOCK
  5
170
330
16E
100
AcDbEntity
  8
0
100
AcDbBlockBegin
  2
block 4
 70
     0
 71
     0
 10
0.0
 20
0.0
 30
0.0
  3
block 4
  1

  0
POLYLINE
  5
172
330
16E
100
AcDbEntity
  8
Capa 1
370
     0
100
AcDb2dPolyline
 66
     1
 10
0.0
 20
0.0
 30
0.0
  0
VERTEX
  5
173
330
172
100
AcDbEntity
  8
Capa 1
370
     0
100
AcDbVertex
100
AcDb2dVertex
 10
39.05707328201166
 20
207.0586434881166
 30
0.0
  0
VERTEX
  5
174
330
172
100
AcDbEntity
  8
Capa 1
370
     0
100
AcDbVertex
100
AcDb2dVertex
 10
174.576194767399
 20
207.0586434881166
 30
0.0
  0
VERTEX
  5
175
330
172
100
AcDbEntity
  8
Capa 1
370
     0
100
AcDbVertex
100
AcDb2dVertex
 10
174.576194767399
 20
112.4259421942185
 30
0.0
  0
VERTEX
  5
176
330
172
100
AcDbEntity
  8
Capa 1
370
     0
100
AcDbVertex
100
AcDb2dVertex
 10
39.05707328201166
 20
112.4259421942185
 30
0.0
  0
VERTEX
  5
177
330
172
100
AcDbEntity
  8
Capa 1
370
     0
100
AcDbVertex
100
AcDb2dVertex
 10
39.05707328201166
 20
207.0586434881166
 30
0.0
  0
SEQEND
  5
178
330
172
100
AcDbEntity
  8
Capa 1
370
     0
  0
POLYLINE
  5
179
330
16E
100
AcDbEntity
  8
Capa 1
 62
     7
370
     9
100
AcDb2dPolyline
 66
     1
 10
0.0
 20
0.0
 30
0.0
  0
VERTEX
  5
17A
330
179
100
AcDbEntity
  8
Capa 1
 62
     7
370
     9
100
AcDbVertex
100
AcDb2dVertex
 10
136.2570614251428
 20
194.9222531063691
 30
0.0
  0
VERTEX
  5
17B
330
179
100
AcDbEntity
  8
Capa 1
 62
     7
370
     9
100
AcDbVertex
100
AcDb2dVertex
 10
165.6561476524846
 20
194.9222531063691
 30
0.0
  0
SEQEND
  5
17C
330
179
100
AcDbEntity
  8
Capa 1
370
     9
  0
POLYLINE
  5
17D
330
16E
100
AcDbEntity
  8
Capa 1
 62
     7
370
     9
100
AcDb2dPolyline
 66
     1
 10
0.0
 20
0.0
 30
0.0
  0
VERTEX
  5
17E
330
17D
100
AcDbEntity
  8
Capa 1
 62
     7
370
     9
100
AcDbVertex
100
AcDb2dVertex
 10
137.6819538578357
 20
197.3214191850137
 30
0.0
  0
VERTEX
  5
17F
330
17D
100
AcDbEntity
  8
Capa 1
 62
     7
370
     9
100
AcDbVertex
100
AcDb2dVertex
 10
136.2570614251428
 20
197.3214191850137
 30
0.0
  0
SEQEND
  5
180
330
17D
100
AcDbEntity
  8
Capa 1
370
     9
  0
POLYLINE
  5
181
330
16E
100
AcDbEntity
  8
Capa 1
 62
     7
370
     9
100
AcDb2dPolyline
 66
     1
 10
0.0
 20
0.0
 30
0.0
  0
VERTEX
  5
182
330
181
100
AcDbEntity
  8
Capa 1
 62
     7
370
     9
100
AcDbVertex
100
AcDb2dVertex
 10
165.6561476524846
 20
197.3214191850137
 30
0.0
  0
VERTEX
  5
183
330
181
100
AcDbEntity
  8
Capa 1
 62
     7
370
     9
100
AcDbVertex
100
AcDb2dVertex
 10
138.4316071299682
 20
197.3214191850137
 30
0.0
  0
SEQEND
  5
184
330
181
100
AcDbEntity
  8
Capa 1
370
     9
  0
POLYLINE
  5
185
330
16E
100
AcDbEntity
  8
Capa 1
 62
     7
370
     9
100
AcDb2dPolyline
 66
     1
 10
0.0
 20
0.0
 30
0.0
  0
VERTEX
  5
186
330
185
100
AcDbEntity
  8
Capa 1
 62
     7
370
     9
100
AcDbVertex
100
AcDb2dVertex
 10
138.4316071299682
 20
184.1218716351593
 30
0.0
  0
VERTEX
  5
187
330
185
100
AcDbEntity
  8
Capa 1
 62
     7
370
     9
100
AcDbVertex
100
AcDb2dVertex
 10
165.6561476524846
 20
184.1218716351593
 30
0.0
  0
SEQEND
  5
188
330
185
100
AcDbEntity
  8
Capa 1
370
     9
  0
POLYLINE
  5
189
330
16E
100
AcDbEntity
  8
Capa 1
 62
     7
370
     9
100
AcDb2dPolyline
 66
     1
 10
0.0
 20
0.0
 30
0.0
  0
VERTEX
  5
18A
330
189
100
AcDbEntity
  8
Capa 1
 62
     7
370
     9
100
AcDbVertex
100
AcDb2dVertex
 10
136.2570614251428
 20
184.1218716351593
 30
0.0
  0
VERTEX
  5
18B
330
189
100
AcDbEntity
  8
Capa 1
 62
     7
370
     9
100
AcDbVertex
100
AcDb2dVertex
 10
137.6819538578357
 20
184.1218716351593
 30
0.0
  0
SEQEND
  5
18C
330
189
100
AcDbEntity
  8
Capa 1
370
     9
  0
POLYLINE
  5
18D
330
16E
100
AcDbEntity
  8
Capa 1
 62
     7
370
     9
100
AcDb2dPolyline
 66
     1
 10
0.0
 20
0.0
 30
0.0
  0
VERTEX
  5
18E
330
18D
100
AcDbEntity
  8
Capa 1
 62
     7
370
     9
100
AcDbVertex
100
AcDb2dVertex
 10
165.6561476524846
 20
186.5217267333554
 30
0.0
  0
VERTEX
  5
18F
330
18D
100
AcDbEntity
  8
Capa 1
 62
     7
370
     9
100
AcDbVertex
100
AcDb2dVertex
 10
136.2570614251428
 20
186.5217267333554
 30
0.0
  0
SEQEND
  5
190
330
18D
100
AcDbEntity
  8
Capa 1
370
     9
  0
SPLINE
  5
191
330
16E
100
AcDbEntity
  8
Capa 1
 62
     7
370
     9
100
AcDbSpline
210
0.0
220
0.0
230
1.0
 70
     8
 71
     3
 72
    11
 73
     7
 74
     0
 42
0.0000000001
 43
0.0000000001
 40
0.0
 40
0.0
 40
0.0
 40
0.0
 40
1.0
 40
1.0
 40
1.0
 40
2.0
 40
2.0
 40
2.0
 40
2.0
 10
165.6561476524846
 20
186.5217267333554
 30
0.0
 10
167.9767655022476
 20
186.5217267333554
 30
0.0
 10
169.8564108389915
 20
188.4020610896509
 30
0.0
 10
169.8564108389915
 20
190.7219899198623
 30
0.0
 10
169.8564108389915
 20
193.0412297305221
 30
0.0
 10
167.9767655022476
 20
194.9222531063691
 30
0.0
 10
165.6561476524846
 20
194.9222531063691
 30
0.0
  0
SPLINE
  5
192
330
16E
100
AcDbEntity
  8
Capa 1
 62
     7
370
     9
100
AcDbSpline
210
0.0
220
0.0
230
1.0
 70
     8
 71
     3
 72
     8
 73
     4
 74
     0
 42
0.0000000001
 43
0.0000000001
 40
0.0
 40
0.0
 40
0.0
 40
0.0
 40
1.0
 40
1.0
 40
1.0
 40
1.0
 10
165.6561476524846
 20
184.1218716351593
 30
0.0
 10
169.3010610804081
 20
184.1218716351593
 30
0.0
 10
172.2569549567392
 20
187.0770764919388
 30
0.0
 10
172.2569549567392
 20
190.7219899198623
 30
0.0
  0
SPLINE
  5
193
330
16E
100
AcDbEntity
  8
Capa 1
 62
     7
370
     9
100
AcDbSpline
210
0.0
220
0.0
230
1.0
 70
     8
 71
     3
 72
     8
 73
     4
 74
     0
 42
0.0000000001
 43
0.0000000001
 40
0.0
 40
0.0
 40
0.0
 40
0.0
 40
1.0
 40
1.0
 40
1.0
 40
1.0
 10
172.2569549567392
 20
190.7219899198623
 30
0.0
 10
172.2569549567392
 20
194.3669033477857
 30
0.0
 10
169.3024391195113
 20
197.3214191850137
 30
0.0
 10
165.6561476524846
 20
197.3214191850137
 30
0.0
  0
POLYLINE
  5
194
330
16E
100
AcDbEntity
  8
Capa 1
 62
     7
370
     9
100
AcDb2dPolyline
 66
     1
 10
0.0
 20
0.0
 30
0.0
  0
VERTEX
  5
195
330
194
100
AcDbEntity
  8
Capa 1
 62
     7
370
     9
100
AcDbVertex
100
AcDb2dVertex
 10
136.2570614251428
 20
184.1218716351593
 30
0.0
  0
VERTEX
  5
196
330
194
100
AcDbEntity
  8
Capa 1
 62
     7
370
     9
100
AcDbVertex
100
AcDb2dVertex
 10
136.2570614251428
 20
186.5217267333554
 30
0.0
  0
SEQEND
  5
197
330
194
100
AcDbEntity
  8
Capa 1
370
     9
  0
POLYLINE
  5
198
330
16E
100
AcDbEntity
  8
Capa 1
 62
     7
370
     9
100
AcDb2dPolyline
 66
     1
 10
0.0
 20
0.0
 30
0.0
  0
VERTEX
  5
199
330
198
100
AcDbEntity
  8
Capa 1
 62
     7
370
     9
100
AcDbVertex
100
AcDb2dVertex
 10
136.2570614251428
 20
197.3214191850137
 30
0.0
  0
VERTEX
  5
19A
330
198
100
AcDbEntity
  8
Capa 1
 62
     7
370
     9
100
AcDbVertex
100
AcDb2dVertex
 10
136.2570614251428
 20
194.9222531063691
 30
0.0
  0
SEQEND
  5
19B
330
198
100
AcDbEntity
  8
Capa 1
370
     9
  0
SPLINE
  5
19C
330
16E
100
AcDbEntity
  8
Capa 1
 62
     7
370
     9
100
AcDbSpline
210
0.0
220
0.0
230
1.0
 70
     8
 71
     3
 72
    47
 73
    43
 74
     0
 42
0.0000000001
 43
0.0000000001
 40
0.0
 40
0.0
 40
0.0
 40
0.0
 40
1.0
 40
1.0
 40
1.0
 40
2.0
 40
2.0
 40
2.0
 40
3.0
 40
3.0
 40
3.0
 40
4.0
 40
4.0
 40
4.0
 40
5.0
 40
5.0
 40
5.0
 40
6.0
 40
6.0
 40
6.0
 40
7.0
 40
7.0
 40
7.0
 40
8.0
 40
8.0
 40
8.0
 40
9.0
 40
9.0
 40
9.0
 40
10.0
 40
10.0
 40
10.0
 40
11.0
 40
11.0
 40
11.0
 40
12.0
 40
12.0
 40
12.0
 40
13.0
 40
13.0
 40
13.0
 40
14.0
 40
14.0
 40
14.0
 40
14.0
 10
138.4316071299682
 20
197.3214191850137
 30
0.0
 10
138.4316071299682
 20
197.3214191850137
 30
0.0
 10
138.4288510517618
 20
197.3214191850137
 30
0.0
 10
138.423338895349
 20
197.3200411459105
 30
0.0
 10
138.4178267389363
 20
197.3186631068073
 30
0.0
 10
138.4095585043172
 20
197.3165960481525
 30
0.0
 10
138.3985341914917
 20
197.3145289894977
 30
0.0
 10
138.3875098786662
 20
197.3117729112914
 30
0.0
 10
138.3764855658408
 20
197.309016833085
 30
0.0
 10
138.3599490966025
 20
197.3062607548787
 30
0.0
 10
138.3461687055707
 20
197.3035046766723
 30
0.0
 10
138.3296322363325
 20
197.3007485984659
 30
0.0
 10
138.3117177279911
 20
197.2973035007079
 30
0.0
 10
138.2938032196497
 20
197.2945474225016
 30
0.0
 10
138.2745106722051
 20
197.2917913442952
 30
0.0
 10
138.2552181247605
 20
197.2890352660888
 30
0.0
 10
138.2359255773159
 20
197.2862791878825
 30
0.0
 10
138.213876951665
 20
197.2842121292277
 30
0.0
 10
138.191828326014
 20
197.2814560510213
 30
0.0
 10
138.1477310747121
 20
197.2773219337118
 30
0.0
 10
138.102255784307
 20
197.2759438946086
 30
0.0
 10
138.0567804939019
 20
197.2759438946086
 30
0.0
 10
138.0085491252905
 20
197.2759438946086
 30
0.0
 10
137.9630738348854
 20
197.2773219337118
 30
0.0
 10
137.9189765835835
 20
197.2814560510213
 30
0.0
 10
137.8969279579325
 20
197.2842121292277
 30
0.0
 10
137.8776354104879
 20
197.2869682074341
 30
0.0
 10
137.8569648239402
 20
197.2890352660888
 30
0.0
 10
137.8362942373924
 20
197.2917913442952
 30
0.0
 10
137.8170016899478
 20
197.2945474225016
 30
0.0
 10
137.8004652207096
 20
197.2973035007079
 30
0.0
 10
137.781172673265
 20
197.3007485984659
 30
0.0
 10
137.76601424313
 20
197.3035046766723
 30
0.0
 10
137.7508558129949
 20
197.3062607548787
 30
0.0
 10
137.7370754219631
 20
197.309016833085
 30
0.0
 10
137.7232950309312
 20
197.3117729112914
 30
0.0
 10
137.7136487572089
 20
197.3145289894977
 30
0.0
 10
137.7040024834866
 20
197.3165960481525
 30
0.0
 10
137.6957342488676
 20
197.3186631068073
 30
0.0
 10
137.6902220924548
 20
197.3200411459105
 30
0.0
 10
137.6847099360421
 20
197.3214191850137
 30
0.0
 10
137.6819538578357
 20
197.3214191850137
 30
0.0
 10
137.6819538578357
 20
197.3214191850137
 30
0.0
  0
SPLINE
  5
19D
330
16E
100
AcDbEntity
  8
Capa 1
 62
     7
370
     9
100
AcDbSpline
210
0.0
220
0.0
230
1.0
 70
     8
 71
     3
 72
    47
 73
    43
 74
     0
 42
0.0000000001
 43
0.0000000001
 40
0.0
 40
0.0
 40
0.0
 40
0.0
 40
1.0
 40
1.0
 40
1.0
 40
2.0
 40
2.0
 40
2.0
 40
3.0
 40
3.0
 40
3.0
 40
4.0
 40
4.0
 40
4.0
 40
5.0
 40
5.0
 40
5.0
 40
6.0
 40
6.0
 40
6.0
 40
7.0
 40
7.0
 40
7.0
 40
8.0
 40
8.0
 40
8.0
 40
9.0
 40
9.0
 40
9.0
 40
10.0
 40
10.0
 40
10.0
 40
11.0
 40
11.0
 40
11.0
 40
12.0
 40
12.0
 40
12.0
 40
13.0
 40
13.0
 40
13.0
 40
14.0
 40
14.0
 40
14.0
 40
14.0
 10
138.4316071299682
 20
184.1218716351593
 30
0.0
 10
138.4316071299682
 20
184.1218716351593
 30
0.0
 10
138.4288510517618
 20
184.1225606547108
 30
0.0
 10
138.423338895349
 20
184.1232496742624
 30
0.0
 10
138.4178267389363
 20
184.1246277133656
 30
0.0
 10
138.4095585043172
 20
184.1266947720204
 30
0.0
 10
138.3985341914917
 20
184.1287618306752
 30
0.0
 10
138.3875098786662
 20
184.13082888933
 30
0.0
 10
138.3764855658408
 20
184.1349630066395
 30
0.0
 10
138.3599490966025
 20
184.1363410457427
 30
0.0
 10
138.3461687055707
 20
184.1404751630523
 30
0.0
 10
138.3296322363325
 20
184.1432312412586
 30
0.0
 10
138.3117177279911
 20
184.145987319465
 30
0.0
 10
138.2938032196497
 20
184.149432417223
 30
0.0
 10
138.2745106722051
 20
184.1514994758777
 30
0.0
 10
138.2552181247605
 20
184.1542555540841
 30
0.0
 10
138.2359255773159
 20
184.157700651842
 30
0.0
 10
138.213876951665
 20
184.1597677104968
 30
0.0
 10
138.191828326014
 20
184.1611457496
 30
0.0
 10
138.1477310747121
 20
184.1652798669096
 30
0.0
 10
138.102255784307
 20
184.1680359451159
 30
0.0
 10
138.0567804939019
 20
184.1680359451159
 30
0.0
 10
138.0085491252905
 20
184.1680359451159
 30
0.0
 10
137.9630738348854
 20
184.1652798669096
 30
0.0
 10
137.9189765835835
 20
184.1611457496
 30
0.0
 10
137.8969279579325
 20
184.1597677104968
 30
0.0
 10
137.8776354104879
 20
184.1570116322905
 30
0.0
 10
137.8569648239402
 20
184.1542555540841
 30
0.0
 10
137.8362942373924
 20
184.1514994758777
 30
0.0
 10
137.8170016899478
 20
184.1487433976714
 30
0.0
 10
137.8004652207096
 20
184.145987319465
 30
0.0
 10
137.781172673265
 20
184.1432312412586
 30
0.0
 10
137.76601424313
 20
184.1390971239491
 30
0.0
 10
137.7508558129949
 20
184.1363410457427
 30
0.0
 10
137.7370754219631
 20
184.1349630066395
 30
0.0
 10
137.7232950309312
 20
184.13082888933
 30
0.0
 10
137.7136487572089
 20
184.1287618306752
 30
0.0
 10
137.7040024834866
 20
184.1266947720204
 30
0.0
 10
137.6957342488676
 20
184.1246277133656
 30
0.0
 10
137.6902220924548
 20
184.1232496742624
 30
0.0
 10
137.6847099360421
 20
184.1225606547108
 30
0.0
 10
137.6819538578357
 20
184.1218716351593
 30
0.0
 10
137.6819538578357
 20
184.1218716351593
 30
0.0
  0
POLYLINE
  5
19E
330
16E
100
AcDbEntity
  8
Capa 1
 62
     7
370
     9
100
AcDb2dPolyline
 66
     1
 10
0.0
 20
0.0
 30
0.0
  0
VERTEX
  5
19F
330
19E
100
AcDbEntity
  8
Capa 1
 62
     7
370
     9
100
AcDbVertex
100
AcDb2dVertex
 10
165.6561476524846
 20
197.3214191850137
 30
0.0
  0
VERTEX
  5
1A0
330
19E
100
AcDbEntity
  8
Capa 1
 62
     7
370
     9
100
AcDbVertex
100
AcDb2dVertex
 10
165.6561476524846
 20
194.9222531063691
 30
0.0
  0
SEQEND
  5
1A1
330
19E
100
AcDbEntity
  8
Capa 1
370
     9
  0
POLYLINE
  5
1A2
330
16E
100
AcDbEntity
  8
Capa 1
 62
     7
370
     9
100
AcDb2dPolyline
 66
     1
 10
0.0
 20
0.0
 30
0.0
  0
VERTEX
  5
1A3
330
1A2
100
AcDbEntity
  8
Capa 1
 62
     7
370
     9
100
AcDbVertex
100
AcDb2dVertex
 10
165.6561476524846
 20
184.1218716351593
 30
0.0
  0
VERTEX
  5
1A4
330
1A2
100
AcDbEntity
  8
Capa 1
 62
     7
370
     9
100
AcDbVertex
100
AcDb2dVertex
 10
165.6561476524846
 20
186.5217267333554
 30
0.0
  0
SEQEND
  5
1A5
330
1A2
100
AcDbEntity
  8
Capa 1
370
     9
  0
POLYLINE
  5
1A6
330
16E
100
AcDbEntity
  8
Capa 1
 62
     7
370
     9
100
AcDb2dPolyline
 66
     1
 10
0.0
 20
0.0
 30
0.0
  0
VERTEX
  5
1A7
330
1A6
100
AcDbEntity
  8
Capa 1
 62
     7
370
     9
100
AcDbVertex
100
AcDb2dVertex
 10
136.2570614251428
 20
197.3214191850137
 30
0.0
  0
VERTEX
  5
1A8
330
1A6
100
AcDbEntity
  8
Capa 1
 62
     7
370
     9
100
AcDbVertex
100
AcDb2dVertex
 10
136.2570614251428
 20
197.3214191850137
 30
0.0
  0
SEQEND
  5
1A9
330
1A6
100
AcDbEntity
  8
Capa 1
370
     9
  0
POLYLINE
  5
1AA
330
16E
100
AcDbEntity
  8
Capa 1
 62
     7
370
     9
100
AcDb2dPolyline
 66
     1
 10
0.0
 20
0.0
 30
0.0
  0
VERTEX
  5
1AB
330
1AA
100
AcDbEntity
  8
Capa 1
 62
     7
370
     9
100
AcDbVertex
100
AcDb2dVertex
 10
136.2570614251428
 20
184.1218716351593
 30
0.0
  0
VERTEX
  5
1AC
330
1AA
100
AcDbEntity
  8
Capa 1
 62
     7
370
     9
100
AcDbVertex
100
AcDb2dVertex
 10
136.2570614251428
 20
184.1218716351593
 30
0.0
  0
SEQEND
  5
1AD
330
1AA
100
AcDbEntity
  8
Capa 1
370
     9
  0
POLYLINE
  5
1AE
330
16E
100
AcDbEntity
  8
Capa 1
 62
     7
370
     9
100
AcDb2dPolyline
 66
     1
 10
0.0
 20
0.0
 30
0.0
  0
VERTEX
  5
1AF
330
1AE
100
AcDbEntity
  8
Capa 1
 62
     7
370
     9
100
AcDbVertex
100
AcDb2dVertex
 10
136.1371720231657
 20
184.1218716351593
 30
0.0
  0
VERTEX
  5
1B0
330
1AE
100
AcDbEntity
  8
Capa 1
 62
     7
370
     9
100
AcDbVertex
100
AcDb2dVertex
 10
133.4968491014638
 20
184.1218716351593
 30
0.0
  0
SEQEND
  5
1B1
330
1AE
100
AcDbEntity
  8
Capa 1
370
     9
  0
POLYLINE
  5
1B2
330
16E
100
AcDbEntity
  8
Capa 1
 62
     7
370
     9
100
AcDb2dPolyline
 66
     1
 10
0.0
 20
0.0
 30
0.0
  0
VERTEX
  5
1B3
330
1B2
100
AcDbEntity
  8
Capa 1
 62
     7
370
     9
100
AcDbVertex
100
AcDb2dVertex
 10
136.1371720231657
 20
197.3214191850137
 30
0.0
  0
VERTEX
  5
1B4
330
1B2
100
AcDbEntity
  8
Capa 1
 62
     7
370
     9
100
AcDbVertex
100
AcDb2dVertex
 10
133.4968491014638
 20
197.3214191850137
 30
0.0
  0
SEQEND
  5
1B5
330
1B2
100
AcDbEntity
  8
Capa 1
370
     9
  0
POLYLINE
  5
1B6
330
16E
100
AcDbEntity
  8
Capa 1
 62
     7
370
     9
100
AcDb2dPolyline
 66
     1
 10
0.0
 20
0.0
 30
0.0
  0
VERTEX
  5
1B7
330
1B6
100
AcDbEntity
  8
Capa 1
 62
     7
370
     9
100
AcDbVertex
100
AcDb2dVertex
 10
133.6167385034409
 20
185.3724421212993
 30
0.0
  0
VERTEX
  5
1B8
330
1B6
100
AcDbEntity
  8
Capa 1
 62
     7
370
     9
100
AcDbVertex
100
AcDb2dVertex
 10
133.6167385034409
 20
196.0715377184252
 30
0.0
  0
SEQEND
  5
1B9
330
1B6
100
AcDbEntity
  8
Capa 1
370
     9
  0
POLYLINE
  5
1BA
330
16E
100
AcDbEntity
  8
Capa 1
370
     0
100
AcDb2dPolyline
 66
     1
 10
0.0
 20
0.0
 30
0.0
  0
VERTEX
  5
1BB
330
1BA
100
AcDbEntity
  8
Capa 1
370
     0
100
AcDbVertex
100
AcDb2dVertex
 10
134.0081016087454
 20
185.6514950396943
 30
0.0
  0
VERTEX
  5
1BC
330
1BA
100
AcDbEntity
  8
Capa 1
370
     0
100
AcDbVertex
100
AcDb2dVertex
 10
133.6002020342027
 20
184.1218716351593
 30
0.0
  0
VERTEX
  5
1BD
330
1BA
100
AcDbEntity
  8
Capa 1
370
     0
100
AcDbVertex
100
AcDb2dVertex
 10
133.1895463814537
 20
185.6514950396943
 30
0.0
  0
VERTEX
  5
1BE
330
1BA
100
AcDbEntity
  8
Capa 1
370
     0
100
AcDbVertex
100
AcDb2dVertex
 10
134.0081016087454
 20
185.6514950396943
 30
0.0
  0
SEQEND
  5
1BF
330
1BA
100
AcDbEntity
  8
Capa 1
370
     0
  0
HATCH
  5
1C0
330
16E
100
AcDbEntity
  8
Capa 1
 62
     7
100
AcDbHatch
 10
0.0
 20
0.0
 30
0.0
210
0.0
220
0.0
230
1.0
  2
SOLID
 70
     1
 71
     0
 91
        1
 92
        1
 93
        3
 72
     1
 10
134.0081016087454
 20
185.6514950396943
 11
133.6002020342027
 21
184.1218716351593
 72
     1
 10
133.6002020342027
 20
184.1218716351593
 11
133.1895463814537
 21
185.6514950396943
 72
     1
 10
133.1895463814537
 20
185.6514950396943
 11
134.0081016087454
 21
185.6514950396943
 97
        0
 75
     2
 76
     1
 98
        0
  0
POLYLINE
  5
1C1
330
16E
100
AcDbEntity
  8
Capa 1
370
     0
100
AcDb2dPolyline
 66
     1
 10
0.0
 20
0.0
 30
0.0
  0
VERTEX
  5
1C2
330
1C1
100
AcDbEntity
  8
Capa 1
370
     0
100
AcDbVertex
100
AcDb2dVertex
 10
134.0081016087454
 20
195.7917957804787
 30
0.0
  0
VERTEX
  5
1C3
330
1C1
100
AcDbEntity
  8
Capa 1
370
     0
100
AcDbVertex
100
AcDb2dVertex
 10
133.6002020342027
 20
197.3214191850137
 30
0.0
  0
VERTEX
  5
1C4
330
1C1
100
AcDbEntity
  8
Capa 1
370
     0
100
AcDbVertex
100
AcDb2dVertex
 10
133.1895463814537
 20
195.7917957804787
 30
0.0
  0
VERTEX
  5
1C5
330
1C1
100
AcDbEntity
  8
Capa 1
370
     0
100
AcDbVertex
100
AcDb2dVertex
 10
134.0081016087454
 20
195.7917957804787
 30
0.0
  0
SEQEND
  5
1C6
330
1C1
100
AcDbEntity
  8
Capa 1
370
     0
  0
HATCH
  5
1C7
330
16E
100
AcDbEntity
  8
Capa 1
 62
     7
100
AcDbHatch
 10
0.0
 20
0.0
 30
0.0
210
0.0
220
0.0
230
1.0
  2
SOLID
 70
     1
 71
     0
 91
        1
 92
        1
 93
        3
 72
     1
 10
134.0081016087454
 20
195.7917957804787
 11
133.6002020342027
 21
197.3214191850137
 72
     1
 10
133.6002020342027
 20
197.3214191850137
 11
133.1895463814537
 21
195.7917957804787
 72
     1
 10
133.1895463814537
 20
195.7917957804787
 11
134.0081016087454
 21
195.7917957804787
 97
        0
 75
     2
 76
     1
 98
        0
  0
ENDBLK
  5
171
330
16E
100
AcDbEntity
  8
0
100
AcDbBlockEnd
  0
BLOCK
  5
1CB
330
1C9
100
AcDbEntity
  8
0
100
AcDbBlockBegin
  2
block 5
 70
     0
 71
     0
 10
0.0
 20
0.0
 30
0.0
  3
block 5
  1

  0
POLYLINE
  5
1CD
330
1C9
100
AcDbEntity
  8
Capa 1
370
     0
100
AcDb2dPolyline
 66
     1
 10
0.0
 20
0.0
 30
0.0
  0
VERTEX
  5
1CE
330
1CD
100
AcDbEntity
  8
Capa 1
370
     0
100
AcDbVertex
100
AcDb2dVertex
 10
39.05707328201166
 20
207.0586434881166
 30
0.0
  0
VERTEX
  5
1CF
330
1CD
100
AcDbEntity
  8
Capa 1
370
     0
100
AcDbVertex
100
AcDb2dVertex
 10
174.576194767399
 20
207.0586434881166
 30
0.0
  0
VERTEX
  5
1D0
330
1CD
100
AcDbEntity
  8
Capa 1
370
     0
100
AcDbVertex
100
AcDb2dVertex
 10
174.576194767399
 20
112.4259421942185
 30
0.0
  0
VERTEX
  5
1D1
330
1CD
100
AcDbEntity
  8
Capa 1
370
     0
100
AcDbVertex
100
AcDb2dVertex
 10
39.05707328201166
 20
112.4259421942185
 30
0.0
  0
VERTEX
  5
1D2
330
1CD
100
AcDbEntity
  8
Capa 1
370
     0
100
AcDbVertex
100
AcDb2dVertex
 10
39.05707328201166
 20
207.0586434881166
 30
0.0
  0
SEQEND
  5
1D3
330
1CD
100
AcDbEntity
  8
Capa 1
370
     0
  0
POLYLINE
  5
1D4
330
1C9
100
AcDbEntity
  8
Capa 1
 62
     7
370
     9
100
AcDb2dPolyline
 66
     1
 10
0.0
 20
0.0
 30
0.0
  0
VERTEX
  5
1D5
330
1D4
100
AcDbEntity
  8
Capa 1
 62
     7
370
     9
100
AcDbVertex
100
AcDb2dVertex
 10
164.4296928506502
 20
196.1218361456914
 30
0.0
  0
VERTEX
  5
1D6
330
1D4
100
AcDbEntity
  8
Capa 1
 62
     7
370
     9
100
AcDbVertex
100
AcDb2dVertex
 10
164.4296928506502
 20
196.4215596506341
 30
0.0
  0
SEQEND
  5
1D7
330
1D4
100
AcDbEntity
  8
Capa 1
370
     9
  0
POLYLINE
  5
1D8
330
1C9
100
AcDbEntity
  8
Capa 1
 62
     7
370
     9
100
AcDb2dPolyline
 66
     1
 10
0.0
 20
0.0
 30
0.0
  0
VERTEX
  5
1D9
330
1D8
100
AcDbEntity
  8
Capa 1
 62
     7
370
     9
100
AcDbVertex
100
AcDb2dVertex
 10
164.4296928506502
 20
196.1218361456914
 30
0.0
  0
VERTEX
  5
1DA
330
1D8
100
AcDbEntity
  8
Capa 1
 62
     7
370
     9
100
AcDbVertex
100
AcDb2dVertex
 10
164.1306583652592
 20
196.1218361456914
 30
0.0
  0
SEQEND
  5
1DB
330
1D8
100
AcDbEntity
  8
Capa 1
370
     9
  0
POLYLINE
  5
1DC
330
1C9
100
AcDbEntity
  8
Capa 1
 62
     7
370
     9
100
AcDb2dPolyline
 66
     1
 10
0.0
 20
0.0
 30
0.0
  0
VERTEX
  5
1DD
330
1DC
100
AcDbEntity
  8
Capa 1
 62
     7
370
     9
100
AcDbVertex
100
AcDb2dVertex
 10
164.4296928506502
 20
196.1218361456914
 30
0.0
  0
VERTEX
  5
1DE
330
1DC
100
AcDbEntity
  8
Capa 1
 62
     7
370
     9
100
AcDbVertex
100
AcDb2dVertex
 10
164.4296928506502
 20
195.8221126407487
 30
0.0
  0
SEQEND
  5
1DF
330
1DC
100
AcDbEntity
  8
Capa 1
370
     9
  0
POLYLINE
  5
1E0
330
1C9
100
AcDbEntity
  8
Capa 1
 62
     7
370
     9
100
AcDb2dPolyline
 66
     1
 10
0.0
 20
0.0
 30
0.0
  0
VERTEX
  5
1E1
330
1E0
100
AcDbEntity
  8
Capa 1
 62
     7
370
     9
100
AcDbVertex
100
AcDb2dVertex
 10
164.4296928506502
 20
196.1218361456914
 30
0.0
  0
VERTEX
  5
1E2
330
1E0
100
AcDbEntity
  8
Capa 1
 62
     7
370
     9
100
AcDbVertex
100
AcDb2dVertex
 10
164.7314834142477
 20
196.1218361456914
 30
0.0
  0
SEQEND
  5
1E3
330
1E0
100
AcDbEntity
  8
Capa 1
370
     9
  0
POLYLINE
  5
1E4
330
1C9
100
AcDbEntity
  8
Capa 1
 62
     7
370
     9
100
AcDb2dPolyline
 66
     1
 10
0.0
 20
0.0
 30
0.0
  0
VERTEX
  5
1E5
330
1E4
100
AcDbEntity
  8
Capa 1
 62
     7
370
     9
100
AcDbVertex
100
AcDb2dVertex
 10
164.4296928506502
 20
196.7219721751283
 30
0.0
  0
VERTEX
  5
1E6
330
1E4
100
AcDbEntity
  8
Capa 1
 62
     7
370
     9
100
AcDbVertex
100
AcDb2dVertex
 10
164.4296928506502
 20
197.2745658555054
 30
0.0
  0
SEQEND
  5
1E7
330
1E4
100
AcDbEntity
  8
Capa 1
370
     9
  0
POLYLINE
  5
1E8
330
1C9
100
AcDbEntity
  8
Capa 1
 62
     7
370
     9
100
AcDb2dPolyline
 66
     1
 10
0.0
 20
0.0
 30
0.0
  0
VERTEX
  5
1E9
330
1E8
100
AcDbEntity
  8
Capa 1
 62
     7
370
     9
100
AcDbVertex
100
AcDb2dVertex
 10
163.8316238798681
 20
196.1218361456914
 30
0.0
  0
VERTEX
  5
1EA
330
1E8
100
AcDbEntity
  8
Capa 1
 62
     7
370
     9
100
AcDbVertex
100
AcDb2dVertex
 10
163.279030199491
 20
196.1218361456914
 30
0.0
  0
SEQEND
  5
1EB
330
1E8
100
AcDbEntity
  8
Capa 1
370
     9
  0
POLYLINE
  5
1EC
330
1C9
100
AcDbEntity
  8
Capa 1
 62
     7
370
     9
100
AcDb2dPolyline
 66
     1
 10
0.0
 20
0.0
 30
0.0
  0
VERTEX
  5
1ED
330
1EC
100
AcDbEntity
  8
Capa 1
 62
     7
370
     9
100
AcDbVertex
100
AcDb2dVertex
 10
164.4296928506502
 20
195.5217001162545
 30
0.0
  0
VERTEX
  5
1EE
330
1EC
100
AcDbEntity
  8
Capa 1
 62
     7
370
     9
100
AcDbVertex
100
AcDb2dVertex
 10
164.4296928506502
 20
194.969795455429
 30
0.0
  0
SEQEND
  5
1EF
330
1EC
100
AcDbEntity
  8
Capa 1
370
     9
  0
POLYLINE
  5
1F0
330
1C9
100
AcDbEntity
  8
Capa 1
 62
     7
370
     9
100
AcDb2dPolyline
 66
     1
 10
0.0
 20
0.0
 30
0.0
  0
VERTEX
  5
1F1
330
1F0
100
AcDbEntity
  8
Capa 1
 62
     7
370
     9
100
AcDbVertex
100
AcDb2dVertex
 10
165.0305178996388
 20
196.1218361456914
 30
0.0
  0
VERTEX
  5
1F2
330
1F0
100
AcDbEntity
  8
Capa 1
 62
     7
370
     9
100
AcDbVertex
100
AcDb2dVertex
 10
165.5817335409126
 20
196.1218361456914
 30
0.0
  0
SEQEND
  5
1F3
330
1F0
100
AcDbEntity
  8
Capa 1
370
     9
  0
ENDBLK
  5
1CC
330
1C9
100
AcDbEntity
  8
0
100
AcDbBlockEnd
  0
ENDSEC
  0
SECTION
  2
ENTITIES
  0
POLYLINE
  5
3C
330
1F
100
AcDbEntity
  8
Capa 1
 62
     7
370
     9
100
AcDb2dPolyline
 66
     1
 10
0.0
 20
0.0
 30
0.0
  0
VERTEX
  5
3D
330
3C
100
AcDbEntity
  8
Capa 1
 62
     7
370
     9
100
AcDbVertex
100
AcDb2dVertex
 10
46.88984754451336
 20
196.1218361456914
 30
0.0
  0
VERTEX
  5
3E
330
3C
100
AcDbEntity
  8
Capa 1
 62
     7
370
     9
100
AcDbVertex
100
AcDb2dVertex
 10
46.88984754451336
 20
185.3214546744815
 30
0.0
  0
SEQEND
  5
3F
330
3C
100
AcDbEntity
  8
Capa 1
370
     9
  0
POLYLINE
  5
40
330
1F
100
AcDbEntity
  8
Capa 1
 62
     7
370
     9
100
AcDb2dPolyline
 66
     1
 10
0.0
 20
0.0
 30
0.0
  0
VERTEX
  5
41
330
40
100
AcDbEntity
  8
Capa 1
 62
     7
370
     9
100
AcDbVertex
100
AcDb2dVertex
 10
49.29039166226106
 20
185.3214546744815
 30
0.0
  0
VERTEX
  5
42
330
40
100
AcDbEntity
  8
Capa 1
 62
     7
370
     9
100
AcDbVertex
100
AcDb2dVertex
 10
49.29039166226106
 20
196.1218361456914
 30
0.0
  0
SEQEND
  5
43
330
40
100
AcDbEntity
  8
Capa 1
370
     9
  0
POLYLINE
  5
44
330
1F
100
AcDbEntity
  8
Capa 1
 62
     7
370
     9
100
AcDb2dPolyline
 66
     1
 10
0.0
 20
0.0
 30
0.0
  0
VERTEX
  5
45
330
44
100
AcDbEntity
  8
Capa 1
 62
     7
370
     9
100
AcDbVertex
100
AcDb2dVertex
 10
48.94725992556808
 20
184.482228860642
 30
0.0
  0
VERTEX
  5
46
330
44
100
AcDbEntity
  8
Capa 1
 62
     7
370
     9
100
AcDbVertex
100
AcDb2dVertex
 10
107.2328018338671
 20
184.482228860642
 30
0.0
  0
SEQEND
  5
47
330
44
100
AcDbEntity
  8
Capa 1
370
     9
  0
POLYLINE
  5
48
330
1F
100
AcDbEntity
  8
Capa 1
 62
     7
370
     9
100
AcDb2dPolyline
 66
     1
 10
0.0
 20
0.0
 30
0.0
  0
VERTEX
  5
49
330
48
100
AcDbEntity
  8
Capa 1
 62
     7
370
     9
100
AcDbVertex
100
AcDb2dVertex
 10
106.8896700971741
 20
186.1620585274242
 30
0.0
  0
VERTEX
  5
4A
330
48
100
AcDbEntity
  8
Capa 1
 62
     7
370
     9
100
AcDbVertex
100
AcDb2dVertex
 10
49.28970264270947
 20
186.1620585274242
 30
0.0
  0
SEQEND
  5
4B
330
48
100
AcDbEntity
  8
Capa 1
370
     9
  0
POLYLINE
  5
4C
330
1F
100
AcDbEntity
  8
Capa 1
 62
     7
370
     9
100
AcDb2dPolyline
 66
     1
 10
0.0
 20
0.0
 30
0.0
  0
VERTEX
  5
4D
330
4C
100
AcDbEntity
  8
Capa 1
 62
     7
370
     9
100
AcDbVertex
100
AcDb2dVertex
 10
49.29039166226106
 20
195.2819213123003
 30
0.0
  0
VERTEX
  5
4E
330
4C
100
AcDbEntity
  8
Capa 1
 62
     7
370
     9
100
AcDbVertex
100
AcDb2dVertex
 10
106.8910481362773
 20
195.2819213123003
 30
0.0
  0
SEQEND
  5
4F
330
4C
100
AcDbEntity
  8
Capa 1
370
     9
  0
POLYLINE
  5
50
330
1F
100
AcDbEntity
  8
Capa 1
 62
     7
370
     9
100
AcDb2dPolyline
 66
     1
 10
0.0
 20
0.0
 30
0.0
  0
VERTEX
  5
51
330
50
100
AcDbEntity
  8
Capa 1
 62
     7
370
     9
100
AcDbVertex
100
AcDb2dVertex
 10
107.2328018338671
 20
196.9617509790825
 30
0.0
  0
VERTEX
  5
52
330
50
100
AcDbEntity
  8
Capa 1
 62
     7
370
     9
100
AcDbVertex
100
AcDb2dVertex
 10
48.94725992556808
 20
196.9617509790825
 30
0.0
  0
SEQEND
  5
53
330
50
100
AcDbEntity
  8
Capa 1
370
     9
  0
POLYLINE
  5
54
330
1F
100
AcDbEntity
  8
Capa 1
 62
     7
370
     9
100
AcDb2dPolyline
 66
     1
 10
0.0
 20
0.0
 30
0.0
  0
VERTEX
  5
55
330
54
100
AcDbEntity
  8
Capa 1
 62
     7
370
     9
100
AcDbVertex
100
AcDb2dVertex
 10
106.8896700971741
 20
196.1218361456914
 30
0.0
  0
VERTEX
  5
56
330
54
100
AcDbEntity
  8
Capa 1
 62
     7
370
     9
100
AcDbVertex
100
AcDb2dVertex
 10
106.8896700971741
 20
185.3214546744815
 30
0.0
  0
SEQEND
  5
57
330
54
100
AcDbEntity
  8
Capa 1
370
     9
  0
POLYLINE
  5
58
330
1F
100
AcDbEntity
  8
Capa 1
 62
     7
370
     9
100
AcDb2dPolyline
 66
     1
 10
0.0
 20
0.0
 30
0.0
  0
VERTEX
  5
59
330
58
100
AcDbEntity
  8
Capa 1
 62
     7
370
     9
100
AcDbVertex
100
AcDb2dVertex
 10
109.2902142149218
 20
185.3214546744815
 30
0.0
  0
VERTEX
  5
5A
330
58
100
AcDbEntity
  8
Capa 1
 62
     7
370
     9
100
AcDbVertex
100
AcDb2dVertex
 10
109.2902142149218
 20
196.1218361456914
 30
0.0
  0
SEQEND
  5
5B
330
58
100
AcDbEntity
  8
Capa 1
370
     9
  0
INSERT
  5
5D
330
1F
100
AcDbEntity
  8
Capa 1
100
AcDbBlockReference
  2
block 2
 10
0.0
 20
0.0
 30
0.0
  0
MTEXT
  5
8D
330
1F
100
AcDbEntity
  8
Capa 1
 62
     7
100
AcDbMText
 10
71.53607690497128
 20
202.9493308824199
 30
0.0
 40
2.398890470823883
 41
0.0
 71
     7
 72
     1
  1
\fArial|b1|i0|c0|p34;\W1;521.33
 73
     1
 44
1.0
  0
INSERT
  5
8F
330
1F
100
AcDbEntity
  8
Capa 1
100
AcDbBlockReference
  2
block 3
 10
0.0
 20
0.0
 30
0.0
  0
MTEXT
  5
16D
330
1F
100
AcDbEntity
  8
Capa 1
 62
     7
100
AcDbMText
 10
43.42201214134912
 20
127.636737815171
 30
0.0
 40
2.398890470823883
 41
0.0
 71
     7
 72
     1
  1
\fArial|b1|i0|c0|p34;\W1;298.5
 11
-4.371139000186241E-8
 21
0.999999999999999
 31
0.0
 73
     1
 44
1.0
  0
INSERT
  5
16F
330
1F
100
AcDbEntity
  8
Capa 1
100
AcDbBlockReference
  2
block 4
 10
0.0
 20
0.0
 30
0.0
  0
MTEXT
  5
1C8
330
1F
100
AcDbEntity
  8
Capa 1
 62
     7
100
AcDbMText
 10
132.7885370024269
 20
186.8448769030522
 30
0.0
 40
2.398890470823883
 41
0.0
 71
     7
 72
     1
  1
\fArial|b1|i0|c0|p34;\W1;110
 11
-4.371139000186241E-8
 21
0.999999999999999
 31
0.0
 73
     1
 44
1.0
  0
INSERT
  5
1CA
330
1F
100
AcDbEntity
  8
Capa 1
100
AcDbBlockReference
  2
block 5
 10
0.0
 20
0.0
 30
0.0
  0
ENDSEC
  0
SECTION
  2
OBJECTS
  0
DICTIONARY
  5
C
330
0
100
AcDbDictionary
281
     1
  3
ACAD_GROUP
350
D
  3
ACAD_LAYOUT
350
1A
  3
ACAD_MLINESTYLE
350
17
  3
ACAD_PLOTSETTINGS
350
19
  3
ACAD_PLOTSTYLENAME
350
E
  3
ACAD_TABLESTYLE
350
1F4
  3
ACAD_VISUALSTYLE
350
2A
  0
DICTIONARY
  5
D
102
{ACAD_REACTORS
330
C
102
}
330
C
100
AcDbDictionary
281
     1
  0
DICTIONARY
  5
1A
102
{ACAD_REACTORS
330
C
102
}
330
C
100
AcDbDictionary
281
     1
  3
Layout1
350
1E
  3
Layout2
350
26
  3
Model
350
22
  0
DICTIONARY
  5
17
102
{ACAD_REACTORS
330
C
102
}
330
C
100
AcDbDictionary
281
     1
  3
Standard
350
18
  0
DICTIONARY
  5
19
102
{ACAD_REACTORS
330
C
102
}
330
C
100
AcDbDictionary
281
     1
  0
ACDBDICTIONARYWDFLT
  5
E
102
{ACAD_REACTORS
330
C
102
}
330
C
100
AcDbDictionary
281
     1
  3
Normal
350
F
100
AcDbDictionaryWithDefault
340
F
  0
DICTIONARY
  5
1F4
102
{ACAD_REACTORS
330
C
102
}
330
C
100
AcDbDictionary
281
     1
  0
DICTIONARY
  5
2A
102
{ACAD_REACTORS
330
C
102
}
330
C
100
AcDbDictionary
281
     1
  3
2dWireframe
350
2F
  3
3D Hidden
350
31
  3
3dWireframe
350
30
  3
Basic
350
32
  3
Brighten
350
36
  3
ColorChange
350
3A
  3
Conceptual
350
34
  3
Dim
350
35
  3
Facepattern
350
39
  3
Flat
350
2B
  3
FlatWithEdges
350
2C
  3
Gouraud
350
2D
  3
GouraudWithEdges
350
2E
  3
Linepattern
350
38
  3
Realistic
350
33
  3
Thicken
350
37
  0
LAYOUT
  5
1E
102
{ACAD_REACTORS
330
1A
102
}
330
1A
100
AcDbPlotSettings
  1

  2
none_device
  4

  6

 40
0.0
 41
0.0
 42
0.0
 43
0.0
 44
0.0
 45
0.0
 46
0.0
 47
0.0
 48
0.0
 49
0.0
140
0.0
141
0.0
142
1.0
143
1.0
 70
   688
 72
     0
 73
     0
 74
     5
  7

 75
    16
 76
     0
 77
     2
 78
   300
147
1.0
148
0.0
149
0.0
100
AcDbLayout
  1
Layout1
 70
     1
 71
     1
 10
0.0
 20
0.0
 11
12.0
 21
9.0
 12
0.0
 22
0.0
 32
0.0
 14
1.000000000000000E+20
 24
1.000000000000000E+20
 34
1.000000000000000E+20
 15
-1.000000000000000E+20
 25
-1.000000000000000E+20
 35
-1.000000000000000E+20
146
0.0
 13
0.0
 23
0.0
 33
0.0
 16
1.0
 26
0.0
 36
0.0
 17
0.0
 27
1.0
 37
0.0
 76
     0
330
1B
  0
LAYOUT
  5
26
102
{ACAD_REACTORS
330
1A
102
}
330
1A
100
AcDbPlotSettings
  1

  2
none_device
  4

  6

 40
0.0
 41
0.0
 42
0.0
 43
0.0
 44
0.0
 45
0.0
 46
0.0
 47
0.0
 48
0.0
 49
0.0
140
0.0
141
0.0
142
1.0
143
1.0
 70
   688
 72
     0
 73
     0
 74
     5
  7

 75
    16
 76
     0
 77
     2
 78
   300
147
1.0
148
0.0
149
0.0
100
AcDbLayout
  1
Layout2
 70
     1
 71
     2
 10
0.0
 20
0.0
 11
0.0
 21
0.0
 12
0.0
 22
0.0
 32
0.0
 14
0.0
 24
0.0
 34
0.0
 15
0.0
 25
0.0
 35
0.0
146
0.0
 13
0.0
 23
0.0
 33
0.0
 16
1.0
 26
0.0
 36
0.0
 17
0.0
 27
1.0
 37
0.0
 76
     0
330
23
  0
LAYOUT
  5
22
102
{ACAD_REACTORS
330
1A
102
}
330
1A
100
AcDbPlotSettings
  1

  2
none_device
  4

  6

 40
0.0
 41
0.0
 42
0.0
 43
0.0
 44
0.0
 45
0.0
 46
0.0
 47
0.0
 48
0.0
 49
0.0
140
0.0
141
0.0
142
1.0
143
1.0
 70
  1712
 72
     0
 73
     0
 74
     0
  7

 75
     0
 76
     0
 77
     2
 78
   300
147
1.0
148
0.0
149
0.0
100
AcDbLayout
  1
Model
 70
     1
 71
     0
 10
0.0
 20
0.0
 11
12.0
 21
9.0
 12
0.0
 22
0.0
 32
0.0
 14
1.000000000000000E+20
 24
1.000000000000000E+20
 34
1.000000000000000E+20
 15
-1.000000000000000E+20
 25
-1.000000000000000E+20
 35
-1.000000000000000E+20
146
0.0
 13
0.0
 23
0.0
 33
0.0
 16
1.0
 26
0.0
 36
0.0
 17
0.0
 27
1.0
 37
0.0
 76
     0
330
1F
331
29
  0
MLINESTYLE
  5
18
102
{ACAD_REACTORS
330
17
102
}
330
17
100
AcDbMlineStyle
  2
Standard
 70
     0
  3

 62
   256
 51
90.0
 52
90.0
 71
     2
 49
0.5
 62
   256
  6
BYLAYER
 49
-0.5
 62
   256
  6
BYLAYER
  0
ACDBPLACEHOLDER
  5
F
102
{ACAD_REACTORS
330
E
102
}
330
E
  0
VISUALSTYLE
  5
2F
102
{ACAD_REACTORS
330
2A
102
}
330
2A
100
AcDbVisualStyle
  2
2dWireframe
 70
     4
 71
     0
 72
     2
 73
     0
 90
        0
 40
-0.6
 41
-30.0
 62
     5
 63
     7
421
 16777215
 74
     1
 91
        4
 64
     7
 65
   257
 75
     1
175
     1
 42
1.0
 92
        0
 66
   257
 43
1.0
 76
     1
 77
     6
 78
     2
 67
     7
 79
     5
170
     0
171
     0
290
     0
174
     0
 93
        1
 44
0.0
173
     0
291
     0
 45
0.0
1001
ACAD
1000
AcDbSavedByObjectVersion
1070
     0
  0
VISUALSTYLE
  5
31
102
{ACAD_REACTORS
330
2A
102
}
330
2A
100
AcDbVisualStyle
  2
3D Hidden
 70
     6
 71
     1
 72
     2
 73
     2
 90
        0
 40
-0.6
 41
-30.0
 62
     5
 63
     7
421
 16777215
 74
     2
 91
        2
 64
     7
 65
   257
 75
     2
175
     1
 42
40.0
 92
        0
 66
   257
 43
1.0
 76
     1
 77
     6
 78
     2
 67
     7
 79
     3
170
     0
171
     0
290
     0
174
     0
 93
        1
 44
0.0
173
     0
291
     0
 45
0.0
1001
ACAD
1000
AcDbSavedByObjectVersion
1070
     0
  0
VISUALSTYLE
  5
30
102
{ACAD_REACTORS
330
2A
102
}
330
2A
100
AcDbVisualStyle
  2
3dWireframe
 70
     5
 71
     0
 72
     2
 73
     0
 90
        0
 40
-0.6
 41
-30.0
 62
     5
 63
     7
421
 16777215
 74
     1
 91
        4
 64
     7
 65
   257
 75
     1
175
     1
 42
1.0
 92
        0
 66
   257
 43
1.0
 76
     1
 77
     6
 78
     2
 67
     7
 79
     5
170
     0
171
     0
290
     0
174
     0
 93
        1
 44
0.0
173
     0
291
     0
 45
0.0
1001
ACAD
1000
AcDbSavedByObjectVersion
1070
     0
  0
VISUALSTYLE
  5
32
102
{ACAD_REACTORS
330
2A
102
}
330
2A
100
AcDbVisualStyle
  2
Basic
 70
     7
 71
     1
 72
     0
 73
     1
 90
        0
 40
-0.6
 41
-30.0
 62
     5
 63
     7
421
 16777215
 74
     0
 91
        4
 64
     7
 65
   257
 75
     1
175
     1
 42
1.0
 92
        8
 66
     7
 43
1.0
 76
     1
 77
     6
 78
     2
 67
     7
 79
     5
170
     0
171
     0
290
     0
174
     0
 93
        1
 44
0.0
173
     0
291
     1
 45
0.0
1001
ACAD
1000
AcDbSavedByObjectVersion
1070
     0
  0
VISUALSTYLE
  5
36
102
{ACAD_REACTORS
330
2A
102
}
330
2A
100
AcDbVisualStyle
  2
Brighten
 70
    12
 71
     2
 72
     2
 73
     0
 90
        0
 40
-0.6
 41
-30.0
 62
     5
 63
     7
421
 16777215
 74
     1
 91
        4
 64
     7
 65
   257
 75
     1
175
     1
 42
1.0
 92
        8
 66
     7
 43
1.0
 76
     1
 77
     6
 78
     2
 67
     7
 79
     5
170
     0
171
     0
290
     0
174
     0
 93
        1
 44
50.0
173
     0
291
     1
 45
0.0
1001
ACAD
1000
AcDbSavedByObjectVersion
1070
     0
  0
VISUALSTYLE
  5
3A
102
{ACAD_REACTORS
330
2A
102
}
330
2A
100
AcDbVisualStyle
  2
ColorChange
 70
    16
 71
     2
 72
     2
 73
     3
 90
        0
 40
-0.6
 41
-30.0
 62
     5
 63
     8
421
  8421504
 74
     1
 91
        4
 64
     7
 65
   257
 75
     1
175
     1
 42
1.0
 92
        8
 66
     8
424
  8421504
 43
1.0
 76
     1
 77
     6
 78
     2
 67
     7
 79
     5
170
     0
171
     0
290
     0
174
     0
 93
        1
 44
0.0
173
     0
291
     1
 45
0.0
1001
ACAD
1000
AcDbSavedByObjectVersion
1070
     0
  0
VISUALSTYLE
  5
34
102
{ACAD_REACTORS
330
2A
102
}
330
2A
100
AcDbVisualStyle
  2
Conceptual
 70
     9
 71
     3
 72
     2
 73
     0
 90
        0
 40
-0.6
 41
-30.0
 62
     5
 63
     7
421
 16777215
 74
     2
 91
        2
 64
     7
 65
   257
 75
     1
175
     1
 42
40.0
 92
        8
 66
     7
 43
1.0
 76
     1
 77
     6
 78
     2
 67
     7
 79
     3
170
     0
171
     0
290
     0
174
     0
 93
        1
 44
0.0
173
     0
291
     0
 45
0.0
1001
ACAD
1000
AcDbSavedByObjectVersion
1070
     0
  0
VISUALSTYLE
  5
35
102
{ACAD_REACTORS
330
2A
102
}
330
2A
100
AcDbVisualStyle
  2
Dim
 70
    11
 71
     2
 72
     2
 73
     0
 90
        0
 40
-0.6
 41
-30.0
 62
     5
 63
     7
421
 16777215
 74
     1
 91
        4
 64
     7
 65
   257
 75
     1
175
     1
 42
1.0
 92
        8
 66
     7
 43
1.0
 76
     1
 77
     6
 78
     2
 67
     7
 79
     5
170
     0
171
     0
290
     0
174
     0
 93
        1
 44
-50.0
173
     0
291
     1
 45
0.0
1001
ACAD
1000
AcDbSavedByObjectVersion
1070
     0
  0
VISUALSTYLE
  5
39
102
{ACAD_REACTORS
330
2A
102
}
330
2A
100
AcDbVisualStyle
  2
Facepattern
 70
    15
 71
     2
 72
     2
 73
     0
 90
        0
 40
-0.6
 41
-30.0
 62
     5
 63
     7
421
 16777215
 74
     1
 91
        4
 64
     7
 65
   257
 75
     1
175
     1
 42
1.0
 92
        8
 66
     7
 43
1.0
 76
     1
 77
     6
 78
     2
 67
     7
 79
     5
170
     0
171
     0
290
     0
174
     0
 93
        1
 44
0.0
173
     0
291
     1
 45
0.0
1001
ACAD
1000
AcDbSavedByObjectVersion
1070
     0
  0
VISUALSTYLE
  5
2B
102
{ACAD_REACTORS
330
2A
102
}
330
2A
100
AcDbVisualStyle
  2
Flat
 70
     0
 71
     2
 72
     1
 73
     1
 90
        2
 40
-0.6
 41
30.0
 62
     5
 63
     7
421
 16777215
 74
     0
 91
        4
 64
     7
 65
   257
 75
     1
175
     1
 42
1.0
 92
        8
 66
     7
 43
1.0
 76
     1
 77
     6
 78
     2
 67
     7
 79
     5
170
     0
171
     0
290
     0
174
     0
 93
       13
 44
0.0
173
     0
291
     1
 45
0.0
1001
ACAD
1000
AcDbSavedByObjectVersion
1070
     0
  0
VISUALSTYLE
  5
2C
102
{ACAD_REACTORS
330
2A
102
}
330
2A
100
AcDbVisualStyle
  2
FlatWithEdges
 70
     1
 71
     2
 72
     1
 73
     1
 90
        2
 40
-0.6
 41
30.0
 62
     5
 63
     7
421
 16777215
 74
     1
 91
        4
 64
     7
 65
   257
 75
     1
175
     1
 42
1.0
 92
        0
 66
   257
 43
1.0
 76
     1
 77
     6
 78
     2
 67
     7
 79
     5
170
     0
171
     0
290
     0
174
     0
 93
       13
 44
0.0
173
     0
291
     1
 45
0.0
1001
ACAD
1000
AcDbSavedByObjectVersion
1070
     0
  0
VISUALSTYLE
  5
2D
102
{ACAD_REACTORS
330
2A
102
}
330
2A
100
AcDbVisualStyle
  2
Gouraud
 70
     2
 71
     2
 72
     2
 73
     1
 90
        2
 40
-0.6
 41
30.0
 62
     5
 63
     7
421
 16777215
 74
     0
 91
        4
 64
     7
 65
   257
 75
     1
175
     1
 42
1.0
 92
        0
 66
     7
 43
1.0
 76
     1
 77
     6
 78
     2
 67
     7
 79
     5
170
     0
171
     0
290
     0
174
     0
 93
       13
 44
0.0
173
     0
291
     1
 45
0.0
1001
ACAD
1000
AcDbSavedByObjectVersion
1070
     0
  0
VISUALSTYLE
  5
2E
102
{ACAD_REACTORS
330
2A
102
}
330
2A
100
AcDbVisualStyle
  2
GouraudWithEdges
 70
     3
 71
     2
 72
     2
 73
     1
 90
        2
 40
-0.6
 41
30.0
 62
     5
 63
     7
421
 16777215
 74
     1
 91
        4
 64
     7
 65
   257
 75
     1
175
     1
 42
1.0
 92
        0
 66
   257
 43
1.0
 76
     1
 77
     6
 78
     2
 67
     7
 79
     5
170
     0
171
     0
290
     0
174
     0
 93
       13
 44
0.0
173
     0
291
     1
 45
0.0
1001
ACAD
1000
AcDbSavedByObjectVersion
1070
     0
  0
VISUALSTYLE
  5
38
102
{ACAD_REACTORS
330
2A
102
}
330
2A
100
AcDbVisualStyle
  2
Linepattern
 70
    14
 71
     2
 72
     2
 73
     0
 90
        0
 40
-0.6
 41
-30.0
 62
     5
 63
     7
421
 16777215
 74
     1
 91
        4
 64
     7
 65
   257
 75
     7
175
     7
 42
1.0
 92
        8
 66
     7
 43
1.0
 76
     1
 77
     6
 78
     2
 67
     7
 79
     5
170
     0
171
     0
290
     0
174
     0
 93
        1
 44
0.0
173
     0
291
     1
 45
0.0
1001
ACAD
1000
AcDbSavedByObjectVersion
1070
     0
  0
VISUALSTYLE
  5
33
102
{ACAD_REACTORS
330
2A
102
}
330
2A
100
AcDbVisualStyle
  2
Realistic
 70
     8
 71
     2
 72
     2
 73
     0
 90
        0
 40
-0.6
 41
-30.0
 62
     5
 63
     7
421
 16777215
 74
     1
 91
        0
 64
     7
 65
   257
 75
     1
175
     1
 42
1.0
 92
        8
 66
     8
424
  7895160
 43
1.0
 76
     1
 77
     6
 78
     2
 67
     7
 79
     5
170
     0
171
     0
290
     0
174
     0
 93
       13
 44
0.0
173
     0
291
     0
 45
0.0
1001
ACAD
1000
AcDbSavedByObjectVersion
1070
     0
  0
VISUALSTYLE
  5
37
102
{ACAD_REACTORS
330
2A
102
}
330
2A
100
AcDbVisualStyle
  2
Thicken
 70
    13
 71
     2
 72
     2
 73
     0
 90
        0
 40
-0.6
 41
-30.0
 62
     5
 63
     7
421
 16777215
 74
     1
 91
        4
 64
     7
 65
   257
 75
     1
175
     1
 42
1.0
 92
       12
 66
     7
 43
1.0
 76
     1
 77
     6
 78
     2
 67
     7
 79
     5
170
     0
171
     0
290
     0
174
     0
 93
        1
 44
0.0
173
     0
291
     1
 45
0.0
1001
ACAD
1000
AcDbSavedByObjectVersion
1070
     0
  0
ENDSEC
  0
EOF
