  0
SECTION
  2
HEADER
  9
$ACADVER
  1
AC1018
  9
$ACADMAINTVER
 70
     0
  9
$DWGCODEPAGE
  3
ASCII
  9
$INSBASE
 10
0.0
 20
0.0
 30
0.0
  9
$EXTMIN
 10
1.000000000000000E+20
 20
1.000000000000000E+20
 30
1.000000000000000E+20
  9
$EXTMAX
 10
-1.000000000000000E+20
 20
-1.000000000000000E+20
 30
-1.000000000000000E+20
  9
$LIMMIN
 10
0.0
 20
0.0
  9
$LIMMAX
 10
12.0
 20
9.0
  9
$ORTHOMODE
 70
     0
  9
$REGENMODE
 70
     1
  9
$FILLMODE
 70
     1
  9
$QTEXTMODE
 70
     0
  9
$MIRRTEXT
 70
     1
  9
$LTSCALE
 40
1.0
  9
$ATTMODE
 70
     1
  9
$TEXTSIZE
 40
0.2
  9
$TRACEWID
 40
0.05
  9
$TEXTSTYLE
  7
Standard
  9
$CLAYER
  8
0
  9
$CELTYPE
  6
ByLayer
  9
$CECOLOR
 62
   256
  9
$CELTSCALE
 40
1.0
  9
$DISPSILH
 70
     0
  9
$DIMSCALE
 40
1.0
  9
$DIMASZ
 40
0.18
  9
$DIMEXO
 40
0.0625
  9
$DIMDLI
 40
0.38
  9
$DIMRND
 40
0.0
  9
$DIMDLE
 40
0.0
  9
$DIMEXE
 40
0.18
  9
$DIMTP
 40
0.0
  9
$DIMTM
 40
0.0
  9
$DIMTXT
 40
0.18
  9
$DIMCEN
 40
0.09
  9
$DIMTSZ
 40
0.0
  9
$DIMTOL
 70
     0
  9
$DIMLIM
 70
     0
  9
$DIMTIH
 70
     1
  9
$DIMTOH
 70
     1
  9
$DIMSE1
 70
     0
  9
$DIMSE2
 70
     0
  9
$DIMTAD
 70
     0
  9
$DIMZIN
 70
     0
  9
$DIMBLK
  1

  9
$DIMASO
 70
     1
  9
$DIMSHO
 70
     1
  9
$DIMPOST
  1

  9
$DIMAPOST
  1

  9
$DIMALT
 70
     0
  9
$DIMALTD
 70
     2
  9
$DIMALTF
 40
25.4
  9
$DIMLFAC
 40
1.0
  9
$DIMTOFL
 70
     0
  9
$DIMTVP
 40
0.0
  9
$DIMTIX
 70
     0
  9
$DIMSOXD
 70
     0
  9
$DIMSAH
 70
     0
  9
$DIMBLK1
  1

  9
$DIMBLK2
  1

  9
$DIMSTYLE
  2
Standard
  9
$DIMCLRD
 70
     0
  9
$DIMCLRE
 70
     0
  9
$DIMCLRT
 70
     0
  9
$DIMTFAC
 40
1.0
  9
$DIMGAP
 40
0.09
  9
$DIMJUST
 70
     0
  9
$DIMSD1
 70
     0
  9
$DIMSD2
 70
     0
  9
$DIMTOLJ
 70
     1
  9
$DIMTZIN
 70
     0
  9
$DIMALTZ
 70
     0
  9
$DIMALTTZ
 70
     0
  9
$DIMUPT
 70
     0
  9
$DIMDEC
 70
     4
  9
$DIMTDEC
 70
     4
  9
$DIMALTU
 70
     2
  9
$DIMALTTD
 70
     2
  9
$DIMTXSTY
  7
Standard
  9
$DIMAUNIT
 70
     0
  9
$DIMADEC
 70
     0
  9
$DIMALTRND
 40
0.0
  9
$DIMAZIN
 70
     0
  9
$DIMDSEP
 70
    46
  9
$DIMATFIT
 70
     3
  9
$DIMFRAC
 70
     0
  9
$DIMLDRBLK
  1

  9
$DIMLUNIT
 70
     2
  9
$DIMLWD
 70
    -2
  9
$DIMLWE
 70
    -2
  9
$DIMTMOVE
 70
     0
  9
$LUNITS
 70
     2
  9
$LUPREC
 70
     4
  9
$SKETCHINC
 40
0.1
  9
$FILLETRAD
 40
0.5
  9
$AUNITS
 70
     0
  9
$AUPREC
 70
     0
  9
$MENU
  1
.
  9
$ELEVATION
 40
0.0
  9
$PELEVATION
 40
0.0
  9
$THICKNESS
 40
0.0
  9
$LIMCHECK
 70
     0
  9
$CHAMFERA
 40
0.5
  9
$CHAMFERB
 40
0.5
  9
$CHAMFERC
 40
1.0
  9
$CHAMFERD
 40
0.0
  9
$SKPOLY
 70
     0
  9
$TDCREATE
 40
2456961.958771701
  9
$TDUCREATE
 40
2456961.917105035
  9
$TDUPDATE
 40
2456961.958771713
  9
$TDUUPDATE
 40
2456961.917105046
  9
$TDINDWG
 40
0.0000000116
  9
$TDUSRTIMER
 40
0.0000000116
  9
$USRTIMER
 70
     1
  9
$ANGBASE
 50
0.0
  9
$ANGDIR
 70
     0
  9
$PDMODE
 70
     0
  9
$PDSIZE
 40
0.0
  9
$PLINEWID
 40
0.0
  9
$SPLFRAME
 70
     0
  9
$SPLINETYPE
 70
     6
  9
$SPLINESEGS
 70
     8
  9
$HANDSEED
  5
37F
  9
$SURFTAB1
 70
     6
  9
$SURFTAB2
 70
     6
  9
$SURFTYPE
 70
     6
  9
$SURFU
 70
     6
  9
$SURFV
 70
     6
  9
$UCSBASE
  2

  9
$UCSNAME
  2

  9
$UCSORG
 10
0.0
 20
0.0
 30
0.0
  9
$UCSXDIR
 10
1.0
 20
0.0
 30
0.0
  9
$UCSYDIR
 10
0.0
 20
1.0
 30
0.0
  9
$UCSORTHOREF
  2

  9
$UCSORTHOVIEW
 70
     0
  9
$UCSORGTOP
 10
0.0
 20
0.0
 30
0.0
  9
$UCSORGBOTTOM
 10
0.0
 20
0.0
 30
0.0
  9
$UCSORGLEFT
 10
0.0
 20
0.0
 30
0.0
  9
$UCSORGRIGHT
 10
0.0
 20
0.0
 30
0.0
  9
$UCSORGFRONT
 10
0.0
 20
0.0
 30
0.0
  9
$UCSORGBACK
 10
0.0
 20
0.0
 30
0.0
  9
$PUCSBASE
  2

  9
$PUCSNAME
  2

  9
$PUCSORG
 10
0.0
 20
0.0
 30
0.0
  9
$PUCSXDIR
 10
1.0
 20
0.0
 30
0.0
  9
$PUCSYDIR
 10
0.0
 20
1.0
 30
0.0
  9
$PUCSORTHOREF
  2

  9
$PUCSORTHOVIEW
 70
     0
  9
$PUCSORGTOP
 10
0.0
 20
0.0
 30
0.0
  9
$PUCSORGBOTTOM
 10
0.0
 20
0.0
 30
0.0
  9
$PUCSORGLEFT
 10
0.0
 20
0.0
 30
0.0
  9
$PUCSORGRIGHT
 10
0.0
 20
0.0
 30
0.0
  9
$PUCSORGFRONT
 10
0.0
 20
0.0
 30
0.0
  9
$PUCSORGBACK
 10
0.0
 20
0.0
 30
0.0
  9
$USERI1
 70
     0
  9
$USERI2
 70
     0
  9
$USERI3
 70
     0
  9
$USERI4
 70
     0
  9
$USERI5
 70
     0
  9
$USERR1
 40
0.0
  9
$USERR2
 40
0.0
  9
$USERR3
 40
0.0
  9
$USERR4
 40
0.0
  9
$USERR5
 40
0.0
  9
$WORLDVIEW
 70
     1
  9
$SHADEDGE
 70
     3
  9
$SHADEDIF
 70
    70
  9
$TILEMODE
 70
     1
  9
$MAXACTVP
 70
    64
  9
$PINSBASE
 10
0.0
 20
0.0
 30
0.0
  9
$PLIMCHECK
 70
     0
  9
$PEXTMIN
 10
1.000000000000000E+20
 20
1.000000000000000E+20
 30
1.000000000000000E+20
  9
$PEXTMAX
 10
-1.000000000000000E+20
 20
-1.000000000000000E+20
 30
-1.000000000000000E+20
  9
$PLIMMIN
 10
0.0
 20
0.0
  9
$PLIMMAX
 10
12.0
 20
9.0
  9
$UNITMODE
 70
     0
  9
$VISRETAIN
 70
     1
  9
$PLINEGEN
 70
     0
  9
$PSLTSCALE
 70
     1
  9
$TREEDEPTH
 70
  3020
  9
$CMLSTYLE
  2
Standard
  9
$CMLJUST
 70
     0
  9
$CMLSCALE
 40
1.0
  9
$PROXYGRAPHICS
 70
     1
  9
$MEASUREMENT
 70
     0
  9
$CELWEIGHT
370
    -1
  9
$ENDCAPS
280
     0
  9
$JOINSTYLE
280
     0
  9
$LWDISPLAY
290
     1
  9
$INSUNITS
 70
     1
  9
$HYPERLINKBASE
  1

  9
$STYLESHEET
  1

  9
$XEDIT
290
     1
  9
$CEPSNTYPE
380
     0
  9
$PSTYLEMODE
290
     1
  9
$FINGERPRINTGUID
  2
{3733E043-1B84-49FA-8A6B-C8FC4EA2D31E}
  9
$VERSIONGUID
  2
{FAEB1C32-E019-11D5-929B-00C0DF256EC4}
  9
$EXTNAMES
290
     1
  9
$PSVPSCALE
 40
0.0
  9
$OLESTARTUP
290
     0
  9
$SORTENTS
280
   127
  9
$INDEXCTL
280
     0
  9
$HIDETEXT
280
     1
  9
$XCLIPFRAME
290
     0
  9
$HALOGAP
280
     0
  9
$OBSCOLOR
 70
   257
  9
$OBSLTYPE
280
     0
  9
$INTERSECTIONDISPLAY
280
     0
  9
$INTERSECTIONCOLOR
 70
   257
  9
$DIMASSOC
280
     2
  9
$PROJECTNAME
  1

  0
ENDSEC
  0
SECTION
  2
CLASSES
  0
CLASS
  1
ACDBDICTIONARYWDFLT
  2
AcDbDictionaryWithDefault
  3
ObjectDBX Classes
 90
        0
 91
        3
280
     0
281
     0
  0
CLASS
  1
VISUALSTYLE
  2
AcDbVisualStyle
  3
ObjectDBX Classes
 90
     4095
 91
        3
280
     0
281
     0
  0
ENDSEC
  0
SECTION
  2
TABLES
  0
TABLE
  2
VPORT
  5
8
330
0
100
AcDbSymbolTable
 70
     1
  0
VPORT
  5
29
330
8
100
AcDbSymbolTableRecord
100
AcDbViewportTableRecord
  2
*Active
 70
     0
 10
0.0
 20
0.0
 11
1.0
 21
1.0
 12
0.0
 22
0.0
 13
0.0
 23
0.0
 14
0.5
 24
0.5
 15
0.5
 25
0.5
 16
0.0
 26
0.0
 36
1.0
 17
105.0008091239277
 27
148.5001637099431
 37
0.0
 40
297.0003274198861
 41
0.7070753762199199
 42
50.0
 43
0.0
 44
0.0
 50
0.0
 51
0.0
 71
     0
 72
   100
 73
     1
 74
     3
 75
     0
 76
     0
 77
     0
 78
     0
281
     0
 65
     1
110
0.0
120
0.0
130
0.0
111
1.0
121
0.0
131
0.0
112
0.0
122
1.0
132
0.0
 79
     0
146
0.0
  0
ENDTAB
  0
TABLE
  2
LTYPE
  5
5
330
0
100
AcDbSymbolTable
 70
     1
  0
LTYPE
  5
14
330
5
100
AcDbSymbolTableRecord
100
AcDbLinetypeTableRecord
  2
ByBlock
 70
     0
  3

 72
    65
 73
     0
 40
0.0
  0
LTYPE
  5
15
330
5
100
AcDbSymbolTableRecord
100
AcDbLinetypeTableRecord
  2
ByLayer
 70
     0
  3

 72
    65
 73
     0
 40
0.0
  0
LTYPE
  5
16
330
5
100
AcDbSymbolTableRecord
100
AcDbLinetypeTableRecord
  2
Continuous
 70
     0
  3
Solid line
 72
    65
 73
     0
 40
0.0
  0
ENDTAB
  0
TABLE
  2
LAYER
  5
2
330
0
100
AcDbSymbolTable
 70
     1
  0
LAYER
  5
10
330
2
100
AcDbSymbolTableRecord
100
AcDbLayerTableRecord
  2
0
 70
     0
 62
     7
  6
Continuous
370
    -3
390
F
  0
ENDTAB
  0
TABLE
  2
STYLE
  5
3
330
0
100
AcDbSymbolTable
 70
     1
  0
STYLE
  5
11
330
3
100
AcDbSymbolTableRecord
100
AcDbTextStyleTableRecord
  2
Standard
 70
     0
 40
0.0
 41
1.0
 50
0.0
 71
     0
 42
0.2
  3
txt
  4

  0
ENDTAB
  0
TABLE
  2
VIEW
  5
6
330
0
100
AcDbSymbolTable
 70
     0
  0
ENDTAB
  0
TABLE
  2
UCS
  5
7
330
0
100
AcDbSymbolTable
 70
     0
  0
ENDTAB
  0
TABLE
  2
APPID
  5
9
330
0
100
AcDbSymbolTable
 70
     1
  0
APPID
  5
12
330
9
100
AcDbSymbolTableRecord
100
AcDbRegAppTableRecord
  2
ACAD
 70
     0
  0
ENDTAB
  0
TABLE
  2
DIMSTYLE
  5
A
330
0
100
AcDbSymbolTable
 70
     1
100
AcDbDimStyleTable
  0
DIMSTYLE
105
27
330
A
100
AcDbSymbolTableRecord
100
AcDbDimStyleTableRecord
  2
Standard
 70
     0
340
11
  0
ENDTAB
  0
TABLE
  2
BLOCK_RECORD
  5
1
330
0
100
AcDbSymbolTable
 70
   116
  0
BLOCK_RECORD
  5
1F
330
1
100
AcDbSymbolTableRecord
100
AcDbBlockTableRecord
  2
*Model_Space
340
22
  0
BLOCK_RECORD
  5
1B
330
1
100
AcDbSymbolTableRecord
100
AcDbBlockTableRecord
  2
*Paper_Space
340
1E
  0
BLOCK_RECORD
  5
23
330
1
100
AcDbSymbolTableRecord
100
AcDbBlockTableRecord
  2
*Paper_Space0
340
26
  0
BLOCK_RECORD
  5
3B
330
1
100
AcDbSymbolTableRecord
100
AcDbBlockTableRecord
  2
block 2
340
0
102
{BLKREFS
331
3C
102
}
  0
BLOCK_RECORD
  5
40
330
1
100
AcDbSymbolTableRecord
100
AcDbBlockTableRecord
  2
block 3
340
0
102
{BLKREFS
331
41
102
}
  0
BLOCK_RECORD
  5
48
330
1
100
AcDbSymbolTableRecord
100
AcDbBlockTableRecord
  2
block 4
340
0
102
{BLKREFS
331
49
102
}
  0
BLOCK_RECORD
  5
50
330
1
100
AcDbSymbolTableRecord
100
AcDbBlockTableRecord
  2
block 5
340
0
102
{BLKREFS
331
51
102
}
  0
BLOCK_RECORD
  5
55
330
1
100
AcDbSymbolTableRecord
100
AcDbBlockTableRecord
  2
block 6
340
0
102
{BLKREFS
331
56
102
}
  0
BLOCK_RECORD
  5
5A
330
1
100
AcDbSymbolTableRecord
100
AcDbBlockTableRecord
  2
block 7
340
0
102
{BLKREFS
331
5B
102
}
  0
BLOCK_RECORD
  5
5F
330
1
100
AcDbSymbolTableRecord
100
AcDbBlockTableRecord
  2
block 8
340
0
102
{BLKREFS
331
60
102
}
  0
BLOCK_RECORD
  5
64
330
1
100
AcDbSymbolTableRecord
100
AcDbBlockTableRecord
  2
block 9
340
0
102
{BLKREFS
331
65
102
}
  0
BLOCK_RECORD
  5
69
330
1
100
AcDbSymbolTableRecord
100
AcDbBlockTableRecord
  2
block 10
340
0
102
{BLKREFS
331
6A
102
}
  0
BLOCK_RECORD
  5
71
330
1
100
AcDbSymbolTableRecord
100
AcDbBlockTableRecord
  2
block 11
340
0
102
{BLKREFS
331
72
102
}
  0
BLOCK_RECORD
  5
79
330
1
100
AcDbSymbolTableRecord
100
AcDbBlockTableRecord
  2
block 12
340
0
102
{BLKREFS
331
7A
102
}
  0
BLOCK_RECORD
  5
81
330
1
100
AcDbSymbolTableRecord
100
AcDbBlockTableRecord
  2
block 13
340
0
102
{BLKREFS
331
82
102
}
  0
BLOCK_RECORD
  5
89
330
1
100
AcDbSymbolTableRecord
100
AcDbBlockTableRecord
  2
block 14
340
0
102
{BLKREFS
331
8A
102
}
  0
BLOCK_RECORD
  5
8E
330
1
100
AcDbSymbolTableRecord
100
AcDbBlockTableRecord
  2
block 15
340
0
102
{BLKREFS
331
8F
102
}
  0
BLOCK_RECORD
  5
93
330
1
100
AcDbSymbolTableRecord
100
AcDbBlockTableRecord
  2
block 16
340
0
102
{BLKREFS
331
94
102
}
  0
BLOCK_RECORD
  5
98
330
1
100
AcDbSymbolTableRecord
100
AcDbBlockTableRecord
  2
block 17
340
0
102
{BLKREFS
331
99
102
}
  0
BLOCK_RECORD
  5
9D
330
1
100
AcDbSymbolTableRecord
100
AcDbBlockTableRecord
  2
block 18
340
0
102
{BLKREFS
331
9E
102
}
  0
BLOCK_RECORD
  5
A5
330
1
100
AcDbSymbolTableRecord
100
AcDbBlockTableRecord
  2
block 19
340
0
102
{BLKREFS
331
A6
102
}
  0
BLOCK_RECORD
  5
AD
330
1
100
AcDbSymbolTableRecord
100
AcDbBlockTableRecord
  2
block 20
340
0
102
{BLKREFS
331
AE
102
}
  0
BLOCK_RECORD
  5
B2
330
1
100
AcDbSymbolTableRecord
100
AcDbBlockTableRecord
  2
block 21
340
0
102
{BLKREFS
331
B3
102
}
  0
BLOCK_RECORD
  5
BA
330
1
100
AcDbSymbolTableRecord
100
AcDbBlockTableRecord
  2
block 22
340
0
102
{BLKREFS
331
BB
102
}
  0
BLOCK_RECORD
  5
C2
330
1
100
AcDbSymbolTableRecord
100
AcDbBlockTableRecord
  2
block 23
340
0
102
{BLKREFS
331
C3
102
}
  0
BLOCK_RECORD
  5
C6
330
1
100
AcDbSymbolTableRecord
100
AcDbBlockTableRecord
  2
block 24
340
0
102
{BLKREFS
331
C7
102
}
  0
BLOCK_RECORD
  5
CA
330
1
100
AcDbSymbolTableRecord
100
AcDbBlockTableRecord
  2
block 25
340
0
102
{BLKREFS
331
CB
102
}
  0
BLOCK_RECORD
  5
D2
330
1
100
AcDbSymbolTableRecord
100
AcDbBlockTableRecord
  2
block 26
340
0
102
{BLKREFS
331
D3
102
}
  0
BLOCK_RECORD
  5
D6
330
1
100
AcDbSymbolTableRecord
100
AcDbBlockTableRecord
  2
block 27
340
0
102
{BLKREFS
331
D7
102
}
  0
BLOCK_RECORD
  5
DA
330
1
100
AcDbSymbolTableRecord
100
AcDbBlockTableRecord
  2
block 28
340
0
102
{BLKREFS
331
DB
102
}
  0
BLOCK_RECORD
  5
DE
330
1
100
AcDbSymbolTableRecord
100
AcDbBlockTableRecord
  2
block 29
340
0
102
{BLKREFS
331
DF
102
}
  0
BLOCK_RECORD
  5
F0
330
1
100
AcDbSymbolTableRecord
100
AcDbBlockTableRecord
  2
block 30
340
0
102
{BLKREFS
331
F1
102
}
  0
BLOCK_RECORD
  5
10C
330
1
100
AcDbSymbolTableRecord
100
AcDbBlockTableRecord
  2
block 31
340
0
102
{BLKREFS
331
10D
102
}
  0
BLOCK_RECORD
  5
114
330
1
100
AcDbSymbolTableRecord
100
AcDbBlockTableRecord
  2
block 32
340
0
102
{BLKREFS
331
115
102
}
  0
BLOCK_RECORD
  5
11C
330
1
100
AcDbSymbolTableRecord
100
AcDbBlockTableRecord
  2
block 33
340
0
102
{BLKREFS
331
11D
102
}
  0
BLOCK_RECORD
  5
124
330
1
100
AcDbSymbolTableRecord
100
AcDbBlockTableRecord
  2
block 34
340
0
102
{BLKREFS
331
125
102
}
  0
BLOCK_RECORD
  5
12C
330
1
100
AcDbSymbolTableRecord
100
AcDbBlockTableRecord
  2
block 35
340
0
102
{BLKREFS
331
12D
102
}
  0
BLOCK_RECORD
  5
131
330
1
100
AcDbSymbolTableRecord
100
AcDbBlockTableRecord
  2
block 36
340
0
102
{BLKREFS
331
132
102
}
  0
BLOCK_RECORD
  5
139
330
1
100
AcDbSymbolTableRecord
100
AcDbBlockTableRecord
  2
block 37
340
0
102
{BLKREFS
331
13A
102
}
  0
BLOCK_RECORD
  5
141
330
1
100
AcDbSymbolTableRecord
100
AcDbBlockTableRecord
  2
block 38
340
0
102
{BLKREFS
331
142
102
}
  0
BLOCK_RECORD
  5
146
330
1
100
AcDbSymbolTableRecord
100
AcDbBlockTableRecord
  2
block 39
340
0
102
{BLKREFS
331
147
102
}
  0
BLOCK_RECORD
  5
14B
330
1
100
AcDbSymbolTableRecord
100
AcDbBlockTableRecord
  2
block 40
340
0
102
{BLKREFS
331
14C
102
}
  0
BLOCK_RECORD
  5
150
330
1
100
AcDbSymbolTableRecord
100
AcDbBlockTableRecord
  2
block 41
340
0
102
{BLKREFS
331
151
102
}
  0
BLOCK_RECORD
  5
155
330
1
100
AcDbSymbolTableRecord
100
AcDbBlockTableRecord
  2
block 42
340
0
102
{BLKREFS
331
156
102
}
  0
BLOCK_RECORD
  5
15A
330
1
100
AcDbSymbolTableRecord
100
AcDbBlockTableRecord
  2
block 43
340
0
102
{BLKREFS
331
15B
102
}
  0
BLOCK_RECORD
  5
162
330
1
100
AcDbSymbolTableRecord
100
AcDbBlockTableRecord
  2
block 44
340
0
102
{BLKREFS
331
163
102
}
  0
BLOCK_RECORD
  5
16A
330
1
100
AcDbSymbolTableRecord
100
AcDbBlockTableRecord
  2
block 45
340
0
102
{BLKREFS
331
16B
102
}
  0
BLOCK_RECORD
  5
16F
330
1
100
AcDbSymbolTableRecord
100
AcDbBlockTableRecord
  2
block 46
340
0
102
{BLKREFS
331
170
102
}
  0
BLOCK_RECORD
  5
174
330
1
100
AcDbSymbolTableRecord
100
AcDbBlockTableRecord
  2
block 47
340
0
102
{BLKREFS
331
175
102
}
  0
BLOCK_RECORD
  5
179
330
1
100
AcDbSymbolTableRecord
100
AcDbBlockTableRecord
  2
block 48
340
0
102
{BLKREFS
331
17A
102
}
  0
BLOCK_RECORD
  5
17E
330
1
100
AcDbSymbolTableRecord
100
AcDbBlockTableRecord
  2
block 49
340
0
102
{BLKREFS
331
17F
102
}
  0
BLOCK_RECORD
  5
183
330
1
100
AcDbSymbolTableRecord
100
AcDbBlockTableRecord
  2
block 50
340
0
102
{BLKREFS
331
184
102
}
  0
BLOCK_RECORD
  5
18B
330
1
100
AcDbSymbolTableRecord
100
AcDbBlockTableRecord
  2
block 51
340
0
102
{BLKREFS
331
18C
102
}
  0
BLOCK_RECORD
  5
193
330
1
100
AcDbSymbolTableRecord
100
AcDbBlockTableRecord
  2
block 52
340
0
102
{BLKREFS
331
194
102
}
  0
BLOCK_RECORD
  5
19B
330
1
100
AcDbSymbolTableRecord
100
AcDbBlockTableRecord
  2
block 53
340
0
102
{BLKREFS
331
19C
102
}
  0
BLOCK_RECORD
  5
1A3
330
1
100
AcDbSymbolTableRecord
100
AcDbBlockTableRecord
  2
block 54
340
0
102
{BLKREFS
331
1A4
102
}
  0
BLOCK_RECORD
  5
1AB
330
1
100
AcDbSymbolTableRecord
100
AcDbBlockTableRecord
  2
block 55
340
0
102
{BLKREFS
331
1AC
102
}
  0
BLOCK_RECORD
  5
1B3
330
1
100
AcDbSymbolTableRecord
100
AcDbBlockTableRecord
  2
block 56
340
0
102
{BLKREFS
331
1B4
102
}
  0
BLOCK_RECORD
  5
1BB
330
1
100
AcDbSymbolTableRecord
100
AcDbBlockTableRecord
  2
block 57
340
0
102
{BLKREFS
331
1BC
102
}
  0
BLOCK_RECORD
  5
1C3
330
1
100
AcDbSymbolTableRecord
100
AcDbBlockTableRecord
  2
block 58
340
0
102
{BLKREFS
331
1C4
102
}
  0
BLOCK_RECORD
  5
1CB
330
1
100
AcDbSymbolTableRecord
100
AcDbBlockTableRecord
  2
block 59
340
0
102
{BLKREFS
331
1CC
102
}
  0
BLOCK_RECORD
  5
1D0
330
1
100
AcDbSymbolTableRecord
100
AcDbBlockTableRecord
  2
block 60
340
0
102
{BLKREFS
331
1D1
102
}
  0
BLOCK_RECORD
  5
1D5
330
1
100
AcDbSymbolTableRecord
100
AcDbBlockTableRecord
  2
block 61
340
0
102
{BLKREFS
331
1D6
102
}
  0
BLOCK_RECORD
  5
1DD
330
1
100
AcDbSymbolTableRecord
100
AcDbBlockTableRecord
  2
block 62
340
0
102
{BLKREFS
331
1DE
102
}
  0
BLOCK_RECORD
  5
1E5
330
1
100
AcDbSymbolTableRecord
100
AcDbBlockTableRecord
  2
block 63
340
0
102
{BLKREFS
331
1E6
102
}
  0
BLOCK_RECORD
  5
1ED
330
1
100
AcDbSymbolTableRecord
100
AcDbBlockTableRecord
  2
block 64
340
0
102
{BLKREFS
331
1EE
102
}
  0
BLOCK_RECORD
  5
1F5
330
1
100
AcDbSymbolTableRecord
100
AcDbBlockTableRecord
  2
block 65
340
0
102
{BLKREFS
331
1F6
102
}
  0
BLOCK_RECORD
  5
1FD
330
1
100
AcDbSymbolTableRecord
100
AcDbBlockTableRecord
  2
block 66
340
0
102
{BLKREFS
331
1FE
102
}
  0
BLOCK_RECORD
  5
205
330
1
100
AcDbSymbolTableRecord
100
AcDbBlockTableRecord
  2
block 67
340
0
102
{BLKREFS
331
206
102
}
  0
BLOCK_RECORD
  5
20D
330
1
100
AcDbSymbolTableRecord
100
AcDbBlockTableRecord
  2
block 68
340
0
102
{BLKREFS
331
20E
102
}
  0
BLOCK_RECORD
  5
211
330
1
100
AcDbSymbolTableRecord
100
AcDbBlockTableRecord
  2
block 69
340
0
102
{BLKREFS
331
212
102
}
  0
BLOCK_RECORD
  5
215
330
1
100
AcDbSymbolTableRecord
100
AcDbBlockTableRecord
  2
block 70
340
0
102
{BLKREFS
331
216
102
}
  0
BLOCK_RECORD
  5
219
330
1
100
AcDbSymbolTableRecord
100
AcDbBlockTableRecord
  2
block 71
340
0
102
{BLKREFS
331
21A
102
}
  0
BLOCK_RECORD
  5
21D
330
1
100
AcDbSymbolTableRecord
100
AcDbBlockTableRecord
  2
block 72
340
0
102
{BLKREFS
331
21E
102
}
  0
BLOCK_RECORD
  5
228
330
1
100
AcDbSymbolTableRecord
100
AcDbBlockTableRecord
  2
block 73
340
0
102
{BLKREFS
331
229
102
}
  0
BLOCK_RECORD
  5
238
330
1
100
AcDbSymbolTableRecord
100
AcDbBlockTableRecord
  2
block 74
340
0
102
{BLKREFS
331
239
102
}
  0
BLOCK_RECORD
  5
240
330
1
100
AcDbSymbolTableRecord
100
AcDbBlockTableRecord
  2
block 75
340
0
102
{BLKREFS
331
241
102
}
  0
BLOCK_RECORD
  5
244
330
1
100
AcDbSymbolTableRecord
100
AcDbBlockTableRecord
  2
block 76
340
0
102
{BLKREFS
331
245
102
}
  0
BLOCK_RECORD
  5
248
330
1
100
AcDbSymbolTableRecord
100
AcDbBlockTableRecord
  2
block 77
340
0
102
{BLKREFS
331
249
102
}
  0
BLOCK_RECORD
  5
24C
330
1
100
AcDbSymbolTableRecord
100
AcDbBlockTableRecord
  2
block 78
340
0
102
{BLKREFS
331
24D
102
}
  0
BLOCK_RECORD
  5
257
330
1
100
AcDbSymbolTableRecord
100
AcDbBlockTableRecord
  2
block 79
340
0
102
{BLKREFS
331
258
102
}
  0
BLOCK_RECORD
  5
267
330
1
100
AcDbSymbolTableRecord
100
AcDbBlockTableRecord
  2
block 80
340
0
102
{BLKREFS
331
268
102
}
  0
BLOCK_RECORD
  5
26F
330
1
100
AcDbSymbolTableRecord
100
AcDbBlockTableRecord
  2
block 81
340
0
102
{BLKREFS
331
270
102
}
  0
BLOCK_RECORD
  5
277
330
1
100
AcDbSymbolTableRecord
100
AcDbBlockTableRecord
  2
block 82
340
0
102
{BLKREFS
331
278
102
}
  0
BLOCK_RECORD
  5
27F
330
1
100
AcDbSymbolTableRecord
100
AcDbBlockTableRecord
  2
block 83
340
0
102
{BLKREFS
331
280
102
}
  0
BLOCK_RECORD
  5
287
330
1
100
AcDbSymbolTableRecord
100
AcDbBlockTableRecord
  2
block 84
340
0
102
{BLKREFS
331
288
102
}
  0
BLOCK_RECORD
  5
28C
330
1
100
AcDbSymbolTableRecord
100
AcDbBlockTableRecord
  2
block 85
340
0
102
{BLKREFS
331
28D
102
}
  0
BLOCK_RECORD
  5
294
330
1
100
AcDbSymbolTableRecord
100
AcDbBlockTableRecord
  2
block 86
340
0
102
{BLKREFS
331
295
102
}
  0
BLOCK_RECORD
  5
29C
330
1
100
AcDbSymbolTableRecord
100
AcDbBlockTableRecord
  2
block 87
340
0
102
{BLKREFS
331
29D
102
}
  0
BLOCK_RECORD
  5
2A4
330
1
100
AcDbSymbolTableRecord
100
AcDbBlockTableRecord
  2
block 88
340
0
102
{BLKREFS
331
2A5
102
}
  0
BLOCK_RECORD
  5
2A9
330
1
100
AcDbSymbolTableRecord
100
AcDbBlockTableRecord
  2
block 89
340
0
102
{BLKREFS
331
2AA
102
}
  0
BLOCK_RECORD
  5
2AE
330
1
100
AcDbSymbolTableRecord
100
AcDbBlockTableRecord
  2
block 90
340
0
102
{BLKREFS
331
2AF
102
}
  0
BLOCK_RECORD
  5
2B6
330
1
100
AcDbSymbolTableRecord
100
AcDbBlockTableRecord
  2
block 91
340
0
102
{BLKREFS
331
2B7
102
}
  0
BLOCK_RECORD
  5
2BE
330
1
100
AcDbSymbolTableRecord
100
AcDbBlockTableRecord
  2
block 92
340
0
102
{BLKREFS
331
2BF
102
}
  0
BLOCK_RECORD
  5
2C3
330
1
100
AcDbSymbolTableRecord
100
AcDbBlockTableRecord
  2
block 93
340
0
102
{BLKREFS
331
2C4
102
}
  0
BLOCK_RECORD
  5
2CB
330
1
100
AcDbSymbolTableRecord
100
AcDbBlockTableRecord
  2
block 94
340
0
102
{BLKREFS
331
2CC
102
}
  0
BLOCK_RECORD
  5
2D0
330
1
100
AcDbSymbolTableRecord
100
AcDbBlockTableRecord
  2
block 95
340
0
102
{BLKREFS
331
2D1
102
}
  0
BLOCK_RECORD
  5
2D5
330
1
100
AcDbSymbolTableRecord
100
AcDbBlockTableRecord
  2
block 96
340
0
102
{BLKREFS
331
2D6
102
}
  0
BLOCK_RECORD
  5
2DD
330
1
100
AcDbSymbolTableRecord
100
AcDbBlockTableRecord
  2
block 97
340
0
102
{BLKREFS
331
2DE
102
}
  0
BLOCK_RECORD
  5
2E2
330
1
100
AcDbSymbolTableRecord
100
AcDbBlockTableRecord
  2
block 98
340
0
102
{BLKREFS
331
2E3
102
}
  0
BLOCK_RECORD
  5
2E7
330
1
100
AcDbSymbolTableRecord
100
AcDbBlockTableRecord
  2
block 99
340
0
102
{BLKREFS
331
2E8
102
}
  0
BLOCK_RECORD
  5
2EF
330
1
100
AcDbSymbolTableRecord
100
AcDbBlockTableRecord
  2
block 100
340
0
102
{BLKREFS
331
2F0
102
}
  0
BLOCK_RECORD
  5
2F7
330
1
100
AcDbSymbolTableRecord
100
AcDbBlockTableRecord
  2
block 101
340
0
102
{BLKREFS
331
2F8
102
}
  0
BLOCK_RECORD
  5
2FB
330
1
100
AcDbSymbolTableRecord
100
AcDbBlockTableRecord
  2
block 102
340
0
102
{BLKREFS
331
2FC
102
}
  0
BLOCK_RECORD
  5
303
330
1
100
AcDbSymbolTableRecord
100
AcDbBlockTableRecord
  2
block 103
340
0
102
{BLKREFS
331
304
102
}
  0
BLOCK_RECORD
  5
30B
330
1
100
AcDbSymbolTableRecord
100
AcDbBlockTableRecord
  2
block 104
340
0
102
{BLKREFS
331
30C
102
}
  0
BLOCK_RECORD
  5
313
330
1
100
AcDbSymbolTableRecord
100
AcDbBlockTableRecord
  2
block 105
340
0
102
{BLKREFS
331
314
102
}
  0
BLOCK_RECORD
  5
317
330
1
100
AcDbSymbolTableRecord
100
AcDbBlockTableRecord
  2
block 106
340
0
102
{BLKREFS
331
318
102
}
  0
BLOCK_RECORD
  5
31F
330
1
100
AcDbSymbolTableRecord
100
AcDbBlockTableRecord
  2
block 107
340
0
102
{BLKREFS
331
320
102
}
  0
BLOCK_RECORD
  5
323
330
1
100
AcDbSymbolTableRecord
100
AcDbBlockTableRecord
  2
block 108
340
0
102
{BLKREFS
331
324
102
}
  0
BLOCK_RECORD
  5
327
330
1
100
AcDbSymbolTableRecord
100
AcDbBlockTableRecord
  2
block 109
340
0
102
{BLKREFS
331
328
102
}
  0
BLOCK_RECORD
  5
32B
330
1
100
AcDbSymbolTableRecord
100
AcDbBlockTableRecord
  2
block 110
340
0
102
{BLKREFS
331
32C
102
}
  0
BLOCK_RECORD
  5
33D
330
1
100
AcDbSymbolTableRecord
100
AcDbBlockTableRecord
  2
block 111
340
0
102
{BLKREFS
331
33E
102
}
  0
BLOCK_RECORD
  5
359
330
1
100
AcDbSymbolTableRecord
100
AcDbBlockTableRecord
  2
block 112
340
0
102
{BLKREFS
331
35A
102
}
  0
BLOCK_RECORD
  5
361
330
1
100
AcDbSymbolTableRecord
100
AcDbBlockTableRecord
  2
block 113
340
0
102
{BLKREFS
331
362
102
}
  0
BLOCK_RECORD
  5
366
330
1
100
AcDbSymbolTableRecord
100
AcDbBlockTableRecord
  2
block 114
340
0
102
{BLKREFS
331
367
102
}
  0
BLOCK_RECORD
  5
36E
330
1
100
AcDbSymbolTableRecord
100
AcDbBlockTableRecord
  2
block 115
340
0
102
{BLKREFS
331
36F
102
}
  0
BLOCK_RECORD
  5
376
330
1
100
AcDbSymbolTableRecord
100
AcDbBlockTableRecord
  2
block 116
340
0
102
{BLKREFS
331
377
102
}
  0
ENDTAB
  0
ENDSEC
  0
SECTION
  2
BLOCKS
  0
BLOCK
  5
20
330
1F
100
AcDbEntity
  8
0
100
AcDbBlockBegin
  2
*Model_Space
 70
     0
 71
     0
 10
0.0
 20
0.0
 30
0.0
  3
*Model_Space
  1

  0
ENDBLK
  5
21
330
1F
100
AcDbEntity
  8
0
100
AcDbBlockEnd
  0
BLOCK
  5
1C
330
1B
100
AcDbEntity
 67
     1
  8
0
100
AcDbBlockBegin
  2
*Paper_Space
 70
     0
 71
     0
 10
0.0
 20
0.0
 30
0.0
  3
*Paper_Space
  1

  0
ENDBLK
  5
1D
330
1B
100
AcDbEntity
 67
     1
  8
0
100
AcDbBlockEnd
  0
BLOCK
  5
24
330
23
100
AcDbEntity
  8
0
100
AcDbBlockBegin
  2
*Paper_Space0
 70
     0
 71
     0
 10
0.0
 20
0.0
 30
0.0
  3
*Paper_Space0
  1

  0
ENDBLK
  5
25
330
23
100
AcDbEntity
  8
0
100
AcDbBlockEnd
  0
BLOCK
  5
3D
330
3B
100
AcDbEntity
  8
0
100
AcDbBlockBegin
  2
block 2
 70
     0
 71
     0
 10
0.0
 20
0.0
 30
0.0
  3
block 2
  1

  0
SPLINE
  5
3F
330
3B
100
AcDbEntity
  8
0
 62
     7
420
 16777215
370
     9
100
AcDbSpline
210
0.0
220
0.0
230
1.0
 70
     8
 71
     3
 72
   140
 73
   136
 74
     0
 42
0.0000000001
 43
0.0000000001
 40
0.0
 40
0.0
 40
0.0
 40
0.0
 40
1.0
 40
1.0
 40
1.0
 40
2.0
 40
2.0
 40
2.0
 40
3.0
 40
3.0
 40
3.0
 40
4.0
 40
4.0
 40
4.0
 40
5.0
 40
5.0
 40
5.0
 40
6.0
 40
6.0
 40
6.0
 40
7.0
 40
7.0
 40
7.0
 40
8.0
 40
8.0
 40
8.0
 40
9.0
 40
9.0
 40
9.0
 40
10.0
 40
10.0
 40
10.0
 40
11.0
 40
11.0
 40
11.0
 40
12.0
 40
12.0
 40
12.0
 40
13.0
 40
13.0
 40
13.0
 40
14.0
 40
14.0
 40
14.0
 40
15.0
 40
15.0
 40
15.0
 40
16.0
 40
16.0
 40
16.0
 40
17.0
 40
17.0
 40
17.0
 40
18.0
 40
18.0
 40
18.0
 40
19.0
 40
19.0
 40
19.0
 40
20.0
 40
20.0
 40
20.0
 40
21.0
 40
21.0
 40
21.0
 40
22.0
 40
22.0
 40
22.0
 40
23.0
 40
23.0
 40
23.0
 40
24.0
 40
24.0
 40
24.0
 40
25.0
 40
25.0
 40
25.0
 40
26.0
 40
26.0
 40
26.0
 40
27.0
 40
27.0
 40
27.0
 40
28.0
 40
28.0
 40
28.0
 40
29.0
 40
29.0
 40
29.0
 40
30.0
 40
30.0
 40
30.0
 40
31.0
 40
31.0
 40
31.0
 40
32.0
 40
32.0
 40
32.0
 40
33.0
 40
33.0
 40
33.0
 40
34.0
 40
34.0
 40
34.0
 40
35.0
 40
35.0
 40
35.0
 40
36.0
 40
36.0
 40
36.0
 40
37.0
 40
37.0
 40
37.0
 40
38.0
 40
38.0
 40
38.0
 40
39.0
 40
39.0
 40
39.0
 40
40.0
 40
40.0
 40
40.0
 40
41.0
 40
41.0
 40
41.0
 40
42.0
 40
42.0
 40
42.0
 40
43.0
 40
43.0
 40
43.0
 40
44.0
 40
44.0
 40
44.0
 40
45.0
 40
45.0
 40
45.0
 40
45.0
 10
32.03579179639785
 20
174.7381143620232
 30
0.0
 10
32.04991669720549
 20
174.7388033815748
 30
0.0
 10
32.06421385290103
 20
174.7394924011264
 30
0.0
 10
32.08264512590612
 20
174.7431097537722
 30
0.0
 10
32.08264512590612
 20
174.7431097537722
 30
0.0
 10
32.08264512590612
 20
174.7431097537722
 30
0.0
 10
32.08264512590612
 20
174.7431097537722
 30
0.0
 10
32.08919081164625
 20
174.7444877928754
 30
0.0
 10
32.09659777182587
 20
174.7463825966423
 30
0.0
 10
32.10641630043606
 20
174.7491386748487
 30
0.0
 10
32.10641630043606
 20
174.7491386748487
 30
0.0
 10
32.10641630043606
 20
174.7491386748487
 30
0.0
 10
32.10641630043606
 20
174.7491386748487
 30
0.0
 10
32.10968914330612
 20
174.7499999492882
 30
0.0
 10
32.11330649595198
 20
174.7512057335035
 30
0.0
 10
32.11795737792523
 20
174.7525837726066
 30
0.0
 10
32.11795737792523
 20
174.7525837726066
 30
0.0
 10
32.11795737792523
 20
174.7525837726066
 30
0.0
 10
32.11795737792523
 20
174.7525837726066
 30
0.0
 10
32.11967992680421
 20
174.7531005372703
 30
0.0
 10
32.12157473057109
 20
174.7537895568219
 30
0.0
 10
32.12381404411376
 20
174.7544785763735
 30
0.0
 10
32.12381404411376
 20
174.7544785763735
 30
0.0
 10
32.12381404411376
 20
174.7544785763735
 30
0.0
 10
32.12381404411376
 20
174.7544785763735
 30
0.0
 10
32.12553659299274
 20
174.7549953410372
 30
0.0
 10
32.12743139675963
 20
174.7556843605888
 30
0.0
 10
32.1294984554144
 20
174.7563733801404
 30
0.0
 10
32.1294984554144
 20
174.7563733801404
 30
0.0
 10
32.1294984554144
 20
174.7563733801404
 30
0.0
 10
32.1294984554144
 20
174.7563733801404
 30
0.0
 10
32.13139325918128
 20
174.7568901448041
 30
0.0
 10
32.13328806294816
 20
174.7575791643557
 30
0.0
 10
32.13535512160293
 20
174.7582681839073
 30
0.0
 10
32.13535512160293
 20
174.7582681839073
 30
0.0
 10
32.13535512160293
 20
174.7582681839073
 30
0.0
 10
32.13535512160293
 20
174.7582681839073
 30
0.0
 10
32.13621639604243
 20
174.758784948571
 30
0.0
 10
32.13724992536982
 20
174.7589572034589
 30
0.0
 10
32.1381111998093
 20
174.7594739681226
 30
0.0
 10
32.1381111998093
 20
174.7594739681226
 30
0.0
 10
32.1381111998093
 20
174.7594739681226
 30
0.0
 10
32.1381111998093
 20
174.7594739681226
 30
0.0
 10
32.1389724742488
 20
174.7596462230105
 30
0.0
 10
32.14000600357618
 20
174.7599907327863
 30
0.0
 10
32.14086727801568
 20
174.7603352425621
 30
0.0
 10
32.14086727801568
 20
174.7603352425621
 30
0.0
 10
32.14086727801568
 20
174.7603352425621
 30
0.0
 10
32.14086727801568
 20
174.7603352425621
 30
0.0
 10
32.14293433667045
 20
174.7610242621137
 30
0.0
 10
32.14482914043733
 20
174.7617132816652
 30
0.0
 10
32.14655168931631
 20
174.7624023012168
 30
0.0
 10
32.14655168931631
 20
174.7624023012168
 30
0.0
 10
32.14655168931631
 20
174.7624023012168
 30
0.0
 10
32.14655168931631
 20
174.7624023012168
 30
0.0
 10
32.14861874797108
 20
174.7630913207684
 30
0.0
 10
32.15051355173797
 20
174.76378034032
 30
0.0
 10
32.15206384572905
 20
174.7644693598716
 30
0.0
 10
32.15206384572905
 20
174.7644693598716
 30
0.0
 10
32.15206384572905
 20
174.7644693598716
 30
0.0
 10
32.15206384572905
 20
174.7644693598716
 30
0.0
 10
32.1567147277023
 20
174.7663641636385
 30
0.0
 10
32.16015982546026
 20
174.7675699478538
 30
0.0
 10
32.16291590366663
 20
174.7687757320691
 30
0.0
 10
32.16291590366663
 20
174.7687757320691
 30
0.0
 10
32.16291590366663
 20
174.7687757320691
 30
0.0
 10
32.16291590366663
 20
174.7687757320691
 30
0.0
 10
32.16705002097618
 20
174.7704982809481
 30
0.0
 10
32.17049511873415
 20
174.7718763200512
 30
0.0
 10
32.17342345182841
 20
174.7732543591544
 30
0.0
 10
32.17342345182841
 20
174.7732543591544
 30
0.0
 10
32.17342345182841
 20
174.7732543591544
 30
0.0
 10
32.17342345182841
 20
174.7732543591544
 30
0.0
 10
32.19788364590994
 20
174.7837619073162
 30
0.0
 10
32.20494609631376
 20
174.789274063729
 30
0.0
 10
32.21183629182968
 20
174.7961642592449
 30
0.0
 10
32.21183629182968
 20
174.7961642592449
 30
0.0
 10
32.21183629182968
 20
174.7961642592449
 30
0.0
 10
32.21183629182968
 20
174.7961642592449
 30
0.0
 10
32.219760016673
 20
174.8042602389761
 30
0.0
 10
32.22733923174052
 20
174.8142510224742
 30
0.0
 10
32.23336815281694
 20
174.8261366097391
 30
0.0
 10
32.23336815281694
 20
174.8261366097391
 30
0.0
 10
32.23336815281694
 20
174.8261366097391
 30
0.0
 10
32.23336815281694
 20
174.8261366097391
 30
0.0
 10
32.24180864232395
 20
174.8425008240895
 30
0.0
 10
32.24732079873669
 20
174.8621378813098
 30
0.0
 10
32.25214393559784
 20
174.8859090558398
 30
0.0
 10
32.25214393559784
 20
174.8859090558398
 30
0.0
 10
32.25214393559784
 20
174.8859090558398
 30
0.0
 10
32.25214393559784
 20
174.8859090558398
 30
0.0
 10
32.25851736645006
 20
174.9169149356614
 30
0.0
 10
32.26351275819911
 20
174.9549832658869
 30
0.0
 10
32.26799138528446
 20
175.0002863014041
 30
0.0
 10
32.26799138528446
 20
175.0002863014041
 30
0.0
 10
32.26799138528446
 20
175.0002863014041
 30
0.0
 10
32.26799138528446
 20
175.0002863014041
 30
0.0
 10
32.2735035416972
 20
175.0567859046347
 30
0.0
 10
32.27780991389465
 20
175.1248265853544
 30
0.0
 10
32.28142726654051
 20
175.2040638337875
 30
0.0
 10
32.28142726654051
 20
175.2040638337875
 30
0.0
 10
32.28142726654051
 20
175.2040638337875
 30
0.0
 10
32.28142726654051
 20
175.2040638337875
 30
0.0
 10
32.28590589362586
 20
175.3010433356741
 30
0.0
 10
32.28952324627172
 20
175.4147315616869
 30
0.0
 10
32.29262383425389
 20
175.5453007667136
 30
0.0
 10
32.29262383425389
 20
175.5453007667136
 30
0.0
 10
32.29262383425389
 20
175.5453007667136
 30
0.0
 10
32.29262383425389
 20
175.5453007667136
 30
0.0
 10
32.29624118689975
 20
175.7015359500372
 30
0.0
 10
32.29934177488191
 20
175.8820590725544
 30
0.0
 10
32.30175334331248
 20
176.0846308207225
 30
0.0
 10
32.30175334331248
 20
176.0846308207225
 30
0.0
 10
32.30175334331248
 20
176.0846308207225
 30
0.0
 10
32.30175334331248
 20
176.0846308207225
 30
0.0
 10
32.30416491174306
 20
176.2603308063786
 30
0.0
 10
32.30588746062204
 20
176.4525672612728
 30
0.0
 10
32.30761000950102
 20
176.6615124402932
 30
0.0
 10
32.30761000950102
 20
176.6615124402932
 30
0.0
 10
32.30761000950102
 20
176.6615124402932
 30
0.0
 10
32.30761000950102
 20
176.6615124402932
 30
0.0
 10
32.3095048132679
 20
176.8956068329467
 30
0.0
 10
32.31105510725898
 20
177.1505440670359
 30
0.0
 10
32.31260540125007
 20
177.4192616921569
 30
0.0
 10
32.31260540125007
 20
177.4192616921569
 30
0.0
 10
32.31260540125007
 20
177.4192616921569
 30
0.0
 10
32.31260540125007
 20
177.4192616921569
 30
0.0
 10
32.31415569524115
 20
177.7170903933327
 30
0.0
 10
32.31570598923223
 20
178.0319723284104
 30
0.0
 10
32.31673951855962
 20
178.3821665155072
 30
0.0
 10
32.31673951855962
 20
178.3821665155072
 30
0.0
 10
32.31673951855962
 20
178.3821665155072
 30
0.0
 10
32.31673951855962
 20
178.3821665155072
 30
0.0
 10
32.31725628322332
 20
178.5204871904893
 30
0.0
 10
32.31777304788701
 20
178.6643200218842
 30
0.0
 10
32.3181175576628
 20
178.8083251081671
 30
0.0
  0
ENDBLK
  5
3E
330
3B
100
AcDbEntity
  8
0
100
AcDbBlockEnd
  0
BLOCK
  5
42
330
40
100
AcDbEntity
  8
0
100
AcDbBlockBegin
  2
block 3
 70
     0
 71
     0
 10
0.0
 20
0.0
 30
0.0
  3
block 3
  1

  0
POLYLINE
  5
44
330
40
100
AcDbEntity
  8
0
 62
     7
420
 16777215
370
     9
100
AcDb2dPolyline
 66
     1
 10
0.0
 20
0.0
 30
0.0
  0
VERTEX
  5
45
330
44
100
AcDbEntity
  8
0
 62
     7
420
 16777215
370
     9
100
AcDbVertex
100
AcDb2dVertex
 10
30.39523624405649
 20
174.7381143620232
 30
0.0
  0
VERTEX
  5
46
330
44
100
AcDbEntity
  8
0
 62
     7
420
 16777215
370
     9
100
AcDbVertex
100
AcDb2dVertex
 10
32.03579179639785
 20
174.7381143620232
 30
0.0
  0
SEQEND
  5
47
330
44
100
AcDbEntity
  8
0
370
     9
  0
ENDBLK
  5
43
330
40
100
AcDbEntity
  8
0
100
AcDbBlockEnd
  0
BLOCK
  5
4A
330
48
100
AcDbEntity
  8
0
100
AcDbBlockBegin
  2
block 4
 70
     0
 71
     0
 10
0.0
 20
0.0
 30
0.0
  3
block 4
  1

  0
POLYLINE
  5
4C
330
48
100
AcDbEntity
  8
0
 62
     7
420
 16777215
370
     9
100
AcDb2dPolyline
 66
     1
 10
0.0
 20
0.0
 30
0.0
  0
VERTEX
  5
4D
330
4C
100
AcDbEntity
  8
0
 62
     7
420
 16777215
370
     9
100
AcDbVertex
100
AcDb2dVertex
 10
32.03579179639785
 20
192.7213524036953
 30
0.0
  0
VERTEX
  5
4E
330
4C
100
AcDbEntity
  8
0
 62
     7
420
 16777215
370
     9
100
AcDbVertex
100
AcDb2dVertex
 10
30.39523624405649
 20
192.7213524036953
 30
0.0
  0
SEQEND
  5
4F
330
4C
100
AcDbEntity
  8
0
370
     9
  0
ENDBLK
  5
4B
330
48
100
AcDbEntity
  8
0
100
AcDbBlockEnd
  0
BLOCK
  5
52
330
50
100
AcDbEntity
  8
0
100
AcDbBlockBegin
  2
block 5
 70
     0
 71
     0
 10
0.0
 20
0.0
 30
0.0
  3
block 5
  1

  0
SPLINE
  5
54
330
50
100
AcDbEntity
  8
0
 62
     7
420
 16777215
370
     9
100
AcDbSpline
210
0.0
220
0.0
230
1.0
 70
     8
 71
     3
 72
    26
 73
    22
 74
     0
 42
0.0000000001
 43
0.0000000001
 40
0.0
 40
0.0
 40
0.0
 40
0.0
 40
1.0
 40
1.0
 40
1.0
 40
2.0
 40
2.0
 40
2.0
 40
3.0
 40
3.0
 40
3.0
 40
4.0
 40
4.0
 40
4.0
 40
5.0
 40
5.0
 40
5.0
 40
6.0
 40
6.0
 40
6.0
 40
7.0
 40
7.0
 40
7.0
 40
7.0
 10
30.09585724888962
 20
175.0269858090283
 30
0.0
 10
30.10102489552656
 20
174.990295517906
 30
0.0
 10
30.1063647970514
 20
174.9534329718958
 30
0.0
 10
30.11997293319535
 20
174.9194987589799
 30
0.0
 10
30.11997293319535
 20
174.9194987589799
 30
0.0
 10
30.11997293319535
 20
174.9194987589799
 30
0.0
 10
30.11997293319535
 20
174.9194987589799
 30
0.0
 10
30.13444234377879
 20
174.8831529776334
 30
0.0
 10
30.15821351830872
 20
174.8499077842691
 30
0.0
 10
30.1873245943635
 20
174.8220024924296
 30
0.0
 10
30.1873245943635
 20
174.8220024924296
 30
0.0
 10
30.1873245943635
 20
174.8220024924296
 30
0.0
 10
30.1873245943635
 20
174.8220024924296
 30
0.0
 10
30.21626341553038
 20
174.7940972005901
 30
0.0
 10
30.2501976284463
 20
174.7713595553875
 30
0.0
 10
30.28723242934439
 20
174.7582681839073
 30
0.0
 10
30.28723242934439
 20
174.7582681839073
 30
0.0
 10
30.28723242934439
 20
174.7582681839073
 30
0.0
 10
30.28723242934439
 20
174.7582681839073
 30
0.0
 10
30.32151115203611
 20
174.7460380868665
 30
0.0
 10
30.3583736980463
 20
174.7420762244449
 30
0.0
 10
30.39523624405649
 20
174.7381143620232
 30
0.0
  0
ENDBLK
  5
53
330
50
100
AcDbEntity
  8
0
100
AcDbBlockEnd
  0
BLOCK
  5
57
330
55
100
AcDbEntity
  8
0
100
AcDbBlockBegin
  2
block 6
 70
     0
 71
     0
 10
0.0
 20
0.0
 30
0.0
  3
block 6
  1

  0
SPLINE
  5
59
330
55
100
AcDbEntity
  8
0
 62
     7
420
 16777215
370
     9
100
AcDbSpline
210
0.0
220
0.0
230
1.0
 70
     8
 71
     3
 72
     8
 73
     4
 74
     0
 42
0.0000000001
 43
0.0000000001
 40
0.0
 40
0.0
 40
0.0
 40
0.0
 40
1.0
 40
1.0
 40
1.0
 40
1.0
 10
29.93772726179917
 20
183.7298195103032
 30
0.0
 10
29.92480814520682
 20
181.5401153753428
 30
0.0
 10
30.00335637408834
 20
177.214622885334
 30
0.0
 10
30.09585724888962
 20
175.0269858090283
 30
0.0
  0
ENDBLK
  5
58
330
55
100
AcDbEntity
  8
0
100
AcDbBlockEnd
  0
BLOCK
  5
5C
330
5A
100
AcDbEntity
  8
0
100
AcDbBlockBegin
  2
block 7
 70
     0
 71
     0
 10
0.0
 20
0.0
 30
0.0
  3
block 7
  1

  0
SPLINE
  5
5E
330
5A
100
AcDbEntity
  8
0
 62
     7
420
 16777215
370
     9
100
AcDbSpline
210
0.0
220
0.0
230
1.0
 70
     8
 71
     3
 72
     8
 73
     4
 74
     0
 42
0.0000000001
 43
0.0000000001
 40
0.0
 40
0.0
 40
0.0
 40
0.0
 40
1.0
 40
1.0
 40
1.0
 40
1.0
 10
30.09585724888962
 20
192.4324809566902
 30
0.0
 10
30.00335637408834
 20
190.2446716254967
 30
0.0
 10
29.92480814520682
 20
185.9193513903758
 30
0.0
 10
29.93772726179917
 20
183.7298195103032
 30
0.0
  0
ENDBLK
  5
5D
330
5A
100
AcDbEntity
  8
0
100
AcDbBlockEnd
  0
BLOCK
  5
61
330
5F
100
AcDbEntity
  8
0
100
AcDbBlockBegin
  2
block 8
 70
     0
 71
     0
 10
0.0
 20
0.0
 30
0.0
  3
block 8
  1

  0
SPLINE
  5
63
330
5F
100
AcDbEntity
  8
0
 62
     7
420
 16777215
370
     9
100
AcDbSpline
210
0.0
220
0.0
230
1.0
 70
     8
 71
     3
 72
    68
 73
    64
 74
     0
 42
0.0000000001
 43
0.0000000001
 40
0.0
 40
0.0
 40
0.0
 40
0.0
 40
1.0
 40
1.0
 40
1.0
 40
2.0
 40
2.0
 40
2.0
 40
3.0
 40
3.0
 40
3.0
 40
4.0
 40
4.0
 40
4.0
 40
5.0
 40
5.0
 40
5.0
 40
6.0
 40
6.0
 40
6.0
 40
7.0
 40
7.0
 40
7.0
 40
8.0
 40
8.0
 40
8.0
 40
9.0
 40
9.0
 40
9.0
 40
10.0
 40
10.0
 40
10.0
 40
11.0
 40
11.0
 40
11.0
 40
12.0
 40
12.0
 40
12.0
 40
13.0
 40
13.0
 40
13.0
 40
14.0
 40
14.0
 40
14.0
 40
15.0
 40
15.0
 40
15.0
 40
16.0
 40
16.0
 40
16.0
 40
17.0
 40
17.0
 40
17.0
 40
18.0
 40
18.0
 40
18.0
 40
19.0
 40
19.0
 40
19.0
 40
20.0
 40
20.0
 40
20.0
 40
21.0
 40
21.0
 40
21.0
 40
21.0
 10
32.33551530134051
 20
192.3849386076304
 30
0.0
 10
32.33310373290994
 20
192.4335144860176
 30
0.0
 10
32.33086441936726
 20
192.481918109517
 30
0.0
 10
32.31467245990484
 20
192.5284269292495
 30
0.0
 10
32.31467245990484
 20
192.5284269292495
 30
0.0
 10
32.31467245990484
 20
192.5284269292495
 30
0.0
 10
32.31467245990484
 20
192.5284269292495
 30
0.0
 10
32.30864353882841
 20
192.5463414375909
 30
0.0
 10
32.3003753042093
 20
192.5639114361565
 30
0.0
 10
32.28728393272905
 20
192.5847542775921
 30
0.0
 10
32.28728393272905
 20
192.5847542775921
 30
0.0
 10
32.28728393272905
 20
192.5847542775921
 30
0.0
 10
32.28728393272905
 20
192.5847542775921
 30
0.0
 10
32.27901569810994
 20
192.5976733941845
 30
0.0
 10
32.26902491461185
 20
192.61197054988
 30
0.0
 10
32.24852658295197
 20
192.6319521168762
 30
0.0
 10
32.24852658295197
 20
192.6319521168762
 30
0.0
 10
32.24852658295197
 20
192.6319521168762
 30
0.0
 10
32.24852658295197
 20
192.6319521168762
 30
0.0
 10
32.24215315209975
 20
192.6381532928405
 30
0.0
 10
32.23491844680803
 20
192.6446989785807
 30
0.0
 10
32.22561668286153
 20
192.6522781936482
 30
0.0
 10
32.22561668286153
 20
192.6522781936482
 30
0.0
 10
32.22561668286153
 20
192.6522781936482
 30
0.0
 10
32.22561668286153
 20
192.6522781936482
 30
0.0
 10
32.22182707532777
 20
192.6552065267425
 30
0.0
 10
32.21769295801822
 20
192.6583071147246
 30
0.0
 10
32.21321433093287
 20
192.6615799575947
 30
0.0
 10
32.21321433093287
 20
192.6615799575947
 30
0.0
 10
32.21321433093287
 20
192.6615799575947
 30
0.0
 10
32.21321433093287
 20
192.6615799575947
 30
0.0
 10
32.20925246851122
 20
192.664508290689
 30
0.0
 10
32.20494609631376
 20
192.6674366237832
 30
0.0
 10
32.20063972411631
 20
192.6703649568775
 30
0.0
 10
32.20063972411631
 20
192.6703649568775
 30
0.0
 10
32.20063972411631
 20
192.6703649568775
 30
0.0
 10
32.20063972411631
 20
192.6703649568775
 30
0.0
 10
32.19633335191886
 20
192.6731210350839
 30
0.0
 10
32.1918547248335
 20
192.6758771132902
 30
0.0
 10
32.18754835263606
 20
192.6784609366087
 30
0.0
 10
32.18754835263606
 20
192.6784609366087
 30
0.0
 10
32.18754835263606
 20
192.6784609366087
 30
0.0
 10
32.18754835263606
 20
192.6784609366087
 30
0.0
 10
32.1830697255507
 20
192.6810447599272
 30
0.0
 10
32.17859109846535
 20
192.6836285832456
 30
0.0
 10
32.17411247138001
 20
192.6858678967883
 30
0.0
 10
32.17411247138001
 20
192.6858678967883
 30
0.0
 10
32.17411247138001
 20
192.6858678967883
 30
0.0
 10
32.17411247138001
 20
192.6858678967883
 30
0.0
 10
32.16446619765771
 20
192.6910355434253
 30
0.0
 10
32.15533668859911
 20
192.6951696607348
 30
0.0
 10
32.14672394420421
 20
192.6987870133807
 30
0.0
 10
32.14672394420421
 20
192.6987870133807
 30
0.0
 10
32.14672394420421
 20
192.6987870133807
 30
0.0
 10
32.14672394420421
 20
192.6987870133807
 30
0.0
 10
32.12519208321695
 20
192.7077442675514
 30
0.0
 10
32.10727757487555
 20
192.7127396593004
 30
0.0
 10
32.09056885074943
 20
192.7158402472826
 30
0.0
 10
32.09056885074943
 20
192.7158402472826
 30
0.0
 10
32.09056885074943
 20
192.7158402472826
 30
0.0
 10
32.09056885074943
 20
192.7158402472826
 30
0.0
 10
32.07127630330485
 20
192.7196298548163
 30
0.0
 10
32.05353404985134
 20
192.7203188743679
 30
0.0
 10
32.03579179639785
 20
192.7213524036953
 30
0.0
  0
ENDBLK
  5
62
330
5F
100
AcDbEntity
  8
0
100
AcDbBlockEnd
  0
BLOCK
  5
66
330
64
100
AcDbEntity
  8
0
100
AcDbBlockBegin
  2
block 9
 70
     0
 71
     0
 10
0.0
 20
0.0
 30
0.0
  3
block 9
  1

  0
SPLINE
  5
68
330
64
100
AcDbEntity
  8
0
 62
     7
420
 16777215
370
     9
100
AcDbSpline
210
0.0
220
0.0
230
1.0
 70
     8
 71
     3
 72
    26
 73
    22
 74
     0
 42
0.0000000001
 43
0.0000000001
 40
0.0
 40
0.0
 40
0.0
 40
0.0
 40
1.0
 40
1.0
 40
1.0
 40
2.0
 40
2.0
 40
2.0
 40
3.0
 40
3.0
 40
3.0
 40
4.0
 40
4.0
 40
4.0
 40
5.0
 40
5.0
 40
5.0
 40
6.0
 40
6.0
 40
6.0
 40
7.0
 40
7.0
 40
7.0
 40
7.0
 10
30.39523624405649
 20
192.7213524036953
 30
0.0
 10
30.3583736980463
 20
192.7173905412737
 30
0.0
 10
30.32151115203611
 20
192.713428678852
 30
0.0
 10
30.28723242934439
 20
192.7011985818112
 30
0.0
 10
30.28723242934439
 20
192.7011985818112
 30
0.0
 10
30.28723242934439
 20
192.7011985818112
 30
0.0
 10
30.28723242934439
 20
192.7011985818112
 30
0.0
 10
30.2501976284463
 20
192.6879349554431
 30
0.0
 10
30.21626341553038
 20
192.6651973102406
 30
0.0
 10
30.1873245943635
 20
192.637464273289
 30
0.0
 10
30.1873245943635
 20
192.637464273289
 30
0.0
 10
30.1873245943635
 20
192.637464273289
 30
0.0
 10
30.1873245943635
 20
192.637464273289
 30
0.0
 10
30.15821351830872
 20
192.6093867265616
 30
0.0
 10
30.13444234377879
 20
192.5763137880851
 30
0.0
 10
30.11997293319535
 20
192.5397957518507
 30
0.0
 10
30.11997293319535
 20
192.5397957518507
 30
0.0
 10
30.11997293319535
 20
192.5397957518507
 30
0.0
 10
30.11997293319535
 20
192.5397957518507
 30
0.0
 10
30.1063647970514
 20
192.5060337938227
 30
0.0
 10
30.10102489552656
 20
192.4691712478125
 30
0.0
 10
30.09585724888962
 20
192.4324809566902
 30
0.0
  0
ENDBLK
  5
67
330
64
100
AcDbEntity
  8
0
100
AcDbBlockEnd
  0
BLOCK
  5
6B
330
69
100
AcDbEntity
  8
0
100
AcDbBlockBegin
  2
block 10
 70
     0
 71
     0
 10
0.0
 20
0.0
 30
0.0
  3
block 10
  1

  0
POLYLINE
  5
6D
330
69
100
AcDbEntity
  8
0
 62
     7
420
 16777215
370
     9
100
AcDb2dPolyline
 66
     1
 10
0.0
 20
0.0
 30
0.0
  0
VERTEX
  5
6E
330
6D
100
AcDbEntity
  8
0
 62
     7
420
 16777215
370
     9
100
AcDbVertex
100
AcDb2dVertex
 10
107.2657025174556
 20
188.525223334498
 30
0.0
  0
VERTEX
  5
6F
330
6D
100
AcDbEntity
  8
0
 62
     7
420
 16777215
370
     9
100
AcDbVertex
100
AcDb2dVertex
 10
32.33551530134051
 20
188.525223334498
 30
0.0
  0
SEQEND
  5
70
330
6D
100
AcDbEntity
  8
0
370
     9
  0
ENDBLK
  5
6C
330
69
100
AcDbEntity
  8
0
100
AcDbBlockEnd
  0
BLOCK
  5
73
330
71
100
AcDbEntity
  8
0
100
AcDbBlockBegin
  2
block 11
 70
     0
 71
     0
 10
0.0
 20
0.0
 30
0.0
  3
block 11
  1

  0
POLYLINE
  5
75
330
71
100
AcDbEntity
  8
0
 62
     7
420
 16777215
370
     9
100
AcDb2dPolyline
 66
     1
 10
0.0
 20
0.0
 30
0.0
  0
VERTEX
  5
76
330
75
100
AcDbEntity
  8
0
 62
     7
420
 16777215
370
     9
100
AcDbVertex
100
AcDb2dVertex
 10
32.33551530134051
 20
178.9342434312206
 30
0.0
  0
VERTEX
  5
77
330
75
100
AcDbEntity
  8
0
 62
     7
420
 16777215
370
     9
100
AcDbVertex
100
AcDb2dVertex
 10
107.2657025174556
 20
178.9342434312206
 30
0.0
  0
SEQEND
  5
78
330
75
100
AcDbEntity
  8
0
370
     9
  0
ENDBLK
  5
74
330
71
100
AcDbEntity
  8
0
100
AcDbBlockEnd
  0
BLOCK
  5
7B
330
79
100
AcDbEntity
  8
0
100
AcDbBlockBegin
  2
block 12
 70
     0
 71
     0
 10
0.0
 20
0.0
 30
0.0
  3
block 12
  1

  0
POLYLINE
  5
7D
330
79
100
AcDbEntity
  8
0
 62
     7
420
 16777215
370
     9
100
AcDb2dPolyline
 66
     1
 10
0.0
 20
0.0
 30
0.0
  0
VERTEX
  5
7E
330
7D
100
AcDbEntity
  8
0
 62
     7
420
 16777215
370
     9
100
AcDbVertex
100
AcDb2dVertex
 10
107.2657025174556
 20
178.9342434312206
 30
0.0
  0
VERTEX
  5
7F
330
7D
100
AcDbEntity
  8
0
 62
     7
420
 16777215
370
     9
100
AcDbVertex
100
AcDb2dVertex
 10
116.2574076657357
 20
178.9342434312206
 30
0.0
  0
SEQEND
  5
80
330
7D
100
AcDbEntity
  8
0
370
     9
  0
ENDBLK
  5
7C
330
79
100
AcDbEntity
  8
0
100
AcDbBlockEnd
  0
BLOCK
  5
83
330
81
100
AcDbEntity
  8
0
100
AcDbBlockBegin
  2
block 13
 70
     0
 71
     0
 10
0.0
 20
0.0
 30
0.0
  3
block 13
  1

  0
POLYLINE
  5
85
330
81
100
AcDbEntity
  8
0
 62
     7
420
 16777215
370
     9
100
AcDb2dPolyline
 66
     1
 10
0.0
 20
0.0
 30
0.0
  0
VERTEX
  5
86
330
85
100
AcDbEntity
  8
0
 62
     7
420
 16777215
370
     9
100
AcDbVertex
100
AcDb2dVertex
 10
116.2574076657357
 20
188.525223334498
 30
0.0
  0
VERTEX
  5
87
330
85
100
AcDbEntity
  8
0
 62
     7
420
 16777215
370
     9
100
AcDbVertex
100
AcDb2dVertex
 10
107.2657025174556
 20
188.525223334498
 30
0.0
  0
SEQEND
  5
88
330
85
100
AcDbEntity
  8
0
370
     9
  0
ENDBLK
  5
84
330
81
100
AcDbEntity
  8
0
100
AcDbBlockEnd
  0
BLOCK
  5
8B
330
89
100
AcDbEntity
  8
0
100
AcDbBlockBegin
  2
block 14
 70
     0
 71
     0
 10
0.0
 20
0.0
 30
0.0
  3
block 14
  1

  0
SPLINE
  5
8D
330
89
100
AcDbEntity
  8
0
 62
     7
420
 16777215
370
     9
100
AcDbSpline
210
0.0
220
0.0
230
1.0
 70
     8
 71
     3
 72
     8
 73
     4
 74
     0
 42
0.0000000001
 43
0.0000000001
 40
0.0
 40
0.0
 40
0.0
 40
0.0
 40
1.0
 40
1.0
 40
1.0
 40
1.0
 10
102.0594707856239
 20
178.9342434312206
 30
0.0
 10
103.817159661736
 20
173.058456950129
 30
0.0
 10
110.128234244546
 20
168.528842417961
 30
0.0
 10
116.2574076657357
 20
168.7436442631699
 30
0.0
  0
ENDBLK
  5
8C
330
89
100
AcDbEntity
  8
0
100
AcDbBlockEnd
  0
BLOCK
  5
90
330
8E
100
AcDbEntity
  8
0
100
AcDbBlockBegin
  2
block 15
 70
     0
 71
     0
 10
0.0
 20
0.0
 30
0.0
  3
block 15
  1

  0
SPLINE
  5
92
330
8E
100
AcDbEntity
  8
0
 62
     7
420
 16777215
370
     9
100
AcDbSpline
210
0.0
220
0.0
230
1.0
 70
     8
 71
     3
 72
    14
 73
    10
 74
     0
 42
0.0000000001
 43
0.0000000001
 40
0.0
 40
0.0
 40
0.0
 40
0.0
 40
1.0
 40
1.0
 40
1.0
 40
2.0
 40
2.0
 40
2.0
 40
3.0
 40
3.0
 40
3.0
 40
3.0
 10
116.2574076657357
 20
168.7436442631699
 30
0.0
 10
124.5339105194628
 20
168.7436442631699
 30
0.0
 10
131.243582912869
 20
175.4531444016881
 30
0.0
 10
131.243582912869
 20
183.7298195103032
 30
0.0
 10
131.243582912869
 20
192.0063223640304
 30
0.0
 10
124.5339105194628
 20
198.7158225025487
 30
0.0
 10
116.2574076657357
 20
198.7158225025487
 30
0.0
 10
110.128234244546
 20
198.9306243477576
 30
0.0
 10
103.817159661736
 20
194.4008375607017
 30
0.0
 10
102.0594707856239
 20
188.525223334498
 30
0.0
  0
ENDBLK
  5
91
330
8E
100
AcDbEntity
  8
0
100
AcDbBlockEnd
  0
BLOCK
  5
95
330
93
100
AcDbEntity
  8
0
100
AcDbBlockBegin
  2
block 16
 70
     0
 71
     0
 10
0.0
 20
0.0
 30
0.0
  3
block 16
  1

  0
SPLINE
  5
97
330
93
100
AcDbEntity
  8
0
 62
     7
420
 16777215
370
     9
100
AcDbSpline
210
0.0
220
0.0
230
1.0
 70
    11
 71
     3
 72
   242
 73
   238
 74
     0
 42
0.0000000001
 43
0.0000000001
 40
0.0
 40
0.0
 40
0.0
 40
0.0
 40
1.0
 40
1.0
 40
1.0
 40
2.0
 40
2.0
 40
2.0
 40
3.0
 40
3.0
 40
3.0
 40
4.0
 40
4.0
 40
4.0
 40
5.0
 40
5.0
 40
5.0
 40
6.0
 40
6.0
 40
6.0
 40
7.0
 40
7.0
 40
7.0
 40
8.0
 40
8.0
 40
8.0
 40
9.0
 40
9.0
 40
9.0
 40
10.0
 40
10.0
 40
10.0
 40
11.0
 40
11.0
 40
11.0
 40
12.0
 40
12.0
 40
12.0
 40
13.0
 40
13.0
 40
13.0
 40
14.0
 40
14.0
 40
14.0
 40
15.0
 40
15.0
 40
15.0
 40
16.0
 40
16.0
 40
16.0
 40
17.0
 40
17.0
 40
17.0
 40
18.0
 40
18.0
 40
18.0
 40
19.0
 40
19.0
 40
19.0
 40
20.0
 40
20.0
 40
20.0
 40
21.0
 40
21.0
 40
21.0
 40
22.0
 40
22.0
 40
22.0
 40
23.0
 40
23.0
 40
23.0
 40
24.0
 40
24.0
 40
24.0
 40
25.0
 40
25.0
 40
25.0
 40
26.0
 40
26.0
 40
26.0
 40
27.0
 40
27.0
 40
27.0
 40
28.0
 40
28.0
 40
28.0
 40
29.0
 40
29.0
 40
29.0
 40
30.0
 40
30.0
 40
30.0
 40
31.0
 40
31.0
 40
31.0
 40
32.0
 40
32.0
 40
32.0
 40
33.0
 40
33.0
 40
33.0
 40
34.0
 40
34.0
 40
34.0
 40
35.0
 40
35.0
 40
35.0
 40
36.0
 40
36.0
 40
36.0
 40
37.0
 40
37.0
 40
37.0
 40
38.0
 40
38.0
 40
38.0
 40
39.0
 40
39.0
 40
39.0
 40
40.0
 40
40.0
 40
40.0
 40
41.0
 40
41.0
 40
41.0
 40
42.0
 40
42.0
 40
42.0
 40
43.0
 40
43.0
 40
43.0
 40
44.0
 40
44.0
 40
44.0
 40
45.0
 40
45.0
 40
45.0
 40
46.0
 40
46.0
 40
46.0
 40
47.0
 40
47.0
 40
47.0
 40
48.0
 40
48.0
 40
48.0
 40
49.0
 40
49.0
 40
49.0
 40
50.0
 40
50.0
 40
50.0
 40
51.0
 40
51.0
 40
51.0
 40
52.0
 40
52.0
 40
52.0
 40
53.0
 40
53.0
 40
53.0
 40
54.0
 40
54.0
 40
54.0
 40
55.0
 40
55.0
 40
55.0
 40
56.0
 40
56.0
 40
56.0
 40
57.0
 40
57.0
 40
57.0
 40
58.0
 40
58.0
 40
58.0
 40
59.0
 40
59.0
 40
59.0
 40
60.0
 40
60.0
 40
60.0
 40
61.0
 40
61.0
 40
61.0
 40
62.0
 40
62.0
 40
62.0
 40
63.0
 40
63.0
 40
63.0
 40
64.0
 40
64.0
 40
64.0
 40
65.0
 40
65.0
 40
65.0
 40
66.0
 40
66.0
 40
66.0
 40
67.0
 40
67.0
 40
67.0
 40
68.0
 40
68.0
 40
68.0
 40
69.0
 40
69.0
 40
69.0
 40
70.0
 40
70.0
 40
70.0
 40
71.0
 40
71.0
 40
71.0
 40
72.0
 40
72.0
 40
72.0
 40
73.0
 40
73.0
 40
73.0
 40
74.0
 40
74.0
 40
74.0
 40
75.0
 40
75.0
 40
75.0
 40
76.0
 40
76.0
 40
76.0
 40
77.0
 40
77.0
 40
77.0
 40
78.0
 40
78.0
 40
78.0
 40
79.0
 40
79.0
 40
79.0
 40
79.0
 10
116.2574076657357
 20
168.772238574561
 30
0.0
 10
116.1995300234019
 20
168.7725830843368
 30
0.0
 10
116.1413078712923
 20
168.7727553392247
 30
0.0
 10
116.0837747387344
 20
168.7732721038883
 30
0.0
 10
116.0837747387344
 20
168.7732721038883
 30
0.0
 10
116.0837747387344
 20
168.7732721038883
 30
0.0
 10
116.0837747387344
 20
168.7732721038883
 30
0.0
 10
116.0248635670732
 20
168.773788868552
 30
0.0
 10
115.9669859247395
 20
168.7748223978794
 30
0.0
 10
115.9101418117331
 20
168.7758559272068
 30
0.0
 10
115.9101418117331
 20
168.7758559272068
 30
0.0
 10
115.9101418117331
 20
168.7758559272068
 30
0.0
 10
115.9101418117331
 20
168.7758559272068
 30
0.0
 10
115.8519196596236
 20
168.7770617114221
 30
0.0
 10
115.7950755466172
 20
168.7784397505253
 30
0.0
 10
115.7406430020414
 20
168.7801622994043
 30
0.0
 10
115.7406430020414
 20
168.7801622994043
 30
0.0
 10
115.7406430020414
 20
168.7801622994043
 30
0.0
 10
115.7406430020414
 20
168.7801622994043
 30
0.0
 10
115.6844879085866
 20
168.7817125933954
 30
0.0
 10
115.6310888933382
 20
168.7837796520501
 30
0.0
 10
115.580790466072
 20
168.785674455817
 30
0.0
 10
115.580790466072
 20
168.785674455817
 30
0.0
 10
115.580790466072
 20
168.785674455817
 30
0.0
 10
115.580790466072
 20
168.785674455817
 30
0.0
 10
115.5301475290299
 20
168.7875692595839
 30
0.0
 10
115.4832941995217
 20
168.7896363182386
 30
0.0
 10
115.4398859677713
 20
168.7915311220056
 30
0.0
 10
115.4398859677713
 20
168.7915311220056
 30
0.0
 10
115.4398859677713
 20
168.7915311220056
 30
0.0
 10
115.4398859677713
 20
168.7915311220056
 30
0.0
 10
115.3950996969178
 20
168.7935981806603
 30
0.0
 10
115.3544475433739
 20
168.7954929844272
 30
0.0
 10
115.3179295071395
 20
168.797560043082
 30
0.0
 10
115.3179295071395
 20
168.797560043082
 30
0.0
 10
115.3179295071395
 20
168.797560043082
 30
0.0
 10
115.3179295071395
 20
168.797560043082
 30
0.0
 10
115.2814114709051
 20
168.7992825919609
 30
0.0
 10
115.2486830422045
 20
168.8010051408399
 30
0.0
 10
115.2211222601408
 20
168.8023831799431
 30
0.0
 10
115.2211222601408
 20
168.8023831799431
 30
0.0
 10
115.2211222601408
 20
168.8023831799431
 30
0.0
 10
115.2211222601408
 20
168.8023831799431
 30
0.0
 10
115.1932169683013
 20
168.8037612190463
 30
0.0
 10
115.1697903035471
 20
168.8049670032616
 30
0.0
 10
115.1518757952057
 20
168.8058282777011
 30
0.0
 10
115.1518757952057
 20
168.8058282777011
 30
0.0
 10
115.1518757952057
 20
168.8058282777011
 30
0.0
 10
115.1518757952057
 20
168.8058282777011
 30
0.0
 10
115.1370618748465
 20
168.8063450423648
 30
0.0
 10
115.126037562021
 20
168.8066895521406
 30
0.0
 10
115.1184583469535
 20
168.8068618070285
 30
0.0
 10
115.1184583469535
 20
168.8068618070285
 30
0.0
 10
115.1184583469535
 20
168.8068618070285
 30
0.0
 10
115.1184583469535
 20
168.8068618070285
 30
0.0
 10
115.110879131886
 20
168.8068618070285
 30
0.0
 10
115.1067450145764
 20
168.8066895521406
 30
0.0
 10
115.1064005048006
 20
168.8063450423648
 30
0.0
 10
115.1064005048006
 20
168.8063450423648
 30
0.0
 10
115.1064005048006
 20
168.8063450423648
 30
0.0
 10
115.1064005048006
 20
168.8063450423648
 30
0.0
 10
115.1057114852491
 20
168.8058282777011
 30
0.0
 10
115.109156583007
 20
168.8051392581495
 30
0.0
 10
115.1163912882987
 20
168.8041057288221
 30
0.0
 10
115.1163912882987
 20
168.8041057288221
 30
0.0
 10
115.1163912882987
 20
168.8041057288221
 30
0.0
 10
115.1163912882987
 20
168.8041057288221
 30
0.0
 10
115.1236259935905
 20
168.8030721994947
 30
0.0
 10
115.1349948161917
 20
168.8016941603915
 30
0.0
 10
115.1501532463268
 20
168.7999716115125
 30
0.0
 10
115.1501532463268
 20
168.7999716115125
 30
0.0
 10
115.1501532463268
 20
168.7999716115125
 30
0.0
 10
115.1501532463268
 20
168.7999716115125
 30
0.0
 10
115.168412264444
 20
168.7980768077457
 30
0.0
 10
115.1921834389739
 20
168.795837494203
 30
0.0
 10
115.220777750365
 20
168.7932536708845
 30
0.0
 10
115.220777750365
 20
168.7932536708845
 30
0.0
 10
115.220777750365
 20
168.7932536708845
 30
0.0
 10
115.220777750365
 20
168.7932536708845
 30
0.0
 10
115.2504055910834
 20
168.7906698475661
 30
0.0
 10
115.2858900979904
 20
168.7877415144718
 30
0.0
 10
115.3261977417586
 20
168.7848131813775
 30
0.0
 10
115.3261977417586
 20
168.7848131813775
 30
0.0
 10
115.3261977417586
 20
168.7848131813775
 30
0.0
 10
115.3261977417586
 20
168.7848131813775
 30
0.0
 10
115.3647828366478
 20
168.7818848482833
 30
0.0
 10
115.4081910683981
 20
168.778956515189
 30
0.0
 10
115.4553889076822
 20
168.7758559272068
 30
0.0
 10
115.4553889076822
 20
168.7758559272068
 30
0.0
 10
115.4553889076822
 20
168.7758559272068
 30
0.0
 10
115.4553889076822
 20
168.7758559272068
 30
0.0
 10
115.5043092958452
 20
168.7727553392247
 30
0.0
 10
115.5573638013178
 20
168.7698270061304
 30
0.0
 10
115.6145524241
 20
168.767070927924
 30
0.0
 10
115.6145524241
 20
168.767070927924
 30
0.0
 10
115.6145524241
 20
168.767070927924
 30
0.0
 10
115.6145524241
 20
168.767070927924
 30
0.0
 10
115.6679514393484
 20
168.7644871046055
 30
0.0
 10
115.724451042579
 20
168.7619032812871
 30
0.0
 10
115.7833622142401
 20
168.7598362226323
 30
0.0
 10
115.7833622142401
 20
168.7598362226323
 30
0.0
 10
115.7833622142401
 20
168.7598362226323
 30
0.0
 10
115.7833622142401
 20
168.7598362226323
 30
0.0
 10
115.844340444556
 20
168.7575969090896
 30
0.0
 10
115.9077302433025
 20
168.7558743602106
 30
0.0
 10
115.9724980811522
 20
168.7544963211074
 30
0.0
 10
115.9724980811522
 20
168.7544963211074
 30
0.0
 10
115.9724980811522
 20
168.7544963211074
 30
0.0
 10
115.9724980811522
 20
168.7544963211074
 30
0.0
 10
116.0186623911089
 20
168.7534627917801
 30
0.0
 10
116.0655157206172
 20
168.7527737722285
 30
0.0
 10
116.1127135599013
 20
168.7522570075648
 30
0.0
 10
116.1127135599013
 20
168.7522570075648
 30
0.0
 10
116.1127135599013
 20
168.7522570075648
 30
0.0
 10
116.1127135599013
 20
168.7522570075648
 30
0.0
 10
116.1606004187369
 20
168.7517402429011
 30
0.0
 10
116.2091762971242
 20
168.7513957331253
 30
0.0
 10
116.2574076657357
 20
168.7513957331253
 30
0.0
 10
116.2574076657357
 20
168.7513957331253
 30
0.0
 10
116.2574076657357
 20
168.7513957331253
 30
0.0
 10
116.2574076657357
 20
168.7513957331253
 30
0.0
 10
116.3166633471726
 20
168.7513957331253
 30
0.0
 10
116.3759190286095
 20
168.751912497789
 30
0.0
 10
116.4341411807191
 20
168.7526015173406
 30
0.0
 10
116.4341411807191
 20
168.7526015173406
 30
0.0
 10
116.4341411807191
 20
168.7526015173406
 30
0.0
 10
116.4341411807191
 20
168.7526015173406
 30
0.0
 10
116.4940858817076
 20
168.7534627917801
 30
0.0
 10
116.5533415631446
 20
168.7546685759953
 30
0.0
 10
116.6105301859267
 20
168.7562188699864
 30
0.0
 10
116.6105301859267
 20
168.7562188699864
 30
0.0
 10
116.6105301859267
 20
168.7562188699864
 30
0.0
 10
116.6105301859267
 20
168.7562188699864
 30
0.0
 10
116.6690968478121
 20
168.7575969090896
 30
0.0
 10
116.7255964510426
 20
168.7596639677444
 30
0.0
 10
116.7796844858426
 20
168.7617310263992
 30
0.0
 10
116.7796844858426
 20
168.7617310263992
 30
0.0
 10
116.7796844858426
 20
168.7617310263992
 30
0.0
 10
116.7796844858426
 20
168.7617310263992
 30
0.0
 10
116.8354950695216
 20
168.7637980850539
 30
0.0
 10
116.8885495749942
 20
168.7663819083724
 30
0.0
 10
116.9388480022605
 20
168.7689657316909
 30
0.0
 10
116.9388480022605
 20
168.7689657316909
 30
0.0
 10
116.9388480022605
 20
168.7689657316909
 30
0.0
 10
116.9388480022605
 20
168.7689657316909
 30
0.0
 10
116.9888019197509
 20
168.7715495550094
 30
0.0
 10
117.0356552492592
 20
168.7743056332157
 30
0.0
 10
117.0787189712337
 20
168.7770617114221
 30
0.0
 10
117.0787189712337
 20
168.7770617114221
 30
0.0
 10
117.0787189712337
 20
168.7770617114221
 30
0.0
 10
117.0787189712337
 20
168.7770617114221
 30
0.0
 10
117.1231607323114
 20
168.7799900445164
 30
0.0
 10
117.1638128858554
 20
168.7829183776106
 30
0.0
 10
117.199986412314
 20
168.785674455817
 30
0.0
 10
117.199986412314
 20
168.785674455817
 30
0.0
 10
117.199986412314
 20
168.785674455817
 30
0.0
 10
117.199986412314
 20
168.785674455817
 30
0.0
 10
117.2365044485484
 20
168.7884305340234
 30
0.0
 10
117.2685438576974
 20
168.7910143573419
 30
0.0
 10
117.2961046397611
 20
168.7934259257724
 30
0.0
 10
117.2961046397611
 20
168.7934259257724
 30
0.0
 10
117.2961046397611
 20
168.7934259257724
 30
0.0
 10
117.2961046397611
 20
168.7934259257724
 30
0.0
 10
117.3240099316006
 20
168.7960097490909
 30
0.0
 10
117.3470920865789
 20
168.7982490626336
 30
0.0
 10
117.3646620851445
 20
168.7999716115125
 30
0.0
 10
117.3646620851445
 20
168.7999716115125
 30
0.0
 10
117.3646620851445
 20
168.7999716115125
 30
0.0
 10
117.3646620851445
 20
168.7999716115125
 30
0.0
 10
117.3794760055038
 20
168.8016941603915
 30
0.0
 10
117.390844828105
 20
168.8030721994947
 30
0.0
 10
117.3984240431726
 20
168.8039334739342
 30
0.0
 10
117.3984240431726
 20
168.8039334739342
 30
0.0
 10
117.3984240431726
 20
168.8039334739342
 30
0.0
 10
117.3984240431726
 20
168.8039334739342
 30
0.0
 10
117.4056587484643
 20
168.8051392581495
 30
0.0
 10
117.409448355998
 20
168.8058282777011
 30
0.0
 10
117.4087593364465
 20
168.8063450423648
 30
0.0
 10
117.4087593364465
 20
168.8063450423648
 30
0.0
 10
117.4087593364465
 20
168.8063450423648
 30
0.0
 10
117.4087593364465
 20
168.8063450423648
 30
0.0
 10
117.4080703168949
 20
168.8066895521406
 30
0.0
 10
117.4039361995853
 20
168.8068618070285
 30
0.0
 10
117.3956679649662
 20
168.8068618070285
 30
0.0
 10
117.3956679649662
 20
168.8068618070285
 30
0.0
 10
117.3956679649662
 20
168.8068618070285
 30
0.0
 10
117.3956679649662
 20
168.8068618070285
 30
0.0
 10
117.3873997303471
 20
168.8066895521406
 30
0.0
 10
117.3753418881942
 20
168.8061727874769
 30
0.0
 10
117.3591499287318
 20
168.8054837679253
 30
0.0
 10
117.3591499287318
 20
168.8054837679253
 30
0.0
 10
117.3591499287318
 20
168.8054837679253
 30
0.0
 10
117.3591499287318
 20
168.8054837679253
 30
0.0
 10
117.3398573812872
 20
168.8046224934858
 30
0.0
 10
117.3153971872057
 20
168.8034167092705
 30
0.0
 10
117.2854248367114
 20
168.8018664152794
 30
0.0
 10
117.2854248367114
 20
168.8018664152794
 30
0.0
 10
117.2854248367114
 20
168.8018664152794
 30
0.0
 10
117.2854248367114
 20
168.8018664152794
 30
0.0
 10
117.2547634666656
 20
168.8003161212883
 30
0.0
 10
117.218589940207
 20
168.7984213175215
 30
0.0
 10
117.1772487671114
 20
168.7963542588667
 30
0.0
 10
117.1772487671114
 20
168.7963542588667
 30
0.0
 10
117.1772487671114
 20
168.7963542588667
 30
0.0
 10
117.1772487671114
 20
168.7963542588667
 30
0.0
 10
117.1379746526706
 20
168.7944594550998
 30
0.0
 10
117.0938774013687
 20
168.792392396445
 30
0.0
 10
117.0456460327573
 20
168.7903253377903
 30
0.0
 10
117.0456460327573
 20
168.7903253377903
 30
0.0
 10
117.0456460327573
 20
168.7903253377903
 30
0.0
 10
117.0456460327573
 20
168.7903253377903
 30
0.0
 10
116.9960366250426
 20
168.7880860242476
 30
0.0
 10
116.9422931000184
 20
168.7858467107049
 30
0.0
 10
116.8847599674605
 20
168.7837796520501
 30
0.0
 10
116.8847599674605
 20
168.7837796520501
 30
0.0
 10
116.8847599674605
 20
168.7837796520501
 30
0.0
 10
116.8847599674605
 20
168.7837796520501
 30
0.0
 10
116.8310164424363
 20
168.7817125933954
 30
0.0
 10
116.7741723294299
 20
168.7799900445164
 30
0.0
 10
116.714916647993
 20
168.7784397505253
 30
0.0
 10
116.714916647993
 20
168.7784397505253
 30
0.0
 10
116.714916647993
 20
168.7784397505253
 30
0.0
 10
116.714916647993
 20
168.7784397505253
 30
0.0
 10
116.653938417677
 20
168.7768894565342
 30
0.0
 10
116.5902041091548
 20
168.775511417431
 30
0.0
 10
116.5250917615293
 20
168.7744778881036
 30
0.0
 10
116.5250917615293
 20
168.7744778881036
 30
0.0
 10
116.5250917615293
 20
168.7744778881036
 30
0.0
 10
116.5250917615293
 20
168.7744778881036
 30
0.0
 10
116.4820280395547
 20
168.773788868552
 30
0.0
 10
116.4379307882528
 20
168.7732721038883
 30
0.0
 10
116.3934890271751
 20
168.7727553392247
 30
0.0
 10
116.3934890271751
 20
168.7727553392247
 30
0.0
 10
116.3934890271751
 20
168.7727553392247
 30
0.0
 10
116.3934890271751
 20
168.7727553392247
 30
0.0
 10
116.3483582465458
 20
168.7725830843368
 30
0.0
 10
116.3028829561407
 20
168.7724108294489
 30
0.0
 10
116.2574076657357
 20
168.772238574561
 30
0.0
  0
ENDBLK
  5
96
330
93
100
AcDbEntity
  8
0
100
AcDbBlockEnd
  0
BLOCK
  5
9A
330
98
100
AcDbEntity
  8
0
100
AcDbBlockBegin
  2
block 17
 70
     0
 71
     0
 10
0.0
 20
0.0
 30
0.0
  3
block 17
  1

  0
SPLINE
  5
9C
330
98
100
AcDbEntity
  8
0
 62
     7
420
 16777215
370
     9
100
AcDbSpline
210
0.0
220
0.0
230
1.0
 70
    24
 71
     3
 72
   116
 73
   112
 74
     0
 42
0.0000000001
 43
0.0000000001
 40
0.0
 40
0.0
 40
0.0
 40
0.0
 40
1.0
 40
1.0
 40
1.0
 40
2.0
 40
2.0
 40
2.0
 40
3.0
 40
3.0
 40
3.0
 40
4.0
 40
4.0
 40
4.0
 40
5.0
 40
5.0
 40
5.0
 40
6.0
 40
6.0
 40
6.0
 40
7.0
 40
7.0
 40
7.0
 40
8.0
 40
8.0
 40
8.0
 40
9.0
 40
9.0
 40
9.0
 40
10.0
 40
10.0
 40
10.0
 40
11.0
 40
11.0
 40
11.0
 40
12.0
 40
12.0
 40
12.0
 40
13.0
 40
13.0
 40
13.0
 40
14.0
 40
14.0
 40
14.0
 40
15.0
 40
15.0
 40
15.0
 40
16.0
 40
16.0
 40
16.0
 40
17.0
 40
17.0
 40
17.0
 40
18.0
 40
18.0
 40
18.0
 40
19.0
 40
19.0
 40
19.0
 40
20.0
 40
20.0
 40
20.0
 40
21.0
 40
21.0
 40
21.0
 40
22.0
 40
22.0
 40
22.0
 40
23.0
 40
23.0
 40
23.0
 40
24.0
 40
24.0
 40
24.0
 40
25.0
 40
25.0
 40
25.0
 40
26.0
 40
26.0
 40
26.0
 40
27.0
 40
27.0
 40
27.0
 40
28.0
 40
28.0
 40
28.0
 40
29.0
 40
29.0
 40
29.0
 40
30.0
 40
30.0
 40
30.0
 40
31.0
 40
31.0
 40
31.0
 40
32.0
 40
32.0
 40
32.0
 40
33.0
 40
33.0
 40
33.0
 40
34.0
 40
34.0
 40
34.0
 40
35.0
 40
35.0
 40
35.0
 40
36.0
 40
36.0
 40
36.0
 40
37.0
 40
37.0
 40
37.0
 40
37.0
 10
32.33551530134051
 20
178.8567287316664
 30
0.0
 10
32.33551530134051
 20
178.8887681408154
 30
0.0
 10
32.33551530134051
 20
178.9206352950766
 30
0.0
 10
32.33551530134051
 20
178.9530192140014
 30
0.0
 10
32.33551530134051
 20
178.9530192140014
 30
0.0
 10
32.33551530134051
 20
178.9530192140014
 30
0.0
 10
32.33551530134051
 20
178.9530192140014
 30
0.0
 10
32.33551530134051
 20
179.2322443872842
 30
0.0
 10
32.33551530134051
 20
179.5393748524065
 30
0.0
 10
32.33551530134051
 20
179.8509839446141
 30
0.0
 10
32.33551530134051
 20
179.8509839446141
 30
0.0
 10
32.33551530134051
 20
179.8509839446141
 30
0.0
 10
32.33551530134051
 20
179.8509839446141
 30
0.0
 10
32.33551530134051
 20
180.1698277421135
 30
0.0
 10
32.33551530134051
 20
180.4940114411377
 30
0.0
 10
32.33551530134051
 20
180.826463374781
 30
0.0
 10
32.33551530134051
 20
180.826463374781
 30
0.0
 10
32.33551530134051
 20
180.826463374781
 30
0.0
 10
32.33551530134051
 20
180.826463374781
 30
0.0
 10
32.33551530134051
 20
181.1639107001733
 30
0.0
 10
32.33551530134051
 20
181.5101430248485
 30
0.0
 10
32.33551530134051
 20
181.860853976609
 30
0.0
 10
32.33551530134051
 20
181.860853976609
 30
0.0
 10
32.33551530134051
 20
181.860853976609
 30
0.0
 10
32.33551530134051
 20
181.860853976609
 30
0.0
 10
32.33551530134051
 20
182.2143210065759
 30
0.0
 10
32.33551530134051
 20
182.5722666636281
 30
0.0
 10
32.33551530134051
 20
182.9322793793351
 30
0.0
 10
32.33551530134051
 20
182.9322793793351
 30
0.0
 10
32.33551530134051
 20
182.9322793793351
 30
0.0
 10
32.33551530134051
 20
182.9322793793351
 30
0.0
 10
32.33551530134051
 20
183.29246434993
 30
0.0
 10
32.33551530134051
 20
183.6548886340676
 30
0.0
 10
32.33551530134051
 20
184.0162793888777
 30
0.0
 10
32.33551530134051
 20
184.0162793888777
 30
0.0
 10
32.33551530134051
 20
184.0162793888777
 30
0.0
 10
32.33551530134051
 20
184.0162793888777
 30
0.0
 10
32.33551530134051
 20
184.3749140654815
 30
0.0
 10
32.33551530134051
 20
184.7330319774217
 30
0.0
 10
32.33551530134051
 20
185.087360281828
 30
0.0
 10
32.33551530134051
 20
185.087360281828
 30
0.0
 10
32.33551530134051
 20
185.087360281828
 30
0.0
 10
32.33551530134051
 20
185.087360281828
 30
0.0
 10
32.33551530134051
 20
185.4365209395974
 30
0.0
 10
32.33551530134051
 20
185.7822364996089
 30
0.0
 10
32.33551530134051
 20
186.1220953934318
 30
0.0
 10
32.33551530134051
 20
186.1220953934318
 30
0.0
 10
32.33551530134051
 20
186.1220953934318
 30
0.0
 10
32.33551530134051
 20
186.1220953934318
 30
0.0
 10
32.33551530134051
 20
186.4542028172993
 30
0.0
 10
32.33551530134051
 20
186.7807980847541
 30
0.0
 10
32.33551530134051
 20
187.0992973724777
 30
0.0
 10
32.33551530134051
 20
187.0992973724777
 30
0.0
 10
32.33551530134051
 20
187.0992973724777
 30
0.0
 10
32.33551530134051
 20
187.0992973724777
 30
0.0
 10
32.33551530134051
 20
187.4086671511426
 30
0.0
 10
32.33551530134051
 20
187.7102854598521
 30
0.0
 10
32.33551530134051
 20
188.0026020046152
 30
0.0
 10
32.33551530134051
 20
188.0026020046152
 30
0.0
 10
32.33551530134051
 20
188.0026020046152
 30
0.0
 10
32.33551530134051
 20
188.0026020046152
 30
0.0
 10
32.33551530134051
 20
188.2844110012165
 30
0.0
 10
32.33551530134051
 20
188.5576072534228
 30
0.0
 10
32.33551530134051
 20
188.8201237025795
 30
0.0
 10
32.33551530134051
 20
188.8201237025795
 30
0.0
 10
32.33551530134051
 20
188.8201237025795
 30
0.0
 10
32.33551530134051
 20
188.8201237025795
 30
0.0
 10
32.33551530134051
 20
189.0719603486865
 30
0.0
 10
32.33551530134051
 20
189.3143229759591
 30
0.0
 10
32.33551530134051
 20
189.5453167806305
 30
0.0
 10
32.33551530134051
 20
189.5453167806305
 30
0.0
 10
32.33551530134051
 20
189.5453167806305
 30
0.0
 10
32.33551530134051
 20
189.5453167806305
 30
0.0
 10
32.33551530134051
 20
189.76580303714
 30
0.0
 10
32.33551530134051
 20
189.9762985101515
 30
0.0
 10
32.33551530134051
 20
190.1755974154495
 30
0.0
 10
32.33551530134051
 20
190.1755974154495
 30
0.0
 10
32.33551530134051
 20
190.1755974154495
 30
0.0
 10
32.33551530134051
 20
190.1755974154495
 30
0.0
 10
32.33551530134051
 20
190.421577395368
 30
0.0
 10
32.33551530134051
 20
190.6505041413845
 30
0.0
 10
32.33551530134051
 20
190.8601383399565
 30
0.0
 10
32.33551530134051
 20
190.8601383399565
 30
0.0
 10
32.33551530134051
 20
190.8601383399565
 30
0.0
 10
32.33551530134051
 20
190.8601383399565
 30
0.0
 10
32.33551530134051
 20
191.0589204805909
 30
0.0
 10
32.33551530134051
 20
191.2404771324355
 30
0.0
 10
32.33551530134051
 20
191.4037747661629
 30
0.0
 10
32.33551530134051
 20
191.4037747661629
 30
0.0
 10
32.33551530134051
 20
191.4037747661629
 30
0.0
 10
32.33551530134051
 20
191.4037747661629
 30
0.0
 10
32.33551530134051
 20
191.5577706359438
 30
0.0
 10
32.33551530134051
 20
191.6954022913743
 30
0.0
 10
32.33551530134051
 20
191.8156362031272
 30
0.0
 10
32.33551530134051
 20
191.8156362031272
 30
0.0
 10
32.33551530134051
 20
191.8156362031272
 30
0.0
 10
32.33551530134051
 20
191.8156362031272
 30
0.0
 10
32.33551530134051
 20
191.9220897238482
 30
0.0
 10
32.33551530134051
 20
192.0149351084253
 30
0.0
 10
32.33551530134051
 20
192.0946891215221
 30
0.0
 10
32.33551530134051
 20
192.0946891215221
 30
0.0
 10
32.33551530134051
 20
192.0946891215221
 30
0.0
 10
32.33551530134051
 20
192.0946891215221
 30
0.0
 10
32.33551530134051
 20
192.1696199977578
 30
0.0
 10
32.33551530134051
 20
192.2330097965043
 30
0.0
 10
32.33551530134051
 20
192.2802076357883
 30
0.0
 10
32.33551530134051
 20
192.2802076357883
 30
0.0
 10
32.33551530134051
 20
192.2802076357883
 30
0.0
 10
32.33551530134051
 20
192.2802076357883
 30
0.0
 10
32.33551530134051
 20
192.324649396866
 30
0.0
 10
32.33551530134051
 20
192.3547940022482
 30
0.0
 10
32.33551530134051
 20
192.3849386076304
 30
0.0
  0
ENDBLK
  5
9B
330
98
100
AcDbEntity
  8
0
100
AcDbBlockEnd
  0
BLOCK
  5
9F
330
9D
100
AcDbEntity
  8
0
100
AcDbBlockBegin
  2
block 18
 70
     0
 71
     0
 10
0.0
 20
0.0
 30
0.0
  3
block 18
  1

  0
POLYLINE
  5
A1
330
9D
100
AcDbEntity
  8
0
 62
     7
420
 16777215
370
     9
100
AcDb2dPolyline
 66
     1
 10
0.0
 20
0.0
 30
0.0
  0
VERTEX
  5
A2
330
A1
100
AcDbEntity
  8
0
 62
     7
420
 16777215
370
     9
100
AcDbVertex
100
AcDb2dVertex
 10
107.2657025174556
 20
178.9342434312206
 30
0.0
  0
VERTEX
  5
A3
330
A1
100
AcDbEntity
  8
0
 62
     7
420
 16777215
370
     9
100
AcDbVertex
100
AcDb2dVertex
 10
107.2657025174556
 20
188.525223334498
 30
0.0
  0
SEQEND
  5
A4
330
A1
100
AcDbEntity
  8
0
370
     9
  0
ENDBLK
  5
A0
330
9D
100
AcDbEntity
  8
0
100
AcDbBlockEnd
  0
BLOCK
  5
A7
330
A5
100
AcDbEntity
  8
0
100
AcDbBlockBegin
  2
block 19
 70
     0
 71
     0
 10
0.0
 20
0.0
 30
0.0
  3
block 19
  1

  0
POLYLINE
  5
A9
330
A5
100
AcDbEntity
  8
0
 62
     7
420
 16777215
370
     9
100
AcDb2dPolyline
 66
     1
 10
0.0
 20
0.0
 30
0.0
  0
VERTEX
  5
AA
330
A9
100
AcDbEntity
  8
0
 62
     7
420
 16777215
370
     9
100
AcDbVertex
100
AcDb2dVertex
 10
107.2657025174556
 20
178.9342434312206
 30
0.0
  0
VERTEX
  5
AB
330
A9
100
AcDbEntity
  8
0
 62
     7
420
 16777215
370
     9
100
AcDbVertex
100
AcDb2dVertex
 10
107.2657025174556
 20
188.525223334498
 30
0.0
  0
SEQEND
  5
AC
330
A9
100
AcDbEntity
  8
0
370
     9
  0
ENDBLK
  5
A8
330
A5
100
AcDbEntity
  8
0
100
AcDbBlockEnd
  0
BLOCK
  5
AF
330
AD
100
AcDbEntity
  8
0
100
AcDbBlockBegin
  2
block 20
 70
     0
 71
     0
 10
0.0
 20
0.0
 30
0.0
  3
block 20
  1

  0
SPLINE
  5
B1
330
AD
100
AcDbEntity
  8
0
 62
     7
420
 16777215
370
     9
100
AcDbSpline
210
0.0
220
0.0
230
1.0
 70
     8
 71
     3
 72
    14
 73
    10
 74
     0
 42
0.0000000001
 43
0.0000000001
 40
0.0
 40
0.0
 40
0.0
 40
0.0
 40
1.0
 40
1.0
 40
1.0
 40
2.0
 40
2.0
 40
2.0
 40
3.0
 40
3.0
 40
3.0
 40
3.0
 10
116.2574076657357
 20
178.9342434312206
 30
0.0
 10
118.9059988220566
 20
178.9342434312206
 30
0.0
 10
121.0529837448183
 20
181.0812283539823
 30
0.0
 10
121.0529837448183
 20
183.7298195103032
 30
0.0
 10
121.0529837448183
 20
186.3782384117363
 30
0.0
 10
118.9059988220566
 20
188.525223334498
 30
0.0
 10
116.2574076657357
 20
188.525223334498
 30
0.0
 10
116.2574076657357
 20
188.525223334498
 30
0.0
 10
116.2574076657357
 20
188.525223334498
 30
0.0
 10
116.2574076657357
 20
188.525223334498
 30
0.0
  0
ENDBLK
  5
B0
330
AD
100
AcDbEntity
  8
0
100
AcDbBlockEnd
  0
BLOCK
  5
B4
330
B2
100
AcDbEntity
  8
0
100
AcDbBlockBegin
  2
block 21
 70
     0
 71
     0
 10
0.0
 20
0.0
 30
0.0
  3
block 21
  1

  0
POLYLINE
  5
B6
330
B2
100
AcDbEntity
  8
0
 62
     7
420
 16777215
370
     9
100
AcDb2dPolyline
 66
     1
 10
0.0
 20
0.0
 30
0.0
  0
VERTEX
  5
B7
330
B6
100
AcDbEntity
  8
0
 62
     7
420
 16777215
370
     9
100
AcDbVertex
100
AcDb2dVertex
 10
116.2574076657357
 20
198.7158225025487
 30
0.0
  0
VERTEX
  5
B8
330
B6
100
AcDbEntity
  8
0
 62
     7
420
 16777215
370
     9
100
AcDbVertex
100
AcDb2dVertex
 10
116.2574076657357
 20
198.7158225025487
 30
0.0
  0
SEQEND
  5
B9
330
B6
100
AcDbEntity
  8
0
370
     9
  0
ENDBLK
  5
B5
330
B2
100
AcDbEntity
  8
0
100
AcDbBlockEnd
  0
BLOCK
  5
BC
330
BA
100
AcDbEntity
  8
0
100
AcDbBlockBegin
  2
block 22
 70
     0
 71
     0
 10
0.0
 20
0.0
 30
0.0
  3
block 22
  1

  0
POLYLINE
  5
BE
330
BA
100
AcDbEntity
  8
0
 62
     7
420
 16777215
370
     9
100
AcDb2dPolyline
 66
     1
 10
0.0
 20
0.0
 30
0.0
  0
VERTEX
  5
BF
330
BE
100
AcDbEntity
  8
0
 62
     7
420
 16777215
370
     9
100
AcDbVertex
100
AcDb2dVertex
 10
116.2574076657357
 20
168.7436442631699
 30
0.0
  0
VERTEX
  5
C0
330
BE
100
AcDbEntity
  8
0
 62
     7
420
 16777215
370
     9
100
AcDbVertex
100
AcDb2dVertex
 10
116.2574076657357
 20
168.7436442631699
 30
0.0
  0
SEQEND
  5
C1
330
BE
100
AcDbEntity
  8
0
370
     9
  0
ENDBLK
  5
BD
330
BA
100
AcDbEntity
  8
0
100
AcDbBlockEnd
  0
BLOCK
  5
C4
330
C2
100
AcDbEntity
  8
0
100
AcDbBlockBegin
  2
block 23
 70
     0
 71
     0
 10
0.0
 20
0.0
 30
0.0
  3
block 23
  1

  0
INSERT
  5
C7
330
C2
100
AcDbEntity
  8
0
100
AcDbBlockReference
  2
block 24
 10
0.0
 20
0.0
 30
0.0
  0
INSERT
  5
D3
330
C2
100
AcDbEntity
  8
0
100
AcDbBlockReference
  2
block 26
 10
0.0
 20
0.0
 30
0.0
  0
INSERT
  5
115
330
C2
100
AcDbEntity
  8
0
100
AcDbBlockReference
  2
block 32
 10
0.0
 20
0.0
 30
0.0
  0
INSERT
  5
11D
330
C2
100
AcDbEntity
  8
0
100
AcDbBlockReference
  2
block 33
 10
0.0
 20
0.0
 30
0.0
  0
INSERT
  5
125
330
C2
100
AcDbEntity
  8
0
100
AcDbBlockReference
  2
block 34
 10
0.0
 20
0.0
 30
0.0
  0
INSERT
  5
12D
330
C2
100
AcDbEntity
  8
0
100
AcDbBlockReference
  2
block 35
 10
0.0
 20
0.0
 30
0.0
  0
ENDBLK
  5
C5
330
C2
100
AcDbEntity
  8
0
100
AcDbBlockEnd
  0
BLOCK
  5
C8
330
C6
100
AcDbEntity
  8
0
100
AcDbBlockBegin
  2
block 24
 70
     0
 71
     0
 10
0.0
 20
0.0
 30
0.0
  3
block 24
  1

  0
INSERT
  5
CB
330
C6
100
AcDbEntity
  8
0
100
AcDbBlockReference
  2
block 25
 10
0.0
 20
0.0
 30
0.0
  0
ENDBLK
  5
C9
330
C6
100
AcDbEntity
  8
0
100
AcDbBlockEnd
  0
BLOCK
  5
CC
330
CA
100
AcDbEntity
  8
0
100
AcDbBlockBegin
  2
block 25
 70
     0
 71
     0
 10
0.0
 20
0.0
 30
0.0
  3
block 25
  1

  0
POLYLINE
  5
CE
330
CA
100
AcDbEntity
  8
0
 62
     7
420
 16777215
370
     9
100
AcDb2dPolyline
 66
     1
 10
0.0
 20
0.0
 30
0.0
  0
VERTEX
  5
CF
330
CE
100
AcDbEntity
  8
0
 62
     7
420
 16777215
370
     9
100
AcDbVertex
100
AcDb2dVertex
 10
23.94342941783373
 20
198.7158225025487
 30
0.0
  0
VERTEX
  5
D0
330
CE
100
AcDbEntity
  8
0
 62
     7
420
 16777215
370
     9
100
AcDbVertex
100
AcDb2dVertex
 10
23.94342941783373
 20
195.1191404432367
 30
0.0
  0
SEQEND
  5
D1
330
CE
100
AcDbEntity
  8
0
370
     9
  0
ENDBLK
  5
CD
330
CA
100
AcDbEntity
  8
0
100
AcDbBlockEnd
  0
BLOCK
  5
D4
330
D2
100
AcDbEntity
  8
0
100
AcDbBlockBegin
  2
block 26
 70
     0
 71
     0
 10
0.0
 20
0.0
 30
0.0
  3
block 26
  1

  0
INSERT
  5
D7
330
D2
100
AcDbEntity
  8
0
100
AcDbBlockReference
  2
block 27
 10
0.0
 20
0.0
 30
0.0
  0
INSERT
  5
10D
330
D2
100
AcDbEntity
  8
0
100
AcDbBlockReference
  2
block 31
 10
0.0
 20
0.0
 30
0.0
  0
ENDBLK
  5
D5
330
D2
100
AcDbEntity
  8
0
100
AcDbBlockEnd
  0
BLOCK
  5
D8
330
D6
100
AcDbEntity
  8
0
100
AcDbBlockBegin
  2
block 27
 70
     0
 71
     0
 10
0.0
 20
0.0
 30
0.0
  3
block 27
  1

  0
INSERT
  5
DB
330
D6
100
AcDbEntity
  8
0
100
AcDbBlockReference
  2
block 28
 10
0.0
 20
0.0
 30
0.0
  0
ENDBLK
  5
D9
330
D6
100
AcDbEntity
  8
0
100
AcDbBlockEnd
  0
BLOCK
  5
DC
330
DA
100
AcDbEntity
  8
0
100
AcDbBlockBegin
  2
block 28
 70
     0
 71
     0
 10
0.0
 20
0.0
 30
0.0
  3
block 28
  1

  0
INSERT
  5
DF
330
DA
100
AcDbEntity
  8
0
100
AcDbBlockReference
  2
block 29
 10
0.0
 20
0.0
 30
0.0
  0
INSERT
  5
F1
330
DA
100
AcDbEntity
  8
0
100
AcDbBlockReference
  2
block 30
 10
0.0
 20
0.0
 30
0.0
  0
ENDBLK
  5
DD
330
DA
100
AcDbEntity
  8
0
100
AcDbBlockEnd
  0
BLOCK
  5
E0
330
DE
100
AcDbEntity
  8
0
100
AcDbBlockBegin
  2
block 29
 70
     0
 71
     0
 10
0.0
 20
0.0
 30
0.0
  3
block 29
  1

  0
POLYLINE
  5
E2
330
DE
100
AcDbEntity
  8
0
370
     0
100
AcDb2dPolyline
 66
     1
 10
0.0
 20
0.0
 30
0.0
  0
VERTEX
  5
E3
330
E2
100
AcDbEntity
  8
0
370
     0
100
AcDbVertex
100
AcDb2dVertex
 10
24.54287642771907
 20
172.3410153420335
 30
0.0
  0
VERTEX
  5
E4
330
E2
100
AcDbEntity
  8
0
370
     0
100
AcDbVertex
100
AcDb2dVertex
 10
23.94308490805794
 20
168.7426107338425
 30
0.0
  0
VERTEX
  5
E5
330
E2
100
AcDbEntity
  8
0
370
     0
100
AcDbVertex
100
AcDb2dVertex
 10
23.34329338839681
 20
172.3410153420335
 30
0.0
  0
VERTEX
  5
E6
330
E2
100
AcDbEntity
  8
0
370
     0
100
AcDbVertex
100
AcDb2dVertex
 10
24.54287642771907
 20
172.3410153420335
 30
0.0
  0
SEQEND
  5
E7
330
E2
100
AcDbEntity
  8
0
370
     0
  0
HATCH
  5
E8
330
DE
100
AcDbEntity
  8
0
 62
     7
420
 16777215
100
AcDbHatch
 10
0.0
 20
0.0
 30
0.0
210
0.0
220
0.0
230
1.0
  2
SOLID
 70
     1
 71
     0
 91
        1
 92
        1
 93
        3
 72
     1
 10
24.54287642771907
 20
172.3410153420335
 11
23.94308490805794
 21
168.7426107338425
 72
     1
 10
23.94308490805794
 20
168.7426107338425
 11
23.34329338839681
 21
172.3410153420335
 72
     1
 10
23.34329338839681
 20
172.3410153420335
 11
24.54287642771907
 21
172.3410153420335
 97
        0
 75
     2
 76
     1
 98
        0
  0
POLYLINE
  5
E9
330
DE
100
AcDbEntity
  8
0
370
     0
100
AcDb2dPolyline
 66
     1
 10
0.0
 20
0.0
 30
0.0
  0
VERTEX
  5
EA
330
E9
100
AcDbEntity
  8
0
370
     0
100
AcDbVertex
100
AcDb2dVertex
 10
23.94308490805794
 20
198.7146167183334
 30
0.0
  0
VERTEX
  5
EB
330
E9
100
AcDbEntity
  8
0
370
     0
100
AcDbVertex
100
AcDb2dVertex
 10
24.54287642771907
 20
195.1198294627883
 30
0.0
  0
VERTEX
  5
EC
330
E9
100
AcDbEntity
  8
0
370
     0
100
AcDbVertex
100
AcDb2dVertex
 10
23.34329338839681
 20
195.1198294627883
 30
0.0
  0
VERTEX
  5
ED
330
E9
100
AcDbEntity
  8
0
370
     0
100
AcDbVertex
100
AcDb2dVertex
 10
23.94308490805794
 20
198.7146167183334
 30
0.0
  0
SEQEND
  5
EE
330
E9
100
AcDbEntity
  8
0
370
     0
  0
HATCH
  5
EF
330
DE
100
AcDbEntity
  8
0
 62
     7
420
 16777215
100
AcDbHatch
 10
0.0
 20
0.0
 30
0.0
210
0.0
220
0.0
230
1.0
  2
SOLID
 70
     1
 71
     0
 91
        1
 92
        1
 93
        3
 72
     1
 10
23.94308490805794
 20
198.7146167183334
 11
24.54287642771907
 21
195.1198294627883
 72
     1
 10
24.54287642771907
 20
195.1198294627883
 11
23.34329338839681
 21
195.1198294627883
 72
     1
 10
23.34329338839681
 20
195.1198294627883
 11
23.94308490805794
 21
198.7146167183334
 97
        0
 75
     2
 76
     1
 98
        0
  0
ENDBLK
  5
E1
330
DE
100
AcDbEntity
  8
0
100
AcDbBlockEnd
  0
BLOCK
  5
F2
330
F0
100
AcDbEntity
  8
0
100
AcDbBlockBegin
  2
block 30
 70
     0
 71
     0
 10
0.0
 20
0.0
 30
0.0
  3
block 30
  1

  0
POLYLINE
  5
F4
330
F0
100
AcDbEntity
  8
0
 62
     7
420
 16777215
370
     9
100
AcDb2dPolyline
 66
     1
 10
0.0
 20
0.0
 30
0.0
  0
VERTEX
  5
F5
330
F4
100
AcDbEntity
  8
0
 62
     7
420
 16777215
370
     9
100
AcDbVertex
100
AcDb2dVertex
 10
23.34329338839681
 20
195.1198294627883
 30
0.0
  0
VERTEX
  5
F6
330
F4
100
AcDbEntity
  8
0
 62
     7
420
 16777215
370
     9
100
AcDbVertex
100
AcDb2dVertex
 10
23.94308490805794
 20
198.7146167183334
 30
0.0
  0
SEQEND
  5
F7
330
F4
100
AcDbEntity
  8
0
370
     9
  0
POLYLINE
  5
F8
330
F0
100
AcDbEntity
  8
0
 62
     7
420
 16777215
370
     9
100
AcDb2dPolyline
 66
     1
 10
0.0
 20
0.0
 30
0.0
  0
VERTEX
  5
F9
330
F8
100
AcDbEntity
  8
0
 62
     7
420
 16777215
370
     9
100
AcDbVertex
100
AcDb2dVertex
 10
23.94308490805794
 20
198.7146167183334
 30
0.0
  0
VERTEX
  5
FA
330
F8
100
AcDbEntity
  8
0
 62
     7
420
 16777215
370
     9
100
AcDbVertex
100
AcDb2dVertex
 10
24.54287642771907
 20
195.1198294627883
 30
0.0
  0
SEQEND
  5
FB
330
F8
100
AcDbEntity
  8
0
370
     9
  0
POLYLINE
  5
FC
330
F0
100
AcDbEntity
  8
0
 62
     7
420
 16777215
370
     9
100
AcDb2dPolyline
 66
     1
 10
0.0
 20
0.0
 30
0.0
  0
VERTEX
  5
FD
330
FC
100
AcDbEntity
  8
0
 62
     7
420
 16777215
370
     9
100
AcDbVertex
100
AcDb2dVertex
 10
23.34329338839681
 20
195.1198294627883
 30
0.0
  0
VERTEX
  5
FE
330
FC
100
AcDbEntity
  8
0
 62
     7
420
 16777215
370
     9
100
AcDbVertex
100
AcDb2dVertex
 10
24.54287642771907
 20
195.1198294627883
 30
0.0
  0
SEQEND
  5
FF
330
FC
100
AcDbEntity
  8
0
370
     9
  0
POLYLINE
  5
100
330
F0
100
AcDbEntity
  8
0
 62
     7
420
 16777215
370
     9
100
AcDb2dPolyline
 66
     1
 10
0.0
 20
0.0
 30
0.0
  0
VERTEX
  5
101
330
100
100
AcDbEntity
  8
0
 62
     7
420
 16777215
370
     9
100
AcDbVertex
100
AcDb2dVertex
 10
24.54287642771907
 20
172.3410153420335
 30
0.0
  0
VERTEX
  5
102
330
100
100
AcDbEntity
  8
0
 62
     7
420
 16777215
370
     9
100
AcDbVertex
100
AcDb2dVertex
 10
23.94308490805794
 20
168.7426107338425
 30
0.0
  0
SEQEND
  5
103
330
100
100
AcDbEntity
  8
0
370
     9
  0
POLYLINE
  5
104
330
F0
100
AcDbEntity
  8
0
 62
     7
420
 16777215
370
     9
100
AcDb2dPolyline
 66
     1
 10
0.0
 20
0.0
 30
0.0
  0
VERTEX
  5
105
330
104
100
AcDbEntity
  8
0
 62
     7
420
 16777215
370
     9
100
AcDbVertex
100
AcDb2dVertex
 10
23.94308490805794
 20
168.7426107338425
 30
0.0
  0
VERTEX
  5
106
330
104
100
AcDbEntity
  8
0
 62
     7
420
 16777215
370
     9
100
AcDbVertex
100
AcDb2dVertex
 10
23.34329338839681
 20
172.3410153420335
 30
0.0
  0
SEQEND
  5
107
330
104
100
AcDbEntity
  8
0
370
     9
  0
POLYLINE
  5
108
330
F0
100
AcDbEntity
  8
0
 62
     7
420
 16777215
370
     9
100
AcDb2dPolyline
 66
     1
 10
0.0
 20
0.0
 30
0.0
  0
VERTEX
  5
109
330
108
100
AcDbEntity
  8
0
 62
     7
420
 16777215
370
     9
100
AcDbVertex
100
AcDb2dVertex
 10
24.54287642771907
 20
172.3410153420335
 30
0.0
  0
VERTEX
  5
10A
330
108
100
AcDbEntity
  8
0
 62
     7
420
 16777215
370
     9
100
AcDbVertex
100
AcDb2dVertex
 10
23.34329338839681
 20
172.3410153420335
 30
0.0
  0
SEQEND
  5
10B
330
108
100
AcDbEntity
  8
0
370
     9
  0
ENDBLK
  5
F3
330
F0
100
AcDbEntity
  8
0
100
AcDbBlockEnd
  0
BLOCK
  5
10E
330
10C
100
AcDbEntity
  8
0
100
AcDbBlockBegin
  2
block 31
 70
     0
 71
     0
 10
0.0
 20
0.0
 30
0.0
  3
block 31
  1

  0
POLYLINE
  5
110
330
10C
100
AcDbEntity
  8
0
 62
     7
420
 16777215
370
     9
100
AcDb2dPolyline
 66
     1
 10
0.0
 20
0.0
 30
0.0
  0
VERTEX
  5
111
330
110
100
AcDbEntity
  8
0
 62
     7
420
 16777215
370
     9
100
AcDbVertex
100
AcDb2dVertex
 10
23.94342941783373
 20
168.7436442631699
 30
0.0
  0
VERTEX
  5
112
330
110
100
AcDbEntity
  8
0
 62
     7
420
 16777215
370
     9
100
AcDbVertex
100
AcDb2dVertex
 10
23.94342941783373
 20
172.3403263224819
 30
0.0
  0
SEQEND
  5
113
330
110
100
AcDbEntity
  8
0
370
     9
  0
ENDBLK
  5
10F
330
10C
100
AcDbEntity
  8
0
100
AcDbBlockEnd
  0
BLOCK
  5
116
330
114
100
AcDbEntity
  8
0
100
AcDbBlockBegin
  2
block 32
 70
     0
 71
     0
 10
0.0
 20
0.0
 30
0.0
  3
block 32
  1

  0
POLYLINE
  5
118
330
114
100
AcDbEntity
  8
0
 62
     7
420
 16777215
370
     9
100
AcDb2dPolyline
 66
     1
 10
0.0
 20
0.0
 30
0.0
  0
VERTEX
  5
119
330
118
100
AcDbEntity
  8
0
 62
     7
420
 16777215
370
     9
100
AcDbVertex
100
AcDb2dVertex
 10
115.6579606558503
 20
198.7158225025487
 30
0.0
  0
VERTEX
  5
11A
330
118
100
AcDbEntity
  8
0
 62
     7
420
 16777215
370
     9
100
AcDbVertex
100
AcDb2dVertex
 10
23.3439824079484
 20
198.7158225025487
 30
0.0
  0
SEQEND
  5
11B
330
118
100
AcDbEntity
  8
0
370
     9
  0
ENDBLK
  5
117
330
114
100
AcDbEntity
  8
0
100
AcDbBlockEnd
  0
BLOCK
  5
11E
330
11C
100
AcDbEntity
  8
0
100
AcDbBlockBegin
  2
block 33
 70
     0
 71
     0
 10
0.0
 20
0.0
 30
0.0
  3
block 33
  1

  0
POLYLINE
  5
120
330
11C
100
AcDbEntity
  8
0
 62
     7
420
 16777215
370
     9
100
AcDb2dPolyline
 66
     1
 10
0.0
 20
0.0
 30
0.0
  0
VERTEX
  5
121
330
120
100
AcDbEntity
  8
0
 62
     7
420
 16777215
370
     9
100
AcDbVertex
100
AcDb2dVertex
 10
115.6579606558503
 20
168.7436442631699
 30
0.0
  0
VERTEX
  5
122
330
120
100
AcDbEntity
  8
0
 62
     7
420
 16777215
370
     9
100
AcDbVertex
100
AcDb2dVertex
 10
23.3439824079484
 20
168.7436442631699
 30
0.0
  0
SEQEND
  5
123
330
120
100
AcDbEntity
  8
0
370
     9
  0
ENDBLK
  5
11F
330
11C
100
AcDbEntity
  8
0
100
AcDbBlockEnd
  0
BLOCK
  5
126
330
124
100
AcDbEntity
  8
0
100
AcDbBlockBegin
  2
block 34
 70
     0
 71
     0
 10
0.0
 20
0.0
 30
0.0
  3
block 34
  1

  0
POLYLINE
  5
128
330
124
100
AcDbEntity
  8
0
 62
     7
420
 16777215
370
     9
100
AcDb2dPolyline
 66
     1
 10
0.0
 20
0.0
 30
0.0
  0
VERTEX
  5
129
330
128
100
AcDbEntity
  8
0
 62
     7
420
 16777215
370
     9
100
AcDbVertex
100
AcDb2dVertex
 10
23.94342941783373
 20
198.7158225025487
 30
0.0
  0
VERTEX
  5
12A
330
128
100
AcDbEntity
  8
0
 62
     7
420
 16777215
370
     9
100
AcDbVertex
100
AcDb2dVertex
 10
23.94342941783373
 20
168.7436442631699
 30
0.0
  0
SEQEND
  5
12B
330
128
100
AcDbEntity
  8
0
370
     9
  0
ENDBLK
  5
127
330
124
100
AcDbEntity
  8
0
100
AcDbBlockEnd
  0
BLOCK
  5
12E
330
12C
100
AcDbEntity
  8
0
100
AcDbBlockBegin
  2
block 35
 70
     0
 71
     0
 10
0.0
 20
0.0
 30
0.0
  3
block 35
  1

  0
MTEXT
  5
130
330
12C
100
AcDbEntity
  8
0
 62
     7
420
 16777215
100
AcDbMText
 10
23.33691995754458
 20
181.9552496551771
 30
0.0
 40
2.398890470823883
 41
0.0
 71
     7
 72
     1
  1
\fArial|b1|i0|c0|p34;\W0.75;50
 11
-4.371139000186241E-8
 21
0.999999999999999
 31
0.0
 73
     1
 44
1.0
  0
ENDBLK
  5
12F
330
12C
100
AcDbEntity
  8
0
100
AcDbBlockEnd
  0
BLOCK
  5
133
330
131
100
AcDbEntity
  8
0
100
AcDbBlockBegin
  2
block 36
 70
     0
 71
     0
 10
0.0
 20
0.0
 30
0.0
  3
block 36
  1

  0
POLYLINE
  5
135
330
131
100
AcDbEntity
  8
0
 62
     7
420
 16777215
370
     9
100
AcDb2dPolyline
 66
     1
 10
0.0
 20
0.0
 30
0.0
  0
VERTEX
  5
136
330
135
100
AcDbEntity
  8
0
 62
     7
420
 16777215
370
     9
100
AcDbVertex
100
AcDb2dVertex
 10
101.2714046734902
 20
152.4626290237066
 30
0.0
  0
VERTEX
  5
137
330
135
100
AcDbEntity
  8
0
 62
     7
420
 16777215
370
     9
100
AcDbVertex
100
AcDb2dVertex
 10
101.319119277438
 20
147.0074889788622
 30
0.0
  0
SEQEND
  5
138
330
135
100
AcDbEntity
  8
0
370
     9
  0
ENDBLK
  5
134
330
131
100
AcDbEntity
  8
0
100
AcDbBlockEnd
  0
BLOCK
  5
13B
330
139
100
AcDbEntity
  8
0
100
AcDbBlockBegin
  2
block 37
 70
     0
 71
     0
 10
0.0
 20
0.0
 30
0.0
  3
block 37
  1

  0
POLYLINE
  5
13D
330
139
100
AcDbEntity
  8
0
 62
     7
420
 16777215
370
     9
100
AcDb2dPolyline
 66
     1
 10
0.0
 20
0.0
 30
0.0
  0
VERTEX
  5
13E
330
13D
100
AcDbEntity
  8
0
 62
     7
420
 16777215
370
     9
100
AcDbVertex
100
AcDb2dVertex
 10
131.1960405638091
 20
147.0074889788622
 30
0.0
  0
VERTEX
  5
13F
330
13D
100
AcDbEntity
  8
0
 62
     7
420
 16777215
370
     9
100
AcDbVertex
100
AcDb2dVertex
 10
131.243582912869
 20
152.4626290237066
 30
0.0
  0
SEQEND
  5
140
330
13D
100
AcDbEntity
  8
0
370
     9
  0
ENDBLK
  5
13C
330
139
100
AcDbEntity
  8
0
100
AcDbBlockEnd
  0
BLOCK
  5
143
330
141
100
AcDbEntity
  8
0
100
AcDbBlockBegin
  2
block 38
 70
     0
 71
     0
 10
0.0
 20
0.0
 30
0.0
  3
block 38
  1

  0
SPLINE
  5
145
330
141
100
AcDbEntity
  8
0
 62
     7
420
 16777215
370
     9
100
AcDbSpline
210
0.0
220
0.0
230
1.0
 70
     8
 71
     3
 72
    26
 73
    22
 74
     0
 42
0.0000000001
 43
0.0000000001
 40
0.0
 40
0.0
 40
0.0
 40
0.0
 40
1.0
 40
1.0
 40
1.0
 40
2.0
 40
2.0
 40
2.0
 40
3.0
 40
3.0
 40
3.0
 40
4.0
 40
4.0
 40
4.0
 40
5.0
 40
5.0
 40
5.0
 40
6.0
 40
6.0
 40
6.0
 40
7.0
 40
7.0
 40
7.0
 40
7.0
 10
130.9111309792257
 20
146.7108660619017
 30
0.0
 10
130.9473045056843
 20
146.7167227280902
 30
0.0
 10
130.9831335223671
 20
146.722234884503
 30
0.0
 10
131.0165509706193
 20
146.7360152755348
 30
0.0
 10
131.0165509706193
 20
146.7360152755348
 30
0.0
 10
131.0165509706193
 20
146.7360152755348
 30
0.0
 10
131.0165509706193
 20
146.7360152755348
 30
0.0
 10
131.0523799873021
 20
146.7504846861183
 30
0.0
 10
131.0851084160028
 20
146.7742558606482
 30
0.0
 10
131.1126691980664
 20
146.8025056622635
 30
0.0
 10
131.1126691980664
 20
146.8025056622635
 30
0.0
 10
131.1126691980664
 20
146.8025056622635
 30
0.0
 10
131.1126691980664
 20
146.8025056622635
 30
0.0
 10
131.1398854703544
 20
146.8310999736545
 30
0.0
 10
131.1622786057811
 20
146.8645174219068
 30
0.0
 10
131.1753699772613
 20
146.9010354581412
 30
0.0
 10
131.1753699772613
 20
146.9010354581412
 30
0.0
 10
131.1753699772613
 20
146.9010354581412
 30
0.0
 10
131.1753699772613
 20
146.9010354581412
 30
0.0
 10
131.1874278194142
 20
146.9347974161692
 30
0.0
 10
131.1915619367238
 20
146.9713154524036
 30
0.0
 10
131.1960405638091
 20
147.0074889788622
 30
0.0
  0
ENDBLK
  5
144
330
141
100
AcDbEntity
  8
0
100
AcDbBlockEnd
  0
BLOCK
  5
148
330
146
100
AcDbEntity
  8
0
100
AcDbBlockBegin
  2
block 39
 70
     0
 71
     0
 10
0.0
 20
0.0
 30
0.0
  3
block 39
  1

  0
SPLINE
  5
14A
330
146
100
AcDbEntity
  8
0
 62
     7
420
 16777215
370
     9
100
AcDbSpline
210
0.0
220
0.0
230
1.0
 70
     8
 71
     3
 72
    26
 73
    22
 74
     0
 42
0.0000000001
 43
0.0000000001
 40
0.0
 40
0.0
 40
0.0
 40
0.0
 40
1.0
 40
1.0
 40
1.0
 40
2.0
 40
2.0
 40
2.0
 40
3.0
 40
3.0
 40
3.0
 40
4.0
 40
4.0
 40
4.0
 40
5.0
 40
5.0
 40
5.0
 40
6.0
 40
6.0
 40
6.0
 40
7.0
 40
7.0
 40
7.0
 40
7.0
 10
101.319119277438
 20
147.0074889788622
 30
0.0
 10
101.3232533947475
 20
146.9713154524036
 30
0.0
 10
101.3273875120571
 20
146.9347974161692
 30
0.0
 10
101.3396176090978
 20
146.9010354581412
 30
0.0
 10
101.3396176090978
 20
146.9010354581412
 30
0.0
 10
101.3396176090978
 20
146.9010354581412
 30
0.0
 10
101.3396176090978
 20
146.9010354581412
 30
0.0
 10
101.3527089805781
 20
146.8645174219068
 30
0.0
 10
101.3751021160049
 20
146.8310999736545
 30
0.0
 10
101.4024906431806
 20
146.8025056622635
 30
0.0
 10
101.4024906431806
 20
146.8025056622635
 30
0.0
 10
101.4024906431806
 20
146.8025056622635
 30
0.0
 10
101.4024906431806
 20
146.8025056622635
 30
0.0
 10
101.4300514252443
 20
146.7742558606482
 30
0.0
 10
101.4624353441692
 20
146.7504846861183
 30
0.0
 10
101.498264360852
 20
146.7360152755348
 30
0.0
 10
101.498264360852
 20
146.7360152755348
 30
0.0
 10
101.498264360852
 20
146.7360152755348
 30
0.0
 10
101.498264360852
 20
146.7360152755348
 30
0.0
 10
101.5316818091042
 20
146.722234884503
 30
0.0
 10
101.5678553355628
 20
146.7167227280902
 30
0.0
 10
101.6040288620214
 20
146.7108660619017
 30
0.0
  0
ENDBLK
  5
149
330
146
100
AcDbEntity
  8
0
100
AcDbBlockEnd
  0
BLOCK
  5
14D
330
14B
100
AcDbEntity
  8
0
100
AcDbBlockBegin
  2
block 40
 70
     0
 71
     0
 10
0.0
 20
0.0
 30
0.0
  3
block 40
  1

  0
SPLINE
  5
14F
330
14B
100
AcDbEntity
  8
0
 62
     7
420
 16777215
370
     9
100
AcDbSpline
210
0.0
220
0.0
230
1.0
 70
     8
 71
     3
 72
     8
 73
     4
 74
     0
 42
0.0000000001
 43
0.0000000001
 40
0.0
 40
0.0
 40
0.0
 40
0.0
 40
1.0
 40
1.0
 40
1.0
 40
1.0
 10
121.0529837448183
 20
146.4683311797412
 30
0.0
 10
123.5393107967393
 20
146.448349612745
 30
0.0
 10
128.4285935348385
 20
146.5689280342737
 30
0.0
 10
130.9111309792257
 20
146.7108660619017
 30
0.0
  0
ENDBLK
  5
14E
330
14B
100
AcDbEntity
  8
0
100
AcDbBlockEnd
  0
BLOCK
  5
152
330
150
100
AcDbEntity
  8
0
100
AcDbBlockBegin
  2
block 41
 70
     0
 71
     0
 10
0.0
 20
0.0
 30
0.0
  3
block 41
  1

  0
SPLINE
  5
154
330
150
100
AcDbEntity
  8
0
 62
     7
420
 16777215
370
     9
100
AcDbSpline
210
0.0
220
0.0
230
1.0
 70
     8
 71
     3
 72
     8
 73
     4
 74
     0
 42
0.0000000001
 43
0.0000000001
 40
0.0
 40
0.0
 40
0.0
 40
0.0
 40
1.0
 40
1.0
 40
1.0
 40
1.0
 10
101.6040288620214
 20
146.7108660619017
 30
0.0
 10
104.0862217966328
 20
146.5689280342737
 30
0.0
 10
108.9758490445078
 20
146.448349612745
 30
0.0
 10
111.461831586653
 20
146.4683311797412
 30
0.0
  0
ENDBLK
  5
153
330
150
100
AcDbEntity
  8
0
100
AcDbBlockEnd
  0
BLOCK
  5
157
330
155
100
AcDbEntity
  8
0
100
AcDbBlockBegin
  2
block 42
 70
     0
 71
     0
 10
0.0
 20
0.0
 30
0.0
  3
block 42
  1

  0
SPLINE
  5
159
330
155
100
AcDbEntity
  8
0
 62
     7
420
 16777215
370
     9
100
AcDbSpline
210
0.0
220
0.0
230
1.0
 70
     8
 71
     3
 72
    26
 73
    22
 74
     0
 42
0.0000000001
 43
0.0000000001
 40
0.0
 40
0.0
 40
0.0
 40
0.0
 40
1.0
 40
1.0
 40
1.0
 40
2.0
 40
2.0
 40
2.0
 40
3.0
 40
3.0
 40
3.0
 40
4.0
 40
4.0
 40
4.0
 40
5.0
 40
5.0
 40
5.0
 40
6.0
 40
6.0
 40
6.0
 40
7.0
 40
7.0
 40
7.0
 40
7.0
 10
32.33551530134051
 20
123.3851426720705
 30
0.0
 10
32.33155343891885
 20
123.4230387474081
 30
0.0
 10
32.3274193216093
 20
123.4612793325214
 30
0.0
 10
32.31450020501694
 20
123.4971083492042
 30
0.0
 10
32.31450020501694
 20
123.4971083492042
 30
0.0
 10
32.31450020501694
 20
123.4971083492042
 30
0.0
 10
32.31450020501694
 20
123.4971083492042
 30
0.0
 10
32.3007198139851
 20
123.5353489343176
 30
0.0
 10
32.27712089434306
 20
123.5708334412246
 30
0.0
 10
32.24766530851249
 20
123.6001167721673
 30
0.0
 10
32.24766530851249
 20
123.6001167721673
 30
0.0
 10
32.24766530851249
 20
123.6001167721673
 30
0.0
 10
32.24766530851249
 20
123.6001167721673
 30
0.0
 10
32.21838197756981
 20
123.6300891226616
 30
0.0
 10
32.1835864902144
 20
123.6538602971915
 30
0.0
 10
32.14620717954052
 20
123.6679851979991
 30
0.0
 10
32.14620717954052
 20
123.6679851979991
 30
0.0
 10
32.14620717954052
 20
123.6679851979991
 30
0.0
 10
32.14620717954052
 20
123.6679851979991
 30
0.0
 10
32.11072267263351
 20
123.6814210792552
 30
0.0
 10
32.07334336195962
 20
123.6852106867889
 30
0.0
 10
32.03579179639785
 20
123.6893448040985
 30
0.0
  0
ENDBLK
  5
158
330
155
100
AcDbEntity
  8
0
100
AcDbBlockEnd
  0
BLOCK
  5
15C
330
15A
100
AcDbEntity
  8
0
100
AcDbBlockBegin
  2
block 43
 70
     0
 71
     0
 10
0.0
 20
0.0
 30
0.0
  3
block 43
  1

  0
POLYLINE
  5
15E
330
15A
100
AcDbEntity
  8
0
 62
     7
420
 16777215
370
     9
100
AcDb2dPolyline
 66
     1
 10
0.0
 20
0.0
 30
0.0
  0
VERTEX
  5
15F
330
15E
100
AcDbEntity
  8
0
 62
     7
420
 16777215
370
     9
100
AcDbVertex
100
AcDb2dVertex
 10
30.39523624405649
 20
105.7062790173143
 30
0.0
  0
VERTEX
  5
160
330
15E
100
AcDbEntity
  8
0
 62
     7
420
 16777215
370
     9
100
AcDbVertex
100
AcDb2dVertex
 10
32.03579179639785
 20
105.7062790173143
 30
0.0
  0
SEQEND
  5
161
330
15E
100
AcDbEntity
  8
0
370
     9
  0
ENDBLK
  5
15D
330
15A
100
AcDbEntity
  8
0
100
AcDbBlockEnd
  0
BLOCK
  5
164
330
162
100
AcDbEntity
  8
0
100
AcDbBlockBegin
  2
block 44
 70
     0
 71
     0
 10
0.0
 20
0.0
 30
0.0
  3
block 44
  1

  0
POLYLINE
  5
166
330
162
100
AcDbEntity
  8
0
 62
     7
420
 16777215
370
     9
100
AcDb2dPolyline
 66
     1
 10
0.0
 20
0.0
 30
0.0
  0
VERTEX
  5
167
330
166
100
AcDbEntity
  8
0
 62
     7
420
 16777215
370
     9
100
AcDbVertex
100
AcDb2dVertex
 10
32.03579179639785
 20
123.6893448040985
 30
0.0
  0
VERTEX
  5
168
330
166
100
AcDbEntity
  8
0
 62
     7
420
 16777215
370
     9
100
AcDbVertex
100
AcDb2dVertex
 10
30.39523624405649
 20
123.6893448040985
 30
0.0
  0
SEQEND
  5
169
330
166
100
AcDbEntity
  8
0
370
     9
  0
ENDBLK
  5
165
330
162
100
AcDbEntity
  8
0
100
AcDbBlockEnd
  0
BLOCK
  5
16C
330
16A
100
AcDbEntity
  8
0
100
AcDbBlockBegin
  2
block 45
 70
     0
 71
     0
 10
0.0
 20
0.0
 30
0.0
  3
block 45
  1

  0
SPLINE
  5
16E
330
16A
100
AcDbEntity
  8
0
 62
     7
420
 16777215
370
     9
100
AcDbSpline
210
0.0
220
0.0
230
1.0
 70
     8
 71
     3
 72
    26
 73
    22
 74
     0
 42
0.0000000001
 43
0.0000000001
 40
0.0
 40
0.0
 40
0.0
 40
0.0
 40
1.0
 40
1.0
 40
1.0
 40
2.0
 40
2.0
 40
2.0
 40
3.0
 40
3.0
 40
3.0
 40
4.0
 40
4.0
 40
4.0
 40
5.0
 40
5.0
 40
5.0
 40
6.0
 40
6.0
 40
6.0
 40
7.0
 40
7.0
 40
7.0
 40
7.0
 10
30.39523624405649
 20
123.6893448040985
 30
0.0
 10
30.3583736980463
 20
123.6855551965647
 30
0.0
 10
30.32151115203611
 20
123.6814210792552
 30
0.0
 10
30.28723242934439
 20
123.6690187273265
 30
0.0
 10
30.28723242934439
 20
123.6690187273265
 30
0.0
 10
30.28723242934439
 20
123.6690187273265
 30
0.0
 10
30.28723242934439
 20
123.6690187273265
 30
0.0
 10
30.2501976284463
 20
123.6559273558463
 30
0.0
 10
30.21626341553038
 20
123.6331897106437
 30
0.0
 10
30.1873245943635
 20
123.60562892858
 30
0.0
 10
30.1873245943635
 20
123.60562892858
 30
0.0
 10
30.1873245943635
 20
123.60562892858
 30
0.0
 10
30.1873245943635
 20
123.60562892858
 30
0.0
 10
30.15821351830872
 20
123.5773791269647
 30
0.0
 10
30.13444234377879
 20
123.5443061884883
 30
0.0
 10
30.11997293319535
 20
123.5077881522539
 30
0.0
 10
30.11997293319535
 20
123.5077881522539
 30
0.0
 10
30.11997293319535
 20
123.5077881522539
 30
0.0
 10
30.11997293319535
 20
123.5077881522539
 30
0.0
 10
30.1063647970514
 20
123.4740261942259
 30
0.0
 10
30.10102489552656
 20
123.4375081579915
 30
0.0
 10
30.09585724888962
 20
123.4003011022055
 30
0.0
  0
ENDBLK
  5
16D
330
16A
100
AcDbEntity
  8
0
100
AcDbBlockEnd
  0
BLOCK
  5
171
330
16F
100
AcDbEntity
  8
0
100
AcDbBlockBegin
  2
block 46
 70
     0
 71
     0
 10
0.0
 20
0.0
 30
0.0
  3
block 46
  1

  0
SPLINE
  5
173
330
16F
100
AcDbEntity
  8
0
 62
     7
420
 16777215
370
     9
100
AcDbSpline
210
0.0
220
0.0
230
1.0
 70
     8
 71
     3
 72
     8
 73
     4
 74
     0
 42
0.0000000001
 43
0.0000000001
 40
0.0
 40
0.0
 40
0.0
 40
0.0
 40
1.0
 40
1.0
 40
1.0
 40
1.0
 10
29.93772726179917
 20
114.6979841655943
 30
0.0
 10
29.92480814520682
 20
112.5082800306338
 30
0.0
 10
30.00335637408834
 20
108.1826152857371
 30
0.0
 10
30.09585724888962
 20
105.9949782094315
 30
0.0
  0
ENDBLK
  5
172
330
16F
100
AcDbEntity
  8
0
100
AcDbBlockEnd
  0
BLOCK
  5
176
330
174
100
AcDbEntity
  8
0
100
AcDbBlockBegin
  2
block 47
 70
     0
 71
     0
 10
0.0
 20
0.0
 30
0.0
  3
block 47
  1

  0
SPLINE
  5
178
330
174
100
AcDbEntity
  8
0
 62
     7
420
 16777215
370
     9
100
AcDbSpline
210
0.0
220
0.0
230
1.0
 70
     8
 71
     3
 72
     8
 73
     4
 74
     0
 42
0.0000000001
 43
0.0000000001
 40
0.0
 40
0.0
 40
0.0
 40
0.0
 40
1.0
 40
1.0
 40
1.0
 40
1.0
 10
30.09585724888962
 20
123.4003011022055
 30
0.0
 10
30.00335637408834
 20
121.2126640258998
 30
0.0
 10
29.92480814520682
 20
116.8873437907789
 30
0.0
 10
29.93772726179917
 20
114.6979841655943
 30
0.0
  0
ENDBLK
  5
177
330
174
100
AcDbEntity
  8
0
100
AcDbBlockEnd
  0
BLOCK
  5
17B
330
179
100
AcDbEntity
  8
0
100
AcDbBlockBegin
  2
block 48
 70
     0
 71
     0
 10
0.0
 20
0.0
 30
0.0
  3
block 48
  1

  0
SPLINE
  5
17D
330
179
100
AcDbEntity
  8
0
 62
     7
420
 16777215
370
     9
100
AcDbSpline
210
0.0
220
0.0
230
1.0
 70
     8
 71
     3
 72
    26
 73
    22
 74
     0
 42
0.0000000001
 43
0.0000000001
 40
0.0
 40
0.0
 40
0.0
 40
0.0
 40
1.0
 40
1.0
 40
1.0
 40
2.0
 40
2.0
 40
2.0
 40
3.0
 40
3.0
 40
3.0
 40
4.0
 40
4.0
 40
4.0
 40
5.0
 40
5.0
 40
5.0
 40
6.0
 40
6.0
 40
6.0
 40
7.0
 40
7.0
 40
7.0
 40
7.0
 10
32.03579179639785
 20
105.7062790173143
 30
0.0
 10
32.07334336195962
 20
105.7104131346238
 30
0.0
 10
32.11072267263351
 20
105.7145472519334
 30
0.0
 10
32.14620717954052
 20
105.7272941136379
 30
0.0
 10
32.14620717954052
 20
105.7272941136379
 30
0.0
 10
32.14620717954052
 20
105.7272941136379
 30
0.0
 10
32.14620717954052
 20
105.7272941136379
 30
0.0
 10
32.1835864902144
 20
105.7414190144455
 30
0.0
 10
32.21838197756981
 20
105.7655346987512
 30
0.0
 10
32.24766530851249
 20
105.7951625394697
 30
0.0
 10
32.24766530851249
 20
105.7951625394697
 30
0.0
 10
32.24766530851249
 20
105.7951625394697
 30
0.0
 10
32.24766530851249
 20
105.7951625394697
 30
0.0
 10
32.27712089434306
 20
105.8247903801882
 30
0.0
 10
32.3007198139851
 20
105.8602748870952
 30
0.0
 10
32.31450020501694
 20
105.8981709624327
 30
0.0
 10
32.31450020501694
 20
105.8981709624327
 30
0.0
 10
32.31450020501694
 20
105.8981709624327
 30
0.0
 10
32.31450020501694
 20
105.8981709624327
 30
0.0
 10
32.3274193216093
 20
105.9339999791156
 30
0.0
 10
32.33155343891885
 20
105.9722405642289
 30
0.0
 10
32.33551530134051
 20
106.0104811493423
 30
0.0
  0
ENDBLK
  5
17C
330
179
100
AcDbEntity
  8
0
100
AcDbBlockEnd
  0
BLOCK
  5
180
330
17E
100
AcDbEntity
  8
0
100
AcDbBlockBegin
  2
block 49
 70
     0
 71
     0
 10
0.0
 20
0.0
 30
0.0
  3
block 49
  1

  0
SPLINE
  5
182
330
17E
100
AcDbEntity
  8
0
 62
     7
420
 16777215
370
     9
100
AcDbSpline
210
0.0
220
0.0
230
1.0
 70
     8
 71
     3
 72
    26
 73
    22
 74
     0
 42
0.0000000001
 43
0.0000000001
 40
0.0
 40
0.0
 40
0.0
 40
0.0
 40
1.0
 40
1.0
 40
1.0
 40
2.0
 40
2.0
 40
2.0
 40
3.0
 40
3.0
 40
3.0
 40
4.0
 40
4.0
 40
4.0
 40
5.0
 40
5.0
 40
5.0
 40
6.0
 40
6.0
 40
6.0
 40
7.0
 40
7.0
 40
7.0
 40
7.0
 10
30.09585724888962
 20
105.9949782094315
 30
0.0
 10
30.10102489552656
 20
105.9584601731971
 30
0.0
 10
30.1063647970514
 20
105.9212531174111
 30
0.0
 10
30.11997293319535
 20
105.8878356691589
 30
0.0
 10
30.11997293319535
 20
105.8878356691589
 30
0.0
 10
30.11997293319535
 20
105.8878356691589
 30
0.0
 10
30.11997293319535
 20
105.8878356691589
 30
0.0
 10
30.13444234377879
 20
105.8509731231487
 30
0.0
 10
30.15821351830872
 20
105.8179001846722
 30
0.0
 10
30.1873245943635
 20
105.7903394026086
 30
0.0
 10
30.1873245943635
 20
105.7903394026086
 30
0.0
 10
30.1873245943635
 20
105.7903394026086
 30
0.0
 10
30.1873245943635
 20
105.7903394026086
 30
0.0
 10
30.21626341553038
 20
105.7620896009933
 30
0.0
 10
30.2501976284463
 20
105.7393519557907
 30
0.0
 10
30.28723242934439
 20
105.7262605843105
 30
0.0
 10
30.28723242934439
 20
105.7262605843105
 30
0.0
 10
30.28723242934439
 20
105.7262605843105
 30
0.0
 10
30.28723242934439
 20
105.7262605843105
 30
0.0
 10
30.32151115203611
 20
105.7142027421576
 30
0.0
 10
30.3583736980463
 20
105.710068624848
 30
0.0
 10
30.39523624405649
 20
105.7062790173143
 30
0.0
  0
ENDBLK
  5
181
330
17E
100
AcDbEntity
  8
0
100
AcDbBlockEnd
  0
BLOCK
  5
185
330
183
100
AcDbEntity
  8
0
100
AcDbBlockBegin
  2
block 50
 70
     0
 71
     0
 10
0.0
 20
0.0
 30
0.0
  3
block 50
  1

  0
POLYLINE
  5
187
330
183
100
AcDbEntity
  8
0
 62
     7
420
 16777215
370
     9
100
AcDb2dPolyline
 66
     1
 10
0.0
 20
0.0
 30
0.0
  0
VERTEX
  5
188
330
187
100
AcDbEntity
  8
0
 62
     7
420
 16777215
370
     9
100
AcDbVertex
100
AcDb2dVertex
 10
107.2657025174556
 20
119.4932157349012
 30
0.0
  0
VERTEX
  5
189
330
187
100
AcDbEntity
  8
0
 62
     7
420
 16777215
370
     9
100
AcDbVertex
100
AcDb2dVertex
 10
32.33551530134051
 20
119.4932157349012
 30
0.0
  0
SEQEND
  5
18A
330
187
100
AcDbEntity
  8
0
370
     9
  0
ENDBLK
  5
186
330
183
100
AcDbEntity
  8
0
100
AcDbBlockEnd
  0
BLOCK
  5
18D
330
18B
100
AcDbEntity
  8
0
100
AcDbBlockBegin
  2
block 51
 70
     0
 71
     0
 10
0.0
 20
0.0
 30
0.0
  3
block 51
  1

  0
POLYLINE
  5
18F
330
18B
100
AcDbEntity
  8
0
 62
     7
420
 16777215
370
     9
100
AcDb2dPolyline
 66
     1
 10
0.0
 20
0.0
 30
0.0
  0
VERTEX
  5
190
330
18F
100
AcDbEntity
  8
0
 62
     7
420
 16777215
370
     9
100
AcDbVertex
100
AcDb2dVertex
 10
32.33551530134051
 20
109.9024080865116
 30
0.0
  0
VERTEX
  5
191
330
18F
100
AcDbEntity
  8
0
 62
     7
420
 16777215
370
     9
100
AcDbVertex
100
AcDb2dVertex
 10
107.2657025174556
 20
109.9024080865116
 30
0.0
  0
SEQEND
  5
192
330
18F
100
AcDbEntity
  8
0
370
     9
  0
ENDBLK
  5
18E
330
18B
100
AcDbEntity
  8
0
100
AcDbBlockEnd
  0
BLOCK
  5
195
330
193
100
AcDbEntity
  8
0
100
AcDbBlockBegin
  2
block 52
 70
     0
 71
     0
 10
0.0
 20
0.0
 30
0.0
  3
block 52
  1

  0
POLYLINE
  5
197
330
193
100
AcDbEntity
  8
0
 62
     7
420
 16777215
370
     9
100
AcDb2dPolyline
 66
     1
 10
0.0
 20
0.0
 30
0.0
  0
VERTEX
  5
198
330
197
100
AcDbEntity
  8
0
 62
     7
420
 16777215
370
     9
100
AcDbVertex
100
AcDb2dVertex
 10
111.461831586653
 20
146.4683311797412
 30
0.0
  0
VERTEX
  5
199
330
197
100
AcDbEntity
  8
0
 62
     7
420
 16777215
370
     9
100
AcDbVertex
100
AcDb2dVertex
 10
111.461831586653
 20
119.4932157349012
 30
0.0
  0
SEQEND
  5
19A
330
197
100
AcDbEntity
  8
0
370
     9
  0
ENDBLK
  5
196
330
193
100
AcDbEntity
  8
0
100
AcDbBlockEnd
  0
BLOCK
  5
19D
330
19B
100
AcDbEntity
  8
0
100
AcDbBlockBegin
  2
block 53
 70
     0
 71
     0
 10
0.0
 20
0.0
 30
0.0
  3
block 53
  1

  0
POLYLINE
  5
19F
330
19B
100
AcDbEntity
  8
0
 62
     7
420
 16777215
370
     9
100
AcDb2dPolyline
 66
     1
 10
0.0
 20
0.0
 30
0.0
  0
VERTEX
  5
1A0
330
19F
100
AcDbEntity
  8
0
 62
     7
420
 16777215
370
     9
100
AcDbVertex
100
AcDb2dVertex
 10
121.0529837448183
 20
109.9024080865116
 30
0.0
  0
VERTEX
  5
1A1
330
19F
100
AcDbEntity
  8
0
 62
     7
420
 16777215
370
     9
100
AcDbVertex
100
AcDb2dVertex
 10
121.0529837448183
 20
146.4683311797412
 30
0.0
  0
SEQEND
  5
1A2
330
19F
100
AcDbEntity
  8
0
370
     9
  0
ENDBLK
  5
19E
330
19B
100
AcDbEntity
  8
0
100
AcDbBlockEnd
  0
BLOCK
  5
1A5
330
1A3
100
AcDbEntity
  8
0
100
AcDbBlockBegin
  2
block 54
 70
     0
 71
     0
 10
0.0
 20
0.0
 30
0.0
  3
block 54
  1

  0
POLYLINE
  5
1A7
330
1A3
100
AcDbEntity
  8
0
 62
     7
420
 16777215
370
     9
100
AcDb2dPolyline
 66
     1
 10
0.0
 20
0.0
 30
0.0
  0
VERTEX
  5
1A8
330
1A7
100
AcDbEntity
  8
0
 62
     7
420
 16777215
370
     9
100
AcDbVertex
100
AcDb2dVertex
 10
107.2657025174556
 20
109.9024080865116
 30
0.0
  0
VERTEX
  5
1A9
330
1A7
100
AcDbEntity
  8
0
 62
     7
420
 16777215
370
     9
100
AcDbVertex
100
AcDb2dVertex
 10
121.0529837448183
 20
109.9024080865116
 30
0.0
  0
SEQEND
  5
1AA
330
1A7
100
AcDbEntity
  8
0
370
     9
  0
ENDBLK
  5
1A6
330
1A3
100
AcDbEntity
  8
0
100
AcDbBlockEnd
  0
BLOCK
  5
1AD
330
1AB
100
AcDbEntity
  8
0
100
AcDbBlockBegin
  2
block 55
 70
     0
 71
     0
 10
0.0
 20
0.0
 30
0.0
  3
block 55
  1

  0
POLYLINE
  5
1AF
330
1AB
100
AcDbEntity
  8
0
 62
     7
420
 16777215
370
     9
100
AcDb2dPolyline
 66
     1
 10
0.0
 20
0.0
 30
0.0
  0
VERTEX
  5
1B0
330
1AF
100
AcDbEntity
  8
0
 62
     7
420
 16777215
370
     9
100
AcDbVertex
100
AcDb2dVertex
 10
111.461831586653
 20
119.4932157349012
 30
0.0
  0
VERTEX
  5
1B1
330
1AF
100
AcDbEntity
  8
0
 62
     7
420
 16777215
370
     9
100
AcDbVertex
100
AcDb2dVertex
 10
107.2657025174556
 20
119.4932157349012
 30
0.0
  0
SEQEND
  5
1B2
330
1AF
100
AcDbEntity
  8
0
370
     9
  0
ENDBLK
  5
1AE
330
1AB
100
AcDbEntity
  8
0
100
AcDbBlockEnd
  0
BLOCK
  5
1B5
330
1B3
100
AcDbEntity
  8
0
100
AcDbBlockBegin
  2
block 56
 70
     0
 71
     0
 10
0.0
 20
0.0
 30
0.0
  3
block 56
  1

  0
POLYLINE
  5
1B7
330
1B3
100
AcDbEntity
  8
0
 62
     7
420
 16777215
370
     9
100
AcDb2dPolyline
 66
     1
 10
0.0
 20
0.0
 30
0.0
  0
VERTEX
  5
1B8
330
1B7
100
AcDbEntity
  8
0
 62
     7
420
 16777215
370
     9
100
AcDbVertex
100
AcDb2dVertex
 10
101.2714046734902
 20
152.4626290237066
 30
0.0
  0
VERTEX
  5
1B9
330
1B7
100
AcDbEntity
  8
0
 62
     7
420
 16777215
370
     9
100
AcDbVertex
100
AcDb2dVertex
 10
131.243582912869
 20
152.4626290237066
 30
0.0
  0
SEQEND
  5
1BA
330
1B7
100
AcDbEntity
  8
0
370
     9
  0
ENDBLK
  5
1B6
330
1B3
100
AcDbEntity
  8
0
100
AcDbBlockEnd
  0
BLOCK
  5
1BD
330
1BB
100
AcDbEntity
  8
0
100
AcDbBlockBegin
  2
block 57
 70
     0
 71
     0
 10
0.0
 20
0.0
 30
0.0
  3
block 57
  1

  0
POLYLINE
  5
1BF
330
1BB
100
AcDbEntity
  8
0
 62
     7
420
 16777215
370
     9
100
AcDb2dPolyline
 66
     1
 10
0.0
 20
0.0
 30
0.0
  0
VERTEX
  5
1C0
330
1BF
100
AcDbEntity
  8
0
 62
     7
420
 16777215
370
     9
100
AcDbVertex
100
AcDb2dVertex
 10
116.2574076657357
 20
146.4683311797412
 30
0.0
  0
VERTEX
  5
1C1
330
1BF
100
AcDbEntity
  8
0
 62
     7
420
 16777215
370
     9
100
AcDbVertex
100
AcDb2dVertex
 10
121.0529837448183
 20
146.4683311797412
 30
0.0
  0
SEQEND
  5
1C2
330
1BF
100
AcDbEntity
  8
0
370
     9
  0
ENDBLK
  5
1BE
330
1BB
100
AcDbEntity
  8
0
100
AcDbBlockEnd
  0
BLOCK
  5
1C5
330
1C3
100
AcDbEntity
  8
0
100
AcDbBlockBegin
  2
block 58
 70
     0
 71
     0
 10
0.0
 20
0.0
 30
0.0
  3
block 58
  1

  0
POLYLINE
  5
1C7
330
1C3
100
AcDbEntity
  8
0
 62
     7
420
 16777215
370
     9
100
AcDb2dPolyline
 66
     1
 10
0.0
 20
0.0
 30
0.0
  0
VERTEX
  5
1C8
330
1C7
100
AcDbEntity
  8
0
 62
     7
420
 16777215
370
     9
100
AcDbVertex
100
AcDb2dVertex
 10
111.461831586653
 20
146.4683311797412
 30
0.0
  0
VERTEX
  5
1C9
330
1C7
100
AcDbEntity
  8
0
 62
     7
420
 16777215
370
     9
100
AcDbVertex
100
AcDb2dVertex
 10
116.2574076657357
 20
146.4683311797412
 30
0.0
  0
SEQEND
  5
1CA
330
1C7
100
AcDbEntity
  8
0
370
     9
  0
ENDBLK
  5
1C6
330
1C3
100
AcDbEntity
  8
0
100
AcDbBlockEnd
  0
BLOCK
  5
1CD
330
1CB
100
AcDbEntity
  8
0
100
AcDbBlockBegin
  2
block 59
 70
     0
 71
     0
 10
0.0
 20
0.0
 30
0.0
  3
block 59
  1

  0
SPLINE
  5
1CF
330
1CB
100
AcDbEntity
  8
0
 62
     7
420
 16777215
370
     9
100
AcDbSpline
210
0.0
220
0.0
230
1.0
 70
    24
 71
     3
 72
    92
 73
    88
 74
     0
 42
0.0000000001
 43
0.0000000001
 40
0.0
 40
0.0
 40
0.0
 40
0.0
 40
1.0
 40
1.0
 40
1.0
 40
2.0
 40
2.0
 40
2.0
 40
3.0
 40
3.0
 40
3.0
 40
4.0
 40
4.0
 40
4.0
 40
5.0
 40
5.0
 40
5.0
 40
6.0
 40
6.0
 40
6.0
 40
7.0
 40
7.0
 40
7.0
 40
8.0
 40
8.0
 40
8.0
 40
9.0
 40
9.0
 40
9.0
 40
10.0
 40
10.0
 40
10.0
 40
11.0
 40
11.0
 40
11.0
 40
12.0
 40
12.0
 40
12.0
 40
13.0
 40
13.0
 40
13.0
 40
14.0
 40
14.0
 40
14.0
 40
15.0
 40
15.0
 40
15.0
 40
16.0
 40
16.0
 40
16.0
 40
17.0
 40
17.0
 40
17.0
 40
18.0
 40
18.0
 40
18.0
 40
19.0
 40
19.0
 40
19.0
 40
20.0
 40
20.0
 40
20.0
 40
21.0
 40
21.0
 40
21.0
 40
22.0
 40
22.0
 40
22.0
 40
23.0
 40
23.0
 40
23.0
 40
24.0
 40
24.0
 40
24.0
 40
25.0
 40
25.0
 40
25.0
 40
26.0
 40
26.0
 40
26.0
 40
27.0
 40
27.0
 40
27.0
 40
28.0
 40
28.0
 40
28.0
 40
29.0
 40
29.0
 40
29.0
 40
29.0
 10
32.33551530134051
 20
113.9000995248504
 30
0.0
 10
32.33551530134051
 20
114.1571038175943
 30
0.0
 10
32.33551530134051
 20
114.4137636005624
 30
0.0
 10
32.33551530134051
 20
114.6707678933064
 30
0.0
 10
32.33551530134051
 20
114.6707678933064
 30
0.0
 10
32.33551530134051
 20
114.6707678933064
 30
0.0
 10
32.33551530134051
 20
114.6707678933064
 30
0.0
 10
32.33551530134051
 20
114.9446531650644
 30
0.0
 10
32.33551530134051
 20
115.2188829465981
 30
0.0
 10
32.33551530134051
 20
115.4920791988045
 30
0.0
 10
32.33551530134051
 20
115.4920791988045
 30
0.0
 10
32.33551530134051
 20
115.4920791988045
 30
0.0
 10
32.33551530134051
 20
115.4920791988045
 30
0.0
 10
32.33551530134051
 20
115.781811920249
 30
0.0
 10
32.33551530134051
 20
116.0701666025904
 30
0.0
 10
32.33551530134051
 20
116.3557652067255
 30
0.0
 10
32.33551530134051
 20
116.3557652067255
 30
0.0
 10
32.33551530134051
 20
116.3557652067255
 30
0.0
 10
32.33551530134051
 20
116.3557652067255
 30
0.0
 10
32.33551530134051
 20
116.6775373373191
 30
0.0
 10
32.33551530134051
 20
116.9962088799305
 30
0.0
 10
32.33551530134051
 20
117.3090237563535
 30
0.0
 10
32.33551530134051
 20
117.3090237563535
 30
0.0
 10
32.33551530134051
 20
117.3090237563535
 30
0.0
 10
32.33551530134051
 20
117.3090237563535
 30
0.0
 10
32.33551530134051
 20
117.6404421606694
 30
0.0
 10
32.33551530134051
 20
117.965659389021
 30
0.0
 10
32.33551530134051
 20
118.2822638729776
 30
0.0
 10
32.33551530134051
 20
118.2822638729776
 30
0.0
 10
32.33551530134051
 20
118.2822638729776
 30
0.0
 10
32.33551530134051
 20
118.2822638729776
 30
0.0
 10
32.33551530134051
 20
118.6164383554999
 30
0.0
 10
32.33551530134051
 20
118.9409665642999
 30
0.0
 10
32.33551530134051
 20
119.2530924211712
 30
0.0
 10
32.33551530134051
 20
119.2530924211712
 30
0.0
 10
32.33551530134051
 20
119.2530924211712
 30
0.0
 10
32.33551530134051
 20
119.2530924211712
 30
0.0
 10
32.33551530134051
 20
119.5059625966056
 30
0.0
 10
32.33551530134051
 20
119.7509090471967
 30
0.0
 10
32.33551530134051
 20
119.9865537338413
 30
0.0
 10
32.33551530134051
 20
119.9865537338413
 30
0.0
 10
32.33551530134051
 20
119.9865537338413
 30
0.0
 10
32.33551530134051
 20
119.9865537338413
 30
0.0
 10
32.33551530134051
 20
120.2328782235355
 30
0.0
 10
32.33551530134051
 20
120.4695564395075
 30
0.0
 10
32.33551530134051
 20
120.6945213231024
 30
0.0
 10
32.33551530134051
 20
120.6945213231024
 30
0.0
 10
32.33551530134051
 20
120.6945213231024
 30
0.0
 10
32.33551530134051
 20
120.6945213231024
 30
0.0
 10
32.33551530134051
 20
120.9291324804196
 30
0.0
 10
32.33551530134051
 20
121.1509967760323
 30
0.0
 10
32.33551530134051
 20
121.3590806806132
 30
0.0
 10
32.33551530134051
 20
121.3590806806132
 30
0.0
 10
32.33551530134051
 20
121.3590806806132
 30
0.0
 10
32.33551530134051
 20
121.3590806806132
 30
0.0
 10
32.33551530134051
 20
121.5743992904858
 30
0.0
 10
32.33551530134051
 20
121.775248489775
 30
0.0
 10
32.33551530134051
 20
121.9595612198259
 30
0.0
 10
32.33551530134051
 20
121.9595612198259
 30
0.0
 10
32.33551530134051
 20
121.9595612198259
 30
0.0
 10
32.33551530134051
 20
121.9595612198259
 30
0.0
 10
32.33551530134051
 20
122.1493861062896
 30
0.0
 10
32.33551530134051
 20
122.3219855039635
 30
0.0
 10
32.33551530134051
 20
122.4763258835202
 30
0.0
 10
32.33551530134051
 20
122.4763258835202
 30
0.0
 10
32.33551530134051
 20
122.4763258835202
 30
0.0
 10
32.33551530134051
 20
122.4763258835202
 30
0.0
 10
32.33551530134051
 20
122.6341113608348
 30
0.0
 10
32.33551530134051
 20
122.7726042907049
 30
0.0
 10
32.33551530134051
 20
122.8904266340272
 30
0.0
 10
32.33551530134051
 20
122.8904266340272
 30
0.0
 10
32.33551530134051
 20
122.8904266340272
 30
0.0
 10
32.33551530134051
 20
122.8904266340272
 30
0.0
 10
32.33551530134051
 20
123.0103160360043
 30
0.0
 10
32.33551530134051
 20
123.1081568123304
 30
0.0
 10
32.33551530134051
 20
123.1863605314361
 30
0.0
 10
32.33551530134051
 20
123.1863605314361
 30
0.0
 10
32.33551530134051
 20
123.1863605314361
 30
0.0
 10
32.33551530134051
 20
123.1863605314361
 30
0.0
 10
32.33551530134051
 20
123.2652532700934
 30
0.0
 10
32.33551530134051
 20
123.3231309124272
 30
0.0
 10
32.33551530134051
 20
123.3531032629214
 30
0.0
 10
32.33551530134051
 20
123.3531032629214
 30
0.0
 10
32.33551530134051
 20
123.3531032629214
 30
0.0
 10
32.33551530134051
 20
123.3531032629214
 30
0.0
 10
32.33551530134051
 20
123.3827311036399
 30
0.0
 10
32.33551530134051
 20
123.3837646329673
 30
0.0
 10
32.33551530134051
 20
123.3851426720705
 30
0.0
  0
ENDBLK
  5
1CE
330
1CB
100
AcDbEntity
  8
0
100
AcDbBlockEnd
  0
BLOCK
  5
1D2
330
1D0
100
AcDbEntity
  8
0
100
AcDbBlockBegin
  2
block 60
 70
     0
 71
     0
 10
0.0
 20
0.0
 30
0.0
  3
block 60
  1

  0
SPLINE
  5
1D4
330
1D0
100
AcDbEntity
  8
0
 62
     7
420
 16777215
370
     9
100
AcDbSpline
210
0.0
220
0.0
230
1.0
 70
    24
 71
     3
 72
    80
 73
    76
 74
     0
 42
0.0000000001
 43
0.0000000001
 40
0.0
 40
0.0
 40
0.0
 40
0.0
 40
1.0
 40
1.0
 40
1.0
 40
2.0
 40
2.0
 40
2.0
 40
3.0
 40
3.0
 40
3.0
 40
4.0
 40
4.0
 40
4.0
 40
5.0
 40
5.0
 40
5.0
 40
6.0
 40
6.0
 40
6.0
 40
7.0
 40
7.0
 40
7.0
 40
8.0
 40
8.0
 40
8.0
 40
9.0
 40
9.0
 40
9.0
 40
10.0
 40
10.0
 40
10.0
 40
11.0
 40
11.0
 40
11.0
 40
12.0
 40
12.0
 40
12.0
 40
13.0
 40
13.0
 40
13.0
 40
14.0
 40
14.0
 40
14.0
 40
15.0
 40
15.0
 40
15.0
 40
16.0
 40
16.0
 40
16.0
 40
17.0
 40
17.0
 40
17.0
 40
18.0
 40
18.0
 40
18.0
 40
19.0
 40
19.0
 40
19.0
 40
20.0
 40
20.0
 40
20.0
 40
21.0
 40
21.0
 40
21.0
 40
22.0
 40
22.0
 40
22.0
 40
23.0
 40
23.0
 40
23.0
 40
24.0
 40
24.0
 40
24.0
 40
25.0
 40
25.0
 40
25.0
 40
25.0
 10
32.33551530134051
 20
106.0104811493423
 30
0.0
 10
32.33551530134051
 20
106.0352858531996
 30
0.0
 10
32.33551530134051
 20
106.0597460472812
 30
0.0
 10
32.33551530134051
 20
106.112456042978
 30
0.0
 10
32.33551530134051
 20
106.112456042978
 30
0.0
 10
32.33551530134051
 20
106.112456042978
 30
0.0
 10
32.33551530134051
 20
106.112456042978
 30
0.0
 10
32.33551530134051
 20
106.1644770191232
 30
0.0
 10
32.33551530134051
 20
106.2433697577805
 30
0.0
 10
32.33551530134051
 20
106.3415550438824
 30
0.0
 10
32.33551530134051
 20
106.3415550438824
 30
0.0
 10
32.33551530134051
 20
106.3415550438824
 30
0.0
 10
32.33551530134051
 20
106.3415550438824
 30
0.0
 10
32.33551530134051
 20
106.4376732713295
 30
0.0
 10
32.33551530134051
 20
106.5517060071181
 30
0.0
 10
32.33551530134051
 20
106.685375800127
 30
0.0
 10
32.33551530134051
 20
106.685375800127
 30
0.0
 10
32.33551530134051
 20
106.685375800127
 30
0.0
 10
32.33551530134051
 20
106.685375800127
 30
0.0
 10
32.33551530134051
 20
106.815600495378
 30
0.0
 10
32.33551530134051
 20
106.9633951891945
 30
0.0
 10
32.33551530134051
 20
107.1284153718009
 30
0.0
 10
32.33551530134051
 20
107.1284153718009
 30
0.0
 10
32.33551530134051
 20
107.1284153718009
 30
0.0
 10
32.33551530134051
 20
107.1284153718009
 30
0.0
 10
32.33551530134051
 20
107.2879233979945
 30
0.0
 10
32.33551530134051
 20
107.4625898543232
 30
0.0
 10
32.33551530134051
 20
107.652070231011
 30
0.0
 10
32.33551530134051
 20
107.652070231011
 30
0.0
 10
32.33551530134051
 20
107.652070231011
 30
0.0
 10
32.33551530134051
 20
107.652070231011
 30
0.0
 10
32.33551530134051
 20
107.8343159024072
 30
0.0
 10
32.33551530134051
 20
108.0299974550594
 30
0.0
 10
32.33551530134051
 20
108.2377368498645
 30
0.0
 10
32.33551530134051
 20
108.2377368498645
 30
0.0
 10
32.33551530134051
 20
108.2377368498645
 30
0.0
 10
32.33551530134051
 20
108.2377368498645
 30
0.0
 10
32.33551530134051
 20
108.4365189904989
 30
0.0
 10
32.33551530134051
 20
108.6466699537346
 30
0.0
 10
32.33551530134051
 20
108.8668117004683
 30
0.0
 10
32.33551530134051
 20
108.8668117004683
 30
0.0
 10
32.33551530134051
 20
108.8668117004683
 30
0.0
 10
32.33551530134051
 20
108.8668117004683
 30
0.0
 10
32.33551530134051
 20
109.1386299135715
 30
0.0
 10
32.33551530134051
 20
109.4259510665855
 30
0.0
 10
32.33551530134051
 20
109.7270526106314
 30
0.0
 10
32.33551530134051
 20
109.7270526106314
 30
0.0
 10
32.33551530134051
 20
109.7270526106314
 30
0.0
 10
32.33551530134051
 20
109.7270526106314
 30
0.0
 10
32.33551530134051
 20
110.0123067049906
 30
0.0
 10
32.33551530134051
 20
110.3092741317269
 30
0.0
 10
32.33551530134051
 20
110.6162323419613
 30
0.0
 10
32.33551530134051
 20
110.6162323419613
 30
0.0
 10
32.33551530134051
 20
110.6162323419613
 30
0.0
 10
32.33551530134051
 20
110.6162323419613
 30
0.0
 10
32.33551530134051
 20
110.9056205536301
 30
0.0
 10
32.33551530134051
 20
111.2036215096937
 30
0.0
 10
32.33551530134051
 20
111.5088571710492
 30
0.0
 10
32.33551530134051
 20
111.5088571710492
 30
0.0
 10
32.33551530134051
 20
111.5088571710492
 30
0.0
 10
32.33551530134051
 20
111.5088571710492
 30
0.0
 10
32.33551530134051
 20
111.7792973450491
 30
0.0
 10
32.33551530134051
 20
112.0555941852377
 30
0.0
 10
32.33551530134051
 20
112.33568063296
 30
0.0
 10
32.33551530134051
 20
112.33568063296
 30
0.0
 10
32.33551530134051
 20
112.33568063296
 30
0.0
 10
32.33551530134051
 20
112.33568063296
 30
0.0
 10
32.33551530134051
 20
112.599230611444
 30
0.0
 10
32.33551530134051
 20
112.8665701974619
 30
0.0
 10
32.33551530134051
 20
113.1363213519103
 30
0.0
 10
32.33551530134051
 20
113.1363213519103
 30
0.0
 10
32.33551530134051
 20
113.1363213519103
 30
0.0
 10
32.33551530134051
 20
113.1363213519103
 30
0.0
 10
32.33551530134051
 20
113.3895360371204
 30
0.0
 10
32.33551530134051
 20
113.6451622907612
 30
0.0
 10
32.33551530134051
 20
113.9000995248504
 30
0.0
  0
ENDBLK
  5
1D3
330
1D0
100
AcDbEntity
  8
0
100
AcDbBlockEnd
  0
BLOCK
  5
1D7
330
1D5
100
AcDbEntity
  8
0
100
AcDbBlockBegin
  2
block 61
 70
     0
 71
     0
 10
0.0
 20
0.0
 30
0.0
  3
block 61
  1

  0
POLYLINE
  5
1D9
330
1D5
100
AcDbEntity
  8
0
 62
     7
420
 16777215
370
     9
100
AcDb2dPolyline
 66
     1
 10
0.0
 20
0.0
 30
0.0
  0
VERTEX
  5
1DA
330
1D9
100
AcDbEntity
  8
0
 62
     7
420
 16777215
370
     9
100
AcDbVertex
100
AcDb2dVertex
 10
107.2657025174556
 20
119.4728896581292
 30
0.0
  0
VERTEX
  5
1DB
330
1D9
100
AcDbEntity
  8
0
 62
     7
420
 16777215
370
     9
100
AcDbVertex
100
AcDb2dVertex
 10
107.2657025174556
 20
119.4932157349012
 30
0.0
  0
SEQEND
  5
1DC
330
1D9
100
AcDbEntity
  8
0
370
     9
  0
ENDBLK
  5
1D8
330
1D5
100
AcDbEntity
  8
0
100
AcDbBlockEnd
  0
BLOCK
  5
1DF
330
1DD
100
AcDbEntity
  8
0
100
AcDbBlockBegin
  2
block 62
 70
     0
 71
     0
 10
0.0
 20
0.0
 30
0.0
  3
block 62
  1

  0
POLYLINE
  5
1E1
330
1DD
100
AcDbEntity
  8
0
 62
     7
420
 16777215
370
     9
100
AcDb2dPolyline
 66
     1
 10
0.0
 20
0.0
 30
0.0
  0
VERTEX
  5
1E2
330
1E1
100
AcDbEntity
  8
0
 62
     7
420
 16777215
370
     9
100
AcDbVertex
100
AcDb2dVertex
 10
107.2657025174556
 20
109.9024080865116
 30
0.0
  0
VERTEX
  5
1E3
330
1E1
100
AcDbEntity
  8
0
 62
     7
420
 16777215
370
     9
100
AcDbVertex
100
AcDb2dVertex
 10
107.2657025174556
 20
119.4728896581292
 30
0.0
  0
SEQEND
  5
1E4
330
1E1
100
AcDbEntity
  8
0
370
     9
  0
ENDBLK
  5
1E0
330
1DD
100
AcDbEntity
  8
0
100
AcDbBlockEnd
  0
BLOCK
  5
1E7
330
1E5
100
AcDbEntity
  8
0
100
AcDbBlockBegin
  2
block 63
 70
     0
 71
     0
 10
0.0
 20
0.0
 30
0.0
  3
block 63
  1

  0
POLYLINE
  5
1E9
330
1E5
100
AcDbEntity
  8
0
 62
     7
420
 16777215
370
     9
100
AcDb2dPolyline
 66
     1
 10
0.0
 20
0.0
 30
0.0
  0
VERTEX
  5
1EA
330
1E9
100
AcDbEntity
  8
0
 62
     7
420
 16777215
370
     9
100
AcDbVertex
100
AcDb2dVertex
 10
111.461831586653
 20
146.4683311797412
 30
0.0
  0
VERTEX
  5
1EB
330
1E9
100
AcDbEntity
  8
0
 62
     7
420
 16777215
370
     9
100
AcDbVertex
100
AcDb2dVertex
 10
121.0529837448183
 20
146.4683311797412
 30
0.0
  0
SEQEND
  5
1EC
330
1E9
100
AcDbEntity
  8
0
370
     9
  0
ENDBLK
  5
1E8
330
1E5
100
AcDbEntity
  8
0
100
AcDbBlockEnd
  0
BLOCK
  5
1EF
330
1ED
100
AcDbEntity
  8
0
100
AcDbBlockBegin
  2
block 64
 70
     0
 71
     0
 10
0.0
 20
0.0
 30
0.0
  3
block 64
  1

  0
POLYLINE
  5
1F1
330
1ED
100
AcDbEntity
  8
0
 62
     7
420
 16777215
370
     9
100
AcDb2dPolyline
 66
     1
 10
0.0
 20
0.0
 30
0.0
  0
VERTEX
  5
1F2
330
1F1
100
AcDbEntity
  8
0
 62
     7
420
 16777215
370
     9
100
AcDbVertex
100
AcDb2dVertex
 10
111.461831586653
 20
119.4932157349012
 30
0.0
  0
VERTEX
  5
1F3
330
1F1
100
AcDbEntity
  8
0
 62
     7
420
 16777215
370
     9
100
AcDbVertex
100
AcDb2dVertex
 10
121.0529837448183
 20
109.9024080865116
 30
0.0
  0
SEQEND
  5
1F4
330
1F1
100
AcDbEntity
  8
0
370
     9
  0
ENDBLK
  5
1F0
330
1ED
100
AcDbEntity
  8
0
100
AcDbBlockEnd
  0
BLOCK
  5
1F7
330
1F5
100
AcDbEntity
  8
0
100
AcDbBlockBegin
  2
block 65
 70
     0
 71
     0
 10
0.0
 20
0.0
 30
0.0
  3
block 65
  1

  0
POLYLINE
  5
1F9
330
1F5
100
AcDbEntity
  8
0
 62
     7
420
 16777215
370
     9
100
AcDb2dPolyline
 66
     1
 10
0.0
 20
0.0
 30
0.0
  0
VERTEX
  5
1FA
330
1F9
100
AcDbEntity
  8
0
 62
     7
420
 16777215
370
     9
100
AcDbVertex
100
AcDb2dVertex
 10
107.2657025174556
 20
109.9024080865116
 30
0.0
  0
VERTEX
  5
1FB
330
1F9
100
AcDbEntity
  8
0
 62
     7
420
 16777215
370
     9
100
AcDbVertex
100
AcDb2dVertex
 10
107.2657025174556
 20
119.4932157349012
 30
0.0
  0
SEQEND
  5
1FC
330
1F9
100
AcDbEntity
  8
0
370
     9
  0
ENDBLK
  5
1F8
330
1F5
100
AcDbEntity
  8
0
100
AcDbBlockEnd
  0
BLOCK
  5
1FF
330
1FD
100
AcDbEntity
  8
0
100
AcDbBlockBegin
  2
block 66
 70
     0
 71
     0
 10
0.0
 20
0.0
 30
0.0
  3
block 66
  1

  0
POLYLINE
  5
201
330
1FD
100
AcDbEntity
  8
0
 62
     7
420
 16777215
370
     9
100
AcDb2dPolyline
 66
     1
 10
0.0
 20
0.0
 30
0.0
  0
VERTEX
  5
202
330
201
100
AcDbEntity
  8
0
 62
     7
420
 16777215
370
     9
100
AcDbVertex
100
AcDb2dVertex
 10
29.93772726179917
 20
114.6979841655943
 30
0.0
  0
VERTEX
  5
203
330
201
100
AcDbEntity
  8
0
 62
     7
420
 16777215
370
     9
100
AcDbVertex
100
AcDb2dVertex
 10
29.93772726179917
 20
114.6979841655943
 30
0.0
  0
SEQEND
  5
204
330
201
100
AcDbEntity
  8
0
370
     9
  0
ENDBLK
  5
200
330
1FD
100
AcDbEntity
  8
0
100
AcDbBlockEnd
  0
BLOCK
  5
207
330
205
100
AcDbEntity
  8
0
100
AcDbBlockBegin
  2
block 67
 70
     0
 71
     0
 10
0.0
 20
0.0
 30
0.0
  3
block 67
  1

  0
POLYLINE
  5
209
330
205
100
AcDbEntity
  8
0
 62
     7
420
 16777215
370
     9
100
AcDb2dPolyline
 66
     1
 10
0.0
 20
0.0
 30
0.0
  0
VERTEX
  5
20A
330
209
100
AcDbEntity
  8
0
 62
     7
420
 16777215
370
     9
100
AcDbVertex
100
AcDb2dVertex
 10
131.243582912869
 20
152.4626290237066
 30
0.0
  0
VERTEX
  5
20B
330
209
100
AcDbEntity
  8
0
 62
     7
420
 16777215
370
     9
100
AcDbVertex
100
AcDb2dVertex
 10
131.243582912869
 20
152.4626290237066
 30
0.0
  0
SEQEND
  5
20C
330
209
100
AcDbEntity
  8
0
370
     9
  0
ENDBLK
  5
208
330
205
100
AcDbEntity
  8
0
100
AcDbBlockEnd
  0
BLOCK
  5
20F
330
20D
100
AcDbEntity
  8
0
100
AcDbBlockBegin
  2
block 68
 70
     0
 71
     0
 10
0.0
 20
0.0
 30
0.0
  3
block 68
  1

  0
INSERT
  5
212
330
20D
100
AcDbEntity
  8
0
100
AcDbBlockReference
  2
block 69
 10
0.0
 20
0.0
 30
0.0
  0
INSERT
  5
241
330
20D
100
AcDbEntity
  8
0
100
AcDbBlockReference
  2
block 75
 10
0.0
 20
0.0
 30
0.0
  0
INSERT
  5
270
330
20D
100
AcDbEntity
  8
0
100
AcDbBlockReference
  2
block 81
 10
0.0
 20
0.0
 30
0.0
  0
INSERT
  5
278
330
20D
100
AcDbEntity
  8
0
100
AcDbBlockReference
  2
block 82
 10
0.0
 20
0.0
 30
0.0
  0
INSERT
  5
280
330
20D
100
AcDbEntity
  8
0
100
AcDbBlockReference
  2
block 83
 10
0.0
 20
0.0
 30
0.0
  0
INSERT
  5
288
330
20D
100
AcDbEntity
  8
0
100
AcDbBlockReference
  2
block 84
 10
0.0
 20
0.0
 30
0.0
  0
ENDBLK
  5
210
330
20D
100
AcDbEntity
  8
0
100
AcDbBlockEnd
  0
BLOCK
  5
213
330
211
100
AcDbEntity
  8
0
100
AcDbBlockBegin
  2
block 69
 70
     0
 71
     0
 10
0.0
 20
0.0
 30
0.0
  3
block 69
  1

  0
INSERT
  5
216
330
211
100
AcDbEntity
  8
0
100
AcDbBlockReference
  2
block 70
 10
0.0
 20
0.0
 30
0.0
  0
INSERT
  5
239
330
211
100
AcDbEntity
  8
0
100
AcDbBlockReference
  2
block 74
 10
0.0
 20
0.0
 30
0.0
  0
ENDBLK
  5
214
330
211
100
AcDbEntity
  8
0
100
AcDbBlockEnd
  0
BLOCK
  5
217
330
215
100
AcDbEntity
  8
0
100
AcDbBlockBegin
  2
block 70
 70
     0
 71
     0
 10
0.0
 20
0.0
 30
0.0
  3
block 70
  1

  0
INSERT
  5
21A
330
215
100
AcDbEntity
  8
0
100
AcDbBlockReference
  2
block 71
 10
0.0
 20
0.0
 30
0.0
  0
ENDBLK
  5
218
330
215
100
AcDbEntity
  8
0
100
AcDbBlockEnd
  0
BLOCK
  5
21B
330
219
100
AcDbEntity
  8
0
100
AcDbBlockBegin
  2
block 71
 70
     0
 71
     0
 10
0.0
 20
0.0
 30
0.0
  3
block 71
  1

  0
INSERT
  5
21E
330
219
100
AcDbEntity
  8
0
100
AcDbBlockReference
  2
block 72
 10
0.0
 20
0.0
 30
0.0
  0
INSERT
  5
229
330
219
100
AcDbEntity
  8
0
100
AcDbBlockReference
  2
block 73
 10
0.0
 20
0.0
 30
0.0
  0
ENDBLK
  5
21C
330
219
100
AcDbEntity
  8
0
100
AcDbBlockEnd
  0
BLOCK
  5
21F
330
21D
100
AcDbEntity
  8
0
100
AcDbBlockBegin
  2
block 72
 70
     0
 71
     0
 10
0.0
 20
0.0
 30
0.0
  3
block 72
  1

  0
POLYLINE
  5
221
330
21D
100
AcDbEntity
  8
0
370
     0
100
AcDb2dPolyline
 66
     1
 10
0.0
 20
0.0
 30
0.0
  0
VERTEX
  5
222
330
221
100
AcDbEntity
  8
0
370
     0
100
AcDbVertex
100
AcDb2dVertex
 10
131.2439274226448
 20
98.9242595709909
 30
0.0
  0
VERTEX
  5
223
330
221
100
AcDbEntity
  8
0
370
     0
100
AcDbVertex
100
AcDb2dVertex
 10
127.6458673242296
 20
98.32446805132977
 30
0.0
  0
VERTEX
  5
224
330
221
100
AcDbEntity
  8
0
370
     0
100
AcDbVertex
100
AcDb2dVertex
 10
127.6458673242296
 20
99.52405109065204
 30
0.0
  0
VERTEX
  5
225
330
221
100
AcDbEntity
  8
0
370
     0
100
AcDbVertex
100
AcDb2dVertex
 10
131.2439274226448
 20
98.9242595709909
 30
0.0
  0
SEQEND
  5
226
330
221
100
AcDbEntity
  8
0
370
     0
  0
HATCH
  5
227
330
21D
100
AcDbEntity
  8
0
 62
     7
420
 16777215
100
AcDbHatch
 10
0.0
 20
0.0
 30
0.0
210
0.0
220
0.0
230
1.0
  2
SOLID
 70
     1
 71
     0
 91
        1
 92
        1
 93
        3
 72
     1
 10
131.2439274226448
 20
98.9242595709909
 11
127.6458673242296
 21
98.32446805132977
 72
     1
 10
127.6458673242296
 20
98.32446805132977
 11
127.6458673242296
 21
99.52405109065204
 72
     1
 10
127.6458673242296
 20
99.52405109065204
 11
131.2439274226448
 21
98.9242595709909
 97
        0
 75
     2
 76
     1
 98
        0
  0
ENDBLK
  5
220
330
21D
100
AcDbEntity
  8
0
100
AcDbBlockEnd
  0
BLOCK
  5
22A
330
228
100
AcDbEntity
  8
0
100
AcDbBlockBegin
  2
block 73
 70
     0
 71
     0
 10
0.0
 20
0.0
 30
0.0
  3
block 73
  1

  0
POLYLINE
  5
22C
330
228
100
AcDbEntity
  8
0
 62
     7
420
 16777215
370
     9
100
AcDb2dPolyline
 66
     1
 10
0.0
 20
0.0
 30
0.0
  0
VERTEX
  5
22D
330
22C
100
AcDbEntity
  8
0
 62
     7
420
 16777215
370
     9
100
AcDbVertex
100
AcDb2dVertex
 10
127.6458673242296
 20
99.52405109065204
 30
0.0
  0
VERTEX
  5
22E
330
22C
100
AcDbEntity
  8
0
 62
     7
420
 16777215
370
     9
100
AcDbVertex
100
AcDb2dVertex
 10
131.2439274226448
 20
98.9242595709909
 30
0.0
  0
SEQEND
  5
22F
330
22C
100
AcDbEntity
  8
0
370
     9
  0
POLYLINE
  5
230
330
228
100
AcDbEntity
  8
0
 62
     7
420
 16777215
370
     9
100
AcDb2dPolyline
 66
     1
 10
0.0
 20
0.0
 30
0.0
  0
VERTEX
  5
231
330
230
100
AcDbEntity
  8
0
 62
     7
420
 16777215
370
     9
100
AcDbVertex
100
AcDb2dVertex
 10
131.2439274226448
 20
98.9242595709909
 30
0.0
  0
VERTEX
  5
232
330
230
100
AcDbEntity
  8
0
 62
     7
420
 16777215
370
     9
100
AcDbVertex
100
AcDb2dVertex
 10
127.6458673242296
 20
98.32446805132977
 30
0.0
  0
SEQEND
  5
233
330
230
100
AcDbEntity
  8
0
370
     9
  0
POLYLINE
  5
234
330
228
100
AcDbEntity
  8
0
 62
     7
420
 16777215
370
     9
100
AcDb2dPolyline
 66
     1
 10
0.0
 20
0.0
 30
0.0
  0
VERTEX
  5
235
330
234
100
AcDbEntity
  8
0
 62
     7
420
 16777215
370
     9
100
AcDbVertex
100
AcDb2dVertex
 10
127.6458673242296
 20
99.52405109065204
 30
0.0
  0
VERTEX
  5
236
330
234
100
AcDbEntity
  8
0
 62
     7
420
 16777215
370
     9
100
AcDbVertex
100
AcDb2dVertex
 10
127.6458673242296
 20
98.32446805132977
 30
0.0
  0
SEQEND
  5
237
330
234
100
AcDbEntity
  8
0
370
     9
  0
ENDBLK
  5
22B
330
228
100
AcDbEntity
  8
0
100
AcDbBlockEnd
  0
BLOCK
  5
23A
330
238
100
AcDbEntity
  8
0
100
AcDbBlockBegin
  2
block 74
 70
     0
 71
     0
 10
0.0
 20
0.0
 30
0.0
  3
block 74
  1

  0
POLYLINE
  5
23C
330
238
100
AcDbEntity
  8
0
 62
     7
420
 16777215
370
     9
100
AcDb2dPolyline
 66
     1
 10
0.0
 20
0.0
 30
0.0
  0
VERTEX
  5
23D
330
23C
100
AcDbEntity
  8
0
 62
     7
420
 16777215
370
     9
100
AcDbVertex
100
AcDb2dVertex
 10
131.243582912869
 20
98.9246040807667
 30
0.0
  0
VERTEX
  5
23E
330
23C
100
AcDbEntity
  8
0
 62
     7
420
 16777215
370
     9
100
AcDbVertex
100
AcDb2dVertex
 10
127.646900853557
 20
98.9246040807667
 30
0.0
  0
SEQEND
  5
23F
330
23C
100
AcDbEntity
  8
0
370
     9
  0
ENDBLK
  5
23B
330
238
100
AcDbEntity
  8
0
100
AcDbBlockEnd
  0
BLOCK
  5
242
330
240
100
AcDbEntity
  8
0
100
AcDbBlockBegin
  2
block 75
 70
     0
 71
     0
 10
0.0
 20
0.0
 30
0.0
  3
block 75
  1

  0
INSERT
  5
245
330
240
100
AcDbEntity
  8
0
100
AcDbBlockReference
  2
block 76
 10
0.0
 20
0.0
 30
0.0
  0
INSERT
  5
268
330
240
100
AcDbEntity
  8
0
100
AcDbBlockReference
  2
block 80
 10
0.0
 20
0.0
 30
0.0
  0
ENDBLK
  5
243
330
240
100
AcDbEntity
  8
0
100
AcDbBlockEnd
  0
BLOCK
  5
246
330
244
100
AcDbEntity
  8
0
100
AcDbBlockBegin
  2
block 76
 70
     0
 71
     0
 10
0.0
 20
0.0
 30
0.0
  3
block 76
  1

  0
INSERT
  5
249
330
244
100
AcDbEntity
  8
0
100
AcDbBlockReference
  2
block 77
 10
0.0
 20
0.0
 30
0.0
  0
ENDBLK
  5
247
330
244
100
AcDbEntity
  8
0
100
AcDbBlockEnd
  0
BLOCK
  5
24A
330
248
100
AcDbEntity
  8
0
100
AcDbBlockBegin
  2
block 77
 70
     0
 71
     0
 10
0.0
 20
0.0
 30
0.0
  3
block 77
  1

  0
INSERT
  5
24D
330
248
100
AcDbEntity
  8
0
100
AcDbBlockReference
  2
block 78
 10
0.0
 20
0.0
 30
0.0
  0
INSERT
  5
258
330
248
100
AcDbEntity
  8
0
100
AcDbBlockReference
  2
block 79
 10
0.0
 20
0.0
 30
0.0
  0
ENDBLK
  5
24B
330
248
100
AcDbEntity
  8
0
100
AcDbBlockEnd
  0
BLOCK
  5
24E
330
24C
100
AcDbEntity
  8
0
100
AcDbBlockBegin
  2
block 78
 70
     0
 71
     0
 10
0.0
 20
0.0
 30
0.0
  3
block 78
  1

  0
POLYLINE
  5
250
330
24C
100
AcDbEntity
  8
0
370
     0
100
AcDb2dPolyline
 66
     1
 10
0.0
 20
0.0
 30
0.0
  0
VERTEX
  5
251
330
250
100
AcDbEntity
  8
0
370
     0
100
AcDbVertex
100
AcDb2dVertex
 10
33.53509834066277
 20
99.52405109065204
 30
0.0
  0
VERTEX
  5
252
330
250
100
AcDbEntity
  8
0
370
     0
100
AcDbVertex
100
AcDb2dVertex
 10
33.53509834066277
 20
98.32446805132977
 30
0.0
  0
VERTEX
  5
253
330
250
100
AcDbEntity
  8
0
370
     0
100
AcDbVertex
100
AcDb2dVertex
 10
29.93686598735968
 20
98.9242595709909
 30
0.0
  0
VERTEX
  5
254
330
250
100
AcDbEntity
  8
0
370
     0
100
AcDbVertex
100
AcDb2dVertex
 10
33.53509834066277
 20
99.52405109065204
 30
0.0
  0
SEQEND
  5
255
330
250
100
AcDbEntity
  8
0
370
     0
  0
HATCH
  5
256
330
24C
100
AcDbEntity
  8
0
 62
     7
420
 16777215
100
AcDbHatch
 10
0.0
 20
0.0
 30
0.0
210
0.0
220
0.0
230
1.0
  2
SOLID
 70
     1
 71
     0
 91
        1
 92
        1
 93
        3
 72
     1
 10
33.53509834066277
 20
99.52405109065204
 11
33.53509834066277
 21
98.32446805132977
 72
     1
 10
33.53509834066277
 20
98.32446805132977
 11
29.93686598735968
 21
98.9242595709909
 72
     1
 10
29.93686598735968
 20
98.9242595709909
 11
33.53509834066277
 21
99.52405109065204
 97
        0
 75
     2
 76
     1
 98
        0
  0
ENDBLK
  5
24F
330
24C
100
AcDbEntity
  8
0
100
AcDbBlockEnd
  0
BLOCK
  5
259
330
257
100
AcDbEntity
  8
0
100
AcDbBlockBegin
  2
block 79
 70
     0
 71
     0
 10
0.0
 20
0.0
 30
0.0
  3
block 79
  1

  0
POLYLINE
  5
25B
330
257
100
AcDbEntity
  8
0
 62
     7
420
 16777215
370
     9
100
AcDb2dPolyline
 66
     1
 10
0.0
 20
0.0
 30
0.0
  0
VERTEX
  5
25C
330
25B
100
AcDbEntity
  8
0
 62
     7
420
 16777215
370
     9
100
AcDbVertex
100
AcDb2dVertex
 10
33.53509834066277
 20
98.32446805132977
 30
0.0
  0
VERTEX
  5
25D
330
25B
100
AcDbEntity
  8
0
 62
     7
420
 16777215
370
     9
100
AcDbVertex
100
AcDb2dVertex
 10
29.93686598735968
 20
98.9242595709909
 30
0.0
  0
SEQEND
  5
25E
330
25B
100
AcDbEntity
  8
0
370
     9
  0
POLYLINE
  5
25F
330
257
100
AcDbEntity
  8
0
 62
     7
420
 16777215
370
     9
100
AcDb2dPolyline
 66
     1
 10
0.0
 20
0.0
 30
0.0
  0
VERTEX
  5
260
330
25F
100
AcDbEntity
  8
0
 62
     7
420
 16777215
370
     9
100
AcDbVertex
100
AcDb2dVertex
 10
29.93686598735968
 20
98.9242595709909
 30
0.0
  0
VERTEX
  5
261
330
25F
100
AcDbEntity
  8
0
 62
     7
420
 16777215
370
     9
100
AcDbVertex
100
AcDb2dVertex
 10
33.53509834066277
 20
99.52405109065204
 30
0.0
  0
SEQEND
  5
262
330
25F
100
AcDbEntity
  8
0
370
     9
  0
POLYLINE
  5
263
330
257
100
AcDbEntity
  8
0
 62
     7
420
 16777215
370
     9
100
AcDb2dPolyline
 66
     1
 10
0.0
 20
0.0
 30
0.0
  0
VERTEX
  5
264
330
263
100
AcDbEntity
  8
0
 62
     7
420
 16777215
370
     9
100
AcDbVertex
100
AcDb2dVertex
 10
33.53509834066277
 20
98.32446805132977
 30
0.0
  0
VERTEX
  5
265
330
263
100
AcDbEntity
  8
0
 62
     7
420
 16777215
370
     9
100
AcDbVertex
100
AcDb2dVertex
 10
33.53509834066277
 20
99.52405109065204
 30
0.0
  0
SEQEND
  5
266
330
263
100
AcDbEntity
  8
0
370
     9
  0
ENDBLK
  5
25A
330
257
100
AcDbEntity
  8
0
100
AcDbBlockEnd
  0
BLOCK
  5
269
330
267
100
AcDbEntity
  8
0
100
AcDbBlockBegin
  2
block 80
 70
     0
 71
     0
 10
0.0
 20
0.0
 30
0.0
  3
block 80
  1

  0
POLYLINE
  5
26B
330
267
100
AcDbEntity
  8
0
 62
     7
420
 16777215
370
     9
100
AcDb2dPolyline
 66
     1
 10
0.0
 20
0.0
 30
0.0
  0
VERTEX
  5
26C
330
26B
100
AcDbEntity
  8
0
 62
     7
420
 16777215
370
     9
100
AcDbVertex
100
AcDb2dVertex
 10
29.93772726179917
 20
98.9246040807667
 30
0.0
  0
VERTEX
  5
26D
330
26B
100
AcDbEntity
  8
0
 62
     7
420
 16777215
370
     9
100
AcDbVertex
100
AcDb2dVertex
 10
33.53440932111118
 20
98.9246040807667
 30
0.0
  0
SEQEND
  5
26E
330
26B
100
AcDbEntity
  8
0
370
     9
  0
ENDBLK
  5
26A
330
267
100
AcDbEntity
  8
0
100
AcDbBlockEnd
  0
BLOCK
  5
271
330
26F
100
AcDbEntity
  8
0
100
AcDbBlockBegin
  2
block 81
 70
     0
 71
     0
 10
0.0
 20
0.0
 30
0.0
  3
block 81
  1

  0
POLYLINE
  5
273
330
26F
100
AcDbEntity
  8
0
 62
     7
420
 16777215
370
     9
100
AcDb2dPolyline
 66
     1
 10
0.0
 20
0.0
 30
0.0
  0
VERTEX
  5
274
330
273
100
AcDbEntity
  8
0
 62
     7
420
 16777215
370
     9
100
AcDbVertex
100
AcDb2dVertex
 10
131.243582912869
 20
151.8631820138213
 30
0.0
  0
VERTEX
  5
275
330
273
100
AcDbEntity
  8
0
 62
     7
420
 16777215
370
     9
100
AcDbVertex
100
AcDb2dVertex
 10
131.243582912869
 20
98.32515707088136
 30
0.0
  0
SEQEND
  5
276
330
273
100
AcDbEntity
  8
0
370
     9
  0
ENDBLK
  5
272
330
26F
100
AcDbEntity
  8
0
100
AcDbBlockEnd
  0
BLOCK
  5
279
330
277
100
AcDbEntity
  8
0
100
AcDbBlockBegin
  2
block 82
 70
     0
 71
     0
 10
0.0
 20
0.0
 30
0.0
  3
block 82
  1

  0
POLYLINE
  5
27B
330
277
100
AcDbEntity
  8
0
 62
     7
420
 16777215
370
     9
100
AcDb2dPolyline
 66
     1
 10
0.0
 20
0.0
 30
0.0
  0
VERTEX
  5
27C
330
27B
100
AcDbEntity
  8
0
 62
     7
420
 16777215
370
     9
100
AcDbVertex
100
AcDb2dVertex
 10
29.93772726179917
 20
114.098537155709
 30
0.0
  0
VERTEX
  5
27D
330
27B
100
AcDbEntity
  8
0
 62
     7
420
 16777215
370
     9
100
AcDbVertex
100
AcDb2dVertex
 10
29.93772726179917
 20
98.32515707088136
 30
0.0
  0
SEQEND
  5
27E
330
27B
100
AcDbEntity
  8
0
370
     9
  0
ENDBLK
  5
27A
330
277
100
AcDbEntity
  8
0
100
AcDbBlockEnd
  0
BLOCK
  5
281
330
27F
100
AcDbEntity
  8
0
100
AcDbBlockBegin
  2
block 83
 70
     0
 71
     0
 10
0.0
 20
0.0
 30
0.0
  3
block 83
  1

  0
POLYLINE
  5
283
330
27F
100
AcDbEntity
  8
0
 62
     7
420
 16777215
370
     9
100
AcDb2dPolyline
 66
     1
 10
0.0
 20
0.0
 30
0.0
  0
VERTEX
  5
284
330
283
100
AcDbEntity
  8
0
 62
     7
420
 16777215
370
     9
100
AcDbVertex
100
AcDb2dVertex
 10
131.243582912869
 20
98.9246040807667
 30
0.0
  0
VERTEX
  5
285
330
283
100
AcDbEntity
  8
0
 62
     7
420
 16777215
370
     9
100
AcDbVertex
100
AcDb2dVertex
 10
29.93772726179917
 20
98.9246040807667
 30
0.0
  0
SEQEND
  5
286
330
283
100
AcDbEntity
  8
0
370
     9
  0
ENDBLK
  5
282
330
27F
100
AcDbEntity
  8
0
100
AcDbBlockEnd
  0
BLOCK
  5
289
330
287
100
AcDbEntity
  8
0
100
AcDbBlockBegin
  2
block 84
 70
     0
 71
     0
 10
0.0
 20
0.0
 30
0.0
  3
block 84
  1

  0
MTEXT
  5
28B
330
287
100
AcDbEntity
  8
0
 62
     7
420
 16777215
100
AcDbMText
 10
77.81683462751123
 20
99.53128579594376
 30
0.0
 40
2.398890470823883
 41
0.0
 71
     7
 72
     1
  1
\fArial|b1|i0|c0|p34;\W0.75;169
 73
     1
 44
1.0
  0
ENDBLK
  5
28A
330
287
100
AcDbEntity
  8
0
100
AcDbBlockEnd
  0
BLOCK
  5
28E
330
28C
100
AcDbEntity
  8
0
100
AcDbBlockBegin
  2
block 85
 70
     0
 71
     0
 10
0.0
 20
0.0
 30
0.0
  3
block 85
  1

  0
POLYLINE
  5
290
330
28C
100
AcDbEntity
  8
0
 62
     7
420
 16777215
370
     9
100
AcDb2dPolyline
 66
     1
 10
0.0
 20
0.0
 30
0.0
  0
VERTEX
  5
291
330
290
100
AcDbEntity
  8
0
 62
     7
420
 16777215
370
     9
100
AcDbVertex
100
AcDb2dVertex
 10
145.7157495745145
 20
168.772238574561
 30
0.0
  0
VERTEX
  5
292
330
290
100
AcDbEntity
  8
0
 62
     7
420
 16777215
370
     9
100
AcDbVertex
100
AcDb2dVertex
 10
147.8871946913577
 20
168.7913588671177
 30
0.0
  0
SEQEND
  5
293
330
290
100
AcDbEntity
  8
0
370
     9
  0
ENDBLK
  5
28F
330
28C
100
AcDbEntity
  8
0
100
AcDbBlockEnd
  0
BLOCK
  5
296
330
294
100
AcDbEntity
  8
0
100
AcDbBlockBegin
  2
block 86
 70
     0
 71
     0
 10
0.0
 20
0.0
 30
0.0
  3
block 86
  1

  0
POLYLINE
  5
298
330
294
100
AcDbEntity
  8
0
 62
     7
420
 16777215
370
     9
100
AcDb2dPolyline
 66
     1
 10
0.0
 20
0.0
 30
0.0
  0
VERTEX
  5
299
330
298
100
AcDbEntity
  8
0
 62
     7
420
 16777215
370
     9
100
AcDbVertex
100
AcDb2dVertex
 10
142.4322269014012
 20
168.7436442631699
 30
0.0
  0
VERTEX
  5
29A
330
298
100
AcDbEntity
  8
0
 62
     7
420
 16777215
370
     9
100
AcDbVertex
100
AcDb2dVertex
 10
143.3241627109375
 20
168.7513957331253
 30
0.0
  0
SEQEND
  5
29B
330
298
100
AcDbEntity
  8
0
370
     9
  0
ENDBLK
  5
297
330
294
100
AcDbEntity
  8
0
100
AcDbBlockEnd
  0
BLOCK
  5
29E
330
29C
100
AcDbEntity
  8
0
100
AcDbBlockBegin
  2
block 87
 70
     0
 71
     0
 10
0.0
 20
0.0
 30
0.0
  3
block 87
  1

  0
POLYLINE
  5
2A0
330
29C
100
AcDbEntity
  8
0
 62
     7
420
 16777215
370
     9
100
AcDb2dPolyline
 66
     1
 10
0.0
 20
0.0
 30
0.0
  0
VERTEX
  5
2A1
330
2A0
100
AcDbEntity
  8
0
 62
     7
420
 16777215
370
     9
100
AcDbVertex
100
AcDb2dVertex
 10
147.8871946913577
 20
198.6681078986009
 30
0.0
  0
VERTEX
  5
2A2
330
2A0
100
AcDbEntity
  8
0
 62
     7
420
 16777215
370
     9
100
AcDbVertex
100
AcDb2dVertex
 10
142.4322269014012
 20
198.7158225025487
 30
0.0
  0
SEQEND
  5
2A3
330
2A0
100
AcDbEntity
  8
0
370
     9
  0
ENDBLK
  5
29F
330
29C
100
AcDbEntity
  8
0
100
AcDbBlockEnd
  0
BLOCK
  5
2A6
330
2A4
100
AcDbEntity
  8
0
100
AcDbBlockBegin
  2
block 88
 70
     0
 71
     0
 10
0.0
 20
0.0
 30
0.0
  3
block 88
  1

  0
SPLINE
  5
2A8
330
2A4
100
AcDbEntity
  8
0
 62
     7
420
 16777215
370
     9
100
AcDbSpline
210
0.0
220
0.0
230
1.0
 70
     8
 71
     3
 72
     8
 73
     4
 74
     0
 42
0.0000000001
 43
0.0000000001
 40
0.0
 40
0.0
 40
0.0
 40
0.0
 40
1.0
 40
1.0
 40
1.0
 40
1.0
 10
148.4266970002545
 20
188.525223334498
 30
0.0
 10
148.4463340574749
 20
191.0115503864189
 30
0.0
 10
148.326100145722
 20
195.9008331245182
 30
0.0
 10
148.1838176083182
 20
198.3831983140174
 30
0.0
  0
ENDBLK
  5
2A7
330
2A4
100
AcDbEntity
  8
0
100
AcDbBlockEnd
  0
BLOCK
  5
2AB
330
2A9
100
AcDbEntity
  8
0
100
AcDbBlockBegin
  2
block 89
 70
     0
 71
     0
 10
0.0
 20
0.0
 30
0.0
  3
block 89
  1

  0
SPLINE
  5
2AD
330
2A9
100
AcDbEntity
  8
0
 62
     7
420
 16777215
370
     9
100
AcDbSpline
210
0.0
220
0.0
230
1.0
 70
     8
 71
     3
 72
     8
 73
     4
 74
     0
 42
0.0000000001
 43
0.0000000001
 40
0.0
 40
0.0
 40
0.0
 40
0.0
 40
1.0
 40
1.0
 40
1.0
 40
1.0
 10
148.1838176083182
 20
169.0762684517011
 30
0.0
 10
148.326100145722
 20
171.5584613863125
 30
0.0
 10
148.4463340574749
 20
176.4477441244117
 30
0.0
 10
148.4266970002545
 20
178.9342434312206
 30
0.0
  0
ENDBLK
  5
2AC
330
2A9
100
AcDbEntity
  8
0
100
AcDbBlockEnd
  0
BLOCK
  5
2B0
330
2AE
100
AcDbEntity
  8
0
100
AcDbBlockBegin
  2
block 90
 70
     0
 71
     0
 10
0.0
 20
0.0
 30
0.0
  3
block 90
  1

  0
POLYLINE
  5
2B2
330
2AE
100
AcDbEntity
  8
0
 62
     7
420
 16777215
370
     9
100
AcDb2dPolyline
 66
     1
 10
0.0
 20
0.0
 30
0.0
  0
VERTEX
  5
2B3
330
2B2
100
AcDbEntity
  8
0
 62
     7
420
 16777215
370
     9
100
AcDbVertex
100
AcDb2dVertex
 10
148.4266970002545
 20
178.9342434312206
 30
0.0
  0
VERTEX
  5
2B4
330
2B2
100
AcDbEntity
  8
0
 62
     7
420
 16777215
370
     9
100
AcDbVertex
100
AcDb2dVertex
 10
172.5909571843736
 20
178.9342434312206
 30
0.0
  0
SEQEND
  5
2B5
330
2B2
100
AcDbEntity
  8
0
370
     9
  0
ENDBLK
  5
2B1
330
2AE
100
AcDbEntity
  8
0
100
AcDbBlockEnd
  0
BLOCK
  5
2B8
330
2B6
100
AcDbEntity
  8
0
100
AcDbBlockBegin
  2
block 91
 70
     0
 71
     0
 10
0.0
 20
0.0
 30
0.0
  3
block 91
  1

  0
POLYLINE
  5
2BA
330
2B6
100
AcDbEntity
  8
0
 62
     7
420
 16777215
370
     9
100
AcDb2dPolyline
 66
     1
 10
0.0
 20
0.0
 30
0.0
  0
VERTEX
  5
2BB
330
2BA
100
AcDbEntity
  8
0
 62
     7
420
 16777215
370
     9
100
AcDbVertex
100
AcDb2dVertex
 10
172.5909571843736
 20
188.525223334498
 30
0.0
  0
VERTEX
  5
2BC
330
2BA
100
AcDbEntity
  8
0
 62
     7
420
 16777215
370
     9
100
AcDbVertex
100
AcDb2dVertex
 10
148.4266970002545
 20
188.525223334498
 30
0.0
  0
SEQEND
  5
2BD
330
2BA
100
AcDbEntity
  8
0
370
     9
  0
ENDBLK
  5
2B9
330
2B6
100
AcDbEntity
  8
0
100
AcDbBlockEnd
  0
BLOCK
  5
2C0
330
2BE
100
AcDbEntity
  8
0
100
AcDbBlockBegin
  2
block 92
 70
     0
 71
     0
 10
0.0
 20
0.0
 30
0.0
  3
block 92
  1

  0
SPLINE
  5
2C2
330
2BE
100
AcDbEntity
  8
0
 62
     7
420
 16777215
370
     9
100
AcDbSpline
210
0.0
220
0.0
230
1.0
 70
     8
 71
     3
 72
   128
 73
   124
 74
     0
 42
0.0000000001
 43
0.0000000001
 40
0.0
 40
0.0
 40
0.0
 40
0.0
 40
1.0
 40
1.0
 40
1.0
 40
2.0
 40
2.0
 40
2.0
 40
3.0
 40
3.0
 40
3.0
 40
4.0
 40
4.0
 40
4.0
 40
5.0
 40
5.0
 40
5.0
 40
6.0
 40
6.0
 40
6.0
 40
7.0
 40
7.0
 40
7.0
 40
8.0
 40
8.0
 40
8.0
 40
9.0
 40
9.0
 40
9.0
 40
10.0
 40
10.0
 40
10.0
 40
11.0
 40
11.0
 40
11.0
 40
12.0
 40
12.0
 40
12.0
 40
13.0
 40
13.0
 40
13.0
 40
14.0
 40
14.0
 40
14.0
 40
15.0
 40
15.0
 40
15.0
 40
16.0
 40
16.0
 40
16.0
 40
17.0
 40
17.0
 40
17.0
 40
18.0
 40
18.0
 40
18.0
 40
19.0
 40
19.0
 40
19.0
 40
20.0
 40
20.0
 40
20.0
 40
21.0
 40
21.0
 40
21.0
 40
22.0
 40
22.0
 40
22.0
 40
23.0
 40
23.0
 40
23.0
 40
24.0
 40
24.0
 40
24.0
 40
25.0
 40
25.0
 40
25.0
 40
26.0
 40
26.0
 40
26.0
 40
27.0
 40
27.0
 40
27.0
 40
28.0
 40
28.0
 40
28.0
 40
29.0
 40
29.0
 40
29.0
 40
30.0
 40
30.0
 40
30.0
 40
31.0
 40
31.0
 40
31.0
 40
32.0
 40
32.0
 40
32.0
 40
33.0
 40
33.0
 40
33.0
 40
34.0
 40
34.0
 40
34.0
 40
35.0
 40
35.0
 40
35.0
 40
36.0
 40
36.0
 40
36.0
 40
37.0
 40
37.0
 40
37.0
 40
38.0
 40
38.0
 40
38.0
 40
39.0
 40
39.0
 40
39.0
 40
40.0
 40
40.0
 40
40.0
 40
41.0
 40
41.0
 40
41.0
 40
41.0
 10
145.7157495745145
 20
168.772238574561
 30
0.0
 10
145.7129934963081
 20
168.7725830843368
 30
0.0
 10
145.7102374181017
 20
168.7727553392247
 30
0.0
 10
145.7019691834826
 20
168.7732721038883
 30
0.0
 10
145.7019691834826
 20
168.7732721038883
 30
0.0
 10
145.7019691834826
 20
168.7732721038883
 30
0.0
 10
145.7019691834826
 20
168.7732721038883
 30
0.0
 10
145.6933564390877
 20
168.773788868552
 30
0.0
 10
145.6785425187285
 20
168.7748223978794
 30
0.0
 10
145.6599389908355
 20
168.7758559272068
 30
0.0
 10
145.6599389908355
 20
168.7758559272068
 30
0.0
 10
145.6599389908355
 20
168.7758559272068
 30
0.0
 10
145.6599389908355
 20
168.7758559272068
 30
0.0
 10
145.6403019336151
 20
168.7770617114221
 30
0.0
 10
145.6165307590852
 20
168.7784397505253
 30
0.0
 10
145.5882809574699
 20
168.7801622994043
 30
0.0
 10
145.5882809574699
 20
168.7801622994043
 30
0.0
 10
145.5882809574699
 20
168.7801622994043
 30
0.0
 10
145.5882809574699
 20
168.7801622994043
 30
0.0
 10
145.5589976265272
 20
168.7817125933954
 30
0.0
 10
145.5252356684992
 20
168.7837796520501
 30
0.0
 10
145.4869950833858
 20
168.785674455817
 30
0.0
 10
145.4869950833858
 20
168.785674455817
 30
0.0
 10
145.4869950833858
 20
168.785674455817
 30
0.0
 10
145.4869950833858
 20
168.785674455817
 30
0.0
 10
145.4490990080482
 20
168.7875692595839
 30
0.0
 10
145.4070688154011
 20
168.7896363182386
 30
0.0
 10
145.361593524996
 20
168.7915311220056
 30
0.0
 10
145.361593524996
 20
168.7915311220056
 30
0.0
 10
145.361593524996
 20
168.7915311220056
 30
0.0
 10
145.361593524996
 20
168.7915311220056
 30
0.0
 10
145.3147401954877
 20
168.7935981806603
 30
0.0
 10
145.2640972584457
 20
168.7954929844272
 30
0.0
 10
145.2110427529731
 20
168.797560043082
 30
0.0
 10
145.2110427529731
 20
168.797560043082
 30
0.0
 10
145.2110427529731
 20
168.797560043082
 30
0.0
 10
145.2110427529731
 20
168.797560043082
 30
0.0
 10
145.1569547181731
 20
168.7992825919609
 30
0.0
 10
145.1001106051667
 20
168.8010051408399
 30
0.0
 10
145.0411994335056
 20
168.8023831799431
 30
0.0
 10
145.0411994335056
 20
168.8023831799431
 30
0.0
 10
145.0411994335056
 20
168.8023831799431
 30
0.0
 10
145.0411994335056
 20
168.8023831799431
 30
0.0
 10
144.9805657129654
 20
168.8037612190463
 30
0.0
 10
144.9175204239947
 20
168.8049670032616
 30
0.0
 10
144.8530970959208
 20
168.8058282777011
 30
0.0
 10
144.8530970959208
 20
168.8058282777011
 30
0.0
 10
144.8530970959208
 20
168.8058282777011
 30
0.0
 10
144.8530970959208
 20
168.8058282777011
 30
0.0
 10
144.8007316099998
 20
168.8063450423648
 30
0.0
 10
144.748021614303
 20
168.8066895521406
 30
0.0
 10
144.6946225990546
 20
168.8068618070285
 30
0.0
 10
144.6946225990546
 20
168.8068618070285
 30
0.0
 10
144.6946225990546
 20
168.8068618070285
 30
0.0
 10
144.6946225990546
 20
168.8068618070285
 30
0.0
 10
144.6401900544788
 20
168.8068618070285
 30
0.0
 10
144.5854130001272
 20
168.8066895521406
 30
0.0
 10
144.5302914359998
 20
168.8063450423648
 30
0.0
 10
144.5302914359998
 20
168.8063450423648
 30
0.0
 10
144.5302914359998
 20
168.8063450423648
 30
0.0
 10
144.5302914359998
 20
168.8063450423648
 30
0.0
 10
144.4741363425451
 20
168.8058282777011
 30
0.0
 10
144.4176367393145
 20
168.8051392581495
 30
0.0
 10
144.3614816458597
 20
168.8041057288221
 30
0.0
 10
144.3614816458597
 20
168.8041057288221
 30
0.0
 10
144.3614816458597
 20
168.8041057288221
 30
0.0
 10
144.3614816458597
 20
168.8041057288221
 30
0.0
 10
144.3046375328533
 20
168.8030721994947
 30
0.0
 10
144.2481379296228
 20
168.8016941603915
 30
0.0
 10
144.1930163654954
 20
168.7999716115125
 30
0.0
 10
144.1930163654954
 20
168.7999716115125
 30
0.0
 10
144.1930163654954
 20
168.7999716115125
 30
0.0
 10
144.1930163654954
 20
168.7999716115125
 30
0.0
 10
144.1268704885425
 20
168.7980768077457
 30
0.0
 10
144.0624471604687
 20
168.795837494203
 30
0.0
 10
144.0004354008253
 20
168.7932536708845
 30
0.0
 10
144.0004354008253
 20
168.7932536708845
 30
0.0
 10
144.0004354008253
 20
168.7932536708845
 30
0.0
 10
144.0004354008253
 20
168.7932536708845
 30
0.0
 10
143.936701092303
 20
168.7906698475661
 30
0.0
 10
143.8753783522113
 20
168.7877415144718
 30
0.0
 10
143.8175007098776
 20
168.7848131813775
 30
0.0
 10
143.8175007098776
 20
168.7848131813775
 30
0.0
 10
143.8175007098776
 20
168.7848131813775
 30
0.0
 10
143.8175007098776
 20
168.7848131813775
 30
0.0
 10
143.7623791457502
 20
168.7818848482833
 30
0.0
 10
143.7107026793807
 20
168.778956515189
 30
0.0
 10
143.6624713107693
 20
168.7758559272068
 30
0.0
 10
143.6624713107693
 20
168.7758559272068
 30
0.0
 10
143.6624713107693
 20
168.7758559272068
 30
0.0
 10
143.6624713107693
 20
168.7758559272068
 30
0.0
 10
143.6132064128304
 20
168.7727553392247
 30
0.0
 10
143.5684201419769
 20
168.7698270061304
 30
0.0
 10
143.5284570079846
 20
168.767070927924
 30
0.0
 10
143.5284570079846
 20
168.767070927924
 30
0.0
 10
143.5284570079846
 20
168.767070927924
 30
0.0
 10
143.5284570079846
 20
168.767070927924
 30
0.0
 10
143.4909054424228
 20
168.7644871046055
 30
0.0
 10
143.4581770137221
 20
168.7619032812871
 30
0.0
 10
143.4306162316585
 20
168.7598362226323
 30
0.0
 10
143.4306162316585
 20
168.7598362226323
 30
0.0
 10
143.4306162316585
 20
168.7598362226323
 30
0.0
 10
143.4306162316585
 20
168.7598362226323
 30
0.0
 10
143.4020219202674
 20
168.7575969090896
 30
0.0
 10
143.3785952555132
 20
168.7558743602106
 30
0.0
 10
143.3613697667234
 20
168.7544963211074
 30
0.0
 10
143.3613697667234
 20
168.7544963211074
 30
0.0
 10
143.3613697667234
 20
168.7544963211074
 30
0.0
 10
143.3613697667234
 20
168.7544963211074
 30
0.0
 10
143.3493119245706
 20
168.7534627917801
 30
0.0
 10
143.3400101606241
 20
168.7527737722285
 30
0.0
 10
143.3338089846598
 20
168.7522570075648
 30
0.0
 10
143.3338089846598
 20
168.7522570075648
 30
0.0
 10
143.3338089846598
 20
168.7522570075648
 30
0.0
 10
143.3338089846598
 20
168.7522570075648
 30
0.0
 10
143.3272632989196
 20
168.7517402429011
 30
0.0
 10
143.3234736913859
 20
168.7513957331253
 30
0.0
 10
143.3241627109375
 20
168.7513957331253
 30
0.0
 10
143.3241627109375
 20
168.7513957331253
 30
0.0
 10
143.3241627109375
 20
168.7513957331253
 30
0.0
 10
143.3241627109375
 20
168.7513957331253
 30
0.0
 10
143.324851730489
 20
168.7513957331253
 30
0.0
 10
143.3303638869018
 20
168.751912497789
 30
0.0
 10
143.3351870237629
 20
168.7522570075648
 30
0.0
  0
ENDBLK
  5
2C1
330
2BE
100
AcDbEntity
  8
0
100
AcDbBlockEnd
  0
BLOCK
  5
2C5
330
2C3
100
AcDbEntity
  8
0
100
AcDbBlockBegin
  2
block 93
 70
     0
 71
     0
 10
0.0
 20
0.0
 30
0.0
  3
block 93
  1

  0
POLYLINE
  5
2C7
330
2C3
100
AcDbEntity
  8
0
 62
     7
420
 16777215
370
     9
100
AcDb2dPolyline
 66
     1
 10
0.0
 20
0.0
 30
0.0
  0
VERTEX
  5
2C8
330
2C7
100
AcDbEntity
  8
0
 62
     7
420
 16777215
370
     9
100
AcDbVertex
100
AcDb2dVertex
 10
142.4322269014012
 20
168.7436442631699
 30
0.0
  0
VERTEX
  5
2C9
330
2C7
100
AcDbEntity
  8
0
 62
     7
420
 16777215
370
     9
100
AcDbVertex
100
AcDb2dVertex
 10
142.4322269014012
 20
198.7158225025487
 30
0.0
  0
SEQEND
  5
2CA
330
2C7
100
AcDbEntity
  8
0
370
     9
  0
ENDBLK
  5
2C6
330
2C3
100
AcDbEntity
  8
0
100
AcDbBlockEnd
  0
BLOCK
  5
2CD
330
2CB
100
AcDbEntity
  8
0
100
AcDbBlockBegin
  2
block 94
 70
     0
 71
     0
 10
0.0
 20
0.0
 30
0.0
  3
block 94
  1

  0
SPLINE
  5
2CF
330
2CB
100
AcDbEntity
  8
0
 62
     7
420
 16777215
370
     9
100
AcDbSpline
210
0.0
220
0.0
230
1.0
 70
     8
 71
     3
 72
    26
 73
    22
 74
     0
 42
0.0000000001
 43
0.0000000001
 40
0.0
 40
0.0
 40
0.0
 40
0.0
 40
1.0
 40
1.0
 40
1.0
 40
2.0
 40
2.0
 40
2.0
 40
3.0
 40
3.0
 40
3.0
 40
4.0
 40
4.0
 40
4.0
 40
5.0
 40
5.0
 40
5.0
 40
6.0
 40
6.0
 40
6.0
 40
7.0
 40
7.0
 40
7.0
 40
7.0
 10
147.8871946913577
 20
168.7913588671177
 30
0.0
 10
147.9281913546774
 20
168.7965265137546
 30
0.0
 10
147.9691880179972
 20
168.8016941603915
 30
0.0
 10
148.0063950737832
 20
168.8171971003024
 30
0.0
 10
148.0063950737832
 20
168.8171971003024
 30
0.0
 10
148.0063950737832
 20
168.8171971003024
 30
0.0
 10
148.0063950737832
 20
168.8171971003024
 30
0.0
 10
148.0467027175513
 20
168.8337335695406
 30
0.0
 10
148.0828762440099
 20
168.8618111162679
 30
0.0
 10
148.1118150651768
 20
168.8954008194081
 30
0.0
 10
148.1118150651768
 20
168.8954008194081
 30
0.0
 10
148.1118150651768
 20
168.8954008194081
 30
0.0
 10
148.1118150651768
 20
168.8954008194081
 30
0.0
 10
148.1342082006036
 20
168.9217558172565
 30
0.0
 10
148.1528117284965
 20
168.9512114030871
 30
0.0
 10
148.1645250608736
 20
168.9832508122361
 30
0.0
 10
148.1645250608736
 20
168.9832508122361
 30
0.0
 10
148.1645250608736
 20
168.9832508122361
 30
0.0
 10
148.1645250608736
 20
168.9832508122361
 30
0.0
 10
148.1748603541475
 20
169.0128786529546
 30
0.0
 10
148.1796834910087
 20
169.0445735523278
 30
0.0
 10
148.1838176083182
 20
169.0762684517011
 30
0.0
  0
ENDBLK
  5
2CE
330
2CB
100
AcDbEntity
  8
0
100
AcDbBlockEnd
  0
BLOCK
  5
2D2
330
2D0
100
AcDbEntity
  8
0
100
AcDbBlockBegin
  2
block 95
 70
     0
 71
     0
 10
0.0
 20
0.0
 30
0.0
  3
block 95
  1

  0
SPLINE
  5
2D4
330
2D0
100
AcDbEntity
  8
0
 62
     7
420
 16777215
370
     9
100
AcDbSpline
210
0.0
220
0.0
230
1.0
 70
     8
 71
     3
 72
    26
 73
    22
 74
     0
 42
0.0000000001
 43
0.0000000001
 40
0.0
 40
0.0
 40
0.0
 40
0.0
 40
1.0
 40
1.0
 40
1.0
 40
2.0
 40
2.0
 40
2.0
 40
3.0
 40
3.0
 40
3.0
 40
4.0
 40
4.0
 40
4.0
 40
5.0
 40
5.0
 40
5.0
 40
6.0
 40
6.0
 40
6.0
 40
7.0
 40
7.0
 40
7.0
 40
7.0
 10
148.1838176083182
 20
198.3831983140174
 30
0.0
 10
148.1769274128023
 20
198.4240227224493
 30
0.0
 10
148.1700372172864
 20
198.4646748759933
 30
0.0
 10
148.1535007480481
 20
198.5013651671156
 30
0.0
 10
148.1535007480481
 20
198.5013651671156
 30
0.0
 10
148.1535007480481
 20
198.5013651671156
 30
0.0
 10
148.1535007480481
 20
198.5013651671156
 30
0.0
 10
148.135241729931
 20
198.5408115364442
 30
0.0
 10
148.1052693794367
 20
198.5757792786875
 30
0.0
 10
148.0708184018571
 20
198.6033400607512
 30
0.0
 10
148.0708184018571
 20
198.6033400607512
 30
0.0
 10
148.0708184018571
 20
198.6033400607512
 30
0.0
 10
148.0708184018571
 20
198.6033400607512
 30
0.0
 10
148.0436021295692
 20
198.6250441766264
 30
0.0
 10
148.0132852692991
 20
198.6422696654162
 30
0.0
 10
147.9809013503743
 20
198.6522604489143
 30
0.0
 10
147.9809013503743
 20
198.6522604489143
 30
0.0
 10
147.9809013503743
 20
198.6522604489143
 30
0.0
 10
147.9809013503743
 20
198.6522604489143
 30
0.0
 10
147.95092899988
 20
198.6617344677487
 30
0.0
 10
147.9192341005067
 20
198.6650073106187
 30
0.0
 10
147.8871946913577
 20
198.6681078986009
 30
0.0
  0
ENDBLK
  5
2D3
330
2D0
100
AcDbEntity
  8
0
100
AcDbBlockEnd
  0
BLOCK
  5
2D7
330
2D5
100
AcDbEntity
  8
0
100
AcDbBlockBegin
  2
block 96
 70
     0
 71
     0
 10
0.0
 20
0.0
 30
0.0
  3
block 96
  1

  0
POLYLINE
  5
2D9
330
2D5
100
AcDbEntity
  8
0
 62
     7
420
 16777215
370
     9
100
AcDb2dPolyline
 66
     1
 10
0.0
 20
0.0
 30
0.0
  0
VERTEX
  5
2DA
330
2D9
100
AcDbEntity
  8
0
 62
     7
420
 16777215
370
     9
100
AcDbVertex
100
AcDb2dVertex
 10
148.4266970002545
 20
178.9342434312206
 30
0.0
  0
VERTEX
  5
2DB
330
2D9
100
AcDbEntity
  8
0
 62
     7
420
 16777215
370
     9
100
AcDbVertex
100
AcDb2dVertex
 10
148.4266970002545
 20
188.525223334498
 30
0.0
  0
SEQEND
  5
2DC
330
2D9
100
AcDbEntity
  8
0
370
     9
  0
ENDBLK
  5
2D8
330
2D5
100
AcDbEntity
  8
0
100
AcDbBlockEnd
  0
BLOCK
  5
2DF
330
2DD
100
AcDbEntity
  8
0
100
AcDbBlockBegin
  2
block 97
 70
     0
 71
     0
 10
0.0
 20
0.0
 30
0.0
  3
block 97
  1

  0
SPLINE
  5
2E1
330
2DD
100
AcDbEntity
  8
0
 62
     7
420
 16777215
370
     9
100
AcDbSpline
210
0.0
220
0.0
230
1.0
 70
     8
 71
     3
 72
    14
 73
    10
 74
     0
 42
0.0000000001
 43
0.0000000001
 40
0.0
 40
0.0
 40
0.0
 40
0.0
 40
1.0
 40
1.0
 40
1.0
 40
2.0
 40
2.0
 40
2.0
 40
3.0
 40
3.0
 40
3.0
 40
3.0
 10
181.0221449274332
 20
192.6834563283577
 30
0.0
 10
176.077051605655
 20
193.1390705068482
 30
0.0
 10
171.6990213748373
 20
189.4996692353374
 30
0.0
 10
171.2435794512348
 20
184.5545759135592
 30
0.0
 10
170.7877930178564
 20
179.6096548466689
 30
0.0
 10
174.4271942893672
 20
175.2316246158512
 30
0.0
 10
179.3722876111454
 20
174.7760104373608
 30
0.0
 10
179.3722876111454
 20
174.7760104373608
 30
0.0
 10
179.3722876111454
 20
174.7760104373608
 30
0.0
 10
179.3722876111454
 20
174.7760104373608
 30
0.0
  0
ENDBLK
  5
2E0
330
2DD
100
AcDbEntity
  8
0
100
AcDbBlockEnd
  0
BLOCK
  5
2E4
330
2E2
100
AcDbEntity
  8
0
100
AcDbBlockBegin
  2
block 98
 70
     0
 71
     0
 10
0.0
 20
0.0
 30
0.0
  3
block 98
  1

  0
SPLINE
  5
2E6
330
2E2
100
AcDbEntity
  8
0
 62
     7
420
 16777215
370
     9
100
AcDbSpline
210
0.0
220
0.0
230
1.0
 70
     8
 71
     3
 72
    14
 73
    10
 74
     0
 42
0.0000000001
 43
0.0000000001
 40
0.0
 40
0.0
 40
0.0
 40
0.0
 40
1.0
 40
1.0
 40
1.0
 40
2.0
 40
2.0
 40
2.0
 40
3.0
 40
3.0
 40
3.0
 40
3.0
 10
179.3722876111454
 20
174.7760104373608
 30
0.0
 10
184.3173809329236
 20
174.3203962588703
 30
0.0
 10
188.6954111637413
 20
177.9597975303811
 30
0.0
 10
189.1508530873438
 20
182.9048908521593
 30
0.0
 10
189.6062950109464
 20
187.8498119190496
 30
0.0
 10
185.9668937394356
 20
192.2278421498673
 30
0.0
 10
181.0221449274332
 20
192.6834563283577
 30
0.0
 10
181.0221449274332
 20
192.6834563283577
 30
0.0
 10
181.0221449274332
 20
192.6834563283577
 30
0.0
 10
181.0221449274332
 20
192.6834563283577
 30
0.0
  0
ENDBLK
  5
2E5
330
2E2
100
AcDbEntity
  8
0
100
AcDbBlockEnd
  0
BLOCK
  5
2E9
330
2E7
100
AcDbEntity
  8
0
100
AcDbBlockBegin
  2
block 99
 70
     0
 71
     0
 10
0.0
 20
0.0
 30
0.0
  3
block 99
  1

  0
POLYLINE
  5
2EB
330
2E7
100
AcDbEntity
  8
0
 62
     7
420
 16777215
370
     9
100
AcDb2dPolyline
 66
     1
 10
0.0
 20
0.0
 30
0.0
  0
VERTEX
  5
2EC
330
2EB
100
AcDbEntity
  8
0
 62
     7
420
 16777215
370
     9
100
AcDbVertex
100
AcDb2dVertex
 10
148.4266970002545
 20
183.7298195103032
 30
0.0
  0
VERTEX
  5
2ED
330
2EB
100
AcDbEntity
  8
0
 62
     7
420
 16777215
370
     9
100
AcDbVertex
100
AcDb2dVertex
 10
148.4266970002545
 20
188.525223334498
 30
0.0
  0
SEQEND
  5
2EE
330
2EB
100
AcDbEntity
  8
0
370
     9
  0
ENDBLK
  5
2EA
330
2E7
100
AcDbEntity
  8
0
100
AcDbBlockEnd
  0
BLOCK
  5
2F1
330
2EF
100
AcDbEntity
  8
0
100
AcDbBlockBegin
  2
block 100
 70
     0
 71
     0
 10
0.0
 20
0.0
 30
0.0
  3
block 100
  1

  0
POLYLINE
  5
2F3
330
2EF
100
AcDbEntity
  8
0
 62
     7
420
 16777215
370
     9
100
AcDb2dPolyline
 66
     1
 10
0.0
 20
0.0
 30
0.0
  0
VERTEX
  5
2F4
330
2F3
100
AcDbEntity
  8
0
 62
     7
420
 16777215
370
     9
100
AcDbVertex
100
AcDb2dVertex
 10
148.4266970002545
 20
178.9342434312206
 30
0.0
  0
VERTEX
  5
2F5
330
2F3
100
AcDbEntity
  8
0
 62
     7
420
 16777215
370
     9
100
AcDbVertex
100
AcDb2dVertex
 10
148.4266970002545
 20
183.7298195103032
 30
0.0
  0
SEQEND
  5
2F6
330
2F3
100
AcDbEntity
  8
0
370
     9
  0
ENDBLK
  5
2F2
330
2EF
100
AcDbEntity
  8
0
100
AcDbBlockEnd
  0
BLOCK
  5
2F9
330
2F7
100
AcDbEntity
  8
0
100
AcDbBlockBegin
  2
block 101
 70
     0
 71
     0
 10
0.0
 20
0.0
 30
0.0
  3
block 101
  1

  0
INSERT
  5
2FC
330
2F7
100
AcDbEntity
  8
0
100
AcDbBlockReference
  2
block 102
 10
0.0
 20
0.0
 30
0.0
  0
INSERT
  5
304
330
2F7
100
AcDbEntity
  8
0
100
AcDbBlockReference
  2
block 103
 10
0.0
 20
0.0
 30
0.0
  0
INSERT
  5
30C
330
2F7
100
AcDbEntity
  8
0
100
AcDbBlockReference
  2
block 104
 10
0.0
 20
0.0
 30
0.0
  0
INSERT
  5
314
330
2F7
100
AcDbEntity
  8
0
100
AcDbBlockReference
  2
block 105
 10
0.0
 20
0.0
 30
0.0
  0
INSERT
  5
320
330
2F7
100
AcDbEntity
  8
0
100
AcDbBlockReference
  2
block 107
 10
0.0
 20
0.0
 30
0.0
  0
INSERT
  5
362
330
2F7
100
AcDbEntity
  8
0
100
AcDbBlockReference
  2
block 113
 10
0.0
 20
0.0
 30
0.0
  0
INSERT
  5
367
330
2F7
100
AcDbEntity
  8
0
100
AcDbBlockReference
  2
block 114
 10
0.0
 20
0.0
 30
0.0
  0
INSERT
  5
36F
330
2F7
100
AcDbEntity
  8
0
100
AcDbBlockReference
  2
block 115
 10
0.0
 20
0.0
 30
0.0
  0
INSERT
  5
377
330
2F7
100
AcDbEntity
  8
0
100
AcDbBlockReference
  2
block 116
 10
0.0
 20
0.0
 30
0.0
  0
ENDBLK
  5
2FA
330
2F7
100
AcDbEntity
  8
0
100
AcDbBlockEnd
  0
BLOCK
  5
2FD
330
2FB
100
AcDbEntity
  8
0
100
AcDbBlockBegin
  2
block 102
 70
     0
 71
     0
 10
0.0
 20
0.0
 30
0.0
  3
block 102
  1

  0
POLYLINE
  5
2FF
330
2FB
100
AcDbEntity
  8
0
 62
     7
420
 16777215
370
     9
100
AcDb2dPolyline
 66
     1
 10
0.0
 20
0.0
 30
0.0
  0
VERTEX
  5
300
330
2FF
100
AcDbEntity
  8
0
 62
     7
420
 16777215
370
     9
100
AcDbVertex
100
AcDb2dVertex
 10
189.1887491626814
 20
183.6922679447414
 30
0.0
  0
VERTEX
  5
301
330
2FF
100
AcDbEntity
  8
0
 62
     7
420
 16777215
370
     9
100
AcDbVertex
100
AcDb2dVertex
 10
189.1887491626814
 20
162.6854398557942
 30
0.0
  0
SEQEND
  5
302
330
2FF
100
AcDbEntity
  8
0
370
     9
  0
ENDBLK
  5
2FE
330
2FB
100
AcDbEntity
  8
0
100
AcDbBlockEnd
  0
BLOCK
  5
305
330
303
100
AcDbEntity
  8
0
100
AcDbBlockBegin
  2
block 103
 70
     0
 71
     0
 10
0.0
 20
0.0
 30
0.0
  3
block 103
  1

  0
POLYLINE
  5
307
330
303
100
AcDbEntity
  8
0
 62
     7
420
 16777215
370
     9
100
AcDb2dPolyline
 66
     1
 10
0.0
 20
0.0
 30
0.0
  0
VERTEX
  5
308
330
307
100
AcDbEntity
  8
0
 62
     7
420
 16777215
370
     9
100
AcDbVertex
100
AcDb2dVertex
 10
142.4322269014012
 20
169.877598190203
 30
0.0
  0
VERTEX
  5
309
330
307
100
AcDbEntity
  8
0
 62
     7
420
 16777215
370
     9
100
AcDbVertex
100
AcDb2dVertex
 10
142.4322269014012
 20
162.6854398557942
 30
0.0
  0
SEQEND
  5
30A
330
307
100
AcDbEntity
  8
0
370
     9
  0
ENDBLK
  5
306
330
303
100
AcDbEntity
  8
0
100
AcDbBlockEnd
  0
BLOCK
  5
30D
330
30B
100
AcDbEntity
  8
0
100
AcDbBlockBegin
  2
block 104
 70
     0
 71
     0
 10
0.0
 20
0.0
 30
0.0
  3
block 104
  1

  0
POLYLINE
  5
30F
330
30B
100
AcDbEntity
  8
0
 62
     7
420
 16777215
370
     9
100
AcDb2dPolyline
 66
     1
 10
0.0
 20
0.0
 30
0.0
  0
VERTEX
  5
310
330
30F
100
AcDbEntity
  8
0
 62
     7
420
 16777215
370
     9
100
AcDbVertex
100
AcDb2dVertex
 10
185.5920671033694
 20
162.6854398557942
 30
0.0
  0
VERTEX
  5
311
330
30F
100
AcDbEntity
  8
0
 62
     7
420
 16777215
370
     9
100
AcDbVertex
100
AcDb2dVertex
 10
146.0289089607132
 20
162.6854398557942
 30
0.0
  0
SEQEND
  5
312
330
30F
100
AcDbEntity
  8
0
370
     9
  0
ENDBLK
  5
30E
330
30B
100
AcDbEntity
  8
0
100
AcDbBlockEnd
  0
BLOCK
  5
315
330
313
100
AcDbEntity
  8
0
100
AcDbBlockBegin
  2
block 105
 70
     0
 71
     0
 10
0.0
 20
0.0
 30
0.0
  3
block 105
  1

  0
INSERT
  5
318
330
313
100
AcDbEntity
  8
0
100
AcDbBlockReference
  2
block 106
 10
0.0
 20
0.0
 30
0.0
  0
ENDBLK
  5
316
330
313
100
AcDbEntity
  8
0
100
AcDbBlockEnd
  0
BLOCK
  5
319
330
317
100
AcDbEntity
  8
0
100
AcDbBlockBegin
  2
block 106
 70
     0
 71
     0
 10
0.0
 20
0.0
 30
0.0
  3
block 106
  1

  0
POLYLINE
  5
31B
330
317
100
AcDbEntity
  8
0
 62
     7
420
 16777215
370
     9
100
AcDb2dPolyline
 66
     1
 10
0.0
 20
0.0
 30
0.0
  0
VERTEX
  5
31C
330
31B
100
AcDbEntity
  8
0
 62
     7
420
 16777215
370
     9
100
AcDbVertex
100
AcDb2dVertex
 10
189.1887491626814
 20
162.6854398557942
 30
0.0
  0
VERTEX
  5
31D
330
31B
100
AcDbEntity
  8
0
 62
     7
420
 16777215
370
     9
100
AcDbVertex
100
AcDb2dVertex
 10
185.5920671033694
 20
162.6854398557942
 30
0.0
  0
SEQEND
  5
31E
330
31B
100
AcDbEntity
  8
0
370
     9
  0
ENDBLK
  5
31A
330
317
100
AcDbEntity
  8
0
100
AcDbBlockEnd
  0
BLOCK
  5
321
330
31F
100
AcDbEntity
  8
0
100
AcDbBlockBegin
  2
block 107
 70
     0
 71
     0
 10
0.0
 20
0.0
 30
0.0
  3
block 107
  1

  0
INSERT
  5
324
330
31F
100
AcDbEntity
  8
0
100
AcDbBlockReference
  2
block 108
 10
0.0
 20
0.0
 30
0.0
  0
INSERT
  5
35A
330
31F
100
AcDbEntity
  8
0
100
AcDbBlockReference
  2
block 112
 10
0.0
 20
0.0
 30
0.0
  0
ENDBLK
  5
322
330
31F
100
AcDbEntity
  8
0
100
AcDbBlockEnd
  0
BLOCK
  5
325
330
323
100
AcDbEntity
  8
0
100
AcDbBlockBegin
  2
block 108
 70
     0
 71
     0
 10
0.0
 20
0.0
 30
0.0
  3
block 108
  1

  0
INSERT
  5
328
330
323
100
AcDbEntity
  8
0
100
AcDbBlockReference
  2
block 109
 10
0.0
 20
0.0
 30
0.0
  0
ENDBLK
  5
326
330
323
100
AcDbEntity
  8
0
100
AcDbBlockEnd
  0
BLOCK
  5
329
330
327
100
AcDbEntity
  8
0
100
AcDbBlockBegin
  2
block 109
 70
     0
 71
     0
 10
0.0
 20
0.0
 30
0.0
  3
block 109
  1

  0
INSERT
  5
32C
330
327
100
AcDbEntity
  8
0
100
AcDbBlockReference
  2
block 110
 10
0.0
 20
0.0
 30
0.0
  0
INSERT
  5
33E
330
327
100
AcDbEntity
  8
0
100
AcDbBlockReference
  2
block 111
 10
0.0
 20
0.0
 30
0.0
  0
ENDBLK
  5
32A
330
327
100
AcDbEntity
  8
0
100
AcDbBlockEnd
  0
BLOCK
  5
32D
330
32B
100
AcDbEntity
  8
0
100
AcDbBlockBegin
  2
block 110
 70
     0
 71
     0
 10
0.0
 20
0.0
 30
0.0
  3
block 110
  1

  0
POLYLINE
  5
32F
330
32B
100
AcDbEntity
  8
0
370
     0
100
AcDb2dPolyline
 66
     1
 10
0.0
 20
0.0
 30
0.0
  0
VERTEX
  5
330
330
32F
100
AcDbEntity
  8
0
370
     0
100
AcDbVertex
100
AcDb2dVertex
 10
146.0289089607132
 20
163.2852313754554
 30
0.0
  0
VERTEX
  5
331
330
32F
100
AcDbEntity
  8
0
370
     0
100
AcDbVertex
100
AcDb2dVertex
 10
146.0289089607132
 20
162.0856483361331
 30
0.0
  0
VERTEX
  5
332
330
32F
100
AcDbEntity
  8
0
370
     0
100
AcDbVertex
100
AcDb2dVertex
 10
142.4305043525222
 20
162.6854398557942
 30
0.0
  0
VERTEX
  5
333
330
32F
100
AcDbEntity
  8
0
370
     0
100
AcDbVertex
100
AcDb2dVertex
 10
146.0289089607132
 20
163.2852313754554
 30
0.0
  0
SEQEND
  5
334
330
32F
100
AcDbEntity
  8
0
370
     0
  0
HATCH
  5
335
330
32B
100
AcDbEntity
  8
0
 62
     7
420
 16777215
100
AcDbHatch
 10
0.0
 20
0.0
 30
0.0
210
0.0
220
0.0
230
1.0
  2
SOLID
 70
     1
 71
     0
 91
        1
 92
        1
 93
        3
 72
     1
 10
146.0289089607132
 20
163.2852313754554
 11
146.0289089607132
 21
162.0856483361331
 72
     1
 10
146.0289089607132
 20
162.0856483361331
 11
142.4305043525222
 21
162.6854398557942
 72
     1
 10
142.4305043525222
 20
162.6854398557942
 11
146.0289089607132
 21
163.2852313754554
 97
        0
 75
     2
 76
     1
 98
        0
  0
POLYLINE
  5
336
330
32B
100
AcDbEntity
  8
0
370
     0
100
AcDb2dPolyline
 66
     1
 10
0.0
 20
0.0
 30
0.0
  0
VERTEX
  5
337
330
336
100
AcDbEntity
  8
0
370
     0
100
AcDbVertex
100
AcDb2dVertex
 10
189.187715633354
 20
162.6854398557942
 30
0.0
  0
VERTEX
  5
338
330
336
100
AcDbEntity
  8
0
370
     0
100
AcDbVertex
100
AcDb2dVertex
 10
185.5931006326968
 20
162.0856483361331
 30
0.0
  0
VERTEX
  5
339
330
336
100
AcDbEntity
  8
0
370
     0
100
AcDbVertex
100
AcDb2dVertex
 10
185.5931006326968
 20
163.2852313754554
 30
0.0
  0
VERTEX
  5
33A
330
336
100
AcDbEntity
  8
0
370
     0
100
AcDbVertex
100
AcDb2dVertex
 10
189.187715633354
 20
162.6854398557942
 30
0.0
  0
SEQEND
  5
33B
330
336
100
AcDbEntity
  8
0
370
     0
  0
HATCH
  5
33C
330
32B
100
AcDbEntity
  8
0
 62
     7
420
 16777215
100
AcDbHatch
 10
0.0
 20
0.0
 30
0.0
210
0.0
220
0.0
230
1.0
  2
SOLID
 70
     1
 71
     0
 91
        1
 92
        1
 93
        3
 72
     1
 10
189.187715633354
 20
162.6854398557942
 11
185.5931006326968
 21
162.0856483361331
 72
     1
 10
185.5931006326968
 20
162.0856483361331
 11
185.5931006326968
 21
163.2852313754554
 72
     1
 10
185.5931006326968
 20
163.2852313754554
 11
189.187715633354
 21
162.6854398557942
 97
        0
 75
     2
 76
     1
 98
        0
  0
ENDBLK
  5
32E
330
32B
100
AcDbEntity
  8
0
100
AcDbBlockEnd
  0
BLOCK
  5
33F
330
33D
100
AcDbEntity
  8
0
100
AcDbBlockBegin
  2
block 111
 70
     0
 71
     0
 10
0.0
 20
0.0
 30
0.0
  3
block 111
  1

  0
POLYLINE
  5
341
330
33D
100
AcDbEntity
  8
0
 62
     7
420
 16777215
370
     9
100
AcDb2dPolyline
 66
     1
 10
0.0
 20
0.0
 30
0.0
  0
VERTEX
  5
342
330
341
100
AcDbEntity
  8
0
 62
     7
420
 16777215
370
     9
100
AcDbVertex
100
AcDb2dVertex
 10
185.5931006326968
 20
163.2852313754554
 30
0.0
  0
VERTEX
  5
343
330
341
100
AcDbEntity
  8
0
 62
     7
420
 16777215
370
     9
100
AcDbVertex
100
AcDb2dVertex
 10
189.187715633354
 20
162.6854398557942
 30
0.0
  0
SEQEND
  5
344
330
341
100
AcDbEntity
  8
0
370
     9
  0
POLYLINE
  5
345
330
33D
100
AcDbEntity
  8
0
 62
     7
420
 16777215
370
     9
100
AcDb2dPolyline
 66
     1
 10
0.0
 20
0.0
 30
0.0
  0
VERTEX
  5
346
330
345
100
AcDbEntity
  8
0
 62
     7
420
 16777215
370
     9
100
AcDbVertex
100
AcDb2dVertex
 10
189.187715633354
 20
162.6854398557942
 30
0.0
  0
VERTEX
  5
347
330
345
100
AcDbEntity
  8
0
 62
     7
420
 16777215
370
     9
100
AcDbVertex
100
AcDb2dVertex
 10
185.5931006326968
 20
162.0856483361331
 30
0.0
  0
SEQEND
  5
348
330
345
100
AcDbEntity
  8
0
370
     9
  0
POLYLINE
  5
349
330
33D
100
AcDbEntity
  8
0
 62
     7
420
 16777215
370
     9
100
AcDb2dPolyline
 66
     1
 10
0.0
 20
0.0
 30
0.0
  0
VERTEX
  5
34A
330
349
100
AcDbEntity
  8
0
 62
     7
420
 16777215
370
     9
100
AcDbVertex
100
AcDb2dVertex
 10
185.5931006326968
 20
163.2852313754554
 30
0.0
  0
VERTEX
  5
34B
330
349
100
AcDbEntity
  8
0
 62
     7
420
 16777215
370
     9
100
AcDbVertex
100
AcDb2dVertex
 10
185.5931006326968
 20
162.0856483361331
 30
0.0
  0
SEQEND
  5
34C
330
349
100
AcDbEntity
  8
0
370
     9
  0
POLYLINE
  5
34D
330
33D
100
AcDbEntity
  8
0
 62
     7
420
 16777215
370
     9
100
AcDb2dPolyline
 66
     1
 10
0.0
 20
0.0
 30
0.0
  0
VERTEX
  5
34E
330
34D
100
AcDbEntity
  8
0
 62
     7
420
 16777215
370
     9
100
AcDbVertex
100
AcDb2dVertex
 10
146.0289089607132
 20
162.0856483361331
 30
0.0
  0
VERTEX
  5
34F
330
34D
100
AcDbEntity
  8
0
 62
     7
420
 16777215
370
     9
100
AcDbVertex
100
AcDb2dVertex
 10
142.4305043525222
 20
162.6854398557942
 30
0.0
  0
SEQEND
  5
350
330
34D
100
AcDbEntity
  8
0
370
     9
  0
POLYLINE
  5
351
330
33D
100
AcDbEntity
  8
0
 62
     7
420
 16777215
370
     9
100
AcDb2dPolyline
 66
     1
 10
0.0
 20
0.0
 30
0.0
  0
VERTEX
  5
352
330
351
100
AcDbEntity
  8
0
 62
     7
420
 16777215
370
     9
100
AcDbVertex
100
AcDb2dVertex
 10
142.4305043525222
 20
162.6854398557942
 30
0.0
  0
VERTEX
  5
353
330
351
100
AcDbEntity
  8
0
 62
     7
420
 16777215
370
     9
100
AcDbVertex
100
AcDb2dVertex
 10
146.0289089607132
 20
163.2852313754554
 30
0.0
  0
SEQEND
  5
354
330
351
100
AcDbEntity
  8
0
370
     9
  0
POLYLINE
  5
355
330
33D
100
AcDbEntity
  8
0
 62
     7
420
 16777215
370
     9
100
AcDb2dPolyline
 66
     1
 10
0.0
 20
0.0
 30
0.0
  0
VERTEX
  5
356
330
355
100
AcDbEntity
  8
0
 62
     7
420
 16777215
370
     9
100
AcDbVertex
100
AcDb2dVertex
 10
146.0289089607132
 20
162.0856483361331
 30
0.0
  0
VERTEX
  5
357
330
355
100
AcDbEntity
  8
0
 62
     7
420
 16777215
370
     9
100
AcDbVertex
100
AcDb2dVertex
 10
146.0289089607132
 20
163.2852313754554
 30
0.0
  0
SEQEND
  5
358
330
355
100
AcDbEntity
  8
0
370
     9
  0
ENDBLK
  5
340
330
33D
100
AcDbEntity
  8
0
100
AcDbBlockEnd
  0
BLOCK
  5
35B
330
359
100
AcDbEntity
  8
0
100
AcDbBlockBegin
  2
block 112
 70
     0
 71
     0
 10
0.0
 20
0.0
 30
0.0
  3
block 112
  1

  0
POLYLINE
  5
35D
330
359
100
AcDbEntity
  8
0
 62
     7
420
 16777215
370
     9
100
AcDb2dPolyline
 66
     1
 10
0.0
 20
0.0
 30
0.0
  0
VERTEX
  5
35E
330
35D
100
AcDbEntity
  8
0
 62
     7
420
 16777215
370
     9
100
AcDbVertex
100
AcDb2dVertex
 10
142.4322269014012
 20
162.6854398557942
 30
0.0
  0
VERTEX
  5
35F
330
35D
100
AcDbEntity
  8
0
 62
     7
420
 16777215
370
     9
100
AcDbVertex
100
AcDb2dVertex
 10
146.0289089607132
 20
162.6854398557942
 30
0.0
  0
SEQEND
  5
360
330
35D
100
AcDbEntity
  8
0
370
     9
  0
ENDBLK
  5
35C
330
359
100
AcDbEntity
  8
0
100
AcDbBlockEnd
  0
BLOCK
  5
363
330
361
100
AcDbEntity
  8
0
100
AcDbBlockBegin
  2
block 113
 70
     0
 71
     0
 10
0.0
 20
0.0
 30
0.0
  3
block 113
  1

  0
MTEXT
  5
365
330
361
100
AcDbEntity
  8
0
 62
     7
420
 16777215
100
AcDbMText
 10
164.1673486563814
 20
163.2099559894439
 30
0.0
 40
2.398890470823883
 41
0.0
 71
     7
 72
     1
  1
\fArial|b1|i0|c0|p34;\W0.75;78
 73
     1
 44
1.0
  0
ENDBLK
  5
364
330
361
100
AcDbEntity
  8
0
100
AcDbBlockEnd
  0
BLOCK
  5
368
330
366
100
AcDbEntity
  8
0
100
AcDbBlockBegin
  2
block 114
 70
     0
 71
     0
 10
0.0
 20
0.0
 30
0.0
  3
block 114
  1

  0
POLYLINE
  5
36A
330
366
100
AcDbEntity
  8
0
 62
     7
420
 16777215
370
     9
100
AcDb2dPolyline
 66
     1
 10
0.0
 20
0.0
 30
0.0
  0
VERTEX
  5
36B
330
36A
100
AcDbEntity
  8
0
 62
     7
420
 16777215
370
     9
100
AcDbVertex
100
AcDb2dVertex
 10
189.1887491626814
 20
183.7298195103032
 30
0.0
  0
VERTEX
  5
36C
330
36A
100
AcDbEntity
  8
0
 62
     7
420
 16777215
370
     9
100
AcDbVertex
100
AcDb2dVertex
 10
189.1887491626814
 20
183.7298195103032
 30
0.0
  0
SEQEND
  5
36D
330
36A
100
AcDbEntity
  8
0
370
     9
  0
ENDBLK
  5
369
330
366
100
AcDbEntity
  8
0
100
AcDbBlockEnd
  0
BLOCK
  5
370
330
36E
100
AcDbEntity
  8
0
100
AcDbBlockBegin
  2
block 115
 70
     0
 71
     0
 10
0.0
 20
0.0
 30
0.0
  3
block 115
  1

  0
POLYLINE
  5
372
330
36E
100
AcDbEntity
  8
0
 62
     7
420
 16777215
370
     9
100
AcDb2dPolyline
 66
     1
 10
0.0
 20
0.0
 30
0.0
  0
VERTEX
  5
373
330
372
100
AcDbEntity
  8
0
 62
     7
420
 16777215
370
     9
100
AcDbVertex
100
AcDb2dVertex
 10
142.4322269014012
 20
169.9151497557647
 30
0.0
  0
VERTEX
  5
374
330
372
100
AcDbEntity
  8
0
 62
     7
420
 16777215
370
     9
100
AcDbVertex
100
AcDb2dVertex
 10
142.4322269014012
 20
169.9151497557647
 30
0.0
  0
SEQEND
  5
375
330
372
100
AcDbEntity
  8
0
370
     9
  0
ENDBLK
  5
371
330
36E
100
AcDbEntity
  8
0
100
AcDbBlockEnd
  0
BLOCK
  5
378
330
376
100
AcDbEntity
  8
0
100
AcDbBlockBegin
  2
block 116
 70
     0
 71
     0
 10
0.0
 20
0.0
 30
0.0
  3
block 116
  1

  0
POLYLINE
  5
37A
330
376
100
AcDbEntity
  8
0
 62
     7
420
 16777215
370
     9
100
AcDb2dPolyline
 66
     1
 10
0.0
 20
0.0
 30
0.0
  0
VERTEX
  5
37B
330
37A
100
AcDbEntity
  8
0
 62
     7
420
 16777215
370
     9
100
AcDbVertex
100
AcDb2dVertex
 10
142.4322269014012
 20
162.6854398557942
 30
0.0
  0
VERTEX
  5
37C
330
37A
100
AcDbEntity
  8
0
 62
     7
420
 16777215
370
     9
100
AcDbVertex
100
AcDb2dVertex
 10
142.4322269014012
 20
162.6854398557942
 30
0.0
  0
SEQEND
  5
37D
330
37A
100
AcDbEntity
  8
0
370
     9
  0
ENDBLK
  5
379
330
376
100
AcDbEntity
  8
0
100
AcDbBlockEnd
  0
ENDSEC
  0
SECTION
  2
ENTITIES
  0
INSERT
  5
3C
330
1F
100
AcDbEntity
  8
0
100
AcDbBlockReference
  2
block 2
 10
0.0
 20
0.0
 30
0.0
  0
INSERT
  5
41
330
1F
100
AcDbEntity
  8
0
100
AcDbBlockReference
  2
block 3
 10
0.0
 20
0.0
 30
0.0
  0
INSERT
  5
49
330
1F
100
AcDbEntity
  8
0
100
AcDbBlockReference
  2
block 4
 10
0.0
 20
0.0
 30
0.0
  0
INSERT
  5
51
330
1F
100
AcDbEntity
  8
0
100
AcDbBlockReference
  2
block 5
 10
0.0
 20
0.0
 30
0.0
  0
INSERT
  5
56
330
1F
100
AcDbEntity
  8
0
100
AcDbBlockReference
  2
block 6
 10
0.0
 20
0.0
 30
0.0
  0
INSERT
  5
5B
330
1F
100
AcDbEntity
  8
0
100
AcDbBlockReference
  2
block 7
 10
0.0
 20
0.0
 30
0.0
  0
INSERT
  5
60
330
1F
100
AcDbEntity
  8
0
100
AcDbBlockReference
  2
block 8
 10
0.0
 20
0.0
 30
0.0
  0
INSERT
  5
65
330
1F
100
AcDbEntity
  8
0
100
AcDbBlockReference
  2
block 9
 10
0.0
 20
0.0
 30
0.0
  0
INSERT
  5
6A
330
1F
100
AcDbEntity
  8
0
100
AcDbBlockReference
  2
block 10
 10
0.0
 20
0.0
 30
0.0
  0
INSERT
  5
72
330
1F
100
AcDbEntity
  8
0
100
AcDbBlockReference
  2
block 11
 10
0.0
 20
0.0
 30
0.0
  0
INSERT
  5
7A
330
1F
100
AcDbEntity
  8
0
100
AcDbBlockReference
  2
block 12
 10
0.0
 20
0.0
 30
0.0
  0
INSERT
  5
82
330
1F
100
AcDbEntity
  8
0
100
AcDbBlockReference
  2
block 13
 10
0.0
 20
0.0
 30
0.0
  0
INSERT
  5
8A
330
1F
100
AcDbEntity
  8
0
100
AcDbBlockReference
  2
block 14
 10
0.0
 20
0.0
 30
0.0
  0
INSERT
  5
8F
330
1F
100
AcDbEntity
  8
0
100
AcDbBlockReference
  2
block 15
 10
0.0
 20
0.0
 30
0.0
  0
INSERT
  5
94
330
1F
100
AcDbEntity
  8
0
100
AcDbBlockReference
  2
block 16
 10
0.0
 20
0.0
 30
0.0
  0
INSERT
  5
99
330
1F
100
AcDbEntity
  8
0
100
AcDbBlockReference
  2
block 17
 10
0.0
 20
0.0
 30
0.0
  0
INSERT
  5
9E
330
1F
100
AcDbEntity
  8
0
100
AcDbBlockReference
  2
block 18
 10
0.0
 20
0.0
 30
0.0
  0
INSERT
  5
A6
330
1F
100
AcDbEntity
  8
0
100
AcDbBlockReference
  2
block 19
 10
0.0
 20
0.0
 30
0.0
  0
INSERT
  5
AE
330
1F
100
AcDbEntity
  8
0
100
AcDbBlockReference
  2
block 20
 10
0.0
 20
0.0
 30
0.0
  0
INSERT
  5
B3
330
1F
100
AcDbEntity
  8
0
100
AcDbBlockReference
  2
block 21
 10
0.0
 20
0.0
 30
0.0
  0
INSERT
  5
BB
330
1F
100
AcDbEntity
  8
0
100
AcDbBlockReference
  2
block 22
 10
0.0
 20
0.0
 30
0.0
  0
INSERT
  5
C3
330
1F
100
AcDbEntity
  8
0
100
AcDbBlockReference
  2
block 23
 10
0.0
 20
0.0
 30
0.0
  0
INSERT
  5
132
330
1F
100
AcDbEntity
  8
0
100
AcDbBlockReference
  2
block 36
 10
0.0
 20
0.0
 30
0.0
  0
INSERT
  5
13A
330
1F
100
AcDbEntity
  8
0
100
AcDbBlockReference
  2
block 37
 10
0.0
 20
0.0
 30
0.0
  0
INSERT
  5
142
330
1F
100
AcDbEntity
  8
0
100
AcDbBlockReference
  2
block 38
 10
0.0
 20
0.0
 30
0.0
  0
INSERT
  5
147
330
1F
100
AcDbEntity
  8
0
100
AcDbBlockReference
  2
block 39
 10
0.0
 20
0.0
 30
0.0
  0
INSERT
  5
14C
330
1F
100
AcDbEntity
  8
0
100
AcDbBlockReference
  2
block 40
 10
0.0
 20
0.0
 30
0.0
  0
INSERT
  5
151
330
1F
100
AcDbEntity
  8
0
100
AcDbBlockReference
  2
block 41
 10
0.0
 20
0.0
 30
0.0
  0
INSERT
  5
156
330
1F
100
AcDbEntity
  8
0
100
AcDbBlockReference
  2
block 42
 10
0.0
 20
0.0
 30
0.0
  0
INSERT
  5
15B
330
1F
100
AcDbEntity
  8
0
100
AcDbBlockReference
  2
block 43
 10
0.0
 20
0.0
 30
0.0
  0
INSERT
  5
163
330
1F
100
AcDbEntity
  8
0
100
AcDbBlockReference
  2
block 44
 10
0.0
 20
0.0
 30
0.0
  0
INSERT
  5
16B
330
1F
100
AcDbEntity
  8
0
100
AcDbBlockReference
  2
block 45
 10
0.0
 20
0.0
 30
0.0
  0
INSERT
  5
170
330
1F
100
AcDbEntity
  8
0
100
AcDbBlockReference
  2
block 46
 10
0.0
 20
0.0
 30
0.0
  0
INSERT
  5
175
330
1F
100
AcDbEntity
  8
0
100
AcDbBlockReference
  2
block 47
 10
0.0
 20
0.0
 30
0.0
  0
INSERT
  5
17A
330
1F
100
AcDbEntity
  8
0
100
AcDbBlockReference
  2
block 48
 10
0.0
 20
0.0
 30
0.0
  0
INSERT
  5
17F
330
1F
100
AcDbEntity
  8
0
100
AcDbBlockReference
  2
block 49
 10
0.0
 20
0.0
 30
0.0
  0
INSERT
  5
184
330
1F
100
AcDbEntity
  8
0
100
AcDbBlockReference
  2
block 50
 10
0.0
 20
0.0
 30
0.0
  0
INSERT
  5
18C
330
1F
100
AcDbEntity
  8
0
100
AcDbBlockReference
  2
block 51
 10
0.0
 20
0.0
 30
0.0
  0
INSERT
  5
194
330
1F
100
AcDbEntity
  8
0
100
AcDbBlockReference
  2
block 52
 10
0.0
 20
0.0
 30
0.0
  0
INSERT
  5
19C
330
1F
100
AcDbEntity
  8
0
100
AcDbBlockReference
  2
block 53
 10
0.0
 20
0.0
 30
0.0
  0
INSERT
  5
1A4
330
1F
100
AcDbEntity
  8
0
100
AcDbBlockReference
  2
block 54
 10
0.0
 20
0.0
 30
0.0
  0
INSERT
  5
1AC
330
1F
100
AcDbEntity
  8
0
100
AcDbBlockReference
  2
block 55
 10
0.0
 20
0.0
 30
0.0
  0
INSERT
  5
1B4
330
1F
100
AcDbEntity
  8
0
100
AcDbBlockReference
  2
block 56
 10
0.0
 20
0.0
 30
0.0
  0
INSERT
  5
1BC
330
1F
100
AcDbEntity
  8
0
100
AcDbBlockReference
  2
block 57
 10
0.0
 20
0.0
 30
0.0
  0
INSERT
  5
1C4
330
1F
100
AcDbEntity
  8
0
100
AcDbBlockReference
  2
block 58
 10
0.0
 20
0.0
 30
0.0
  0
INSERT
  5
1CC
330
1F
100
AcDbEntity
  8
0
100
AcDbBlockReference
  2
block 59
 10
0.0
 20
0.0
 30
0.0
  0
INSERT
  5
1D1
330
1F
100
AcDbEntity
  8
0
100
AcDbBlockReference
  2
block 60
 10
0.0
 20
0.0
 30
0.0
  0
INSERT
  5
1D6
330
1F
100
AcDbEntity
  8
0
100
AcDbBlockReference
  2
block 61
 10
0.0
 20
0.0
 30
0.0
  0
INSERT
  5
1DE
330
1F
100
AcDbEntity
  8
0
100
AcDbBlockReference
  2
block 62
 10
0.0
 20
0.0
 30
0.0
  0
INSERT
  5
1E6
330
1F
100
AcDbEntity
  8
0
100
AcDbBlockReference
  2
block 63
 10
0.0
 20
0.0
 30
0.0
  0
INSERT
  5
1EE
330
1F
100
AcDbEntity
  8
0
100
AcDbBlockReference
  2
block 64
 10
0.0
 20
0.0
 30
0.0
  0
INSERT
  5
1F6
330
1F
100
AcDbEntity
  8
0
100
AcDbBlockReference
  2
block 65
 10
0.0
 20
0.0
 30
0.0
  0
INSERT
  5
1FE
330
1F
100
AcDbEntity
  8
0
100
AcDbBlockReference
  2
block 66
 10
0.0
 20
0.0
 30
0.0
  0
INSERT
  5
206
330
1F
100
AcDbEntity
  8
0
100
AcDbBlockReference
  2
block 67
 10
0.0
 20
0.0
 30
0.0
  0
INSERT
  5
20E
330
1F
100
AcDbEntity
  8
0
100
AcDbBlockReference
  2
block 68
 10
0.0
 20
0.0
 30
0.0
  0
INSERT
  5
28D
330
1F
100
AcDbEntity
  8
0
100
AcDbBlockReference
  2
block 85
 10
0.0
 20
0.0
 30
0.0
  0
INSERT
  5
295
330
1F
100
AcDbEntity
  8
0
100
AcDbBlockReference
  2
block 86
 10
0.0
 20
0.0
 30
0.0
  0
INSERT
  5
29D
330
1F
100
AcDbEntity
  8
0
100
AcDbBlockReference
  2
block 87
 10
0.0
 20
0.0
 30
0.0
  0
INSERT
  5
2A5
330
1F
100
AcDbEntity
  8
0
100
AcDbBlockReference
  2
block 88
 10
0.0
 20
0.0
 30
0.0
  0
INSERT
  5
2AA
330
1F
100
AcDbEntity
  8
0
100
AcDbBlockReference
  2
block 89
 10
0.0
 20
0.0
 30
0.0
  0
INSERT
  5
2AF
330
1F
100
AcDbEntity
  8
0
100
AcDbBlockReference
  2
block 90
 10
0.0
 20
0.0
 30
0.0
  0
INSERT
  5
2B7
330
1F
100
AcDbEntity
  8
0
100
AcDbBlockReference
  2
block 91
 10
0.0
 20
0.0
 30
0.0
  0
INSERT
  5
2BF
330
1F
100
AcDbEntity
  8
0
100
AcDbBlockReference
  2
block 92
 10
0.0
 20
0.0
 30
0.0
  0
INSERT
  5
2C4
330
1F
100
AcDbEntity
  8
0
100
AcDbBlockReference
  2
block 93
 10
0.0
 20
0.0
 30
0.0
  0
INSERT
  5
2CC
330
1F
100
AcDbEntity
  8
0
100
AcDbBlockReference
  2
block 94
 10
0.0
 20
0.0
 30
0.0
  0
INSERT
  5
2D1
330
1F
100
AcDbEntity
  8
0
100
AcDbBlockReference
  2
block 95
 10
0.0
 20
0.0
 30
0.0
  0
INSERT
  5
2D6
330
1F
100
AcDbEntity
  8
0
100
AcDbBlockReference
  2
block 96
 10
0.0
 20
0.0
 30
0.0
  0
INSERT
  5
2DE
330
1F
100
AcDbEntity
  8
0
100
AcDbBlockReference
  2
block 97
 10
0.0
 20
0.0
 30
0.0
  0
INSERT
  5
2E3
330
1F
100
AcDbEntity
  8
0
100
AcDbBlockReference
  2
block 98
 10
0.0
 20
0.0
 30
0.0
  0
INSERT
  5
2E8
330
1F
100
AcDbEntity
  8
0
100
AcDbBlockReference
  2
block 99
 10
0.0
 20
0.0
 30
0.0
  0
INSERT
  5
2F0
330
1F
100
AcDbEntity
  8
0
100
AcDbBlockReference
  2
block 100
 10
0.0
 20
0.0
 30
0.0
  0
INSERT
  5
2F8
330
1F
100
AcDbEntity
  8
0
100
AcDbBlockReference
  2
block 101
 10
0.0
 20
0.0
 30
0.0
  0
ENDSEC
  0
SECTION
  2
OBJECTS
  0
DICTIONARY
  5
C
330
0
100
AcDbDictionary
281
     1
  3
ACAD_GROUP
350
D
  3
ACAD_LAYOUT
350
1A
  3
ACAD_MLINESTYLE
350
17
  3
ACAD_PLOTSETTINGS
350
19
  3
ACAD_PLOTSTYLENAME
350
E
  3
ACAD_TABLESTYLE
350
37E
  3
ACAD_VISUALSTYLE
350
2A
  0
DICTIONARY
  5
D
102
{ACAD_REACTORS
330
C
102
}
330
C
100
AcDbDictionary
281
     1
  0
DICTIONARY
  5
1A
102
{ACAD_REACTORS
330
C
102
}
330
C
100
AcDbDictionary
281
     1
  3
Layout1
350
1E
  3
Layout2
350
26
  3
Model
350
22
  0
DICTIONARY
  5
17
102
{ACAD_REACTORS
330
C
102
}
330
C
100
AcDbDictionary
281
     1
  3
Standard
350
18
  0
DICTIONARY
  5
19
102
{ACAD_REACTORS
330
C
102
}
330
C
100
AcDbDictionary
281
     1
  0
ACDBDICTIONARYWDFLT
  5
E
102
{ACAD_REACTORS
330
C
102
}
330
C
100
AcDbDictionary
281
     1
  3
Normal
350
F
100
AcDbDictionaryWithDefault
340
F
  0
DICTIONARY
  5
37E
102
{ACAD_REACTORS
330
C
102
}
330
C
100
AcDbDictionary
281
     1
  0
DICTIONARY
  5
2A
102
{ACAD_REACTORS
330
C
102
}
330
C
100
AcDbDictionary
281
     1
  3
2dWireframe
350
2F
  3
3D Hidden
350
31
  3
3dWireframe
350
30
  3
Basic
350
32
  3
Brighten
350
36
  3
ColorChange
350
3A
  3
Conceptual
350
34
  3
Dim
350
35
  3
Facepattern
350
39
  3
Flat
350
2B
  3
FlatWithEdges
350
2C
  3
Gouraud
350
2D
  3
GouraudWithEdges
350
2E
  3
Linepattern
350
38
  3
Realistic
350
33
  3
Thicken
350
37
  0
LAYOUT
  5
1E
102
{ACAD_REACTORS
330
1A
102
}
330
1A
100
AcDbPlotSettings
  1

  2
none_device
  4

  6

 40
0.0
 41
0.0
 42
0.0
 43
0.0
 44
0.0
 45
0.0
 46
0.0
 47
0.0
 48
0.0
 49
0.0
140
0.0
141
0.0
142
1.0
143
1.0
 70
   688
 72
     0
 73
     0
 74
     5
  7

 75
    16
 76
     0
 77
     2
 78
   300
147
1.0
148
0.0
149
0.0
100
AcDbLayout
  1
Layout1
 70
     1
 71
     1
 10
0.0
 20
0.0
 11
12.0
 21
9.0
 12
0.0
 22
0.0
 32
0.0
 14
1.000000000000000E+20
 24
1.000000000000000E+20
 34
1.000000000000000E+20
 15
-1.000000000000000E+20
 25
-1.000000000000000E+20
 35
-1.000000000000000E+20
146
0.0
 13
0.0
 23
0.0
 33
0.0
 16
1.0
 26
0.0
 36
0.0
 17
0.0
 27
1.0
 37
0.0
 76
     0
330
1B
  0
LAYOUT
  5
26
102
{ACAD_REACTORS
330
1A
102
}
330
1A
100
AcDbPlotSettings
  1

  2
none_device
  4

  6

 40
0.0
 41
0.0
 42
0.0
 43
0.0
 44
0.0
 45
0.0
 46
0.0
 47
0.0
 48
0.0
 49
0.0
140
0.0
141
0.0
142
1.0
143
1.0
 70
   688
 72
     0
 73
     0
 74
     5
  7

 75
    16
 76
     0
 77
     2
 78
   300
147
1.0
148
0.0
149
0.0
100
AcDbLayout
  1
Layout2
 70
     1
 71
     2
 10
0.0
 20
0.0
 11
0.0
 21
0.0
 12
0.0
 22
0.0
 32
0.0
 14
0.0
 24
0.0
 34
0.0
 15
0.0
 25
0.0
 35
0.0
146
0.0
 13
0.0
 23
0.0
 33
0.0
 16
1.0
 26
0.0
 36
0.0
 17
0.0
 27
1.0
 37
0.0
 76
     0
330
23
  0
LAYOUT
  5
22
102
{ACAD_REACTORS
330
1A
102
}
330
1A
100
AcDbPlotSettings
  1

  2
none_device
  4

  6

 40
0.0
 41
0.0
 42
0.0
 43
0.0
 44
0.0
 45
0.0
 46
0.0
 47
0.0
 48
0.0
 49
0.0
140
0.0
141
0.0
142
1.0
143
1.0
 70
  1712
 72
     0
 73
     0
 74
     0
  7

 75
     0
 76
     0
 77
     2
 78
   300
147
1.0
148
0.0
149
0.0
100
AcDbLayout
  1
Model
 70
     1
 71
     0
 10
0.0
 20
0.0
 11
12.0
 21
9.0
 12
0.0
 22
0.0
 32
0.0
 14
1.000000000000000E+20
 24
1.000000000000000E+20
 34
1.000000000000000E+20
 15
-1.000000000000000E+20
 25
-1.000000000000000E+20
 35
-1.000000000000000E+20
146
0.0
 13
0.0
 23
0.0
 33
0.0
 16
1.0
 26
0.0
 36
0.0
 17
0.0
 27
1.0
 37
0.0
 76
     0
330
1F
331
29
  0
MLINESTYLE
  5
18
102
{ACAD_REACTORS
330
17
102
}
330
17
100
AcDbMlineStyle
  2
Standard
 70
     0
  3

 62
   256
 51
90.0
 52
90.0
 71
     2
 49
0.5
 62
   256
  6
BYLAYER
 49
-0.5
 62
   256
  6
BYLAYER
  0
ACDBPLACEHOLDER
  5
F
102
{ACAD_REACTORS
330
E
102
}
330
E
  0
VISUALSTYLE
  5
2F
102
{ACAD_REACTORS
330
2A
102
}
330
2A
100
AcDbVisualStyle
  2
2dWireframe
 70
     4
 71
     0
 72
     2
 73
     0
 90
        0
 40
-0.6
 41
-30.0
 62
     5
 63
     7
421
 16777215
 74
     1
 91
        4
 64
     7
 65
   257
 75
     1
175
     1
 42
1.0
 92
        0
 66
   257
 43
1.0
 76
     1
 77
     6
 78
     2
 67
     7
 79
     5
170
     0
171
     0
290
     0
174
     0
 93
        1
 44
0.0
173
     0
291
     0
 45
0.0
1001
ACAD
1000
AcDbSavedByObjectVersion
1070
     0
  0
VISUALSTYLE
  5
31
102
{ACAD_REACTORS
330
2A
102
}
330
2A
100
AcDbVisualStyle
  2
3D Hidden
 70
     6
 71
     1
 72
     2
 73
     2
 90
        0
 40
-0.6
 41
-30.0
 62
     5
 63
     7
421
 16777215
 74
     2
 91
        2
 64
     7
 65
   257
 75
     2
175
     1
 42
40.0
 92
        0
 66
   257
 43
1.0
 76
     1
 77
     6
 78
     2
 67
     7
 79
     3
170
     0
171
     0
290
     0
174
     0
 93
        1
 44
0.0
173
     0
291
     0
 45
0.0
1001
ACAD
1000
AcDbSavedByObjectVersion
1070
     0
  0
VISUALSTYLE
  5
30
102
{ACAD_REACTORS
330
2A
102
}
330
2A
100
AcDbVisualStyle
  2
3dWireframe
 70
     5
 71
     0
 72
     2
 73
     0
 90
        0
 40
-0.6
 41
-30.0
 62
     5
 63
     7
421
 16777215
 74
     1
 91
        4
 64
     7
 65
   257
 75
     1
175
     1
 42
1.0
 92
        0
 66
   257
 43
1.0
 76
     1
 77
     6
 78
     2
 67
     7
 79
     5
170
     0
171
     0
290
     0
174
     0
 93
        1
 44
0.0
173
     0
291
     0
 45
0.0
1001
ACAD
1000
AcDbSavedByObjectVersion
1070
     0
  0
VISUALSTYLE
  5
32
102
{ACAD_REACTORS
330
2A
102
}
330
2A
100
AcDbVisualStyle
  2
Basic
 70
     7
 71
     1
 72
     0
 73
     1
 90
        0
 40
-0.6
 41
-30.0
 62
     5
 63
     7
421
 16777215
 74
     0
 91
        4
 64
     7
 65
   257
 75
     1
175
     1
 42
1.0
 92
        8
 66
     7
 43
1.0
 76
     1
 77
     6
 78
     2
 67
     7
 79
     5
170
     0
171
     0
290
     0
174
     0
 93
        1
 44
0.0
173
     0
291
     1
 45
0.0
1001
ACAD
1000
AcDbSavedByObjectVersion
1070
     0
  0
VISUALSTYLE
  5
36
102
{ACAD_REACTORS
330
2A
102
}
330
2A
100
AcDbVisualStyle
  2
Brighten
 70
    12
 71
     2
 72
     2
 73
     0
 90
        0
 40
-0.6
 41
-30.0
 62
     5
 63
     7
421
 16777215
 74
     1
 91
        4
 64
     7
 65
   257
 75
     1
175
     1
 42
1.0
 92
        8
 66
     7
 43
1.0
 76
     1
 77
     6
 78
     2
 67
     7
 79
     5
170
     0
171
     0
290
     0
174
     0
 93
        1
 44
50.0
173
     0
291
     1
 45
0.0
1001
ACAD
1000
AcDbSavedByObjectVersion
1070
     0
  0
VISUALSTYLE
  5
3A
102
{ACAD_REACTORS
330
2A
102
}
330
2A
100
AcDbVisualStyle
  2
ColorChange
 70
    16
 71
     2
 72
     2
 73
     3
 90
        0
 40
-0.6
 41
-30.0
 62
     5
 63
     8
421
  8421504
 74
     1
 91
        4
 64
     7
 65
   257
 75
     1
175
     1
 42
1.0
 92
        8
 66
     8
424
  8421504
 43
1.0
 76
     1
 77
     6
 78
     2
 67
     7
 79
     5
170
     0
171
     0
290
     0
174
     0
 93
        1
 44
0.0
173
     0
291
     1
 45
0.0
1001
ACAD
1000
AcDbSavedByObjectVersion
1070
     0
  0
VISUALSTYLE
  5
34
102
{ACAD_REACTORS
330
2A
102
}
330
2A
100
AcDbVisualStyle
  2
Conceptual
 70
     9
 71
     3
 72
     2
 73
     0
 90
        0
 40
-0.6
 41
-30.0
 62
     5
 63
     7
421
 16777215
 74
     2
 91
        2
 64
     7
 65
   257
 75
     1
175
     1
 42
40.0
 92
        8
 66
     7
 43
1.0
 76
     1
 77
     6
 78
     2
 67
     7
 79
     3
170
     0
171
     0
290
     0
174
     0
 93
        1
 44
0.0
173
     0
291
     0
 45
0.0
1001
ACAD
1000
AcDbSavedByObjectVersion
1070
     0
  0
VISUALSTYLE
  5
35
102
{ACAD_REACTORS
330
2A
102
}
330
2A
100
AcDbVisualStyle
  2
Dim
 70
    11
 71
     2
 72
     2
 73
     0
 90
        0
 40
-0.6
 41
-30.0
 62
     5
 63
     7
421
 16777215
 74
     1
 91
        4
 64
     7
 65
   257
 75
     1
175
     1
 42
1.0
 92
        8
 66
     7
 43
1.0
 76
     1
 77
     6
 78
     2
 67
     7
 79
     5
170
     0
171
     0
290
     0
174
     0
 93
        1
 44
-50.0
173
     0
291
     1
 45
0.0
1001
ACAD
1000
AcDbSavedByObjectVersion
1070
     0
  0
VISUALSTYLE
  5
39
102
{ACAD_REACTORS
330
2A
102
}
330
2A
100
AcDbVisualStyle
  2
Facepattern
 70
    15
 71
     2
 72
     2
 73
     0
 90
        0
 40
-0.6
 41
-30.0
 62
     5
 63
     7
421
 16777215
 74
     1
 91
        4
 64
     7
 65
   257
 75
     1
175
     1
 42
1.0
 92
        8
 66
     7
 43
1.0
 76
     1
 77
     6
 78
     2
 67
     7
 79
     5
170
     0
171
     0
290
     0
174
     0
 93
        1
 44
0.0
173
     0
291
     1
 45
0.0
1001
ACAD
1000
AcDbSavedByObjectVersion
1070
     0
  0
VISUALSTYLE
  5
2B
102
{ACAD_REACTORS
330
2A
102
}
330
2A
100
AcDbVisualStyle
  2
Flat
 70
     0
 71
     2
 72
     1
 73
     1
 90
        2
 40
-0.6
 41
30.0
 62
     5
 63
     7
421
 16777215
 74
     0
 91
        4
 64
     7
 65
   257
 75
     1
175
     1
 42
1.0
 92
        8
 66
     7
 43
1.0
 76
     1
 77
     6
 78
     2
 67
     7
 79
     5
170
     0
171
     0
290
     0
174
     0
 93
       13
 44
0.0
173
     0
291
     1
 45
0.0
1001
ACAD
1000
AcDbSavedByObjectVersion
1070
     0
  0
VISUALSTYLE
  5
2C
102
{ACAD_REACTORS
330
2A
102
}
330
2A
100
AcDbVisualStyle
  2
FlatWithEdges
 70
     1
 71
     2
 72
     1
 73
     1
 90
        2
 40
-0.6
 41
30.0
 62
     5
 63
     7
421
 16777215
 74
     1
 91
        4
 64
     7
 65
   257
 75
     1
175
     1
 42
1.0
 92
        0
 66
   257
 43
1.0
 76
     1
 77
     6
 78
     2
 67
     7
 79
     5
170
     0
171
     0
290
     0
174
     0
 93
       13
 44
0.0
173
     0
291
     1
 45
0.0
1001
ACAD
1000
AcDbSavedByObjectVersion
1070
     0
  0
VISUALSTYLE
  5
2D
102
{ACAD_REACTORS
330
2A
102
}
330
2A
100
AcDbVisualStyle
  2
Gouraud
 70
     2
 71
     2
 72
     2
 73
     1
 90
        2
 40
-0.6
 41
30.0
 62
     5
 63
     7
421
 16777215
 74
     0
 91
        4
 64
     7
 65
   257
 75
     1
175
     1
 42
1.0
 92
        0
 66
     7
 43
1.0
 76
     1
 77
     6
 78
     2
 67
     7
 79
     5
170
     0
171
     0
290
     0
174
     0
 93
       13
 44
0.0
173
     0
291
     1
 45
0.0
1001
ACAD
1000
AcDbSavedByObjectVersion
1070
     0
  0
VISUALSTYLE
  5
2E
102
{ACAD_REACTORS
330
2A
102
}
330
2A
100
AcDbVisualStyle
  2
GouraudWithEdges
 70
     3
 71
     2
 72
     2
 73
     1
 90
        2
 40
-0.6
 41
30.0
 62
     5
 63
     7
421
 16777215
 74
     1
 91
        4
 64
     7
 65
   257
 75
     1
175
     1
 42
1.0
 92
        0
 66
   257
 43
1.0
 76
     1
 77
     6
 78
     2
 67
     7
 79
     5
170
     0
171
     0
290
     0
174
     0
 93
       13
 44
0.0
173
     0
291
     1
 45
0.0
1001
ACAD
1000
AcDbSavedByObjectVersion
1070
     0
  0
VISUALSTYLE
  5
38
102
{ACAD_REACTORS
330
2A
102
}
330
2A
100
AcDbVisualStyle
  2
Linepattern
 70
    14
 71
     2
 72
     2
 73
     0
 90
        0
 40
-0.6
 41
-30.0
 62
     5
 63
     7
421
 16777215
 74
     1
 91
        4
 64
     7
 65
   257
 75
     7
175
     7
 42
1.0
 92
        8
 66
     7
 43
1.0
 76
     1
 77
     6
 78
     2
 67
     7
 79
     5
170
     0
171
     0
290
     0
174
     0
 93
        1
 44
0.0
173
     0
291
     1
 45
0.0
1001
ACAD
1000
AcDbSavedByObjectVersion
1070
     0
  0
VISUALSTYLE
  5
33
102
{ACAD_REACTORS
330
2A
102
}
330
2A
100
AcDbVisualStyle
  2
Realistic
 70
     8
 71
     2
 72
     2
 73
     0
 90
        0
 40
-0.6
 41
-30.0
 62
     5
 63
     7
421
 16777215
 74
     1
 91
        0
 64
     7
 65
   257
 75
     1
175
     1
 42
1.0
 92
        8
 66
     8
424
  7895160
 43
1.0
 76
     1
 77
     6
 78
     2
 67
     7
 79
     5
170
     0
171
     0
290
     0
174
     0
 93
       13
 44
0.0
173
     0
291
     0
 45
0.0
1001
ACAD
1000
AcDbSavedByObjectVersion
1070
     0
  0
VISUALSTYLE
  5
37
102
{ACAD_REACTORS
330
2A
102
}
330
2A
100
AcDbVisualStyle
  2
Thicken
 70
    13
 71
     2
 72
     2
 73
     0
 90
        0
 40
-0.6
 41
-30.0
 62
     5
 63
     7
421
 16777215
 74
     1
 91
        4
 64
     7
 65
   257
 75
     1
175
     1
 42
1.0
 92
       12
 66
     7
 43
1.0
 76
     1
 77
     6
 78
     2
 67
     7
 79
     5
170
     0
171
     0
290
     0
174
     0
 93
        1
 44
0.0
173
     0
291
     1
 45
0.0
1001
ACAD
1000
AcDbSavedByObjectVersion
1070
     0
  0
ENDSEC
  0
EOF
