  0
SECTION
  2
HEADER
  9
$ACADVER
  1
AC1018
  9
$ACADMAINTVER
 70
     0
  9
$DWGCODEPAGE
  3
ASCII
  9
$INSBASE
 10
0.0
 20
0.0
 30
0.0
  9
$EXTMIN
 10
1.000000000000000E+20
 20
1.000000000000000E+20
 30
1.000000000000000E+20
  9
$EXTMAX
 10
-1.000000000000000E+20
 20
-1.000000000000000E+20
 30
-1.000000000000000E+20
  9
$LIMMIN
 10
0.0
 20
0.0
  9
$LIMMAX
 10
12.0
 20
9.0
  9
$ORTHOMODE
 70
     0
  9
$REGENMODE
 70
     1
  9
$FILLMODE
 70
     1
  9
$QTEXTMODE
 70
     0
  9
$MIRRTEXT
 70
     1
  9
$LTSCALE
 40
1.0
  9
$ATTMODE
 70
     1
  9
$TEXTSIZE
 40
0.2
  9
$TRACEWID
 40
0.05
  9
$TEXTSTYLE
  7
Standard
  9
$CLAYER
  8
0
  9
$CELTYPE
  6
ByLayer
  9
$CECOLOR
 62
   256
  9
$CELTSCALE
 40
1.0
  9
$DISPSILH
 70
     0
  9
$DIMSCALE
 40
1.0
  9
$DIMASZ
 40
0.18
  9
$DIMEXO
 40
0.0625
  9
$DIMDLI
 40
0.38
  9
$DIMRND
 40
0.0
  9
$DIMDLE
 40
0.0
  9
$DIMEXE
 40
0.18
  9
$DIMTP
 40
0.0
  9
$DIMTM
 40
0.0
  9
$DIMTXT
 40
0.18
  9
$DIMCEN
 40
0.09
  9
$DIMTSZ
 40
0.0
  9
$DIMTOL
 70
     0
  9
$DIMLIM
 70
     0
  9
$DIMTIH
 70
     1
  9
$DIMTOH
 70
     1
  9
$DIMSE1
 70
     0
  9
$DIMSE2
 70
     0
  9
$DIMTAD
 70
     0
  9
$DIMZIN
 70
     0
  9
$DIMBLK
  1

  9
$DIMASO
 70
     1
  9
$DIMSHO
 70
     1
  9
$DIMPOST
  1

  9
$DIMAPOST
  1

  9
$DIMALT
 70
     0
  9
$DIMALTD
 70
     2
  9
$DIMALTF
 40
25.4
  9
$DIMLFAC
 40
1.0
  9
$DIMTOFL
 70
     0
  9
$DIMTVP
 40
0.0
  9
$DIMTIX
 70
     0
  9
$DIMSOXD
 70
     0
  9
$DIMSAH
 70
     0
  9
$DIMBLK1
  1

  9
$DIMBLK2
  1

  9
$DIMSTYLE
  2
Standard
  9
$DIMCLRD
 70
     0
  9
$DIMCLRE
 70
     0
  9
$DIMCLRT
 70
     0
  9
$DIMTFAC
 40
1.0
  9
$DIMGAP
 40
0.09
  9
$DIMJUST
 70
     0
  9
$DIMSD1
 70
     0
  9
$DIMSD2
 70
     0
  9
$DIMTOLJ
 70
     1
  9
$DIMTZIN
 70
     0
  9
$DIMALTZ
 70
     0
  9
$DIMALTTZ
 70
     0
  9
$DIMUPT
 70
     0
  9
$DIMDEC
 70
     4
  9
$DIMTDEC
 70
     4
  9
$DIMALTU
 70
     2
  9
$DIMALTTD
 70
     2
  9
$DIMTXSTY
  7
Standard
  9
$DIMAUNIT
 70
     0
  9
$DIMADEC
 70
     0
  9
$DIMALTRND
 40
0.0
  9
$DIMAZIN
 70
     0
  9
$DIMDSEP
 70
    46
  9
$DIMATFIT
 70
     3
  9
$DIMFRAC
 70
     0
  9
$DIMLDRBLK
  1

  9
$DIMLUNIT
 70
     2
  9
$DIMLWD
 70
    -2
  9
$DIMLWE
 70
    -2
  9
$DIMTMOVE
 70
     0
  9
$LUNITS
 70
     2
  9
$LUPREC
 70
     4
  9
$SKETCHINC
 40
0.1
  9
$FILLETRAD
 40
0.5
  9
$AUNITS
 70
     0
  9
$AUPREC
 70
     0
  9
$MENU
  1
.
  9
$ELEVATION
 40
0.0
  9
$PELEVATION
 40
0.0
  9
$THICKNESS
 40
0.0
  9
$LIMCHECK
 70
     0
  9
$CHAMFERA
 40
0.5
  9
$CHAMFERB
 40
0.5
  9
$CHAMFERC
 40
1.0
  9
$CHAMFERD
 40
0.0
  9
$SKPOLY
 70
     0
  9
$TDCREATE
 40
2456966.944095949
  9
$TDUCREATE
 40
2456966.902429282
  9
$TDUPDATE
 40
2456966.944095961
  9
$TDUUPDATE
 40
2456966.902429294
  9
$TDINDWG
 40
0.0000000116
  9
$TDUSRTIMER
 40
0.0000000116
  9
$USRTIMER
 70
     1
  9
$ANGBASE
 50
0.0
  9
$ANGDIR
 70
     0
  9
$PDMODE
 70
     0
  9
$PDSIZE
 40
0.0
  9
$PLINEWID
 40
0.0
  9
$SPLFRAME
 70
     0
  9
$SPLINETYPE
 70
     6
  9
$SPLINESEGS
 70
     8
  9
$HANDSEED
  5
25B
  9
$SURFTAB1
 70
     6
  9
$SURFTAB2
 70
     6
  9
$SURFTYPE
 70
     6
  9
$SURFU
 70
     6
  9
$SURFV
 70
     6
  9
$UCSBASE
  2

  9
$UCSNAME
  2

  9
$UCSORG
 10
0.0
 20
0.0
 30
0.0
  9
$UCSXDIR
 10
1.0
 20
0.0
 30
0.0
  9
$UCSYDIR
 10
0.0
 20
1.0
 30
0.0
  9
$UCSORTHOREF
  2

  9
$UCSORTHOVIEW
 70
     0
  9
$UCSORGTOP
 10
0.0
 20
0.0
 30
0.0
  9
$UCSORGBOTTOM
 10
0.0
 20
0.0
 30
0.0
  9
$UCSORGLEFT
 10
0.0
 20
0.0
 30
0.0
  9
$UCSORGRIGHT
 10
0.0
 20
0.0
 30
0.0
  9
$UCSORGFRONT
 10
0.0
 20
0.0
 30
0.0
  9
$UCSORGBACK
 10
0.0
 20
0.0
 30
0.0
  9
$PUCSBASE
  2

  9
$PUCSNAME
  2

  9
$PUCSORG
 10
0.0
 20
0.0
 30
0.0
  9
$PUCSXDIR
 10
1.0
 20
0.0
 30
0.0
  9
$PUCSYDIR
 10
0.0
 20
1.0
 30
0.0
  9
$PUCSORTHOREF
  2

  9
$PUCSORTHOVIEW
 70
     0
  9
$PUCSORGTOP
 10
0.0
 20
0.0
 30
0.0
  9
$PUCSORGBOTTOM
 10
0.0
 20
0.0
 30
0.0
  9
$PUCSORGLEFT
 10
0.0
 20
0.0
 30
0.0
  9
$PUCSORGRIGHT
 10
0.0
 20
0.0
 30
0.0
  9
$PUCSORGFRONT
 10
0.0
 20
0.0
 30
0.0
  9
$PUCSORGBACK
 10
0.0
 20
0.0
 30
0.0
  9
$USERI1
 70
     0
  9
$USERI2
 70
     0
  9
$USERI3
 70
     0
  9
$USERI4
 70
     0
  9
$USERI5
 70
     0
  9
$USERR1
 40
0.0
  9
$USERR2
 40
0.0
  9
$USERR3
 40
0.0
  9
$USERR4
 40
0.0
  9
$USERR5
 40
0.0
  9
$WORLDVIEW
 70
     1
  9
$SHADEDGE
 70
     3
  9
$SHADEDIF
 70
    70
  9
$TILEMODE
 70
     1
  9
$MAXACTVP
 70
    64
  9
$PINSBASE
 10
0.0
 20
0.0
 30
0.0
  9
$PLIMCHECK
 70
     0
  9
$PEXTMIN
 10
1.000000000000000E+20
 20
1.000000000000000E+20
 30
1.000000000000000E+20
  9
$PEXTMAX
 10
-1.000000000000000E+20
 20
-1.000000000000000E+20
 30
-1.000000000000000E+20
  9
$PLIMMIN
 10
0.0
 20
0.0
  9
$PLIMMAX
 10
12.0
 20
9.0
  9
$UNITMODE
 70
     0
  9
$VISRETAIN
 70
     1
  9
$PLINEGEN
 70
     0
  9
$PSLTSCALE
 70
     1
  9
$TREEDEPTH
 70
  3020
  9
$CMLSTYLE
  2
Standard
  9
$CMLJUST
 70
     0
  9
$CMLSCALE
 40
1.0
  9
$PROXYGRAPHICS
 70
     1
  9
$MEASUREMENT
 70
     0
  9
$CELWEIGHT
370
    -1
  9
$ENDCAPS
280
     0
  9
$JOINSTYLE
280
     0
  9
$LWDISPLAY
290
     1
  9
$INSUNITS
 70
     1
  9
$HYPERLINKBASE
  1

  9
$STYLESHEET
  1

  9
$XEDIT
290
     1
  9
$CEPSNTYPE
380
     0
  9
$PSTYLEMODE
290
     1
  9
$FINGERPRINTGUID
  2
{4C5728AB-F75B-4AC2-910F-44250EB0B6CC}
  9
$VERSIONGUID
  2
{FAEB1C32-E019-11D5-929B-00C0DF256EC4}
  9
$EXTNAMES
290
     1
  9
$PSVPSCALE
 40
0.0
  9
$OLESTARTUP
290
     0
  9
$SORTENTS
280
   127
  9
$INDEXCTL
280
     0
  9
$HIDETEXT
280
     1
  9
$XCLIPFRAME
290
     0
  9
$HALOGAP
280
     0
  9
$OBSCOLOR
 70
   257
  9
$OBSLTYPE
280
     0
  9
$INTERSECTIONDISPLAY
280
     0
  9
$INTERSECTIONCOLOR
 70
   257
  9
$DIMASSOC
280
     2
  9
$PROJECTNAME
  1

  0
ENDSEC
  0
SECTION
  2
CLASSES
  0
CLASS
  1
ACDBDICTIONARYWDFLT
  2
AcDbDictionaryWithDefault
  3
ObjectDBX Classes
 90
        0
 91
        3
280
     0
281
     0
  0
CLASS
  1
VISUALSTYLE
  2
AcDbVisualStyle
  3
ObjectDBX Classes
 90
     4095
 91
        3
280
     0
281
     0
  0
ENDSEC
  0
SECTION
  2
TABLES
  0
TABLE
  2
VPORT
  5
8
330
0
100
AcDbSymbolTable
 70
     1
  0
VPORT
  5
29
330
8
100
AcDbSymbolTableRecord
100
AcDbViewportTableRecord
  2
*Active
 70
     0
 10
0.0
 20
0.0
 11
1.0
 21
1.0
 12
0.0
 22
0.0
 13
0.0
 23
0.0
 14
0.5
 24
0.5
 15
0.5
 25
0.5
 16
0.0
 26
0.0
 36
1.0
 17
105.0008091239277
 27
148.5001637099431
 37
0.0
 40
297.0003274198861
 41
0.7070753762199199
 42
50.0
 43
0.0
 44
0.0
 50
0.0
 51
0.0
 71
     0
 72
   100
 73
     1
 74
     3
 75
     0
 76
     0
 77
     0
 78
     0
281
     0
 65
     1
110
0.0
120
0.0
130
0.0
111
1.0
121
0.0
131
0.0
112
0.0
122
1.0
132
0.0
 79
     0
146
0.0
  0
ENDTAB
  0
TABLE
  2
LTYPE
  5
5
330
0
100
AcDbSymbolTable
 70
     1
  0
LTYPE
  5
14
330
5
100
AcDbSymbolTableRecord
100
AcDbLinetypeTableRecord
  2
ByBlock
 70
     0
  3

 72
    65
 73
     0
 40
0.0
  0
LTYPE
  5
15
330
5
100
AcDbSymbolTableRecord
100
AcDbLinetypeTableRecord
  2
ByLayer
 70
     0
  3

 72
    65
 73
     0
 40
0.0
  0
LTYPE
  5
16
330
5
100
AcDbSymbolTableRecord
100
AcDbLinetypeTableRecord
  2
Continuous
 70
     0
  3
Solid line
 72
    65
 73
     0
 40
0.0
  0
ENDTAB
  0
TABLE
  2
LAYER
  5
2
330
0
100
AcDbSymbolTable
 70
     1
  0
LAYER
  5
10
330
2
100
AcDbSymbolTableRecord
100
AcDbLayerTableRecord
  2
0
 70
     0
 62
     7
  6
Continuous
370
    -3
390
F
  0
ENDTAB
  0
TABLE
  2
STYLE
  5
3
330
0
100
AcDbSymbolTable
 70
     1
  0
STYLE
  5
11
330
3
100
AcDbSymbolTableRecord
100
AcDbTextStyleTableRecord
  2
Standard
 70
     0
 40
0.0
 41
1.0
 50
0.0
 71
     0
 42
0.2
  3
txt
  4

  0
ENDTAB
  0
TABLE
  2
VIEW
  5
6
330
0
100
AcDbSymbolTable
 70
     0
  0
ENDTAB
  0
TABLE
  2
UCS
  5
7
330
0
100
AcDbSymbolTable
 70
     0
  0
ENDTAB
  0
TABLE
  2
APPID
  5
9
330
0
100
AcDbSymbolTable
 70
     1
  0
APPID
  5
12
330
9
100
AcDbSymbolTableRecord
100
AcDbRegAppTableRecord
  2
ACAD
 70
     0
  0
ENDTAB
  0
TABLE
  2
DIMSTYLE
  5
A
330
0
100
AcDbSymbolTable
 70
     1
100
AcDbDimStyleTable
  0
DIMSTYLE
105
27
330
A
100
AcDbSymbolTableRecord
100
AcDbDimStyleTableRecord
  2
Standard
 70
     0
340
11
  0
ENDTAB
  0
TABLE
  2
BLOCK_RECORD
  5
1
330
0
100
AcDbSymbolTable
 70
    78
  0
BLOCK_RECORD
  5
1F
330
1
100
AcDbSymbolTableRecord
100
AcDbBlockTableRecord
  2
*Model_Space
340
22
  0
BLOCK_RECORD
  5
1B
330
1
100
AcDbSymbolTableRecord
100
AcDbBlockTableRecord
  2
*Paper_Space
340
1E
  0
BLOCK_RECORD
  5
23
330
1
100
AcDbSymbolTableRecord
100
AcDbBlockTableRecord
  2
*Paper_Space0
340
26
  0
BLOCK_RECORD
  5
3B
330
1
100
AcDbSymbolTableRecord
100
AcDbBlockTableRecord
  2
block 2
340
0
102
{BLKREFS
331
3C
102
}
  0
BLOCK_RECORD
  5
40
330
1
100
AcDbSymbolTableRecord
100
AcDbBlockTableRecord
  2
block 3
340
0
102
{BLKREFS
331
41
102
}
  0
BLOCK_RECORD
  5
45
330
1
100
AcDbSymbolTableRecord
100
AcDbBlockTableRecord
  2
block 4
340
0
102
{BLKREFS
331
46
102
}
  0
BLOCK_RECORD
  5
4A
330
1
100
AcDbSymbolTableRecord
100
AcDbBlockTableRecord
  2
block 5
340
0
102
{BLKREFS
331
4B
102
}
  0
BLOCK_RECORD
  5
4F
330
1
100
AcDbSymbolTableRecord
100
AcDbBlockTableRecord
  2
block 6
340
0
102
{BLKREFS
331
50
102
}
  0
BLOCK_RECORD
  5
57
330
1
100
AcDbSymbolTableRecord
100
AcDbBlockTableRecord
  2
block 7
340
0
102
{BLKREFS
331
58
102
}
  0
BLOCK_RECORD
  5
5F
330
1
100
AcDbSymbolTableRecord
100
AcDbBlockTableRecord
  2
block 8
340
0
102
{BLKREFS
331
60
102
}
  0
BLOCK_RECORD
  5
67
330
1
100
AcDbSymbolTableRecord
100
AcDbBlockTableRecord
  2
block 9
340
0
102
{BLKREFS
331
68
102
}
  0
BLOCK_RECORD
  5
6F
330
1
100
AcDbSymbolTableRecord
100
AcDbBlockTableRecord
  2
block 10
340
0
102
{BLKREFS
331
70
102
}
  0
BLOCK_RECORD
  5
74
330
1
100
AcDbSymbolTableRecord
100
AcDbBlockTableRecord
  2
block 11
340
0
102
{BLKREFS
331
75
102
}
  0
BLOCK_RECORD
  5
79
330
1
100
AcDbSymbolTableRecord
100
AcDbBlockTableRecord
  2
block 12
340
0
102
{BLKREFS
331
7A
102
}
  0
BLOCK_RECORD
  5
81
330
1
100
AcDbSymbolTableRecord
100
AcDbBlockTableRecord
  2
block 13
340
0
102
{BLKREFS
331
82
102
}
  0
BLOCK_RECORD
  5
89
330
1
100
AcDbSymbolTableRecord
100
AcDbBlockTableRecord
  2
block 14
340
0
102
{BLKREFS
331
8A
102
}
  0
BLOCK_RECORD
  5
91
330
1
100
AcDbSymbolTableRecord
100
AcDbBlockTableRecord
  2
block 15
340
0
102
{BLKREFS
331
92
102
}
  0
BLOCK_RECORD
  5
99
330
1
100
AcDbSymbolTableRecord
100
AcDbBlockTableRecord
  2
block 16
340
0
102
{BLKREFS
331
9A
102
}
  0
BLOCK_RECORD
  5
9E
330
1
100
AcDbSymbolTableRecord
100
AcDbBlockTableRecord
  2
block 17
340
0
102
{BLKREFS
331
9F
102
}
  0
BLOCK_RECORD
  5
A3
330
1
100
AcDbSymbolTableRecord
100
AcDbBlockTableRecord
  2
block 18
340
0
102
{BLKREFS
331
A4
102
}
  0
BLOCK_RECORD
  5
A8
330
1
100
AcDbSymbolTableRecord
100
AcDbBlockTableRecord
  2
block 19
340
0
102
{BLKREFS
331
A9
102
}
  0
BLOCK_RECORD
  5
AD
330
1
100
AcDbSymbolTableRecord
100
AcDbBlockTableRecord
  2
block 20
340
0
102
{BLKREFS
331
AE
102
}
  0
BLOCK_RECORD
  5
B2
330
1
100
AcDbSymbolTableRecord
100
AcDbBlockTableRecord
  2
block 21
340
0
102
{BLKREFS
331
B3
102
}
  0
BLOCK_RECORD
  5
B7
330
1
100
AcDbSymbolTableRecord
100
AcDbBlockTableRecord
  2
block 22
340
0
102
{BLKREFS
331
B8
102
}
  0
BLOCK_RECORD
  5
BC
330
1
100
AcDbSymbolTableRecord
100
AcDbBlockTableRecord
  2
block 23
340
0
102
{BLKREFS
331
BD
102
}
  0
BLOCK_RECORD
  5
C1
330
1
100
AcDbSymbolTableRecord
100
AcDbBlockTableRecord
  2
block 24
340
0
102
{BLKREFS
331
C2
102
}
  0
BLOCK_RECORD
  5
C6
330
1
100
AcDbSymbolTableRecord
100
AcDbBlockTableRecord
  2
block 25
340
0
102
{BLKREFS
331
C7
102
}
  0
BLOCK_RECORD
  5
CE
330
1
100
AcDbSymbolTableRecord
100
AcDbBlockTableRecord
  2
block 26
340
0
102
{BLKREFS
331
CF
102
}
  0
BLOCK_RECORD
  5
D6
330
1
100
AcDbSymbolTableRecord
100
AcDbBlockTableRecord
  2
block 27
340
0
102
{BLKREFS
331
D7
102
}
  0
BLOCK_RECORD
  5
DE
330
1
100
AcDbSymbolTableRecord
100
AcDbBlockTableRecord
  2
block 28
340
0
102
{BLKREFS
331
DF
102
}
  0
BLOCK_RECORD
  5
E6
330
1
100
AcDbSymbolTableRecord
100
AcDbBlockTableRecord
  2
block 29
340
0
102
{BLKREFS
331
E7
102
}
  0
BLOCK_RECORD
  5
EB
330
1
100
AcDbSymbolTableRecord
100
AcDbBlockTableRecord
  2
block 30
340
0
102
{BLKREFS
331
EC
102
}
  0
BLOCK_RECORD
  5
F0
330
1
100
AcDbSymbolTableRecord
100
AcDbBlockTableRecord
  2
block 31
340
0
102
{BLKREFS
331
F1
102
}
  0
BLOCK_RECORD
  5
F8
330
1
100
AcDbSymbolTableRecord
100
AcDbBlockTableRecord
  2
block 32
340
0
102
{BLKREFS
331
F9
102
}
  0
BLOCK_RECORD
  5
100
330
1
100
AcDbSymbolTableRecord
100
AcDbBlockTableRecord
  2
block 33
340
0
102
{BLKREFS
331
101
102
}
  0
BLOCK_RECORD
  5
105
330
1
100
AcDbSymbolTableRecord
100
AcDbBlockTableRecord
  2
block 34
340
0
102
{BLKREFS
331
106
102
}
  0
BLOCK_RECORD
  5
10A
330
1
100
AcDbSymbolTableRecord
100
AcDbBlockTableRecord
  2
block 35
340
0
102
{BLKREFS
331
10B
102
}
  0
BLOCK_RECORD
  5
10F
330
1
100
AcDbSymbolTableRecord
100
AcDbBlockTableRecord
  2
block 36
340
0
102
{BLKREFS
331
110
102
}
  0
BLOCK_RECORD
  5
114
330
1
100
AcDbSymbolTableRecord
100
AcDbBlockTableRecord
  2
block 37
340
0
102
{BLKREFS
331
115
102
}
  0
BLOCK_RECORD
  5
11C
330
1
100
AcDbSymbolTableRecord
100
AcDbBlockTableRecord
  2
block 38
340
0
102
{BLKREFS
331
11D
102
}
  0
BLOCK_RECORD
  5
124
330
1
100
AcDbSymbolTableRecord
100
AcDbBlockTableRecord
  2
block 39
340
0
102
{BLKREFS
331
125
102
}
  0
BLOCK_RECORD
  5
12C
330
1
100
AcDbSymbolTableRecord
100
AcDbBlockTableRecord
  2
block 40
340
0
102
{BLKREFS
331
12D
102
}
  0
BLOCK_RECORD
  5
134
330
1
100
AcDbSymbolTableRecord
100
AcDbBlockTableRecord
  2
block 41
340
0
102
{BLKREFS
331
135
102
}
  0
BLOCK_RECORD
  5
13C
330
1
100
AcDbSymbolTableRecord
100
AcDbBlockTableRecord
  2
block 42
340
0
102
{BLKREFS
331
13D
102
}
  0
BLOCK_RECORD
  5
141
330
1
100
AcDbSymbolTableRecord
100
AcDbBlockTableRecord
  2
block 43
340
0
102
{BLKREFS
331
142
102
}
  0
BLOCK_RECORD
  5
146
330
1
100
AcDbSymbolTableRecord
100
AcDbBlockTableRecord
  2
block 44
340
0
102
{BLKREFS
331
147
102
}
  0
BLOCK_RECORD
  5
14B
330
1
100
AcDbSymbolTableRecord
100
AcDbBlockTableRecord
  2
block 45
340
0
102
{BLKREFS
331
14C
102
}
  0
BLOCK_RECORD
  5
150
330
1
100
AcDbSymbolTableRecord
100
AcDbBlockTableRecord
  2
block 46
340
0
102
{BLKREFS
331
151
102
}
  0
BLOCK_RECORD
  5
158
330
1
100
AcDbSymbolTableRecord
100
AcDbBlockTableRecord
  2
block 47
340
0
102
{BLKREFS
331
159
102
}
  0
BLOCK_RECORD
  5
160
330
1
100
AcDbSymbolTableRecord
100
AcDbBlockTableRecord
  2
block 48
340
0
102
{BLKREFS
331
161
102
}
  0
BLOCK_RECORD
  5
168
330
1
100
AcDbSymbolTableRecord
100
AcDbBlockTableRecord
  2
block 49
340
0
102
{BLKREFS
331
169
102
}
  0
BLOCK_RECORD
  5
16D
330
1
100
AcDbSymbolTableRecord
100
AcDbBlockTableRecord
  2
block 50
340
0
102
{BLKREFS
331
16E
102
}
  0
BLOCK_RECORD
  5
172
330
1
100
AcDbSymbolTableRecord
100
AcDbBlockTableRecord
  2
block 51
340
0
102
{BLKREFS
331
173
102
}
  0
BLOCK_RECORD
  5
177
330
1
100
AcDbSymbolTableRecord
100
AcDbBlockTableRecord
  2
block 52
340
0
102
{BLKREFS
331
178
102
}
  0
BLOCK_RECORD
  5
17F
330
1
100
AcDbSymbolTableRecord
100
AcDbBlockTableRecord
  2
block 53
340
0
102
{BLKREFS
331
180
102
}
  0
BLOCK_RECORD
  5
183
330
1
100
AcDbSymbolTableRecord
100
AcDbBlockTableRecord
  2
block 54
340
0
102
{BLKREFS
331
184
102
}
  0
BLOCK_RECORD
  5
187
330
1
100
AcDbSymbolTableRecord
100
AcDbBlockTableRecord
  2
block 55
340
0
102
{BLKREFS
331
188
102
}
  0
BLOCK_RECORD
  5
18F
330
1
100
AcDbSymbolTableRecord
100
AcDbBlockTableRecord
  2
block 56
340
0
102
{BLKREFS
331
190
102
}
  0
BLOCK_RECORD
  5
193
330
1
100
AcDbSymbolTableRecord
100
AcDbBlockTableRecord
  2
block 57
340
0
102
{BLKREFS
331
194
102
}
  0
BLOCK_RECORD
  5
197
330
1
100
AcDbSymbolTableRecord
100
AcDbBlockTableRecord
  2
block 58
340
0
102
{BLKREFS
331
198
102
}
  0
BLOCK_RECORD
  5
19B
330
1
100
AcDbSymbolTableRecord
100
AcDbBlockTableRecord
  2
block 59
340
0
102
{BLKREFS
331
19C
102
}
  0
BLOCK_RECORD
  5
1AD
330
1
100
AcDbSymbolTableRecord
100
AcDbBlockTableRecord
  2
block 60
340
0
102
{BLKREFS
331
1AE
102
}
  0
BLOCK_RECORD
  5
1C9
330
1
100
AcDbSymbolTableRecord
100
AcDbBlockTableRecord
  2
block 61
340
0
102
{BLKREFS
331
1CA
102
}
  0
BLOCK_RECORD
  5
1D1
330
1
100
AcDbSymbolTableRecord
100
AcDbBlockTableRecord
  2
block 62
340
0
102
{BLKREFS
331
1D2
102
}
  0
BLOCK_RECORD
  5
1D9
330
1
100
AcDbSymbolTableRecord
100
AcDbBlockTableRecord
  2
block 63
340
0
102
{BLKREFS
331
1DA
102
}
  0
BLOCK_RECORD
  5
1E1
330
1
100
AcDbSymbolTableRecord
100
AcDbBlockTableRecord
  2
block 64
340
0
102
{BLKREFS
331
1E2
102
}
  0
BLOCK_RECORD
  5
1E9
330
1
100
AcDbSymbolTableRecord
100
AcDbBlockTableRecord
  2
block 65
340
0
102
{BLKREFS
331
1EA
102
}
  0
BLOCK_RECORD
  5
1EE
330
1
100
AcDbSymbolTableRecord
100
AcDbBlockTableRecord
  2
block 66
340
0
102
{BLKREFS
331
1EF
102
}
  0
BLOCK_RECORD
  5
1F2
330
1
100
AcDbSymbolTableRecord
100
AcDbBlockTableRecord
  2
block 67
340
0
102
{BLKREFS
331
1F3
102
}
  0
BLOCK_RECORD
  5
1FA
330
1
100
AcDbSymbolTableRecord
100
AcDbBlockTableRecord
  2
block 68
340
0
102
{BLKREFS
331
1FB
102
}
  0
BLOCK_RECORD
  5
202
330
1
100
AcDbSymbolTableRecord
100
AcDbBlockTableRecord
  2
block 69
340
0
102
{BLKREFS
331
203
102
}
  0
BLOCK_RECORD
  5
207
330
1
100
AcDbSymbolTableRecord
100
AcDbBlockTableRecord
  2
block 70
340
0
102
{BLKREFS
331
208
102
}
  0
BLOCK_RECORD
  5
20B
330
1
100
AcDbSymbolTableRecord
100
AcDbBlockTableRecord
  2
block 71
340
0
102
{BLKREFS
331
20C
102
}
  0
BLOCK_RECORD
  5
20F
330
1
100
AcDbSymbolTableRecord
100
AcDbBlockTableRecord
  2
block 72
340
0
102
{BLKREFS
331
210
102
}
  0
BLOCK_RECORD
  5
213
330
1
100
AcDbSymbolTableRecord
100
AcDbBlockTableRecord
  2
block 73
340
0
102
{BLKREFS
331
214
102
}
  0
BLOCK_RECORD
  5
225
330
1
100
AcDbSymbolTableRecord
100
AcDbBlockTableRecord
  2
block 74
340
0
102
{BLKREFS
331
226
102
}
  0
BLOCK_RECORD
  5
23A
330
1
100
AcDbSymbolTableRecord
100
AcDbBlockTableRecord
  2
block 75
340
0
102
{BLKREFS
331
23B
102
}
  0
BLOCK_RECORD
  5
242
330
1
100
AcDbSymbolTableRecord
100
AcDbBlockTableRecord
  2
block 76
340
0
102
{BLKREFS
331
243
102
}
  0
BLOCK_RECORD
  5
24A
330
1
100
AcDbSymbolTableRecord
100
AcDbBlockTableRecord
  2
block 77
340
0
102
{BLKREFS
331
24B
102
}
  0
BLOCK_RECORD
  5
252
330
1
100
AcDbSymbolTableRecord
100
AcDbBlockTableRecord
  2
block 78
340
0
102
{BLKREFS
331
253
102
}
  0
ENDTAB
  0
ENDSEC
  0
SECTION
  2
BLOCKS
  0
BLOCK
  5
20
330
1F
100
AcDbEntity
  8
0
100
AcDbBlockBegin
  2
*Model_Space
 70
     0
 71
     0
 10
0.0
 20
0.0
 30
0.0
  3
*Model_Space
  1

  0
ENDBLK
  5
21
330
1F
100
AcDbEntity
  8
0
100
AcDbBlockEnd
  0
BLOCK
  5
1C
330
1B
100
AcDbEntity
 67
     1
  8
0
100
AcDbBlockBegin
  2
*Paper_Space
 70
     0
 71
     0
 10
0.0
 20
0.0
 30
0.0
  3
*Paper_Space
  1

  0
ENDBLK
  5
1D
330
1B
100
AcDbEntity
 67
     1
  8
0
100
AcDbBlockEnd
  0
BLOCK
  5
24
330
23
100
AcDbEntity
  8
0
100
AcDbBlockBegin
  2
*Paper_Space0
 70
     0
 71
     0
 10
0.0
 20
0.0
 30
0.0
  3
*Paper_Space0
  1

  0
ENDBLK
  5
25
330
23
100
AcDbEntity
  8
0
100
AcDbBlockEnd
  0
BLOCK
  5
3D
330
3B
100
AcDbEntity
  8
0
100
AcDbBlockBegin
  2
block 2
 70
     0
 71
     0
 10
0.0
 20
0.0
 30
0.0
  3
block 2
  1

  0
SPLINE
  5
3F
330
3B
100
AcDbEntity
  8
0
 62
     7
370
     9
100
AcDbSpline
210
0.0
220
0.0
230
1.0
 70
     8
 71
     3
 72
    14
 73
    10
 74
     0
 42
0.0000000001
 43
0.0000000001
 40
0.0
 40
0.0
 40
0.0
 40
0.0
 40
1.0
 40
1.0
 40
1.0
 40
2.0
 40
2.0
 40
2.0
 40
3.0
 40
3.0
 40
3.0
 40
3.0
 10
38.47020087894289
 20
182.7794892937695
 30
0.0
 10
38.47020087894289
 20
173.5373255384857
 30
0.0
 10
45.96259948295797
 20
166.0450991893585
 30
0.0
 10
55.20476323824179
 20
166.0450991893585
 30
0.0
 10
64.44692699352561
 20
166.0450991893585
 30
0.0
 10
71.93932559754069
 20
173.5373255384857
 30
0.0
 10
71.93932559754069
 20
182.7794892937695
 30
0.0
 10
71.93932559754069
 20
182.7794892937695
 30
0.0
 10
71.93932559754069
 20
182.7794892937695
 30
0.0
 10
71.93932559754069
 20
182.7794892937695
 30
0.0
  0
ENDBLK
  5
3E
330
3B
100
AcDbEntity
  8
0
100
AcDbBlockEnd
  0
BLOCK
  5
42
330
40
100
AcDbEntity
  8
0
100
AcDbBlockBegin
  2
block 3
 70
     0
 71
     0
 10
0.0
 20
0.0
 30
0.0
  3
block 3
  1

  0
SPLINE
  5
44
330
40
100
AcDbEntity
  8
0
 62
     7
370
     9
100
AcDbSpline
210
0.0
220
0.0
230
1.0
 70
     8
 71
     3
 72
    14
 73
    10
 74
     0
 42
0.0000000001
 43
0.0000000001
 40
0.0
 40
0.0
 40
0.0
 40
0.0
 40
1.0
 40
1.0
 40
1.0
 40
2.0
 40
2.0
 40
2.0
 40
3.0
 40
3.0
 40
3.0
 40
3.0
 10
71.93932559754069
 20
182.7794892937695
 30
0.0
 10
71.93932559754069
 20
192.0218253039412
 30
0.0
 10
64.44692699352561
 20
199.5140516530684
 30
0.0
 10
55.20476323824179
 20
199.5140516530684
 30
0.0
 10
45.96259948295797
 20
199.5140516530684
 30
0.0
 10
38.47020087894289
 20
192.0218253039412
 30
0.0
 10
38.47020087894289
 20
182.7794892937695
 30
0.0
 10
38.47020087894289
 20
182.7794892937695
 30
0.0
 10
38.47020087894289
 20
182.7794892937695
 30
0.0
 10
38.47020087894289
 20
182.7794892937695
 30
0.0
  0
ENDBLK
  5
43
330
40
100
AcDbEntity
  8
0
100
AcDbBlockEnd
  0
BLOCK
  5
47
330
45
100
AcDbEntity
  8
0
100
AcDbBlockBegin
  2
block 4
 70
     0
 71
     0
 10
0.0
 20
0.0
 30
0.0
  3
block 4
  1

  0
SPLINE
  5
49
330
45
100
AcDbEntity
  8
0
 62
     7
370
     9
100
AcDbSpline
210
0.0
220
0.0
230
1.0
 70
    11
 71
     3
 72
    23
 73
    19
 74
     0
 42
0.0000000001
 43
0.0000000001
 40
0.0
 40
0.0
 40
0.0
 40
0.0
 40
1.0
 40
1.0
 40
1.0
 40
2.0
 40
2.0
 40
2.0
 40
3.0
 40
3.0
 40
3.0
 40
4.0
 40
4.0
 40
4.0
 40
5.0
 40
5.0
 40
5.0
 40
6.0
 40
6.0
 40
6.0
 40
6.0
 10
83.09558566714803
 20
182.7794892937695
 30
0.0
 10
83.09558566714803
 20
198.1832103891678
 30
0.0
 10
70.60848433364009
 20
210.6703117226757
 30
0.0
 10
55.20476323824179
 20
210.6703117226757
 30
0.0
 10
39.80104214284349
 20
210.6703117226757
 30
0.0
 10
27.31394080933555
 20
198.1832103891678
 30
0.0
 10
27.31394080933555
 20
182.7794892937695
 30
0.0
 10
27.31394080933555
 20
167.3757681983712
 30
0.0
 10
39.80104214284349
 20
154.8886668648632
 30
0.0
 10
55.20476323824179
 20
154.8886668648632
 30
0.0
 10
70.60848433364009
 20
154.8886668648632
 30
0.0
 10
83.09558566714803
 20
167.3757681983712
 30
0.0
 10
83.09558566714803
 20
182.7794892937695
 30
0.0
 10
83.09558566714803
 20
182.7794892937695
 30
0.0
 10
83.09558566714803
 20
182.7794892937695
 30
0.0
 10
83.09558566714803
 20
182.7794892937695
 30
0.0
 10
83.09558566714803
 20
182.7794892937695
 30
0.0
 10
83.09558566714803
 20
182.7794892937695
 30
0.0
 10
83.09558566714803
 20
182.7794892937695
 30
0.0
  0
ENDBLK
  5
48
330
45
100
AcDbEntity
  8
0
100
AcDbBlockEnd
  0
BLOCK
  5
4C
330
4A
100
AcDbEntity
  8
0
100
AcDbBlockBegin
  2
block 5
 70
     0
 71
     0
 10
0.0
 20
0.0
 30
0.0
  3
block 5
  1

  0
SPLINE
  5
4E
330
4A
100
AcDbEntity
  8
0
 62
     7
370
     9
100
AcDbSpline
210
0.0
220
0.0
230
1.0
 70
    11
 71
     3
 72
   242
 73
   238
 74
     0
 42
0.0000000001
 43
0.0000000001
 40
0.0
 40
0.0
 40
0.0
 40
0.0
 40
1.0
 40
1.0
 40
1.0
 40
2.0
 40
2.0
 40
2.0
 40
3.0
 40
3.0
 40
3.0
 40
4.0
 40
4.0
 40
4.0
 40
5.0
 40
5.0
 40
5.0
 40
6.0
 40
6.0
 40
6.0
 40
7.0
 40
7.0
 40
7.0
 40
8.0
 40
8.0
 40
8.0
 40
9.0
 40
9.0
 40
9.0
 40
10.0
 40
10.0
 40
10.0
 40
11.0
 40
11.0
 40
11.0
 40
12.0
 40
12.0
 40
12.0
 40
13.0
 40
13.0
 40
13.0
 40
14.0
 40
14.0
 40
14.0
 40
15.0
 40
15.0
 40
15.0
 40
16.0
 40
16.0
 40
16.0
 40
17.0
 40
17.0
 40
17.0
 40
18.0
 40
18.0
 40
18.0
 40
19.0
 40
19.0
 40
19.0
 40
20.0
 40
20.0
 40
20.0
 40
21.0
 40
21.0
 40
21.0
 40
22.0
 40
22.0
 40
22.0
 40
23.0
 40
23.0
 40
23.0
 40
24.0
 40
24.0
 40
24.0
 40
25.0
 40
25.0
 40
25.0
 40
26.0
 40
26.0
 40
26.0
 40
27.0
 40
27.0
 40
27.0
 40
28.0
 40
28.0
 40
28.0
 40
29.0
 40
29.0
 40
29.0
 40
30.0
 40
30.0
 40
30.0
 40
31.0
 40
31.0
 40
31.0
 40
32.0
 40
32.0
 40
32.0
 40
33.0
 40
33.0
 40
33.0
 40
34.0
 40
34.0
 40
34.0
 40
35.0
 40
35.0
 40
35.0
 40
36.0
 40
36.0
 40
36.0
 40
37.0
 40
37.0
 40
37.0
 40
38.0
 40
38.0
 40
38.0
 40
39.0
 40
39.0
 40
39.0
 40
40.0
 40
40.0
 40
40.0
 40
41.0
 40
41.0
 40
41.0
 40
42.0
 40
42.0
 40
42.0
 40
43.0
 40
43.0
 40
43.0
 40
44.0
 40
44.0
 40
44.0
 40
45.0
 40
45.0
 40
45.0
 40
46.0
 40
46.0
 40
46.0
 40
47.0
 40
47.0
 40
47.0
 40
48.0
 40
48.0
 40
48.0
 40
49.0
 40
49.0
 40
49.0
 40
50.0
 40
50.0
 40
50.0
 40
51.0
 40
51.0
 40
51.0
 40
52.0
 40
52.0
 40
52.0
 40
53.0
 40
53.0
 40
53.0
 40
54.0
 40
54.0
 40
54.0
 40
55.0
 40
55.0
 40
55.0
 40
56.0
 40
56.0
 40
56.0
 40
57.0
 40
57.0
 40
57.0
 40
58.0
 40
58.0
 40
58.0
 40
59.0
 40
59.0
 40
59.0
 40
60.0
 40
60.0
 40
60.0
 40
61.0
 40
61.0
 40
61.0
 40
62.0
 40
62.0
 40
62.0
 40
63.0
 40
63.0
 40
63.0
 40
64.0
 40
64.0
 40
64.0
 40
65.0
 40
65.0
 40
65.0
 40
66.0
 40
66.0
 40
66.0
 40
67.0
 40
67.0
 40
67.0
 40
68.0
 40
68.0
 40
68.0
 40
69.0
 40
69.0
 40
69.0
 40
70.0
 40
70.0
 40
70.0
 40
71.0
 40
71.0
 40
71.0
 40
72.0
 40
72.0
 40
72.0
 40
73.0
 40
73.0
 40
73.0
 40
74.0
 40
74.0
 40
74.0
 40
75.0
 40
75.0
 40
75.0
 40
76.0
 40
76.0
 40
76.0
 40
77.0
 40
77.0
 40
77.0
 40
78.0
 40
78.0
 40
78.0
 40
79.0
 40
79.0
 40
79.0
 40
79.0
 10
55.20476323824179
 20
154.9420658801116
 30
0.0
 10
55.09658716864179
 20
154.9422381349995
 30
0.0
 10
54.98858335392969
 20
154.9427548996632
 30
0.0
 10
54.88178532343288
 20
154.9436161741027
 30
0.0
 10
54.88178532343288
 20
154.9436161741027
 30
0.0
 10
54.88178532343288
 20
154.9436161741027
 30
0.0
 10
54.88178532343288
 20
154.9436161741027
 30
0.0
 10
54.7722312147297
 20
154.9446497034301
 30
0.0
 10
54.6640551451297
 20
154.9463722523091
 30
0.0
 10
54.55880740862398
 20
154.9486115658518
 30
0.0
 10
54.55880740862398
 20
154.9486115658518
 30
0.0
 10
54.55880740862398
 20
154.9486115658518
 30
0.0
 10
54.55880740862398
 20
154.9486115658518
 30
0.0
 10
54.44994231947238
 20
154.9508508793945
 30
0.0
 10
54.34417781830296
 20
154.9536069576008
 30
0.0
 10
54.24271968933099
 20
154.956707545583
 30
0.0
 10
54.24271968933099
 20
154.956707545583
 30
0.0
 10
54.24271968933099
 20
154.956707545583
 30
0.0
 10
54.24271968933099
 20
154.956707545583
 30
0.0
 10
54.13850548215265
 20
154.9596358786773
 30
0.0
 10
54.03876990205966
 20
154.9632532313231
 30
0.0
 10
53.9448909881552
 20
154.966870583969
 30
0.0
 10
53.9448909881552
 20
154.966870583969
 30
0.0
 10
53.9448909881552
 20
154.966870583969
 30
0.0
 10
53.9448909881552
 20
154.966870583969
 30
0.0
 10
53.85135658402654
 20
154.9704879366148
 30
0.0
 10
53.76367884608641
 20
154.9742775441486
 30
0.0
 10
53.68306355855011
 20
154.9778948967945
 30
0.0
 10
53.68306355855011
 20
154.9778948967945
 30
0.0
 10
53.68306355855011
 20
154.9778948967945
 30
0.0
 10
53.68306355855011
 20
154.9778948967945
 30
0.0
 10
53.59986444769534
 20
154.9816845043282
 30
0.0
 10
53.52407229702018
 20
154.985474111862
 30
0.0
 10
53.45637612607624
 20
154.988746954732
 30
0.0
 10
53.45637612607624
 20
154.988746954732
 30
0.0
 10
53.45637612607624
 20
154.988746954732
 30
0.0
 10
53.45637612607624
 20
154.988746954732
 30
0.0
 10
53.3879909355807
 20
154.99219205249
 30
0.0
 10
53.32770172481636
 20
154.9952926404722
 30
0.0
 10
53.27654202311064
 20
154.9980487186785
 30
0.0
 10
53.27654202311064
 20
154.9980487186785
 30
0.0
 10
53.27654202311064
 20
154.9980487186785
 30
0.0
 10
53.27654202311064
 20
154.9980487186785
 30
0.0
 10
53.22365977252592
 20
155.000632541997
 30
0.0
 10
53.1804237956635
 20
155.0026996006518
 30
0.0
 10
53.14683409252338
 20
155.0042498946429
 30
0.0
 10
53.14683409252338
 20
155.0042498946429
 30
0.0
 10
53.14683409252338
 20
155.0042498946429
 30
0.0
 10
53.14683409252338
 20
155.0042498946429
 30
0.0
 10
53.11979007512338
 20
155.0052834239702
 30
0.0
 10
53.0991194885756
 20
155.0059724435218
 30
0.0
 10
53.08499458776797
 20
155.0063169532976
 30
0.0
 10
53.08499458776797
 20
155.0063169532976
 30
0.0
 10
53.08499458776797
 20
155.0063169532976
 30
0.0
 10
53.08499458776797
 20
155.0063169532976
 30
0.0
 10
53.07069743207242
 20
155.0063169532976
 30
0.0
 10
53.06294596211701
 20
155.0061446984097
 30
0.0
 10
53.06225694256542
 20
155.0052834239702
 30
0.0
 10
53.06225694256542
 20
155.0052834239702
 30
0.0
 10
53.06225694256542
 20
155.0052834239702
 30
0.0
 10
53.06225694256542
 20
155.0052834239702
 30
0.0
 10
53.06139566812593
 20
155.0044221495308
 30
0.0
 10
53.06776909897815
 20
155.0030441104276
 30
0.0
 10
53.0810327253463
 20
155.0011493066607
 30
0.0
 10
53.0810327253463
 20
155.0011493066607
 30
0.0
 10
53.0810327253463
 20
155.0011493066607
 30
0.0
 10
53.0810327253463
 20
155.0011493066607
 30
0.0
 10
53.09464086149026
 20
154.9990822480059
 30
0.0
 10
53.11582821270172
 20
154.9966706795753
 30
0.0
 10
53.1442502692049
 20
154.9935700915932
 30
0.0
 10
53.1442502692049
 20
154.9935700915932
 30
0.0
 10
53.1442502692049
 20
154.9935700915932
 30
0.0
 10
53.1442502692049
 20
154.9935700915932
 30
0.0
 10
53.17783997234503
 20
154.9899527389473
 30
0.0
 10
53.22176496875904
 20
154.9856463667499
 30
0.0
 10
53.27533623889535
 20
154.9809954847766
 30
0.0
 10
53.27533623889535
 20
154.9809954847766
 30
0.0
 10
53.27533623889535
 20
154.9809954847766
 30
0.0
 10
53.27533623889535
 20
154.9809954847766
 30
0.0
 10
53.33080231279853
 20
154.9761723479155
 30
0.0
 10
53.3964314250877
 20
154.9708324463906
 30
0.0
 10
53.47153455621127
 20
154.96514803509
 30
0.0
 10
53.47153455621127
 20
154.96514803509
 30
0.0
 10
53.47153455621127
 20
154.96514803509
 30
0.0
 10
53.47153455621127
 20
154.96514803509
 30
0.0
 10
53.54319258957687
 20
154.9598081335652
 30
0.0
 10
53.62380787711317
 20
154.9541237222645
 30
0.0
 10
53.71200237971699
 20
154.9486115658518
 30
0.0
 10
53.71200237971699
 20
154.9486115658518
 30
0.0
 10
53.71200237971699
 20
154.9486115658518
 30
0.0
 10
53.71200237971699
 20
154.9486115658518
 30
0.0
 10
53.80295296052718
 20
154.9429271545511
 30
0.0
 10
53.90217177595648
 20
154.9374149981384
 30
0.0
 10
54.00828078690169
 20
154.9322473515015
 30
0.0
 10
54.00828078690169
 20
154.9322473515015
 30
0.0
 10
54.00828078690169
 20
154.9322473515015
 30
0.0
 10
54.00828078690169
 20
154.9322473515015
 30
0.0
 10
54.10749960233099
 20
154.9272519597524
 30
0.0
 10
54.21274733883672
 20
154.9227733326671
 30
0.0
 10
54.3224737024278
 20
154.9188114702454
 30
0.0
 10
54.3224737024278
 20
154.9188114702454
 30
0.0
 10
54.3224737024278
 20
154.9188114702454
 30
0.0
 10
54.3224737024278
 20
154.9188114702454
 30
0.0
 10
54.43581741866474
 20
154.9148496078238
 30
0.0
 10
54.55381201687493
 20
154.9114045100658
 30
0.0
 10
54.67456269329148
 20
154.9088206867473
 30
0.0
 10
54.67456269329148
 20
154.9088206867473
 30
0.0
 10
54.67456269329148
 20
154.9088206867473
 30
0.0
 10
54.67456269329148
 20
154.9088206867473
 30
0.0
 10
54.76034562746473
 20
154.9070981378683
 30
0.0
 10
54.84750660074116
 20
154.9057200987652
 30
0.0
 10
54.93518433868129
 20
154.9046865694378
 30
0.0
 10
54.93518433868129
 20
154.9046865694378
 30
0.0
 10
54.93518433868129
 20
154.9046865694378
 30
0.0
 10
54.93518433868129
 20
154.9046865694378
 30
0.0
 10
55.0245846255004
 20
154.9036530401104
 30
0.0
 10
55.1146739318711
 20
154.9031362754467
 30
0.0
 10
55.20476323824179
 20
154.9031362754467
 30
0.0
 10
55.20476323824179
 20
154.9031362754467
 30
0.0
 10
55.20476323824179
 20
154.9031362754467
 30
0.0
 10
55.20476323824179
 20
154.9031362754467
 30
0.0
 10
55.31466185672077
 20
154.9031362754467
 30
0.0
 10
55.42490498497554
 20
154.9038252949983
 30
0.0
 10
55.53359781923923
 20
154.9053755889894
 30
0.0
 10
55.53359781923923
 20
154.9053755889894
 30
0.0
 10
55.53359781923923
 20
154.9053755889894
 30
0.0
 10
55.53359781923923
 20
154.9053755889894
 30
0.0
 10
55.64504673170929
 20
154.9069258829804
 30
0.0
 10
55.75511760507617
 20
154.9091651965231
 30
0.0
 10
55.86226014534878
 20
154.9119212747295
 30
0.0
 10
55.86226014534878
 20
154.9119212747295
 30
0.0
 10
55.86226014534878
 20
154.9119212747295
 30
0.0
 10
55.86226014534878
 20
154.9119212747295
 30
0.0
 10
55.97060846983668
 20
154.9146773529359
 30
0.0
 10
56.0758562063424
 20
154.9182947055817
 30
0.0
 10
56.17662531576278
 20
154.9222565680034
 30
0.0
 10
56.17662531576278
 20
154.9222565680034
 30
0.0
 10
56.17662531576278
 20
154.9222565680034
 30
0.0
 10
56.17662531576278
 20
154.9222565680034
 30
0.0
 10
56.28049501316533
 20
154.9263906853129
 30
0.0
 10
56.37954157370672
 20
154.9310415672862
 30
0.0
 10
56.47290372294749
 20
154.9358647041473
 30
0.0
 10
56.47290372294749
 20
154.9358647041473
 30
0.0
 10
56.47290372294749
 20
154.9358647041473
 30
0.0
 10
56.47290372294749
 20
154.9358647041473
 30
0.0
 10
56.56592136241245
 20
154.9406878410085
 30
0.0
 10
56.65308233568889
 20
154.9456832327575
 30
0.0
 10
56.73352536833729
 20
154.9510231342824
 30
0.0
 10
56.73352536833729
 20
154.9510231342824
 30
0.0
 10
56.73352536833729
 20
154.9510231342824
 30
0.0
 10
56.73352536833729
 20
154.9510231342824
 30
0.0
 10
56.81603545964047
 20
154.9561907809193
 30
0.0
 10
56.89148310053983
 20
154.9615306824441
 30
0.0
 10
56.95866250682008
 20
154.9666983290811
 30
0.0
 10
56.95866250682008
 20
154.9666983290811
 30
0.0
 10
56.95866250682008
 20
154.9666983290811
 30
0.0
 10
56.95866250682008
 20
154.9666983290811
 30
0.0
 10
57.02687544242773
 20
154.971865975718
 30
0.0
 10
57.08647563364046
 20
154.9766891125792
 30
0.0
 10
57.1374630804583
 20
154.9813399945524
 30
0.0
 10
57.1374630804583
 20
154.9813399945524
 30
0.0
 10
57.1374630804583
 20
154.9813399945524
 30
0.0
 10
57.1374630804583
 20
154.9813399945524
 30
0.0
 10
57.18965631149142
 20
154.9859908765257
 30
0.0
 10
57.23254777857804
 20
154.9901249938352
 30
0.0
 10
57.26562071705447
 20
154.9935700915932
 30
0.0
 10
57.26562071705447
 20
154.9935700915932
 30
0.0
 10
57.26562071705447
 20
154.9935700915932
 30
0.0
 10
57.26562071705447
 20
154.9935700915932
 30
0.0
 10
57.29335375400606
 20
154.9966706795753
 30
0.0
 10
57.31402434055384
 20
154.9990822480059
 30
0.0
 10
57.32780473158568
 20
155.0009770517728
 30
0.0
 10
57.32780473158568
 20
155.0009770517728
 30
0.0
 10
57.32780473158568
 20
155.0009770517728
 30
0.0
 10
57.32780473158568
 20
155.0009770517728
 30
0.0
 10
57.34175737750542
 20
155.0028718555397
 30
0.0
 10
57.34813080835765
 20
155.0044221495308
 30
0.0
 10
57.34726953391817
 20
155.0052834239702
 30
0.0
 10
57.34726953391817
 20
155.0052834239702
 30
0.0
 10
57.34726953391817
 20
155.0052834239702
 30
0.0
 10
57.34726953391817
 20
155.0052834239702
 30
0.0
 10
57.34658051436657
 20
155.0061446984097
 30
0.0
 10
57.33848453463536
 20
155.0063169532976
 30
0.0
 10
57.32332610450033
 20
155.0063169532976
 30
0.0
 10
57.32332610450033
 20
155.0063169532976
 30
0.0
 10
57.32332610450033
 20
155.0063169532976
 30
0.0
 10
57.32332610450033
 20
155.0063169532976
 30
0.0
 10
57.3079954194774
 20
155.0059724435218
 30
0.0
 10
57.28525777427485
 20
155.0051111690823
 30
0.0
 10
57.25511316889269
 20
155.0037331299792
 30
0.0
 10
57.25511316889269
 20
155.0037331299792
 30
0.0
 10
57.25511316889269
 20
155.0037331299792
 30
0.0
 10
57.25511316889269
 20
155.0037331299792
 30
0.0
 10
57.21945640709779
 20
155.0021828359881
 30
0.0
 10
57.17363660691689
 20
154.9999435224454
 30
0.0
 10
57.11799827812581
 20
154.997187444239
 30
0.0
 10
57.11799827812581
 20
154.997187444239
 30
0.0
 10
57.11799827812581
 20
154.997187444239
 30
0.0
 10
57.11799827812581
 20
154.997187444239
 30
0.0
 10
57.06080965534365
 20
154.9942591111448
 30
0.0
 10
56.9932857392876
 20
154.9908140133868
 30
0.0
 10
56.91646005928506
 20
154.987024405853
 30
0.0
 10
56.91646005928506
 20
154.987024405853
 30
0.0
 10
56.91646005928506
 20
154.987024405853
 30
0.0
 10
56.91646005928506
 20
154.987024405853
 30
0.0
 10
56.84307947704047
 20
154.9834070532072
 30
0.0
 10
56.76108615040098
 20
154.9794451907855
 30
0.0
 10
56.67168586358188
 20
154.975311073476
 30
0.0
 10
56.67168586358188
 20
154.975311073476
 30
0.0
 10
56.67168586358188
 20
154.975311073476
 30
0.0
 10
56.67168586358188
 20
154.975311073476
 30
0.0
 10
56.5793572436685
 20
154.9713492110543
 30
0.0
 10
56.47910489891182
 20
154.9672150937448
 30
0.0
 10
56.37230686841501
 20
154.963425486211
 30
0.0
 10
56.37230686841501
 20
154.963425486211
 30
0.0
 10
56.37230686841501
 20
154.963425486211
 30
0.0
 10
56.37230686841501
 20
154.963425486211
 30
0.0
 10
56.27222677854622
 20
154.9598081335652
 30
0.0
 10
56.16629002248889
 20
154.9563630358072
 30
0.0
 10
56.05604689423412
 20
154.9534347027129
 30
0.0
 10
56.05604689423412
 20
154.9534347027129
 30
0.0
 10
56.05604689423412
 20
154.9534347027129
 30
0.0
 10
56.05604689423412
 20
154.9534347027129
 30
0.0
 10
55.94235866822139
 20
154.9505063696187
 30
0.0
 10
55.82384730534751
 20
154.9477502914123
 30
0.0
 10
55.70292437404305
 20
154.9458554876454
 30
0.0
 10
55.70292437404305
 20
154.9458554876454
 30
0.0
 10
55.70292437404305
 20
154.9458554876454
 30
0.0
 10
55.70292437404305
 20
154.9458554876454
 30
0.0
 10
55.62213683161885
 20
154.9446497034301
 30
0.0
 10
55.54014350497936
 20
154.9436161741027
 30
0.0
 10
55.45763341367618
 20
154.9429271545511
 30
0.0
 10
55.45763341367618
 20
154.9429271545511
 30
0.0
 10
55.45763341367618
 20
154.9429271545511
 30
0.0
 10
55.45763341367618
 20
154.9429271545511
 30
0.0
 10
55.37374528326981
 20
154.9424103898874
 30
0.0
 10
55.28916813331185
 20
154.9422381349995
 30
0.0
 10
55.20476323824179
 20
154.9420658801116
 30
0.0
  0
ENDBLK
  5
4D
330
4A
100
AcDbEntity
  8
0
100
AcDbBlockEnd
  0
BLOCK
  5
51
330
4F
100
AcDbEntity
  8
0
100
AcDbBlockBegin
  2
block 6
 70
     0
 71
     0
 10
0.0
 20
0.0
 30
0.0
  3
block 6
  1

  0
POLYLINE
  5
53
330
4F
100
AcDbEntity
  8
0
 62
     7
370
     9
100
AcDb2dPolyline
 66
     1
 10
0.0
 20
0.0
 30
0.0
  0
VERTEX
  5
54
330
53
100
AcDbEntity
  8
0
 62
     7
370
     9
100
AcDbVertex
100
AcDb2dVertex
 10
55.20476323824179
 20
210.5817727102961
 30
0.0
  0
VERTEX
  5
55
330
53
100
AcDbEntity
  8
0
 62
     7
370
     9
100
AcDbVertex
100
AcDb2dVertex
 10
55.20476323824179
 20
210.5817727102961
 30
0.0
  0
SEQEND
  5
56
330
53
100
AcDbEntity
  8
0
370
     9
  0
ENDBLK
  5
52
330
4F
100
AcDbEntity
  8
0
100
AcDbBlockEnd
  0
BLOCK
  5
59
330
57
100
AcDbEntity
  8
0
100
AcDbBlockBegin
  2
block 7
 70
     0
 71
     0
 10
0.0
 20
0.0
 30
0.0
  3
block 7
  1

  0
POLYLINE
  5
5B
330
57
100
AcDbEntity
  8
0
 62
     7
370
     9
100
AcDb2dPolyline
 66
     1
 10
0.0
 20
0.0
 30
0.0
  0
VERTEX
  5
5C
330
5B
100
AcDbEntity
  8
0
 62
     7
370
     9
100
AcDbVertex
100
AcDb2dVertex
 10
55.20476323824179
 20
154.8886668648632
 30
0.0
  0
VERTEX
  5
5D
330
5B
100
AcDbEntity
  8
0
 62
     7
370
     9
100
AcDbVertex
100
AcDb2dVertex
 10
55.20476323824179
 20
154.8886668648632
 30
0.0
  0
SEQEND
  5
5E
330
5B
100
AcDbEntity
  8
0
370
     9
  0
ENDBLK
  5
5A
330
57
100
AcDbEntity
  8
0
100
AcDbBlockEnd
  0
BLOCK
  5
61
330
5F
100
AcDbEntity
  8
0
100
AcDbBlockBegin
  2
block 8
 70
     0
 71
     0
 10
0.0
 20
0.0
 30
0.0
  3
block 8
  1

  0
POLYLINE
  5
63
330
5F
100
AcDbEntity
  8
0
 62
     7
370
     9
100
AcDb2dPolyline
 66
     1
 10
0.0
 20
0.0
 30
0.0
  0
VERTEX
  5
64
330
63
100
AcDbEntity
  8
0
 62
     7
370
     9
100
AcDbVertex
100
AcDb2dVertex
 10
71.93932559754069
 20
62.65358135561866
 30
0.0
  0
VERTEX
  5
65
330
63
100
AcDbEntity
  8
0
 62
     7
370
     9
100
AcDbVertex
100
AcDb2dVertex
 10
71.93932559754069
 20
65.7069714985001
 30
0.0
  0
SEQEND
  5
66
330
63
100
AcDbEntity
  8
0
370
     9
  0
ENDBLK
  5
62
330
5F
100
AcDbEntity
  8
0
100
AcDbBlockEnd
  0
BLOCK
  5
69
330
67
100
AcDbEntity
  8
0
100
AcDbBlockBegin
  2
block 9
 70
     0
 71
     0
 10
0.0
 20
0.0
 30
0.0
  3
block 9
  1

  0
POLYLINE
  5
6B
330
67
100
AcDbEntity
  8
0
 62
     7
370
     9
100
AcDb2dPolyline
 66
     1
 10
0.0
 20
0.0
 30
0.0
  0
VERTEX
  5
6C
330
6B
100
AcDbEntity
  8
0
 62
     7
370
     9
100
AcDbVertex
100
AcDb2dVertex
 10
38.47020087894289
 20
65.7069714985001
 30
0.0
  0
VERTEX
  5
6D
330
6B
100
AcDbEntity
  8
0
 62
     7
370
     9
100
AcDbVertex
100
AcDb2dVertex
 10
38.47020087894289
 20
62.65358135561866
 30
0.0
  0
SEQEND
  5
6E
330
6B
100
AcDbEntity
  8
0
370
     9
  0
ENDBLK
  5
6A
330
67
100
AcDbEntity
  8
0
100
AcDbBlockEnd
  0
BLOCK
  5
71
330
6F
100
AcDbEntity
  8
0
100
AcDbBlockBegin
  2
block 10
 70
     0
 71
     0
 10
0.0
 20
0.0
 30
0.0
  3
block 10
  1

  0
SPLINE
  5
73
330
6F
100
AcDbEntity
  8
0
 62
     7
370
     9
100
AcDbSpline
210
0.0
220
0.0
230
1.0
 70
     8
 71
     3
 72
     8
 73
     4
 74
     0
 42
0.0000000001
 43
0.0000000001
 40
0.0
 40
0.0
 40
0.0
 40
0.0
 40
1.0
 40
1.0
 40
1.0
 40
1.0
 10
55.20476323824179
 20
61.80229769962632
 30
0.0
 10
59.27996937613467
 20
61.77818201532059
 30
0.0
 10
67.33012930716374
 20
61.92425416025817
 30
0.0
 10
71.40171809241077
 20
62.09650904815625
 30
0.0
  0
ENDBLK
  5
72
330
6F
100
AcDbEntity
  8
0
100
AcDbBlockEnd
  0
BLOCK
  5
76
330
74
100
AcDbEntity
  8
0
100
AcDbBlockBegin
  2
block 11
 70
     0
 71
     0
 10
0.0
 20
0.0
 30
0.0
  3
block 11
  1

  0
SPLINE
  5
78
330
74
100
AcDbEntity
  8
0
 62
     7
370
     9
100
AcDbSpline
210
0.0
220
0.0
230
1.0
 70
     8
 71
     3
 72
     8
 73
     4
 74
     0
 42
0.0000000001
 43
0.0000000001
 40
0.0
 40
0.0
 40
0.0
 40
0.0
 40
1.0
 40
1.0
 40
1.0
 40
1.0
 10
39.00780838407281
 20
62.09650904815625
 30
0.0
 10
43.07939716931983
 20
61.92425416025817
 30
0.0
 10
51.12955710034891
 20
61.77818201532059
 30
0.0
 10
55.20476323824179
 20
61.80229769962632
 30
0.0
  0
ENDBLK
  5
77
330
74
100
AcDbEntity
  8
0
100
AcDbBlockEnd
  0
BLOCK
  5
7B
330
79
100
AcDbEntity
  8
0
100
AcDbBlockBegin
  2
block 12
 70
     0
 71
     0
 10
0.0
 20
0.0
 30
0.0
  3
block 12
  1

  0
POLYLINE
  5
7D
330
79
100
AcDbEntity
  8
0
 62
     7
370
     9
100
AcDb2dPolyline
 66
     1
 10
0.0
 20
0.0
 30
0.0
  0
VERTEX
  5
7E
330
7D
100
AcDbEntity
  8
0
 62
     7
370
     9
100
AcDbVertex
100
AcDb2dVertex
 10
64.68756707191923
 20
66.2647328255141
 30
0.0
  0
VERTEX
  5
7F
330
7D
100
AcDbEntity
  8
0
 62
     7
370
     9
100
AcDbVertex
100
AcDb2dVertex
 10
64.12997799979314
 20
99.7335130343361
 30
0.0
  0
SEQEND
  5
80
330
7D
100
AcDbEntity
  8
0
370
     9
  0
ENDBLK
  5
7C
330
79
100
AcDbEntity
  8
0
100
AcDbBlockEnd
  0
BLOCK
  5
83
330
81
100
AcDbEntity
  8
0
100
AcDbBlockBegin
  2
block 13
 70
     0
 71
     0
 10
0.0
 20
0.0
 30
0.0
  3
block 13
  1

  0
POLYLINE
  5
85
330
81
100
AcDbEntity
  8
0
 62
     7
370
     9
100
AcDb2dPolyline
 66
     1
 10
0.0
 20
0.0
 30
0.0
  0
VERTEX
  5
86
330
85
100
AcDbEntity
  8
0
 62
     7
370
     9
100
AcDbVertex
100
AcDb2dVertex
 10
46.27972073157834
 20
99.7335130343361
 30
0.0
  0
VERTEX
  5
87
330
85
100
AcDbEntity
  8
0
 62
     7
370
     9
100
AcDbVertex
100
AcDb2dVertex
 10
45.72195940456434
 20
66.2647328255141
 30
0.0
  0
SEQEND
  5
88
330
85
100
AcDbEntity
  8
0
370
     9
  0
ENDBLK
  5
84
330
81
100
AcDbEntity
  8
0
100
AcDbBlockEnd
  0
BLOCK
  5
8B
330
89
100
AcDbEntity
  8
0
100
AcDbBlockBegin
  2
block 14
 70
     0
 71
     0
 10
0.0
 20
0.0
 30
0.0
  3
block 14
  1

  0
POLYLINE
  5
8D
330
89
100
AcDbEntity
  8
0
 62
     7
370
     9
100
AcDb2dPolyline
 66
     1
 10
0.0
 20
0.0
 30
0.0
  0
VERTEX
  5
8E
330
8D
100
AcDbEntity
  8
0
 62
     7
370
     9
100
AcDbVertex
100
AcDb2dVertex
 10
27.31394080933555
 20
110.8901176137192
 30
0.0
  0
VERTEX
  5
8F
330
8D
100
AcDbEntity
  8
0
 62
     7
370
     9
100
AcDbVertex
100
AcDb2dVertex
 10
27.40247982171517
 20
100.7381035405577
 30
0.0
  0
SEQEND
  5
90
330
8D
100
AcDbEntity
  8
0
370
     9
  0
ENDBLK
  5
8C
330
89
100
AcDbEntity
  8
0
100
AcDbBlockEnd
  0
BLOCK
  5
93
330
91
100
AcDbEntity
  8
0
100
AcDbBlockBegin
  2
block 15
 70
     0
 71
     0
 10
0.0
 20
0.0
 30
0.0
  3
block 15
  1

  0
POLYLINE
  5
95
330
91
100
AcDbEntity
  8
0
 62
     7
370
     9
100
AcDb2dPolyline
 66
     1
 10
0.0
 20
0.0
 30
0.0
  0
VERTEX
  5
96
330
95
100
AcDbEntity
  8
0
 62
     7
370
     9
100
AcDbVertex
100
AcDb2dVertex
 10
83.00704665476842
 20
100.7381035405577
 30
0.0
  0
VERTEX
  5
97
330
95
100
AcDbEntity
  8
0
 62
     7
370
     9
100
AcDbVertex
100
AcDb2dVertex
 10
83.09558566714803
 20
110.8901176137192
 30
0.0
  0
SEQEND
  5
98
330
95
100
AcDbEntity
  8
0
370
     9
  0
ENDBLK
  5
94
330
91
100
AcDbEntity
  8
0
100
AcDbBlockEnd
  0
BLOCK
  5
9B
330
99
100
AcDbEntity
  8
0
100
AcDbBlockBegin
  2
block 16
 70
     0
 71
     0
 10
0.0
 20
0.0
 30
0.0
  3
block 16
  1

  0
SPLINE
  5
9D
330
99
100
AcDbEntity
  8
0
 62
     7
370
     9
100
AcDbSpline
210
0.0
220
0.0
230
1.0
 70
     8
 71
     3
 72
    26
 73
    22
 74
     0
 42
0.0000000001
 43
0.0000000001
 40
0.0
 40
0.0
 40
0.0
 40
0.0
 40
1.0
 40
1.0
 40
1.0
 40
2.0
 40
2.0
 40
2.0
 40
3.0
 40
3.0
 40
3.0
 40
4.0
 40
4.0
 40
4.0
 40
5.0
 40
5.0
 40
5.0
 40
6.0
 40
6.0
 40
6.0
 40
7.0
 40
7.0
 40
7.0
 40
7.0
 10
82.47667385493021
 20
100.1855098601807
 30
0.0
 10
82.54402551609836
 20
100.1961896632304
 30
0.0
 10
82.61137717726652
 20
100.2065249565042
 30
0.0
 10
82.67338893690982
 20
100.2320186799132
 30
0.0
 10
82.67338893690982
 20
100.2320186799132
 30
0.0
 10
82.67338893690982
 20
100.2320186799132
 30
0.0
 10
82.67338893690982
 20
100.2320186799132
 30
0.0
 10
82.74005157852638
 20
100.2588904424253
 30
0.0
 10
82.80051304417862
 20
100.3029876937272
 30
0.0
 10
82.85150049099644
 20
100.3563867089756
 30
0.0
 10
82.85150049099644
 20
100.3563867089756
 30
0.0
 10
82.85150049099644
 20
100.3563867089756
 30
0.0
 10
82.85150049099644
 20
100.3563867089756
 30
0.0
 10
82.90266019270217
 20
100.4094412144482
 30
0.0
 10
82.9443458755735
 20
100.4717974838673
 30
0.0
 10
82.96863381476714
 20
100.5396659096991
 30
0.0
 10
82.96863381476714
 20
100.5396659096991
 30
0.0
 10
82.96863381476714
 20
100.5396659096991
 30
0.0
 10
82.96863381476714
 20
100.5396659096991
 30
0.0
 10
82.99137145996968
 20
100.602366688894
 30
0.0
 10
82.999295184813
 20
100.6702351147259
 30
0.0
 10
83.00704665476842
 20
100.7381035405577
 30
0.0
  0
ENDBLK
  5
9C
330
99
100
AcDbEntity
  8
0
100
AcDbBlockEnd
  0
BLOCK
  5
A0
330
9E
100
AcDbEntity
  8
0
100
AcDbBlockBegin
  2
block 17
 70
     0
 71
     0
 10
0.0
 20
0.0
 30
0.0
  3
block 17
  1

  0
SPLINE
  5
A2
330
9E
100
AcDbEntity
  8
0
 62
     7
370
     9
100
AcDbSpline
210
0.0
220
0.0
230
1.0
 70
     8
 71
     3
 72
    26
 73
    22
 74
     0
 42
0.0000000001
 43
0.0000000001
 40
0.0
 40
0.0
 40
0.0
 40
0.0
 40
1.0
 40
1.0
 40
1.0
 40
2.0
 40
2.0
 40
2.0
 40
3.0
 40
3.0
 40
3.0
 40
4.0
 40
4.0
 40
4.0
 40
5.0
 40
5.0
 40
5.0
 40
6.0
 40
6.0
 40
6.0
 40
7.0
 40
7.0
 40
7.0
 40
7.0
 10
27.40247982171517
 20
100.7381035405577
 30
0.0
 10
27.41023129167058
 20
100.6702351147259
 30
0.0
 10
27.41815501651389
 20
100.602366688894
 30
0.0
 10
27.44089266171644
 20
100.5396659096991
 30
0.0
 10
27.44089266171644
 20
100.5396659096991
 30
0.0
 10
27.44089266171644
 20
100.5396659096991
 30
0.0
 10
27.44089266171644
 20
100.5396659096991
 30
0.0
 10
27.46518060091007
 20
100.4717974838673
 30
0.0
 10
27.50686628378141
 20
100.4094412144482
 30
0.0
 10
27.55802598548714
 20
100.3563867089756
 30
0.0
 10
27.55802598548714
 20
100.3563867089756
 30
0.0
 10
27.55802598548714
 20
100.3563867089756
 30
0.0
 10
27.55802598548714
 20
100.3563867089756
 30
0.0
 10
27.60901343230497
 20
100.3029876937272
 30
0.0
 10
27.6694748979572
 20
100.2588904424253
 30
0.0
 10
27.73613753957376
 20
100.2320186799132
 30
0.0
 10
27.73613753957376
 20
100.2320186799132
 30
0.0
 10
27.73613753957376
 20
100.2320186799132
 30
0.0
 10
27.73613753957376
 20
100.2320186799132
 30
0.0
 10
27.79814929921707
 20
100.2065249565042
 30
0.0
 10
27.86550096038522
 20
100.1961896632304
 30
0.0
 10
27.93285262155337
 20
100.1855098601807
 30
0.0
  0
ENDBLK
  5
A1
330
9E
100
AcDbEntity
  8
0
100
AcDbBlockEnd
  0
BLOCK
  5
A5
330
A3
100
AcDbEntity
  8
0
100
AcDbBlockBegin
  2
block 18
 70
     0
 71
     0
 10
0.0
 20
0.0
 30
0.0
  3
block 18
  1

  0
SPLINE
  5
A7
330
A3
100
AcDbEntity
  8
0
 62
     7
370
     9
100
AcDbSpline
210
0.0
220
0.0
230
1.0
 70
     8
 71
     3
 72
     8
 73
     4
 74
     0
 42
0.0000000001
 43
0.0000000001
 40
0.0
 40
0.0
 40
0.0
 40
0.0
 40
1.0
 40
1.0
 40
1.0
 40
1.0
 10
64.12997799979314
 20
99.7335130343361
 30
0.0
 10
68.75726105339938
 20
99.69699499810172
 30
0.0
 10
77.85662550661569
 20
99.92092635236922
 30
0.0
 10
82.47667385493021
 20
100.1855098601807
 30
0.0
  0
ENDBLK
  5
A6
330
A3
100
AcDbEntity
  8
0
100
AcDbBlockEnd
  0
BLOCK
  5
AA
330
A8
100
AcDbEntity
  8
0
100
AcDbBlockBegin
  2
block 19
 70
     0
 71
     0
 10
0.0
 20
0.0
 30
0.0
  3
block 19
  1

  0
SPLINE
  5
AC
330
A8
100
AcDbEntity
  8
0
 62
     7
370
     9
100
AcDbSpline
210
0.0
220
0.0
230
1.0
 70
     8
 71
     3
 72
     8
 73
     4
 74
     0
 42
0.0000000001
 43
0.0000000001
 40
0.0
 40
0.0
 40
0.0
 40
0.0
 40
1.0
 40
1.0
 40
1.0
 40
1.0
 10
27.93285262155337
 20
100.1855098601807
 30
0.0
 10
32.55290096986789
 20
99.92092635236922
 30
0.0
 10
41.6522654230842
 20
99.69699499810172
 30
0.0
 10
46.27972073157834
 20
99.7335130343361
 30
0.0
  0
ENDBLK
  5
AB
330
A8
100
AcDbEntity
  8
0
100
AcDbBlockEnd
  0
BLOCK
  5
AF
330
AD
100
AcDbEntity
  8
0
100
AcDbBlockBegin
  2
block 20
 70
     0
 71
     0
 10
0.0
 20
0.0
 30
0.0
  3
block 20
  1

  0
SPLINE
  5
B1
330
AD
100
AcDbEntity
  8
0
 62
     7
370
     9
100
AcDbSpline
210
0.0
220
0.0
230
1.0
 70
     8
 71
     3
 72
    26
 73
    22
 74
     0
 42
0.0000000001
 43
0.0000000001
 40
0.0
 40
0.0
 40
0.0
 40
0.0
 40
1.0
 40
1.0
 40
1.0
 40
2.0
 40
2.0
 40
2.0
 40
3.0
 40
3.0
 40
3.0
 40
4.0
 40
4.0
 40
4.0
 40
5.0
 40
5.0
 40
5.0
 40
6.0
 40
6.0
 40
6.0
 40
7.0
 40
7.0
 40
7.0
 40
7.0
 10
38.47020087894289
 20
65.7069714985001
 30
0.0
 10
38.48001940755308
 20
65.78586423715743
 30
0.0
 10
38.49001019105117
 20
65.86510148559054
 30
0.0
 10
38.51981028665754
 20
65.93710402873194
 30
0.0
 10
38.51981028665754
 20
65.93710402873194
 30
0.0
 10
38.51981028665754
 20
65.93710402873194
 30
0.0
 10
38.51981028665754
 20
65.93710402873194
 30
0.0
 10
38.55219420558237
 20
66.01427421851028
 30
0.0
 10
38.60800478926136
 20
66.08386519322111
 30
0.0
 10
38.67466743087792
 20
66.1382977377969
 30
0.0
 10
38.67466743087792
 20
66.1382977377969
 30
0.0
 10
38.67466743087792
 20
66.1382977377969
 30
0.0
 10
38.67466743087792
 20
66.1382977377969
 30
0.0
 10
38.72651615213524
 20
66.18101694999562
 30
0.0
 10
38.78508281402058
 20
66.21512341779945
 30
0.0
 10
38.84761133832759
 20
66.23476047501983
 30
0.0
 10
38.84761133832759
 20
66.23476047501983
 30
0.0
 10
38.84761133832759
 20
66.23476047501983
 30
0.0
 10
38.84761133832759
 20
66.23476047501983
 30
0.0
 10
38.90548898066135
 20
66.25267498336123
 30
0.0
 10
38.96681172075306
 20
66.25887615932557
 30
0.0
 10
39.02813446084478
 20
66.2647328255141
 30
0.0
  0
ENDBLK
  5
B0
330
AD
100
AcDbEntity
  8
0
100
AcDbBlockEnd
  0
BLOCK
  5
B4
330
B2
100
AcDbEntity
  8
0
100
AcDbBlockBegin
  2
block 21
 70
     0
 71
     0
 10
0.0
 20
0.0
 30
0.0
  3
block 21
  1

  0
SPLINE
  5
B6
330
B2
100
AcDbEntity
  8
0
 62
     7
370
     9
100
AcDbSpline
210
0.0
220
0.0
230
1.0
 70
    24
 71
     3
 72
   200
 73
   196
 74
     0
 42
0.0000000001
 43
0.0000000001
 40
0.0
 40
0.0
 40
0.0
 40
0.0
 40
1.0
 40
1.0
 40
1.0
 40
2.0
 40
2.0
 40
2.0
 40
3.0
 40
3.0
 40
3.0
 40
4.0
 40
4.0
 40
4.0
 40
5.0
 40
5.0
 40
5.0
 40
6.0
 40
6.0
 40
6.0
 40
7.0
 40
7.0
 40
7.0
 40
8.0
 40
8.0
 40
8.0
 40
9.0
 40
9.0
 40
9.0
 40
10.0
 40
10.0
 40
10.0
 40
11.0
 40
11.0
 40
11.0
 40
12.0
 40
12.0
 40
12.0
 40
13.0
 40
13.0
 40
13.0
 40
14.0
 40
14.0
 40
14.0
 40
15.0
 40
15.0
 40
15.0
 40
16.0
 40
16.0
 40
16.0
 40
17.0
 40
17.0
 40
17.0
 40
18.0
 40
18.0
 40
18.0
 40
19.0
 40
19.0
 40
19.0
 40
20.0
 40
20.0
 40
20.0
 40
21.0
 40
21.0
 40
21.0
 40
22.0
 40
22.0
 40
22.0
 40
23.0
 40
23.0
 40
23.0
 40
24.0
 40
24.0
 40
24.0
 40
25.0
 40
25.0
 40
25.0
 40
26.0
 40
26.0
 40
26.0
 40
27.0
 40
27.0
 40
27.0
 40
28.0
 40
28.0
 40
28.0
 40
29.0
 40
29.0
 40
29.0
 40
30.0
 40
30.0
 40
30.0
 40
31.0
 40
31.0
 40
31.0
 40
32.0
 40
32.0
 40
32.0
 40
33.0
 40
33.0
 40
33.0
 40
34.0
 40
34.0
 40
34.0
 40
35.0
 40
35.0
 40
35.0
 40
36.0
 40
36.0
 40
36.0
 40
37.0
 40
37.0
 40
37.0
 40
38.0
 40
38.0
 40
38.0
 40
39.0
 40
39.0
 40
39.0
 40
40.0
 40
40.0
 40
40.0
 40
41.0
 40
41.0
 40
41.0
 40
42.0
 40
42.0
 40
42.0
 40
43.0
 40
43.0
 40
43.0
 40
44.0
 40
44.0
 40
44.0
 40
45.0
 40
45.0
 40
45.0
 40
46.0
 40
46.0
 40
46.0
 40
47.0
 40
47.0
 40
47.0
 40
48.0
 40
48.0
 40
48.0
 40
49.0
 40
49.0
 40
49.0
 40
50.0
 40
50.0
 40
50.0
 40
51.0
 40
51.0
 40
51.0
 40
52.0
 40
52.0
 40
52.0
 40
53.0
 40
53.0
 40
53.0
 40
54.0
 40
54.0
 40
54.0
 40
55.0
 40
55.0
 40
55.0
 40
56.0
 40
56.0
 40
56.0
 40
57.0
 40
57.0
 40
57.0
 40
58.0
 40
58.0
 40
58.0
 40
59.0
 40
59.0
 40
59.0
 40
60.0
 40
60.0
 40
60.0
 40
61.0
 40
61.0
 40
61.0
 40
62.0
 40
62.0
 40
62.0
 40
63.0
 40
63.0
 40
63.0
 40
64.0
 40
64.0
 40
64.0
 40
65.0
 40
65.0
 40
65.0
 40
65.0
 10
71.3813920156388
 20
66.2647328255141
 30
0.0
 10
71.37450182012287
 20
66.2647328255141
 30
0.0
 10
71.36761162460695
 20
66.2647328255141
 30
0.0
 10
71.345562998956
 20
66.2647328255141
 30
0.0
 10
71.345562998956
 20
66.2647328255141
 30
0.0
 10
71.345562998956
 20
66.2647328255141
 30
0.0
 10
71.345562998956
 20
66.2647328255141
 30
0.0
 10
71.32351437330504
 20
66.2647328255141
 30
0.0
 10
71.28647957240695
 20
66.2647328255141
 30
0.0
 10
71.2382482037955
 20
66.2647328255141
 30
0.0
 10
71.2382482037955
 20
66.2647328255141
 30
0.0
 10
71.2382482037955
 20
66.2647328255141
 30
0.0
 10
71.2382482037955
 20
66.2647328255141
 30
0.0
 10
71.18381565921969
 20
66.2647328255141
 30
0.0
 10
71.11525821383626
 20
66.2647328255141
 30
0.0
 10
71.03119782854199
 20
66.2647328255141
 30
0.0
 10
71.03119782854199
 20
66.2647328255141
 30
0.0
 10
71.03119782854199
 20
66.2647328255141
 30
0.0
 10
71.03119782854199
 20
66.2647328255141
 30
0.0
 10
70.94730969813563
 20
66.2647328255141
 30
0.0
 10
70.84809088270633
 20
66.2647328255141
 30
0.0
 10
70.73440265669359
 20
66.2647328255141
 30
0.0
 10
70.73440265669359
 20
66.2647328255141
 30
0.0
 10
70.73440265669359
 20
66.2647328255141
 30
0.0
 10
70.73440265669359
 20
66.2647328255141
 30
0.0
 10
70.60607276520952
 20
66.2647328255141
 30
0.0
 10
70.45931160072035
 20
66.2647328255141
 30
0.0
 10
70.29429141811399
 20
66.2647328255141
 30
0.0
 10
70.29429141811399
 20
66.2647328255141
 30
0.0
 10
70.29429141811399
 20
66.2647328255141
 30
0.0
 10
70.29429141811399
 20
66.2647328255141
 30
0.0
 10
70.12927123550762
 20
66.2647328255141
 30
0.0
 10
69.94616428967196
 20
66.2647328255141
 30
0.0
 10
69.74548734527069
 20
66.2647328255141
 30
0.0
 10
69.74548734527069
 20
66.2647328255141
 30
0.0
 10
69.74548734527069
 20
66.2647328255141
 30
0.0
 10
69.74548734527069
 20
66.2647328255141
 30
0.0
 10
69.52121148122738
 20
66.2647328255141
 30
0.0
 10
69.27505924642102
 20
66.2647328255141
 30
0.0
 10
69.00806417017898
 20
66.2647328255141
 30
0.0
 10
69.00806417017898
 20
66.2647328255141
 30
0.0
 10
69.00806417017898
 20
66.2647328255141
 30
0.0
 10
69.00806417017898
 20
66.2647328255141
 30
0.0
 10
68.74106909393696
 20
66.2647328255141
 30
0.0
 10
68.45323117625927
 20
66.2647328255141
 30
0.0
 10
68.14610071113698
 20
66.2647328255141
 30
0.0
 10
68.14610071113698
 20
66.2647328255141
 30
0.0
 10
68.14610071113698
 20
66.2647328255141
 30
0.0
 10
68.14610071113698
 20
66.2647328255141
 30
0.0
 10
67.92509768996374
 20
66.2647328255141
 30
0.0
 10
67.6939316304045
 20
66.2647328255141
 30
0.0
 10
67.45329155201088
 20
66.2647328255141
 30
0.0
 10
67.45329155201088
 20
66.2647328255141
 30
0.0
 10
67.45329155201088
 20
66.2647328255141
 30
0.0
 10
67.45329155201088
 20
66.2647328255141
 30
0.0
 10
67.20696706231662
 20
66.2647328255141
 30
0.0
 10
66.95065178912427
 20
66.2647328255141
 30
0.0
 10
66.68486249709753
 20
66.2647328255141
 30
0.0
 10
66.68486249709753
 20
66.2647328255141
 30
0.0
 10
66.68486249709753
 20
66.2647328255141
 30
0.0
 10
66.68486249709753
 20
66.2647328255141
 30
0.0
 10
66.41338879377014
 20
66.2647328255141
 30
0.0
 10
66.13209656183257
 20
66.2647328255141
 30
0.0
 10
65.8415025659485
 20
66.2647328255141
 30
0.0
 10
65.8415025659485
 20
66.2647328255141
 30
0.0
 10
65.8415025659485
 20
66.2647328255141
 30
0.0
 10
65.8415025659485
 20
66.2647328255141
 30
0.0
 10
65.38743868144915
 20
66.2647328255141
 30
0.0
 10
64.91115391641095
 20
66.2647328255141
 30
0.0
 10
64.41574885881606
 20
66.2647328255141
 30
0.0
 10
64.41574885881606
 20
66.2647328255141
 30
0.0
 10
64.41574885881606
 20
66.2647328255141
 30
0.0
 10
64.41574885881606
 20
66.2647328255141
 30
0.0
 10
63.90225703799187
 20
66.2647328255141
 30
0.0
 10
63.36843914039571
 20
66.2647328255141
 30
0.0
 10
62.81739575400973
 20
66.2647328255141
 30
0.0
 10
62.81739575400973
 20
66.2647328255141
 30
0.0
 10
62.81739575400973
 20
66.2647328255141
 30
0.0
 10
62.81739575400973
 20
66.2647328255141
 30
0.0
 10
62.24981589838554
 20
66.2647328255141
 30
0.0
 10
61.66449378930785
 20
66.2647328255141
 30
0.0
 10
61.06504677942252
 20
66.2647328255141
 30
0.0
 10
61.06504677942252
 20
66.2647328255141
 30
0.0
 10
61.06504677942252
 20
66.2647328255141
 30
0.0
 10
61.06504677942252
 20
66.2647328255141
 30
0.0
 10
60.45199163339324
 20
66.2647328255141
 30
0.0
 10
59.82429482189262
 20
66.2647328255141
 30
0.0
 10
59.18677948178181
 20
66.2647328255141
 30
0.0
 10
59.18677948178181
 20
66.2647328255141
 30
0.0
 10
59.18677948178181
 20
66.2647328255141
 30
0.0
 10
59.18677948178181
 20
66.2647328255141
 30
0.0
 10
58.53927335817291
 20
66.2647328255141
 30
0.0
 10
57.88177645106592
 20
66.2647328255141
 30
0.0
 10
57.21911189732199
 20
66.2647328255141
 30
0.0
 10
57.21911189732199
 20
66.2647328255141
 30
0.0
 10
57.21911189732199
 20
66.2647328255141
 30
0.0
 10
57.21911189732199
 20
66.2647328255141
 30
0.0
 10
56.55110744205322
 20
66.2647328255141
 30
0.0
 10
55.8779353401475
 20
66.2647328255141
 30
0.0
 10
55.20476323824179
 20
66.2647328255141
 30
0.0
 10
55.20476323824179
 20
66.2647328255141
 30
0.0
 10
55.20476323824179
 20
66.2647328255141
 30
0.0
 10
55.20476323824179
 20
66.2647328255141
 30
0.0
 10
54.53159113633608
 20
66.2647328255141
 30
0.0
 10
53.85841903443036
 20
66.2647328255141
 30
0.0
 10
53.19058683404949
 20
66.2647328255141
 30
0.0
 10
53.19058683404949
 20
66.2647328255141
 30
0.0
 10
53.19058683404949
 20
66.2647328255141
 30
0.0
 10
53.19058683404949
 20
66.2647328255141
 30
0.0
 10
52.52775002541766
 20
66.2647328255141
 30
0.0
 10
51.87025311831067
 20
66.2647328255141
 30
0.0
 10
51.22274699470177
 20
66.2647328255141
 30
0.0
 10
51.22274699470177
 20
66.2647328255141
 30
0.0
 10
51.22274699470177
 20
66.2647328255141
 30
0.0
 10
51.22274699470177
 20
66.2647328255141
 30
0.0
 10
50.58523165459096
 20
66.2647328255141
 30
0.0
 10
49.95753484309034
 20
66.2647328255141
 30
0.0
 10
49.34447969706106
 20
66.2647328255141
 30
0.0
 10
49.34447969706106
 20
66.2647328255141
 30
0.0
 10
49.34447969706106
 20
66.2647328255141
 30
0.0
 10
49.34447969706106
 20
66.2647328255141
 30
0.0
 10
48.74503268717573
 20
66.2647328255141
 30
0.0
 10
48.15971057809804
 20
66.2647328255141
 30
0.0
 10
47.59213072247385
 20
66.2647328255141
 30
0.0
 10
47.59213072247385
 20
66.2647328255141
 30
0.0
 10
47.59213072247385
 20
66.2647328255141
 30
0.0
 10
47.59213072247385
 20
66.2647328255141
 30
0.0
 10
47.04108733608788
 20
66.2647328255141
 30
0.0
 10
46.50709718360381
 20
66.2647328255141
 30
0.0
 10
45.99377761766752
 20
66.2647328255141
 30
0.0
 10
45.99377761766752
 20
66.2647328255141
 30
0.0
 10
45.99377761766752
 20
66.2647328255141
 30
0.0
 10
45.99377761766752
 20
66.2647328255141
 30
0.0
 10
45.49837256007263
 20
66.2647328255141
 30
0.0
 10
45.02208779503443
 20
66.2647328255141
 30
0.0
 10
44.56802391053508
 20
66.2647328255141
 30
0.0
 10
44.56802391053508
 20
66.2647328255141
 30
0.0
 10
44.56802391053508
 20
66.2647328255141
 30
0.0
 10
44.56802391053508
 20
66.2647328255141
 30
0.0
 10
44.13221904415293
 20
66.2647328255141
 30
0.0
 10
43.71674025454274
 20
66.2647328255141
 30
0.0
 10
43.32417136502301
 20
66.2647328255141
 30
0.0
 10
43.32417136502301
 20
66.2647328255141
 30
0.0
 10
43.32417136502301
 20
66.2647328255141
 30
0.0
 10
43.32417136502301
 20
66.2647328255141
 30
0.0
 10
42.94917247406888
 20
66.2647328255141
 30
0.0
 10
42.59501642455042
 20
66.2647328255141
 30
0.0
 10
42.2634257653466
 20
66.2647328255141
 30
0.0
 10
42.2634257653466
 20
66.2647328255141
 30
0.0
 10
42.2634257653466
 20
66.2647328255141
 30
0.0
 10
42.2634257653466
 20
66.2647328255141
 30
0.0
 10
41.95612304533643
 20
66.2647328255141
 30
0.0
 10
41.66828512765873
 20
66.2647328255141
 30
0.0
 10
41.40129005141669
 20
66.2647328255141
 30
0.0
 10
41.40129005141669
 20
66.2647328255141
 30
0.0
 10
41.40129005141669
 20
66.2647328255141
 30
0.0
 10
41.40129005141669
 20
66.2647328255141
 30
0.0
 10
41.13429497517466
 20
66.2647328255141
 30
0.0
 10
40.8881427403683
 20
66.2647328255141
 30
0.0
 10
40.66403913121289
 20
66.2647328255141
 30
0.0
 10
40.66403913121289
 20
66.2647328255141
 30
0.0
 10
40.66403913121289
 20
66.2647328255141
 30
0.0
 10
40.66403913121289
 20
66.2647328255141
 30
0.0
 10
40.46336218681162
 20
66.2647328255141
 30
0.0
 10
40.28008298608806
 20
66.2647328255141
 30
0.0
 10
40.1148905485938
 20
66.2647328255141
 30
0.0
 10
40.1148905485938
 20
66.2647328255141
 30
0.0
 10
40.1148905485938
 20
66.2647328255141
 30
0.0
 10
40.1148905485938
 20
66.2647328255141
 30
0.0
 10
39.95004262087533
 20
66.2647328255141
 30
0.0
 10
39.80345371127406
 20
66.2647328255141
 30
0.0
 10
39.67512381978999
 20
66.2647328255141
 30
0.0
 10
39.67512381978999
 20
66.2647328255141
 30
0.0
 10
39.67512381978999
 20
66.2647328255141
 30
0.0
 10
39.67512381978999
 20
66.2647328255141
 30
0.0
 10
39.56143559377725
 20
66.2647328255141
 30
0.0
 10
39.46204452346006
 20
66.2647328255141
 30
0.0
 10
39.37815639305369
 20
66.2647328255141
 30
0.0
 10
39.37815639305369
 20
66.2647328255141
 30
0.0
 10
39.37815639305369
 20
66.2647328255141
 30
0.0
 10
39.37815639305369
 20
66.2647328255141
 30
0.0
 10
39.29426826264732
 20
66.2647328255141
 30
0.0
 10
39.22571081726389
 20
66.2647328255141
 30
0.0
 10
39.17127827268809
 20
66.2647328255141
 30
0.0
 10
39.17127827268809
 20
66.2647328255141
 30
0.0
 10
39.17127827268809
 20
66.2647328255141
 30
0.0
 10
39.17127827268809
 20
66.2647328255141
 30
0.0
 10
39.12304690407663
 20
66.2647328255141
 30
0.0
 10
39.08601210317854
 20
66.2647328255141
 30
0.0
 10
39.06396347752759
 20
66.2647328255141
 30
0.0
 10
39.06396347752759
 20
66.2647328255141
 30
0.0
 10
39.06396347752759
 20
66.2647328255141
 30
0.0
 10
39.06396347752759
 20
66.2647328255141
 30
0.0
 10
39.04191485187663
 20
66.2647328255141
 30
0.0
 10
39.0350246563607
 20
66.2647328255141
 30
0.0
 10
39.02813446084478
 20
66.2647328255141
 30
0.0
  0
ENDBLK
  5
B5
330
B2
100
AcDbEntity
  8
0
100
AcDbBlockEnd
  0
BLOCK
  5
B9
330
B7
100
AcDbEntity
  8
0
100
AcDbBlockBegin
  2
block 22
 70
     0
 71
     0
 10
0.0
 20
0.0
 30
0.0
  3
block 22
  1

  0
SPLINE
  5
BB
330
B7
100
AcDbEntity
  8
0
 62
     7
370
     9
100
AcDbSpline
210
0.0
220
0.0
230
1.0
 70
     8
 71
     3
 72
    26
 73
    22
 74
     0
 42
0.0000000001
 43
0.0000000001
 40
0.0
 40
0.0
 40
0.0
 40
0.0
 40
1.0
 40
1.0
 40
1.0
 40
2.0
 40
2.0
 40
2.0
 40
3.0
 40
3.0
 40
3.0
 40
4.0
 40
4.0
 40
4.0
 40
5.0
 40
5.0
 40
5.0
 40
6.0
 40
6.0
 40
6.0
 40
7.0
 40
7.0
 40
7.0
 40
7.0
 10
71.3813920156388
 20
66.2647328255141
 30
0.0
 10
71.46045700918401
 20
66.2550865517918
 30
0.0
 10
71.53952200272924
 20
66.24509576829371
 30
0.0
 10
71.61135229098274
 20
66.21512341779945
 30
0.0
 10
71.61135229098274
 20
66.21512341779945
 30
0.0
 10
71.61135229098274
 20
66.21512341779945
 30
0.0
 10
71.61135229098274
 20
66.21512341779945
 30
0.0
 10
71.68903924542478
 20
66.18273949887461
 30
0.0
 10
71.7582857103598
 20
66.12727342497142
 30
0.0
 10
71.81306276471139
 20
66.06043852846697
 30
0.0
 10
71.81306276471139
 20
66.06043852846697
 30
0.0
 10
71.81306276471139
 20
66.06043852846697
 30
0.0
 10
71.81306276471139
 20
66.06043852846697
 30
0.0
 10
71.85578197691012
 20
66.00841755232175
 30
0.0
 10
71.88971618982605
 20
65.9498508904364
 30
0.0
 10
71.90918099215853
 20
65.8874946210173
 30
0.0
 10
71.90918099215853
 20
65.8874946210173
 30
0.0
 10
71.90918099215853
 20
65.8874946210173
 30
0.0
 10
71.90918099215853
 20
65.8874946210173
 30
0.0
 10
71.92744001027573
 20
65.82961697868353
 30
0.0
 10
71.93329667646425
 20
65.76829423859182
 30
0.0
 10
71.93932559754069
 20
65.7069714985001
 30
0.0
  0
ENDBLK
  5
BA
330
B7
100
AcDbEntity
  8
0
100
AcDbBlockEnd
  0
BLOCK
  5
BE
330
BC
100
AcDbEntity
  8
0
100
AcDbBlockBegin
  2
block 23
 70
     0
 71
     0
 10
0.0
 20
0.0
 30
0.0
  3
block 23
  1

  0
SPLINE
  5
C0
330
BC
100
AcDbEntity
  8
0
 62
     7
370
     9
100
AcDbSpline
210
0.0
220
0.0
230
1.0
 70
     8
 71
     3
 72
    26
 73
    22
 74
     0
 42
0.0000000001
 43
0.0000000001
 40
0.0
 40
0.0
 40
0.0
 40
0.0
 40
1.0
 40
1.0
 40
1.0
 40
2.0
 40
2.0
 40
2.0
 40
3.0
 40
3.0
 40
3.0
 40
4.0
 40
4.0
 40
4.0
 40
5.0
 40
5.0
 40
5.0
 40
6.0
 40
6.0
 40
6.0
 40
7.0
 40
7.0
 40
7.0
 40
7.0
 10
71.93932559754069
 20
62.65358135561866
 30
0.0
 10
71.92985157870629
 20
62.57641116584031
 30
0.0
 10
71.9205498147598
 20
62.49889646628618
 30
0.0
 10
71.89178324848082
 20
62.42861647202376
 30
0.0
 10
71.89178324848082
 20
62.42861647202376
 30
0.0
 10
71.89178324848082
 20
62.42861647202376
 30
0.0
 10
71.89178324848082
 20
62.42861647202376
 30
0.0
 10
71.86077736865917
 20
62.35247981157281
 30
0.0
 10
71.80755060829865
 20
62.28426687596516
 30
0.0
 10
71.74364404488847
 20
62.22948982161357
 30
0.0
 10
71.74364404488847
 20
62.22948982161357
 30
0.0
 10
71.74364404488847
 20
62.22948982161357
 30
0.0
 10
71.74364404488847
 20
62.22948982161357
 30
0.0
 10
71.69403463717381
 20
62.18677060941484
 30
0.0
 10
71.63787954371904
 20
62.15231963183523
 30
0.0
 10
71.57741807806681
 20
62.13130453551166
 30
0.0
 10
71.57741807806681
 20
62.13130453551166
 30
0.0
 10
71.57741807806681
 20
62.13130453551166
 30
0.0
 10
71.57741807806681
 20
62.13130453551166
 30
0.0
 10
71.52126298461204
 20
62.11201198806707
 30
0.0
 10
71.46149053851141
 20
62.10408826322377
 30
0.0
 10
71.40171809241077
 20
62.09650904815625
 30
0.0
  0
ENDBLK
  5
BF
330
BC
100
AcDbEntity
  8
0
100
AcDbBlockEnd
  0
BLOCK
  5
C3
330
C1
100
AcDbEntity
  8
0
100
AcDbBlockBegin
  2
block 24
 70
     0
 71
     0
 10
0.0
 20
0.0
 30
0.0
  3
block 24
  1

  0
SPLINE
  5
C5
330
C1
100
AcDbEntity
  8
0
 62
     7
370
     9
100
AcDbSpline
210
0.0
220
0.0
230
1.0
 70
     8
 71
     3
 72
    26
 73
    22
 74
     0
 42
0.0000000001
 43
0.0000000001
 40
0.0
 40
0.0
 40
0.0
 40
0.0
 40
1.0
 40
1.0
 40
1.0
 40
2.0
 40
2.0
 40
2.0
 40
3.0
 40
3.0
 40
3.0
 40
4.0
 40
4.0
 40
4.0
 40
5.0
 40
5.0
 40
5.0
 40
6.0
 40
6.0
 40
6.0
 40
7.0
 40
7.0
 40
7.0
 40
7.0
 10
39.00780838407281
 20
62.09650904815625
 30
0.0
 10
38.93081044918237
 20
62.10856689030911
 30
0.0
 10
38.85398476917982
 20
62.12062473246198
 30
0.0
 10
38.784393794469
 20
62.15197512205943
 30
0.0
 10
38.784393794469
 20
62.15197512205943
 30
0.0
 10
38.784393794469
 20
62.15197512205943
 30
0.0
 10
38.784393794469
 20
62.15197512205943
 30
0.0
 10
38.70963517312123
 20
62.18573708008746
 30
0.0
 10
38.64331704128046
 20
62.24120315399064
 30
0.0
 10
38.59095155535945
 20
62.30734903094351
 30
0.0
 10
38.59095155535945
 20
62.30734903094351
 30
0.0
 10
38.59095155535945
 20
62.30734903094351
 30
0.0
 10
38.59095155535945
 20
62.30734903094351
 30
0.0
 10
38.5501271469276
 20
62.35833647776134
 30
0.0
 10
38.51774322800276
 20
62.4158696103193
 30
0.0
 10
38.49913970010977
 20
62.47684784063522
 30
0.0
 10
38.49913970010977
 20
62.47684784063522
 30
0.0
 10
38.49913970010977
 20
62.47684784063522
 30
0.0
 10
38.49913970010977
 20
62.47684784063522
 30
0.0
 10
38.48156970154416
 20
62.53334744386579
 30
0.0
 10
38.47588529024353
 20
62.59363665463012
 30
0.0
 10
38.47020087894289
 20
62.65358135561866
 30
0.0
  0
ENDBLK
  5
C4
330
C1
100
AcDbEntity
  8
0
100
AcDbBlockEnd
  0
BLOCK
  5
C8
330
C6
100
AcDbEntity
  8
0
100
AcDbBlockBegin
  2
block 25
 70
     0
 71
     0
 10
0.0
 20
0.0
 30
0.0
  3
block 25
  1

  0
POLYLINE
  5
CA
330
C6
100
AcDbEntity
  8
0
 62
     7
370
     9
100
AcDb2dPolyline
 66
     1
 10
0.0
 20
0.0
 30
0.0
  0
VERTEX
  5
CB
330
CA
100
AcDbEntity
  8
0
 62
     7
370
     9
100
AcDbVertex
100
AcDb2dVertex
 10
64.12997799979314
 20
99.7335130343361
 30
0.0
  0
VERTEX
  5
CC
330
CA
100
AcDbEntity
  8
0
 62
     7
370
     9
100
AcDbVertex
100
AcDb2dVertex
 10
46.27972073157834
 20
99.7335130343361
 30
0.0
  0
SEQEND
  5
CD
330
CA
100
AcDbEntity
  8
0
370
     9
  0
ENDBLK
  5
C9
330
C6
100
AcDbEntity
  8
0
100
AcDbBlockEnd
  0
BLOCK
  5
D0
330
CE
100
AcDbEntity
  8
0
100
AcDbBlockBegin
  2
block 26
 70
     0
 71
     0
 10
0.0
 20
0.0
 30
0.0
  3
block 26
  1

  0
POLYLINE
  5
D2
330
CE
100
AcDbEntity
  8
0
 62
     7
370
     9
100
AcDb2dPolyline
 66
     1
 10
0.0
 20
0.0
 30
0.0
  0
VERTEX
  5
D3
330
D2
100
AcDbEntity
  8
0
 62
     7
370
     9
100
AcDbVertex
100
AcDb2dVertex
 10
27.31394080933555
 20
110.8901176137192
 30
0.0
  0
VERTEX
  5
D4
330
D2
100
AcDbEntity
  8
0
 62
     7
370
     9
100
AcDbVertex
100
AcDb2dVertex
 10
83.09558566714803
 20
110.8901176137192
 30
0.0
  0
SEQEND
  5
D5
330
D2
100
AcDbEntity
  8
0
370
     9
  0
ENDBLK
  5
D1
330
CE
100
AcDbEntity
  8
0
100
AcDbBlockEnd
  0
BLOCK
  5
D8
330
D6
100
AcDbEntity
  8
0
100
AcDbBlockBegin
  2
block 27
 70
     0
 71
     0
 10
0.0
 20
0.0
 30
0.0
  3
block 27
  1

  0
POLYLINE
  5
DA
330
D6
100
AcDbEntity
  8
0
 62
     7
370
     9
100
AcDb2dPolyline
 66
     1
 10
0.0
 20
0.0
 30
0.0
  0
VERTEX
  5
DB
330
DA
100
AcDbEntity
  8
0
 62
     7
370
     9
100
AcDbVertex
100
AcDb2dVertex
 10
55.20476323824179
 20
99.7335130343361
 30
0.0
  0
VERTEX
  5
DC
330
DA
100
AcDbEntity
  8
0
 62
     7
370
     9
100
AcDbVertex
100
AcDb2dVertex
 10
64.12997799979314
 20
99.7335130343361
 30
0.0
  0
SEQEND
  5
DD
330
DA
100
AcDbEntity
  8
0
370
     9
  0
ENDBLK
  5
D9
330
D6
100
AcDbEntity
  8
0
100
AcDbBlockEnd
  0
BLOCK
  5
E0
330
DE
100
AcDbEntity
  8
0
100
AcDbBlockBegin
  2
block 28
 70
     0
 71
     0
 10
0.0
 20
0.0
 30
0.0
  3
block 28
  1

  0
POLYLINE
  5
E2
330
DE
100
AcDbEntity
  8
0
 62
     7
370
     9
100
AcDb2dPolyline
 66
     1
 10
0.0
 20
0.0
 30
0.0
  0
VERTEX
  5
E3
330
E2
100
AcDbEntity
  8
0
 62
     7
370
     9
100
AcDbVertex
100
AcDb2dVertex
 10
46.27972073157834
 20
99.7335130343361
 30
0.0
  0
VERTEX
  5
E4
330
E2
100
AcDbEntity
  8
0
 62
     7
370
     9
100
AcDbVertex
100
AcDb2dVertex
 10
55.20476323824179
 20
99.7335130343361
 30
0.0
  0
SEQEND
  5
E5
330
E2
100
AcDbEntity
  8
0
370
     9
  0
ENDBLK
  5
E1
330
DE
100
AcDbEntity
  8
0
100
AcDbBlockEnd
  0
BLOCK
  5
E8
330
E6
100
AcDbEntity
  8
0
100
AcDbBlockBegin
  2
block 29
 70
     0
 71
     0
 10
0.0
 20
0.0
 30
0.0
  3
block 29
  1

  0
SPLINE
  5
EA
330
E6
100
AcDbEntity
  8
0
 62
     7
370
     9
100
AcDbSpline
210
0.0
220
0.0
230
1.0
 70
     8
 71
     3
 72
    38
 73
    34
 74
     0
 42
0.0000000001
 43
0.0000000001
 40
0.0
 40
0.0
 40
0.0
 40
0.0
 40
1.0
 40
1.0
 40
1.0
 40
2.0
 40
2.0
 40
2.0
 40
3.0
 40
3.0
 40
3.0
 40
4.0
 40
4.0
 40
4.0
 40
5.0
 40
5.0
 40
5.0
 40
6.0
 40
6.0
 40
6.0
 40
7.0
 40
7.0
 40
7.0
 40
8.0
 40
8.0
 40
8.0
 40
9.0
 40
9.0
 40
9.0
 40
10.0
 40
10.0
 40
10.0
 40
11.0
 40
11.0
 40
11.0
 40
11.0
 10
184.4117766114917
 20
166.6028605163725
 30
0.0
 10
184.4193558265592
 20
166.532752776998
 30
0.0
 10
184.4269350416268
 20
166.4626450376234
 30
0.0
 10
184.4510507259325
 20
166.397532689998
 30
0.0
 10
184.4510507259325
 20
166.397532689998
 30
0.0
 10
184.4510507259325
 20
166.397532689998
 30
0.0
 10
184.4510507259325
 20
166.397532689998
 30
0.0
 10
184.4641420974127
 20
166.3625649477547
 30
0.0
 10
184.4820566057541
 20
166.3289752446145
 30
0.0
 10
184.5027271923019
 20
166.2976248550171
 30
0.0
 10
184.5027271923019
 20
166.2976248550171
 30
0.0
 10
184.5027271923019
 20
166.2976248550171
 30
0.0
 10
184.5027271923019
 20
166.2976248550171
 30
0.0
 10
184.5240867984013
 20
166.265585445868
 30
0.0
 10
184.548202482707
 20
166.2354408404859
 30
0.0
 10
184.5754187549949
 20
166.2083968230859
 30
0.0
 10
184.5754187549949
 20
166.2083968230859
 30
0.0
 10
184.5754187549949
 20
166.2083968230859
 30
0.0
 10
184.5754187549949
 20
166.2083968230859
 30
0.0
 10
184.602290517507
 20
166.1813528056859
 30
0.0
 10
184.6322628680013
 20
166.1572371213801
 30
0.0
 10
184.6646467869261
 20
166.1360497701687
 30
0.0
 10
184.6646467869261
 20
166.1360497701687
 30
0.0
 10
184.6646467869261
 20
166.1360497701687
 30
0.0
 10
184.6646467869261
 20
166.1360497701687
 30
0.0
 10
184.6959971765236
 20
166.115206928733
 30
0.0
 10
184.7294146247758
 20
166.0972924203916
 30
0.0
 10
184.764554621907
 20
166.0842010489114
 30
0.0
 10
184.764554621907
 20
166.0842010489114
 30
0.0
 10
184.764554621907
 20
166.0842010489114
 30
0.0
 10
184.764554621907
 20
166.0842010489114
 30
0.0
 10
184.8293224597567
 20
166.0599131097177
 30
0.0
 10
184.8996024540191
 20
166.0525061495381
 30
0.0
 10
184.9698824482815
 20
166.0450991893585
 30
0.0
  0
ENDBLK
  5
E9
330
E6
100
AcDbEntity
  8
0
100
AcDbBlockEnd
  0
BLOCK
  5
ED
330
EB
100
AcDbEntity
  8
0
100
AcDbBlockBegin
  2
block 30
 70
     0
 71
     0
 10
0.0
 20
0.0
 30
0.0
  3
block 30
  1

  0
SPLINE
  5
EF
330
EB
100
AcDbEntity
  8
0
 62
     7
370
     9
100
AcDbSpline
210
0.0
220
0.0
230
1.0
 70
     8
 71
     3
 72
    38
 73
    34
 74
     0
 42
0.0000000001
 43
0.0000000001
 40
0.0
 40
0.0
 40
0.0
 40
0.0
 40
1.0
 40
1.0
 40
1.0
 40
2.0
 40
2.0
 40
2.0
 40
3.0
 40
3.0
 40
3.0
 40
4.0
 40
4.0
 40
4.0
 40
5.0
 40
5.0
 40
5.0
 40
6.0
 40
6.0
 40
6.0
 40
7.0
 40
7.0
 40
7.0
 40
8.0
 40
8.0
 40
8.0
 40
9.0
 40
9.0
 40
9.0
 40
10.0
 40
10.0
 40
10.0
 40
11.0
 40
11.0
 40
11.0
 40
11.0
 10
184.9698824482815
 20
199.5140516530684
 30
0.0
 10
184.8996024540191
 20
199.5066446928888
 30
0.0
 10
184.8293224597567
 20
199.4990654778213
 30
0.0
 10
184.764554621907
 20
199.4749497935155
 30
0.0
 10
184.764554621907
 20
199.4749497935155
 30
0.0
 10
184.764554621907
 20
199.4749497935155
 30
0.0
 10
184.764554621907
 20
199.4749497935155
 30
0.0
 10
184.7294146247758
 20
199.4618584220353
 30
0.0
 10
184.6959971765236
 20
199.4439439136939
 30
0.0
 10
184.6646467869261
 20
199.4232733271461
 30
0.0
 10
184.6646467869261
 20
199.4232733271461
 30
0.0
 10
184.6646467869261
 20
199.4232733271461
 30
0.0
 10
184.6646467869261
 20
199.4232733271461
 30
0.0
 10
184.6322628680013
 20
199.4019137210467
 30
0.0
 10
184.602290517507
 20
199.377798036741
 30
0.0
 10
184.5754187549949
 20
199.350754019341
 30
0.0
 10
184.5754187549949
 20
199.350754019341
 30
0.0
 10
184.5754187549949
 20
199.350754019341
 30
0.0
 10
184.5754187549949
 20
199.350754019341
 30
0.0
 10
184.548202482707
 20
199.3235377470531
 30
0.0
 10
184.5240867984013
 20
199.2937376514467
 30
0.0
 10
184.5027271923019
 20
199.2613537325219
 30
0.0
 10
184.5027271923019
 20
199.2613537325219
 30
0.0
 10
184.5027271923019
 20
199.2613537325219
 30
0.0
 10
184.5027271923019
 20
199.2613537325219
 30
0.0
 10
184.4820566057541
 20
199.2300033429244
 30
0.0
 10
184.4641420974127
 20
199.1965858946722
 30
0.0
 10
184.4510507259325
 20
199.161445897541
 30
0.0
 10
184.4510507259325
 20
199.161445897541
 30
0.0
 10
184.4510507259325
 20
199.161445897541
 30
0.0
 10
184.4510507259325
 20
199.161445897541
 30
0.0
 10
184.4269350416268
 20
199.0966780596913
 30
0.0
 10
184.4193558265592
 20
199.0263980654289
 30
0.0
 10
184.4117766114917
 20
198.9561180711665
 30
0.0
  0
ENDBLK
  5
EE
330
EB
100
AcDbEntity
  8
0
100
AcDbBlockEnd
  0
BLOCK
  5
F2
330
F0
100
AcDbEntity
  8
0
100
AcDbBlockBegin
  2
block 31
 70
     0
 71
     0
 10
0.0
 20
0.0
 30
0.0
  3
block 31
  1

  0
POLYLINE
  5
F4
330
F0
100
AcDbEntity
  8
0
 62
     7
370
     9
100
AcDb2dPolyline
 66
     1
 10
0.0
 20
0.0
 30
0.0
  0
VERTEX
  5
F5
330
F4
100
AcDbEntity
  8
0
 62
     7
370
     9
100
AcDbVertex
100
AcDb2dVertex
 10
188.0229280813872
 20
199.5140516530684
 30
0.0
  0
VERTEX
  5
F6
330
F4
100
AcDbEntity
  8
0
 62
     7
370
     9
100
AcDbVertex
100
AcDb2dVertex
 10
184.9698824482815
 20
199.5140516530684
 30
0.0
  0
SEQEND
  5
F7
330
F4
100
AcDbEntity
  8
0
370
     9
  0
ENDBLK
  5
F3
330
F0
100
AcDbEntity
  8
0
100
AcDbBlockEnd
  0
BLOCK
  5
FA
330
F8
100
AcDbEntity
  8
0
100
AcDbBlockBegin
  2
block 32
 70
     0
 71
     0
 10
0.0
 20
0.0
 30
0.0
  3
block 32
  1

  0
POLYLINE
  5
FC
330
F8
100
AcDbEntity
  8
0
 62
     7
370
     9
100
AcDb2dPolyline
 66
     1
 10
0.0
 20
0.0
 30
0.0
  0
VERTEX
  5
FD
330
FC
100
AcDbEntity
  8
0
 62
     7
370
     9
100
AcDbVertex
100
AcDb2dVertex
 10
184.9698824482815
 20
166.0450991893585
 30
0.0
  0
VERTEX
  5
FE
330
FC
100
AcDbEntity
  8
0
 62
     7
370
     9
100
AcDbVertex
100
AcDb2dVertex
 10
188.0229280813872
 20
166.0450991893585
 30
0.0
  0
SEQEND
  5
FF
330
FC
100
AcDbEntity
  8
0
370
     9
  0
ENDBLK
  5
FB
330
F8
100
AcDbEntity
  8
0
100
AcDbBlockEnd
  0
BLOCK
  5
102
330
100
100
AcDbEntity
  8
0
100
AcDbBlockBegin
  2
block 33
 70
     0
 71
     0
 10
0.0
 20
0.0
 30
0.0
  3
block 33
  1

  0
SPLINE
  5
104
330
100
100
AcDbEntity
  8
0
 62
     7
370
     9
100
AcDbSpline
210
0.0
220
0.0
230
1.0
 70
     8
 71
     3
 72
    26
 73
    22
 74
     0
 42
0.0000000001
 43
0.0000000001
 40
0.0
 40
0.0
 40
0.0
 40
0.0
 40
1.0
 40
1.0
 40
1.0
 40
2.0
 40
2.0
 40
2.0
 40
3.0
 40
3.0
 40
3.0
 40
4.0
 40
4.0
 40
4.0
 40
5.0
 40
5.0
 40
5.0
 40
6.0
 40
6.0
 40
6.0
 40
7.0
 40
7.0
 40
7.0
 40
7.0
 10
188.5803448986254
 20
198.9764441479385
 30
0.0
 10
188.5706986249031
 20
199.044829338434
 30
0.0
 10
188.560707841405
 20
199.1132145289295
 30
0.0
 10
188.5355586277719
 20
199.1760875630123
 30
0.0
 10
188.5355586277719
 20
199.1760875630123
 30
0.0
 10
188.5355586277719
 20
199.1760875630123
 30
0.0
 10
188.5355586277719
 20
199.1760875630123
 30
0.0
 10
188.5086868652598
 20
199.2441282437321
 30
0.0
 10
188.4642451041821
 20
199.3057954935996
 30
0.0
 10
188.4101570693821
 20
199.3578164697448
 30
0.0
 10
188.4101570693821
 20
199.3578164697448
 30
0.0
 10
188.4101570693821
 20
199.3578164697448
 30
0.0
 10
188.4101570693821
 20
199.3578164697448
 30
0.0
 10
188.3564135443579
 20
199.4096651910021
 30
0.0
 10
188.2930237456114
 20
199.4520398934251
 30
0.0
 10
188.2241217904521
 20
199.4765000875066
 30
0.0
 10
188.2241217904521
 20
199.4765000875066
 30
0.0
 10
188.2241217904521
 20
199.4765000875066
 30
0.0
 10
188.2241217904521
 20
199.4765000875066
 30
0.0
 10
188.1603874819298
 20
199.4992377327092
 30
0.0
 10
188.0914855267706
 20
199.5066446928888
 30
0.0
 10
188.0229280813872
 20
199.5140516530684
 30
0.0
  0
ENDBLK
  5
103
330
100
100
AcDbEntity
  8
0
100
AcDbBlockEnd
  0
BLOCK
  5
107
330
105
100
AcDbEntity
  8
0
100
AcDbBlockBegin
  2
block 34
 70
     0
 71
     0
 10
0.0
 20
0.0
 30
0.0
  3
block 34
  1

  0
SPLINE
  5
109
330
105
100
AcDbEntity
  8
0
 62
     7
370
     9
100
AcDbSpline
210
0.0
220
0.0
230
1.0
 70
     8
 71
     3
 72
    26
 73
    22
 74
     0
 42
0.0000000001
 43
0.0000000001
 40
0.0
 40
0.0
 40
0.0
 40
0.0
 40
1.0
 40
1.0
 40
1.0
 40
2.0
 40
2.0
 40
2.0
 40
3.0
 40
3.0
 40
3.0
 40
4.0
 40
4.0
 40
4.0
 40
5.0
 40
5.0
 40
5.0
 40
6.0
 40
6.0
 40
6.0
 40
7.0
 40
7.0
 40
7.0
 40
7.0
 10
188.0229280813872
 20
166.0450991893585
 30
0.0
 10
188.0914855267706
 20
166.0525061495381
 30
0.0
 10
188.1603874819298
 20
166.0599131097177
 30
0.0
 10
188.2241217904521
 20
166.0826507549203
 30
0.0
 10
188.2241217904521
 20
166.0826507549203
 30
0.0
 10
188.2241217904521
 20
166.0826507549203
 30
0.0
 10
188.2241217904521
 20
166.0826507549203
 30
0.0
 10
188.2930237456114
 20
166.1071109490018
 30
0.0
 10
188.3564135443579
 20
166.1493133965368
 30
0.0
 10
188.4101570693821
 20
166.2013343726821
 30
0.0
 10
188.4101570693821
 20
166.2013343726821
 30
0.0
 10
188.4101570693821
 20
166.2013343726821
 30
0.0
 10
188.4101570693821
 20
166.2013343726821
 30
0.0
 10
188.4642451041821
 20
166.2531830939394
 30
0.0
 10
188.5086868652598
 20
166.3150225986948
 30
0.0
 10
188.5355586277719
 20
166.3828910245266
 30
0.0
 10
188.5355586277719
 20
166.3828910245266
 30
0.0
 10
188.5355586277719
 20
166.3828910245266
 30
0.0
 10
188.5355586277719
 20
166.3828910245266
 30
0.0
 10
188.560707841405
 20
166.4459363134973
 30
0.0
 10
188.5706986249031
 20
166.5143215039929
 30
0.0
 10
188.5803448986254
 20
166.5825344396005
 30
0.0
  0
ENDBLK
  5
108
330
105
100
AcDbEntity
  8
0
100
AcDbBlockEnd
  0
BLOCK
  5
10C
330
10A
100
AcDbEntity
  8
0
100
AcDbBlockBegin
  2
block 35
 70
     0
 71
     0
 10
0.0
 20
0.0
 30
0.0
  3
block 35
  1

  0
SPLINE
  5
10E
330
10A
100
AcDbEntity
  8
0
 62
     7
370
     9
100
AcDbSpline
210
0.0
220
0.0
230
1.0
 70
     8
 71
     3
 72
     8
 73
     4
 74
     0
 42
0.0000000001
 43
0.0000000001
 40
0.0
 40
0.0
 40
0.0
 40
0.0
 40
1.0
 40
1.0
 40
1.0
 40
1.0
 10
188.8745562471553
 20
182.7794892937695
 30
0.0
 10
188.898671931461
 20
186.8546954316624
 30
0.0
 10
188.7525997865235
 20
194.9048553626914
 30
0.0
 10
188.5803448986254
 20
198.9764441479385
 30
0.0
  0
ENDBLK
  5
10D
330
10A
100
AcDbEntity
  8
0
100
AcDbBlockEnd
  0
BLOCK
  5
111
330
10F
100
AcDbEntity
  8
0
100
AcDbBlockBegin
  2
block 36
 70
     0
 71
     0
 10
0.0
 20
0.0
 30
0.0
  3
block 36
  1

  0
SPLINE
  5
113
330
10F
100
AcDbEntity
  8
0
 62
     7
370
     9
100
AcDbSpline
210
0.0
220
0.0
230
1.0
 70
     8
 71
     3
 72
     8
 73
     4
 74
     0
 42
0.0000000001
 43
0.0000000001
 40
0.0
 40
0.0
 40
0.0
 40
0.0
 40
1.0
 40
1.0
 40
1.0
 40
1.0
 10
188.5803448986254
 20
166.5825344396005
 30
0.0
 10
188.7525997865235
 20
170.6542954797354
 30
0.0
 10
188.898671931461
 20
178.7044554107645
 30
0.0
 10
188.8745562471553
 20
182.7794892937695
 30
0.0
  0
ENDBLK
  5
112
330
10F
100
AcDbEntity
  8
0
100
AcDbBlockEnd
  0
BLOCK
  5
116
330
114
100
AcDbEntity
  8
0
100
AcDbBlockBegin
  2
block 37
 70
     0
 71
     0
 10
0.0
 20
0.0
 30
0.0
  3
block 37
  1

  0
POLYLINE
  5
118
330
114
100
AcDbEntity
  8
0
 62
     7
370
     9
100
AcDb2dPolyline
 66
     1
 10
0.0
 20
0.0
 30
0.0
  0
VERTEX
  5
119
330
118
100
AcDbEntity
  8
0
 62
     7
370
     9
100
AcDbVertex
100
AcDb2dVertex
 10
184.4117766114917
 20
192.2622931274469
 30
0.0
  0
VERTEX
  5
11A
330
118
100
AcDbEntity
  8
0
 62
     7
370
     9
100
AcDbVertex
100
AcDb2dVertex
 10
150.9429964026697
 20
191.7047040553208
 30
0.0
  0
SEQEND
  5
11B
330
118
100
AcDbEntity
  8
0
370
     9
  0
ENDBLK
  5
117
330
114
100
AcDbEntity
  8
0
100
AcDbBlockEnd
  0
BLOCK
  5
11E
330
11C
100
AcDbEntity
  8
0
100
AcDbBlockBegin
  2
block 38
 70
     0
 71
     0
 10
0.0
 20
0.0
 30
0.0
  3
block 38
  1

  0
POLYLINE
  5
120
330
11C
100
AcDbEntity
  8
0
 62
     7
370
     9
100
AcDb2dPolyline
 66
     1
 10
0.0
 20
0.0
 30
0.0
  0
VERTEX
  5
121
330
120
100
AcDbEntity
  8
0
 62
     7
370
     9
100
AcDbVertex
100
AcDb2dVertex
 10
150.9429964026697
 20
173.854446787106
 30
0.0
  0
VERTEX
  5
122
330
120
100
AcDbEntity
  8
0
 62
     7
370
     9
100
AcDbVertex
100
AcDb2dVertex
 10
184.4117766114917
 20
173.296685460092
 30
0.0
  0
SEQEND
  5
123
330
120
100
AcDbEntity
  8
0
370
     9
  0
ENDBLK
  5
11F
330
11C
100
AcDbEntity
  8
0
100
AcDbBlockEnd
  0
BLOCK
  5
126
330
124
100
AcDbEntity
  8
0
100
AcDbBlockBegin
  2
block 39
 70
     0
 71
     0
 10
0.0
 20
0.0
 30
0.0
  3
block 39
  1

  0
POLYLINE
  5
128
330
124
100
AcDbEntity
  8
0
 62
     7
370
     9
100
AcDb2dPolyline
 66
     1
 10
0.0
 20
0.0
 30
0.0
  0
VERTEX
  5
129
330
128
100
AcDbEntity
  8
0
 62
     7
370
     9
100
AcDbVertex
100
AcDb2dVertex
 10
145.8969617165832
 20
154.9420658801116
 30
0.0
  0
VERTEX
  5
12A
330
128
100
AcDbEntity
  8
0
 62
     7
370
     9
100
AcDbVertex
100
AcDb2dVertex
 10
149.9387504062239
 20
154.9773781321308
 30
0.0
  0
SEQEND
  5
12B
330
128
100
AcDbEntity
  8
0
370
     9
  0
ENDBLK
  5
127
330
124
100
AcDbEntity
  8
0
100
AcDbBlockEnd
  0
BLOCK
  5
12E
330
12C
100
AcDbEntity
  8
0
100
AcDbBlockBegin
  2
block 40
 70
     0
 71
     0
 10
0.0
 20
0.0
 30
0.0
  3
block 40
  1

  0
POLYLINE
  5
130
330
12C
100
AcDbEntity
  8
0
 62
     7
370
     9
100
AcDb2dPolyline
 66
     1
 10
0.0
 20
0.0
 30
0.0
  0
VERTEX
  5
131
330
130
100
AcDbEntity
  8
0
 62
     7
370
     9
100
AcDbVertex
100
AcDb2dVertex
 10
139.7867363330624
 20
154.8886668648632
 30
0.0
  0
VERTEX
  5
132
330
130
100
AcDbEntity
  8
0
 62
     7
370
     9
100
AcDbVertex
100
AcDb2dVertex
 10
141.4465844328483
 20
154.9031362754467
 30
0.0
  0
SEQEND
  5
133
330
130
100
AcDbEntity
  8
0
370
     9
  0
ENDBLK
  5
12F
330
12C
100
AcDbEntity
  8
0
100
AcDbBlockEnd
  0
BLOCK
  5
136
330
134
100
AcDbEntity
  8
0
100
AcDbBlockBegin
  2
block 41
 70
     0
 71
     0
 10
0.0
 20
0.0
 30
0.0
  3
block 41
  1

  0
POLYLINE
  5
138
330
134
100
AcDbEntity
  8
0
 62
     7
370
     9
100
AcDb2dPolyline
 66
     1
 10
0.0
 20
0.0
 30
0.0
  0
VERTEX
  5
139
330
138
100
AcDbEntity
  8
0
 62
     7
370
     9
100
AcDbVertex
100
AcDb2dVertex
 10
149.9387504062239
 20
210.5817727102961
 30
0.0
  0
VERTEX
  5
13A
330
138
100
AcDbEntity
  8
0
 62
     7
370
     9
100
AcDbVertex
100
AcDb2dVertex
 10
139.7867363330624
 20
210.6703117226757
 30
0.0
  0
SEQEND
  5
13B
330
138
100
AcDbEntity
  8
0
370
     9
  0
ENDBLK
  5
137
330
134
100
AcDbEntity
  8
0
100
AcDbBlockEnd
  0
BLOCK
  5
13E
330
13C
100
AcDbEntity
  8
0
100
AcDbBlockBegin
  2
block 42
 70
     0
 71
     0
 10
0.0
 20
0.0
 30
0.0
  3
block 42
  1

  0
SPLINE
  5
140
330
13C
100
AcDbEntity
  8
0
 62
     7
370
     9
100
AcDbSpline
210
0.0
220
0.0
230
1.0
 70
     8
 71
     3
 72
     8
 73
     4
 74
     0
 42
0.0000000001
 43
0.0000000001
 40
0.0
 40
0.0
 40
0.0
 40
0.0
 40
1.0
 40
1.0
 40
1.0
 40
1.0
 10
150.9429964026697
 20
191.7047040553208
 30
0.0
 10
150.9795144389041
 20
196.3319871089271
 30
0.0
 10
150.7555830846366
 20
205.4315238170313
 30
0.0
 10
150.4913440866009
 20
210.0513999104579
 30
0.0
  0
ENDBLK
  5
13F
330
13C
100
AcDbEntity
  8
0
100
AcDbBlockEnd
  0
BLOCK
  5
143
330
141
100
AcDbEntity
  8
0
100
AcDbBlockBegin
  2
block 43
 70
     0
 71
     0
 10
0.0
 20
0.0
 30
0.0
  3
block 43
  1

  0
SPLINE
  5
145
330
141
100
AcDbEntity
  8
0
 62
     7
370
     9
100
AcDbSpline
210
0.0
220
0.0
230
1.0
 70
     8
 71
     3
 72
     8
 73
     4
 74
     0
 42
0.0000000001
 43
0.0000000001
 40
0.0
 40
0.0
 40
0.0
 40
0.0
 40
1.0
 40
1.0
 40
1.0
 40
1.0
 10
150.4913440866009
 20
155.5075786770811
 30
0.0
 10
150.7555830846366
 20
160.1276270253956
 30
0.0
 10
150.9795144389041
 20
169.2269914786119
 30
0.0
 10
150.9429964026697
 20
173.854446787106
 30
0.0
  0
ENDBLK
  5
144
330
141
100
AcDbEntity
  8
0
100
AcDbBlockEnd
  0
BLOCK
  5
148
330
146
100
AcDbEntity
  8
0
100
AcDbBlockBegin
  2
block 44
 70
     0
 71
     0
 10
0.0
 20
0.0
 30
0.0
  3
block 44
  1

  0
SPLINE
  5
14A
330
146
100
AcDbEntity
  8
0
 62
     7
370
     9
100
AcDbSpline
210
0.0
220
0.0
230
1.0
 70
    24
 71
     3
 72
   104
 73
   100
 74
     0
 42
0.0000000001
 43
0.0000000001
 40
0.0
 40
0.0
 40
0.0
 40
0.0
 40
1.0
 40
1.0
 40
1.0
 40
2.0
 40
2.0
 40
2.0
 40
3.0
 40
3.0
 40
3.0
 40
4.0
 40
4.0
 40
4.0
 40
5.0
 40
5.0
 40
5.0
 40
6.0
 40
6.0
 40
6.0
 40
7.0
 40
7.0
 40
7.0
 40
8.0
 40
8.0
 40
8.0
 40
9.0
 40
9.0
 40
9.0
 40
10.0
 40
10.0
 40
10.0
 40
11.0
 40
11.0
 40
11.0
 40
12.0
 40
12.0
 40
12.0
 40
13.0
 40
13.0
 40
13.0
 40
14.0
 40
14.0
 40
14.0
 40
15.0
 40
15.0
 40
15.0
 40
16.0
 40
16.0
 40
16.0
 40
17.0
 40
17.0
 40
17.0
 40
18.0
 40
18.0
 40
18.0
 40
19.0
 40
19.0
 40
19.0
 40
20.0
 40
20.0
 40
20.0
 40
21.0
 40
21.0
 40
21.0
 40
22.0
 40
22.0
 40
22.0
 40
23.0
 40
23.0
 40
23.0
 40
24.0
 40
24.0
 40
24.0
 40
25.0
 40
25.0
 40
25.0
 40
26.0
 40
26.0
 40
26.0
 40
27.0
 40
27.0
 40
27.0
 40
28.0
 40
28.0
 40
28.0
 40
29.0
 40
29.0
 40
29.0
 40
30.0
 40
30.0
 40
30.0
 40
31.0
 40
31.0
 40
31.0
 40
32.0
 40
32.0
 40
32.0
 40
33.0
 40
33.0
 40
33.0
 40
33.0
 10
184.4117766114917
 20
182.7794892937695
 30
0.0
 10
184.4117766114917
 20
182.420337852502
 30
0.0
 10
184.4117766114917
 20
182.0613586661224
 30
0.0
 10
184.4117766114917
 20
181.7030684992943
 30
0.0
 10
184.4117766114917
 20
181.7030684992943
 30
0.0
 10
184.4117766114917
 20
181.7030684992943
 30
0.0
 10
184.4117766114917
 20
181.7030684992943
 30
0.0
 10
184.4117766114917
 20
181.3449505873542
 30
0.0
 10
184.4117766114917
 20
180.9878662047415
 30
0.0
 10
184.4117766114917
 20
180.6323321161199
 30
0.0
 10
184.4117766114917
 20
180.6323321161199
 30
0.0
 10
184.4117766114917
 20
180.6323321161199
 30
0.0
 10
184.4117766114917
 20
180.6323321161199
 30
0.0
 10
184.4117766114917
 20
180.2294279333262
 30
0.0
 10
184.4117766114917
 20
179.8289353189632
 30
0.0
 10
184.4117766114917
 20
179.4313710376944
 30
0.0
 10
184.4117766114917
 20
179.4313710376944
 30
0.0
 10
184.4117766114917
 20
179.4313710376944
 30
0.0
 10
184.4117766114917
 20
179.4313710376944
 30
0.0
 10
184.4117766114917
 20
179.0339790113135
 30
0.0
 10
184.4117766114917
 20
178.6398598278027
 30
0.0
 10
184.4117766114917
 20
178.2500470164894
 30
0.0
 10
184.4117766114917
 20
178.2500470164894
 30
0.0
 10
184.4117766114917
 20
178.2500470164894
 30
0.0
 10
184.4117766114917
 20
178.2500470164894
 30
0.0
 10
184.4117766114917
 20
177.8104525425734
 30
0.0
 10
184.4117766114917
 20
177.3761979701824
 30
0.0
 10
184.4117766114917
 20
176.949178103083
 30
0.0
 10
184.4117766114917
 20
176.949178103083
 30
0.0
 10
184.4117766114917
 20
176.949178103083
 30
0.0
 10
184.4117766114917
 20
176.949178103083
 30
0.0
 10
184.4117766114917
 20
176.5223304908716
 30
0.0
 10
184.4117766114917
 20
176.102373074176
 30
0.0
 10
184.4117766114917
 20
175.6908561469875
 30
0.0
 10
184.4117766114917
 20
175.6908561469875
 30
0.0
 10
184.4117766114917
 20
175.6908561469875
 30
0.0
 10
184.4117766114917
 20
175.6908561469875
 30
0.0
 10
184.4117766114917
 20
175.2305910865238
 30
0.0
 10
184.4117766114917
 20
174.7808335742219
 30
0.0
 10
184.4117766114917
 20
174.3438229236245
 30
0.0
 10
184.4117766114917
 20
174.3438229236245
 30
0.0
 10
184.4117766114917
 20
174.3438229236245
 30
0.0
 10
184.4117766114917
 20
174.3438229236245
 30
0.0
 10
184.4117766114917
 20
173.9069845279149
 30
0.0
 10
184.4117766114917
 20
173.4830652487978
 30
0.0
 10
184.4117766114917
 20
173.073615380264
 30
0.0
 10
184.4117766114917
 20
173.073615380264
 30
0.0
 10
184.4117766114917
 20
173.073615380264
 30
0.0
 10
184.4117766114917
 20
173.073615380264
 30
0.0
 10
184.4117766114917
 20
172.7788872670704
 30
0.0
 10
184.4117766114917
 20
172.4915661140564
 30
0.0
 10
184.4117766114917
 20
172.2125131956615
 30
0.0
 10
184.4117766114917
 20
172.2125131956615
 30
0.0
 10
184.4117766114917
 20
172.2125131956615
 30
0.0
 10
184.4117766114917
 20
172.2125131956615
 30
0.0
 10
184.4117766114917
 20
171.9270868464144
 30
0.0
 10
184.4117766114917
 20
171.6502732415622
 30
0.0
 10
184.4117766114917
 20
171.3825891457685
 30
0.0
 10
184.4117766114917
 20
171.3825891457685
 30
0.0
 10
184.4117766114917
 20
171.3825891457685
 30
0.0
 10
184.4117766114917
 20
171.3825891457685
 30
0.0
 10
184.4117766114917
 20
171.1090483837864
 30
0.0
 10
184.4117766114917
 20
170.8451538955265
 30
0.0
 10
184.4117766114917
 20
170.5915947005405
 30
0.0
 10
184.4117766114917
 20
170.5915947005405
 30
0.0
 10
184.4117766114917
 20
170.5915947005405
 30
0.0
 10
184.4117766114917
 20
170.5915947005405
 30
0.0
 10
184.4117766114917
 20
170.1954084583749
 30
0.0
 10
184.4117766114917
 20
169.8243714298424
 30
0.0
 10
184.4117766114917
 20
169.4812396931495
 30
0.0
 10
184.4117766114917
 20
169.4812396931495
 30
0.0
 10
184.4117766114917
 20
169.4812396931495
 30
0.0
 10
184.4117766114917
 20
169.4812396931495
 30
0.0
 10
184.4117766114917
 20
169.1257056045278
 30
0.0
 10
184.4117766114917
 20
168.7999716115125
 30
0.0
 10
184.4117766114917
 20
168.5061047727584
 30
0.0
 10
184.4117766114917
 20
168.5061047727584
 30
0.0
 10
184.4117766114917
 20
168.5061047727584
 30
0.0
 10
184.4117766114917
 20
168.5061047727584
 30
0.0
 10
184.4117766114917
 20
168.2032806798336
 30
0.0
 10
184.4117766114917
 20
167.9342185449368
 30
0.0
 10
184.4117766114917
 20
167.7016744462744
 30
0.0
 10
184.4117766114917
 20
167.7016744462744
 30
0.0
 10
184.4117766114917
 20
167.7016744462744
 30
0.0
 10
184.4117766114917
 20
167.7016744462744
 30
0.0
 10
184.4117766114917
 20
167.4637904460871
 30
0.0
 10
184.4117766114917
 20
167.2641470310132
 30
0.0
 10
184.4117766114917
 20
167.1006771423979
 30
0.0
 10
184.4117766114917
 20
167.1006771423979
 30
0.0
 10
184.4117766114917
 20
167.1006771423979
 30
0.0
 10
184.4117766114917
 20
167.1006771423979
 30
0.0
 10
184.4117766114917
 20
166.9344511755763
 30
0.0
 10
184.4117766114917
 20
166.8054322645406
 30
0.0
 10
184.4117766114917
 20
166.7286065845381
 30
0.0
 10
184.4117766114917
 20
166.7286065845381
 30
0.0
 10
184.4117766114917
 20
166.7286065845381
 30
0.0
 10
184.4117766114917
 20
166.7286065845381
 30
0.0
 10
184.4117766114917
 20
166.6514363947597
 30
0.0
 10
184.4117766114917
 20
166.6271484555661
 30
0.0
 10
184.4117766114917
 20
166.6028605163725
 30
0.0
  0
ENDBLK
  5
149
330
146
100
AcDbEntity
  8
0
100
AcDbBlockEnd
  0
BLOCK
  5
14D
330
14B
100
AcDbEntity
  8
0
100
AcDbBlockBegin
  2
block 45
 70
     0
 71
     0
 10
0.0
 20
0.0
 30
0.0
  3
block 45
  1

  0
SPLINE
  5
14F
330
14B
100
AcDbEntity
  8
0
 62
     7
370
     9
100
AcDbSpline
210
0.0
220
0.0
230
1.0
 70
    24
 71
     3
 72
    98
 73
    94
 74
     0
 42
0.0000000001
 43
0.0000000001
 40
0.0
 40
0.0
 40
0.0
 40
0.0
 40
1.0
 40
1.0
 40
1.0
 40
2.0
 40
2.0
 40
2.0
 40
3.0
 40
3.0
 40
3.0
 40
4.0
 40
4.0
 40
4.0
 40
5.0
 40
5.0
 40
5.0
 40
6.0
 40
6.0
 40
6.0
 40
7.0
 40
7.0
 40
7.0
 40
8.0
 40
8.0
 40
8.0
 40
9.0
 40
9.0
 40
9.0
 40
10.0
 40
10.0
 40
10.0
 40
11.0
 40
11.0
 40
11.0
 40
12.0
 40
12.0
 40
12.0
 40
13.0
 40
13.0
 40
13.0
 40
14.0
 40
14.0
 40
14.0
 40
15.0
 40
15.0
 40
15.0
 40
16.0
 40
16.0
 40
16.0
 40
17.0
 40
17.0
 40
17.0
 40
18.0
 40
18.0
 40
18.0
 40
19.0
 40
19.0
 40
19.0
 40
20.0
 40
20.0
 40
20.0
 40
21.0
 40
21.0
 40
21.0
 40
22.0
 40
22.0
 40
22.0
 40
23.0
 40
23.0
 40
23.0
 40
24.0
 40
24.0
 40
24.0
 40
25.0
 40
25.0
 40
25.0
 40
26.0
 40
26.0
 40
26.0
 40
27.0
 40
27.0
 40
27.0
 40
28.0
 40
28.0
 40
28.0
 40
29.0
 40
29.0
 40
29.0
 40
30.0
 40
30.0
 40
30.0
 40
31.0
 40
31.0
 40
31.0
 40
31.0
 10
184.4117766114917
 20
198.9561180711665
 30
0.0
 10
184.4117766114917
 20
198.9320023868607
 30
0.0
 10
184.4117766114917
 20
198.9077144476671
 30
0.0
 10
184.4117766114917
 20
198.8303720030009
 30
0.0
 10
184.4117766114917
 20
198.8303720030009
 30
0.0
 10
184.4117766114917
 20
198.8303720030009
 30
0.0
 10
184.4117766114917
 20
198.8303720030009
 30
0.0
 10
184.4117766114917
 20
198.7535463229983
 30
0.0
 10
184.4117766114917
 20
198.6246996668506
 30
0.0
 10
184.4117766114917
 20
198.4584737000289
 30
0.0
 10
184.4117766114917
 20
198.4584737000289
 30
0.0
 10
184.4117766114917
 20
198.4584737000289
 30
0.0
 10
184.4117766114917
 20
198.4584737000289
 30
0.0
 10
184.4117766114917
 20
198.2948315565257
 30
0.0
 10
184.4117766114917
 20
198.0953603963398
 30
0.0
 10
184.4117766114917
 20
197.8574763961525
 30
0.0
 10
184.4117766114917
 20
197.8574763961525
 30
0.0
 10
184.4117766114917
 20
197.8574763961525
 30
0.0
 10
184.4117766114917
 20
197.8574763961525
 30
0.0
 10
184.4117766114917
 20
197.6249322974901
 30
0.0
 10
184.4117766114917
 20
197.3558701625933
 30
0.0
 10
184.4117766114917
 20
197.0530460696685
 30
0.0
 10
184.4117766114917
 20
197.0530460696685
 30
0.0
 10
184.4117766114917
 20
197.0530460696685
 30
0.0
 10
184.4117766114917
 20
197.0530460696685
 30
0.0
 10
184.4117766114917
 20
196.7591792309143
 30
0.0
 10
184.4117766114917
 20
196.433445237899
 30
0.0
 10
184.4117766114917
 20
196.0779111492774
 30
0.0
 10
184.4117766114917
 20
196.0779111492774
 30
0.0
 10
184.4117766114917
 20
196.0779111492774
 30
0.0
 10
184.4117766114917
 20
196.0779111492774
 30
0.0
 10
184.4117766114917
 20
195.7347794125844
 30
0.0
 10
184.4117766114917
 20
195.3637423840519
 30
0.0
 10
184.4117766114917
 20
194.9673838869984
 30
0.0
 10
184.4117766114917
 20
194.9673838869984
 30
0.0
 10
184.4117766114917
 20
194.9673838869984
 30
0.0
 10
184.4117766114917
 20
194.9673838869984
 30
0.0
 10
184.4117766114917
 20
194.5870450945195
 30
0.0
 10
184.4117766114917
 20
194.1832796372864
 30
0.0
 10
184.4117766114917
 20
193.7584990837297
 30
0.0
 10
184.4117766114917
 20
193.7584990837297
 30
0.0
 10
184.4117766114917
 20
193.7584990837297
 30
0.0
 10
184.4117766114917
 20
193.7584990837297
 30
0.0
 10
184.4117766114917
 20
193.3526665678418
 30
0.0
 10
184.4117766114917
 20
192.9275415045093
 30
0.0
 10
184.4117766114917
 20
192.4855354621629
 30
0.0
 10
184.4117766114917
 20
192.4855354621629
 30
0.0
 10
184.4117766114917
 20
192.4855354621629
 30
0.0
 10
184.4117766114917
 20
192.4855354621629
 30
0.0
 10
184.4117766114917
 20
192.0759133387412
 30
0.0
 10
184.4117766114917
 20
191.6518218047361
 30
0.0
 10
184.4117766114917
 20
191.2148111541387
 30
0.0
 10
184.4117766114917
 20
191.2148111541387
 30
0.0
 10
184.4117766114917
 20
191.2148111541387
 30
0.0
 10
184.4117766114917
 20
191.2148111541387
 30
0.0
 10
184.4117766114917
 20
190.7779727584291
 30
0.0
 10
184.4117766114917
 20
190.3282152461272
 30
0.0
 10
184.4117766114917
 20
189.8681224405514
 30
0.0
 10
184.4117766114917
 20
189.8681224405514
 30
0.0
 10
184.4117766114917
 20
189.8681224405514
 30
0.0
 10
184.4117766114917
 20
189.8681224405514
 30
0.0
 10
184.4117766114917
 20
189.4566055133629
 30
0.0
 10
184.4117766114917
 20
189.0364758417795
 30
0.0
 10
184.4117766114917
 20
188.6094559746801
 30
0.0
 10
184.4117766114917
 20
188.6094559746801
 30
0.0
 10
184.4117766114917
 20
188.6094559746801
 30
0.0
 10
184.4117766114917
 20
188.6094559746801
 30
0.0
 10
184.4117766114917
 20
188.1824361075808
 30
0.0
 10
184.4117766114917
 20
187.7485260449655
 30
0.0
 10
184.4117766114917
 20
187.3089315710496
 30
0.0
 10
184.4117766114917
 20
187.3089315710496
 30
0.0
 10
184.4117766114917
 20
187.3089315710496
 30
0.0
 10
184.4117766114917
 20
187.3089315710496
 30
0.0
 10
184.4117766114917
 20
186.9189465048483
 30
0.0
 10
184.4117766114917
 20
186.5246550664496
 30
0.0
 10
184.4117766114917
 20
186.1272630400688
 30
0.0
 10
184.4117766114917
 20
186.1272630400688
 30
0.0
 10
184.4117766114917
 20
186.1272630400688
 30
0.0
 10
184.4117766114917
 20
186.1272630400688
 30
0.0
 10
184.4117766114917
 20
185.7298710136879
 30
0.0
 10
184.4117766114917
 20
185.3293783993248
 30
0.0
 10
184.4117766114917
 20
184.9269909811949
 30
0.0
 10
184.4117766114917
 20
184.9269909811949
 30
0.0
 10
184.4117766114917
 20
184.9269909811949
 30
0.0
 10
184.4117766114917
 20
184.9269909811949
 30
0.0
 10
184.4117766114917
 20
184.5711123827975
 30
0.0
 10
184.4117766114917
 20
184.2138557452968
 30
0.0
 10
184.4117766114917
 20
183.8557378333567
 30
0.0
 10
184.4117766114917
 20
183.8557378333567
 30
0.0
 10
184.4117766114917
 20
183.8557378333567
 30
0.0
 10
184.4117766114917
 20
183.8557378333567
 30
0.0
 10
184.4117766114917
 20
183.4974476665287
 30
0.0
 10
184.4117766114917
 20
183.1384684801491
 30
0.0
 10
184.4117766114917
 20
182.7794892937695
 30
0.0
  0
ENDBLK
  5
14E
330
14B
100
AcDbEntity
  8
0
100
AcDbBlockEnd
  0
BLOCK
  5
152
330
150
100
AcDbEntity
  8
0
100
AcDbBlockBegin
  2
block 46
 70
     0
 71
     0
 10
0.0
 20
0.0
 30
0.0
  3
block 46
  1

  0
POLYLINE
  5
154
330
150
100
AcDbEntity
  8
0
 62
     7
370
     9
100
AcDb2dPolyline
 66
     1
 10
0.0
 20
0.0
 30
0.0
  0
VERTEX
  5
155
330
154
100
AcDbEntity
  8
0
 62
     7
370
     9
100
AcDbVertex
100
AcDb2dVertex
 10
150.9429964026697
 20
173.8547912968818
 30
0.0
  0
VERTEX
  5
156
330
154
100
AcDbEntity
  8
0
 62
     7
370
     9
100
AcDbVertex
100
AcDb2dVertex
 10
150.9429964026697
 20
173.854446787106
 30
0.0
  0
SEQEND
  5
157
330
154
100
AcDbEntity
  8
0
370
     9
  0
ENDBLK
  5
153
330
150
100
AcDbEntity
  8
0
100
AcDbBlockEnd
  0
BLOCK
  5
15A
330
158
100
AcDbEntity
  8
0
100
AcDbBlockBegin
  2
block 47
 70
     0
 71
     0
 10
0.0
 20
0.0
 30
0.0
  3
block 47
  1

  0
POLYLINE
  5
15C
330
158
100
AcDbEntity
  8
0
 62
     7
370
     9
100
AcDb2dPolyline
 66
     1
 10
0.0
 20
0.0
 30
0.0
  0
VERTEX
  5
15D
330
15C
100
AcDbEntity
  8
0
 62
     7
370
     9
100
AcDbVertex
100
AcDb2dVertex
 10
150.9429964026697
 20
191.7047040553208
 30
0.0
  0
VERTEX
  5
15E
330
15C
100
AcDbEntity
  8
0
 62
     7
370
     9
100
AcDbVertex
100
AcDb2dVertex
 10
150.9429964026697
 20
173.8547912968818
 30
0.0
  0
SEQEND
  5
15F
330
15C
100
AcDbEntity
  8
0
370
     9
  0
ENDBLK
  5
15B
330
158
100
AcDbEntity
  8
0
100
AcDbBlockEnd
  0
BLOCK
  5
162
330
160
100
AcDbEntity
  8
0
100
AcDbBlockBegin
  2
block 48
 70
     0
 71
     0
 10
0.0
 20
0.0
 30
0.0
  3
block 48
  1

  0
POLYLINE
  5
164
330
160
100
AcDbEntity
  8
0
 62
     7
370
     9
100
AcDb2dPolyline
 66
     1
 10
0.0
 20
0.0
 30
0.0
  0
VERTEX
  5
165
330
164
100
AcDbEntity
  8
0
 62
     7
370
     9
100
AcDbVertex
100
AcDb2dVertex
 10
139.7867363330624
 20
154.8886668648632
 30
0.0
  0
VERTEX
  5
166
330
164
100
AcDbEntity
  8
0
 62
     7
370
     9
100
AcDbVertex
100
AcDb2dVertex
 10
139.7867363330624
 20
210.6703117226757
 30
0.0
  0
SEQEND
  5
167
330
164
100
AcDbEntity
  8
0
370
     9
  0
ENDBLK
  5
163
330
160
100
AcDbEntity
  8
0
100
AcDbBlockEnd
  0
BLOCK
  5
16A
330
168
100
AcDbEntity
  8
0
100
AcDbBlockBegin
  2
block 49
 70
     0
 71
     0
 10
0.0
 20
0.0
 30
0.0
  3
block 49
  1

  0
SPLINE
  5
16C
330
168
100
AcDbEntity
  8
0
 62
     7
370
     9
100
AcDbSpline
210
0.0
220
0.0
230
1.0
 70
     8
 71
     3
 72
    68
 73
    64
 74
     0
 42
0.0000000001
 43
0.0000000001
 40
0.0
 40
0.0
 40
0.0
 40
0.0
 40
1.0
 40
1.0
 40
1.0
 40
2.0
 40
2.0
 40
2.0
 40
3.0
 40
3.0
 40
3.0
 40
4.0
 40
4.0
 40
4.0
 40
5.0
 40
5.0
 40
5.0
 40
6.0
 40
6.0
 40
6.0
 40
7.0
 40
7.0
 40
7.0
 40
8.0
 40
8.0
 40
8.0
 40
9.0
 40
9.0
 40
9.0
 40
10.0
 40
10.0
 40
10.0
 40
11.0
 40
11.0
 40
11.0
 40
12.0
 40
12.0
 40
12.0
 40
13.0
 40
13.0
 40
13.0
 40
14.0
 40
14.0
 40
14.0
 40
15.0
 40
15.0
 40
15.0
 40
16.0
 40
16.0
 40
16.0
 40
17.0
 40
17.0
 40
17.0
 40
18.0
 40
18.0
 40
18.0
 40
19.0
 40
19.0
 40
19.0
 40
20.0
 40
20.0
 40
20.0
 40
21.0
 40
21.0
 40
21.0
 40
21.0
 10
145.8969617165832
 20
154.9420658801116
 30
0.0
 10
145.8766356398113
 20
154.9434439192148
 30
0.0
 10
145.8563095630393
 20
154.944821958318
 30
0.0
 10
145.7936087838444
 20
154.9486115658518
 30
0.0
 10
145.7936087838444
 20
154.9486115658518
 30
0.0
 10
145.7936087838444
 20
154.9486115658518
 30
0.0
 10
145.7936087838444
 20
154.9486115658518
 30
0.0
 10
145.7271183971157
 20
154.9525734282734
 30
0.0
 10
145.6130856613272
 20
154.9594636237894
 30
0.0
 10
145.471492143475
 20
154.966870583969
 30
0.0
 10
145.471492143475
 20
154.966870583969
 30
0.0
 10
145.471492143475
 20
154.966870583969
 30
0.0
 10
145.471492143475
 20
154.966870583969
 30
0.0
 10
145.3267980376406
 20
154.9742775441486
 30
0.0
 10
145.1535096204151
 20
154.9822012689919
 30
0.0
 10
144.9578280677629
 20
154.988746954732
 30
0.0
 10
144.9578280677629
 20
154.988746954732
 30
0.0
 10
144.9578280677629
 20
154.988746954732
 30
0.0
 10
144.9578280677629
 20
154.988746954732
 30
0.0
 10
144.7552563195947
 20
154.9956371502479
 30
0.0
 10
144.5285688871209
 20
155.0013215615486
 30
0.0
 10
144.2915461613731
 20
155.0042498946429
 30
0.0
 10
144.2915461613731
 20
155.0042498946429
 30
0.0
 10
144.2915461613731
 20
155.0042498946429
 30
0.0
 10
144.2915461613731
 20
155.0042498946429
 30
0.0
 10
144.0962091184967
 20
155.0064892081855
 30
0.0
 10
143.8939818801043
 20
155.0070059728492
 30
0.0
 10
143.6914101319362
 20
155.0052834239702
 30
0.0
 10
143.6914101319362
 20
155.0052834239702
 30
0.0
 10
143.6914101319362
 20
155.0052834239702
 30
0.0
 10
143.6914101319362
 20
155.0052834239702
 30
0.0
 10
143.4795366198215
 20
155.0035608750913
 30
0.0
 10
143.2676631077069
 20
154.9994267577817
 30
0.0
 10
143.063024300884
 20
154.9935700915932
 30
0.0
 10
143.063024300884
 20
154.9935700915932
 30
0.0
 10
143.063024300884
 20
154.9935700915932
 30
0.0
 10
143.063024300884
 20
154.9935700915932
 30
0.0
 10
142.8142882427591
 20
154.9863353863014
 30
0.0
 10
142.5765764974598
 20
154.9761723479155
 30
0.0
 10
142.3647029853451
 20
154.96514803509
 30
0.0
 10
142.3647029853451
 20
154.96514803509
 30
0.0
 10
142.3647029853451
 20
154.96514803509
 30
0.0
 10
142.3647029853451
 20
154.96514803509
 30
0.0
 10
142.1555855514368
 20
154.9541237222645
 30
0.0
 10
141.9716173311617
 20
154.9422381349995
 30
0.0
 10
141.8265787155515
 20
154.9322473515015
 30
0.0
 10
141.8265787155515
 20
154.9322473515015
 30
0.0
 10
141.8265787155515
 20
154.9322473515015
 30
0.0
 10
141.8265787155515
 20
154.9322473515015
 30
0.0
 10
141.6860187270267
 20
154.9222565680034
 30
0.0
 10
141.582321284512
 20
154.9141605882722
 30
0.0
 10
141.5161754075592
 20
154.9088206867473
 30
0.0
 10
141.5161754075592
 20
154.9088206867473
 30
0.0
 10
141.5161754075592
 20
154.9088206867473
 30
0.0
 10
141.5161754075592
 20
154.9088206867473
 30
0.0
 10
141.4675995291719
 20
154.9050310792136
 30
0.0
 10
141.4390052177808
 20
154.902619510783
 30
0.0
 10
141.4465844328483
 20
154.9031362754467
 30
0.0
 10
141.4465844328483
 20
154.9031362754467
 30
0.0
 10
141.4465844328483
 20
154.9031362754467
 30
0.0
 10
141.4465844328483
 20
154.9031362754467
 30
0.0
 10
141.4531301185885
 20
154.9036530401104
 30
0.0
 10
141.4886146254955
 20
154.9065813732047
 30
0.0
 10
141.5237546226267
 20
154.909337451411
 30
0.0
  0
ENDBLK
  5
16B
330
168
100
AcDbEntity
  8
0
100
AcDbBlockEnd
  0
BLOCK
  5
16F
330
16D
100
AcDbEntity
  8
0
100
AcDbBlockBegin
  2
block 50
 70
     0
 71
     0
 10
0.0
 20
0.0
 30
0.0
  3
block 50
  1

  0
SPLINE
  5
171
330
16D
100
AcDbEntity
  8
0
 62
     7
370
     9
100
AcDbSpline
210
0.0
220
0.0
230
1.0
 70
     8
 71
     3
 72
    26
 73
    22
 74
     0
 42
0.0000000001
 43
0.0000000001
 40
0.0
 40
0.0
 40
0.0
 40
0.0
 40
1.0
 40
1.0
 40
1.0
 40
2.0
 40
2.0
 40
2.0
 40
3.0
 40
3.0
 40
3.0
 40
4.0
 40
4.0
 40
4.0
 40
5.0
 40
5.0
 40
5.0
 40
6.0
 40
6.0
 40
6.0
 40
7.0
 40
7.0
 40
7.0
 40
7.0
 10
149.9387504062239
 20
154.9773781321308
 30
0.0
 10
150.0152315764506
 20
154.987024405853
 30
0.0
 10
150.0913682369016
 20
154.9968429344632
 30
0.0
 10
150.1609592116124
 20
155.0256095007422
 30
0.0
 10
150.1609592116124
 20
155.0256095007422
 30
0.0
 10
150.1609592116124
 20
155.0256095007422
 30
0.0
 10
150.1609592116124
 20
155.0256095007422
 30
0.0
 10
150.2357178329602
 20
155.0562708707881
 30
0.0
 10
150.3025527294647
 20
155.1086363567091
 30
0.0
 10
150.3569852740405
 20
155.171337135904
 30
0.0
 10
150.3569852740405
 20
155.171337135904
 30
0.0
 10
150.3569852740405
 20
155.171337135904
 30
0.0
 10
150.3569852740405
 20
155.171337135904
 30
0.0
 10
150.3990154666876
 20
155.2200852691792
 30
0.0
 10
150.4334664442672
 20
155.2752068333066
 30
0.0
 10
150.4544815405908
 20
155.3344625147435
 30
0.0
 10
150.4544815405908
 20
155.3344625147435
 30
0.0
 10
150.4544815405908
 20
155.3344625147435
 30
0.0
 10
150.4544815405908
 20
155.3344625147435
 30
0.0
 10
150.4741185978111
 20
155.3897563337588
 30
0.0
 10
150.4827313422061
 20
155.4486675054199
 30
0.0
 10
150.4913440866009
 20
155.5075786770811
 30
0.0
  0
ENDBLK
  5
170
330
16D
100
AcDbEntity
  8
0
100
AcDbBlockEnd
  0
BLOCK
  5
174
330
172
100
AcDbEntity
  8
0
100
AcDbBlockBegin
  2
block 51
 70
     0
 71
     0
 10
0.0
 20
0.0
 30
0.0
  3
block 51
  1

  0
SPLINE
  5
176
330
172
100
AcDbEntity
  8
0
 62
     7
370
     9
100
AcDbSpline
210
0.0
220
0.0
230
1.0
 70
     8
 71
     3
 72
    26
 73
    22
 74
     0
 42
0.0000000001
 43
0.0000000001
 40
0.0
 40
0.0
 40
0.0
 40
0.0
 40
1.0
 40
1.0
 40
1.0
 40
2.0
 40
2.0
 40
2.0
 40
3.0
 40
3.0
 40
3.0
 40
4.0
 40
4.0
 40
4.0
 40
5.0
 40
5.0
 40
5.0
 40
6.0
 40
6.0
 40
6.0
 40
7.0
 40
7.0
 40
7.0
 40
7.0
 10
150.4913440866009
 20
210.0513999104579
 30
0.0
 10
150.4782527151207
 20
210.1271920611331
 30
0.0
 10
150.4651613436404
 20
210.2029842118082
 30
0.0
 10
150.433810954043
 20
210.2713694023037
 30
0.0
 10
150.433810954043
 20
210.2713694023037
 30
0.0
 10
150.433810954043
 20
210.2713694023037
 30
0.0
 10
150.433810954043
 20
210.2713694023037
 30
0.0
 10
150.4003935057908
 20
210.3449222394362
 30
0.0
 10
150.3452719416634
 20
210.4096900772859
 30
0.0
 10
150.2805041038137
 20
210.4613665436553
 30
0.0
 10
150.2805041038137
 20
210.4613665436553
 30
0.0
 10
150.2805041038137
 20
210.4613665436553
 30
0.0
 10
150.2805041038137
 20
210.4613665436553
 30
0.0
 10
150.2298611667717
 20
210.5013296776477
 30
0.0
 10
150.1733615635411
 20
210.5333690867967
 30
0.0
 10
150.1134168625526
 20
210.5523171244655
 30
0.0
 10
150.1134168625526
 20
210.5523171244655
 30
0.0
 10
150.1134168625526
 20
210.5523171244655
 30
0.0
 10
150.1134168625526
 20
210.5523171244655
 30
0.0
 10
150.0572617690978
 20
210.5697148681433
 30
0.0
 10
149.9980060876608
 20
210.5757437892197
 30
0.0
 10
149.9387504062239
 20
210.5817727102961
 30
0.0
  0
ENDBLK
  5
175
330
172
100
AcDbEntity
  8
0
100
AcDbBlockEnd
  0
BLOCK
  5
179
330
177
100
AcDbEntity
  8
0
100
AcDbBlockBegin
  2
block 52
 70
     0
 71
     0
 10
0.0
 20
0.0
 30
0.0
  3
block 52
  1

  0
POLYLINE
  5
17B
330
177
100
AcDbEntity
  8
0
 62
     7
370
     9
100
AcDb2dPolyline
 66
     1
 10
0.0
 20
0.0
 30
0.0
  0
VERTEX
  5
17C
330
17B
100
AcDbEntity
  8
0
 62
     7
370
     9
100
AcDbVertex
100
AcDb2dVertex
 10
150.9429964026697
 20
191.7047040553208
 30
0.0
  0
VERTEX
  5
17D
330
17B
100
AcDbEntity
  8
0
 62
     7
370
     9
100
AcDbVertex
100
AcDb2dVertex
 10
150.9429964026697
 20
173.854446787106
 30
0.0
  0
SEQEND
  5
17E
330
17B
100
AcDbEntity
  8
0
370
     9
  0
ENDBLK
  5
17A
330
177
100
AcDbEntity
  8
0
100
AcDbBlockEnd
  0
BLOCK
  5
181
330
17F
100
AcDbEntity
  8
0
100
AcDbBlockBegin
  2
block 53
 70
     0
 71
     0
 10
0.0
 20
0.0
 30
0.0
  3
block 53
  1

  0
INSERT
  5
184
330
17F
100
AcDbEntity
  8
0
100
AcDbBlockReference
  2
block 54
 10
0.0
 20
0.0
 30
0.0
  0
INSERT
  5
190
330
17F
100
AcDbEntity
  8
0
100
AcDbBlockReference
  2
block 56
 10
0.0
 20
0.0
 30
0.0
  0
INSERT
  5
1D2
330
17F
100
AcDbEntity
  8
0
100
AcDbBlockReference
  2
block 62
 10
0.0
 20
0.0
 30
0.0
  0
INSERT
  5
1DA
330
17F
100
AcDbEntity
  8
0
100
AcDbBlockReference
  2
block 63
 10
0.0
 20
0.0
 30
0.0
  0
INSERT
  5
1E2
330
17F
100
AcDbEntity
  8
0
100
AcDbBlockReference
  2
block 64
 10
0.0
 20
0.0
 30
0.0
  0
INSERT
  5
1EA
330
17F
100
AcDbEntity
  8
0
100
AcDbBlockReference
  2
block 65
 10
0.0
 20
0.0
 30
0.0
  0
ENDBLK
  5
182
330
17F
100
AcDbEntity
  8
0
100
AcDbBlockEnd
  0
BLOCK
  5
185
330
183
100
AcDbEntity
  8
0
100
AcDbBlockBegin
  2
block 54
 70
     0
 71
     0
 10
0.0
 20
0.0
 30
0.0
  3
block 54
  1

  0
INSERT
  5
188
330
183
100
AcDbEntity
  8
0
100
AcDbBlockReference
  2
block 55
 10
0.0
 20
0.0
 30
0.0
  0
ENDBLK
  5
186
330
183
100
AcDbEntity
  8
0
100
AcDbBlockEnd
  0
BLOCK
  5
189
330
187
100
AcDbEntity
  8
0
100
AcDbBlockBegin
  2
block 55
 70
     0
 71
     0
 10
0.0
 20
0.0
 30
0.0
  3
block 55
  1

  0
POLYLINE
  5
18B
330
187
100
AcDbEntity
  8
0
 62
     7
370
     9
100
AcDb2dPolyline
 66
     1
 10
0.0
 20
0.0
 30
0.0
  0
VERTEX
  5
18C
330
18B
100
AcDbEntity
  8
0
 62
     7
370
     9
100
AcDbVertex
100
AcDb2dVertex
 10
139.7867363330624
 20
136.9198982337746
 30
0.0
  0
VERTEX
  5
18D
330
18B
100
AcDbEntity
  8
0
 62
     7
370
     9
100
AcDbVertex
100
AcDb2dVertex
 10
146.4802167670061
 20
136.9198982337746
 30
0.0
  0
SEQEND
  5
18E
330
18B
100
AcDbEntity
  8
0
370
     9
  0
ENDBLK
  5
18A
330
187
100
AcDbEntity
  8
0
100
AcDbBlockEnd
  0
BLOCK
  5
191
330
18F
100
AcDbEntity
  8
0
100
AcDbBlockBegin
  2
block 56
 70
     0
 71
     0
 10
0.0
 20
0.0
 30
0.0
  3
block 56
  1

  0
INSERT
  5
194
330
18F
100
AcDbEntity
  8
0
100
AcDbBlockReference
  2
block 57
 10
0.0
 20
0.0
 30
0.0
  0
INSERT
  5
1CA
330
18F
100
AcDbEntity
  8
0
100
AcDbBlockReference
  2
block 61
 10
0.0
 20
0.0
 30
0.0
  0
ENDBLK
  5
192
330
18F
100
AcDbEntity
  8
0
100
AcDbBlockEnd
  0
BLOCK
  5
195
330
193
100
AcDbEntity
  8
0
100
AcDbBlockBegin
  2
block 57
 70
     0
 71
     0
 10
0.0
 20
0.0
 30
0.0
  3
block 57
  1

  0
INSERT
  5
198
330
193
100
AcDbEntity
  8
0
100
AcDbBlockReference
  2
block 58
 10
0.0
 20
0.0
 30
0.0
  0
ENDBLK
  5
196
330
193
100
AcDbEntity
  8
0
100
AcDbBlockEnd
  0
BLOCK
  5
199
330
197
100
AcDbEntity
  8
0
100
AcDbBlockBegin
  2
block 58
 70
     0
 71
     0
 10
0.0
 20
0.0
 30
0.0
  3
block 58
  1

  0
INSERT
  5
19C
330
197
100
AcDbEntity
  8
0
100
AcDbBlockReference
  2
block 59
 10
0.0
 20
0.0
 30
0.0
  0
INSERT
  5
1AE
330
197
100
AcDbEntity
  8
0
100
AcDbBlockReference
  2
block 60
 10
0.0
 20
0.0
 30
0.0
  0
ENDBLK
  5
19A
330
197
100
AcDbEntity
  8
0
100
AcDbBlockEnd
  0
BLOCK
  5
19D
330
19B
100
AcDbEntity
  8
0
100
AcDbBlockBegin
  2
block 59
 70
     0
 71
     0
 10
0.0
 20
0.0
 30
0.0
  3
block 59
  1

  0
POLYLINE
  5
19F
330
19B
100
AcDbEntity
  8
0
370
     0
100
AcDb2dPolyline
 66
     1
 10
0.0
 20
0.0
 30
0.0
  0
VERTEX
  5
1A0
330
19F
100
AcDbEntity
  8
0
370
     0
100
AcDbVertex
100
AcDb2dVertex
 10
146.4805612767819
 20
138.0367989269058
 30
0.0
  0
VERTEX
  5
1A1
330
19F
100
AcDbEntity
  8
0
370
     0
100
AcDbVertex
100
AcDb2dVertex
 10
146.4805612767819
 20
135.803686560195
 30
0.0
  0
VERTEX
  5
1A2
330
19F
100
AcDbEntity
  8
0
370
     0
100
AcDbVertex
100
AcDb2dVertex
 10
139.7884588819414
 20
136.9185201946714
 30
0.0
  0
VERTEX
  5
1A3
330
19F
100
AcDbEntity
  8
0
370
     0
100
AcDbVertex
100
AcDb2dVertex
 10
146.4805612767819
 20
138.0367989269058
 30
0.0
  0
SEQEND
  5
1A4
330
19F
100
AcDbEntity
  8
0
370
     0
  0
HATCH
  5
1A5
330
19B
100
AcDbEntity
  8
0
 62
     7
100
AcDbHatch
 10
0.0
 20
0.0
 30
0.0
210
0.0
220
0.0
230
1.0
  2
SOLID
 70
     1
 71
     0
 91
        1
 92
        1
 93
        3
 72
     1
 10
146.4805612767819
 20
138.0367989269058
 11
146.4805612767819
 21
135.803686560195
 72
     1
 10
146.4805612767819
 20
135.803686560195
 11
139.7884588819414
 21
136.9185201946714
 72
     1
 10
139.7884588819414
 20
136.9185201946714
 11
146.4805612767819
 21
138.0367989269058
 97
        0
 75
     2
 76
     1
 98
        0
  0
POLYLINE
  5
1A6
330
19B
100
AcDbEntity
  8
0
370
     0
100
AcDb2dPolyline
 66
     1
 10
0.0
 20
0.0
 30
0.0
  0
VERTEX
  5
1A7
330
1A6
100
AcDbEntity
  8
0
370
     0
100
AcDbVertex
100
AcDb2dVertex
 10
188.581033918177
 20
136.9185201946714
 30
0.0
  0
VERTEX
  5
1A8
330
1A6
100
AcDbEntity
  8
0
370
     0
100
AcDbVertex
100
AcDb2dVertex
 10
181.8854864255784
 20
135.803686560195
 30
0.0
  0
VERTEX
  5
1A9
330
1A6
100
AcDbEntity
  8
0
370
     0
100
AcDbVertex
100
AcDb2dVertex
 10
181.8854864255784
 20
138.0367989269058
 30
0.0
  0
VERTEX
  5
1AA
330
1A6
100
AcDbEntity
  8
0
370
     0
100
AcDbVertex
100
AcDb2dVertex
 10
188.581033918177
 20
136.9185201946714
 30
0.0
  0
SEQEND
  5
1AB
330
1A6
100
AcDbEntity
  8
0
370
     0
  0
HATCH
  5
1AC
330
19B
100
AcDbEntity
  8
0
 62
     7
100
AcDbHatch
 10
0.0
 20
0.0
 30
0.0
210
0.0
220
0.0
230
1.0
  2
SOLID
 70
     1
 71
     0
 91
        1
 92
        1
 93
        3
 72
     1
 10
188.581033918177
 20
136.9185201946714
 11
181.8854864255784
 21
135.803686560195
 72
     1
 10
181.8854864255784
 20
135.803686560195
 11
181.8854864255784
 21
138.0367989269058
 72
     1
 10
181.8854864255784
 20
138.0367989269058
 11
188.581033918177
 21
136.9185201946714
 97
        0
 75
     2
 76
     1
 98
        0
  0
ENDBLK
  5
19E
330
19B
100
AcDbEntity
  8
0
100
AcDbBlockEnd
  0
BLOCK
  5
1AF
330
1AD
100
AcDbEntity
  8
0
100
AcDbBlockBegin
  2
block 60
 70
     0
 71
     0
 10
0.0
 20
0.0
 30
0.0
  3
block 60
  1

  0
POLYLINE
  5
1B1
330
1AD
100
AcDbEntity
  8
0
 62
     7
370
     9
100
AcDb2dPolyline
 66
     1
 10
0.0
 20
0.0
 30
0.0
  0
VERTEX
  5
1B2
330
1B1
100
AcDbEntity
  8
0
 62
     7
370
     9
100
AcDbVertex
100
AcDb2dVertex
 10
146.4805612767819
 20
135.803686560195
 30
0.0
  0
VERTEX
  5
1B3
330
1B1
100
AcDbEntity
  8
0
 62
     7
370
     9
100
AcDbVertex
100
AcDb2dVertex
 10
139.7884588819414
 20
136.9185201946714
 30
0.0
  0
SEQEND
  5
1B4
330
1B1
100
AcDbEntity
  8
0
370
     9
  0
POLYLINE
  5
1B5
330
1AD
100
AcDbEntity
  8
0
 62
     7
370
     9
100
AcDb2dPolyline
 66
     1
 10
0.0
 20
0.0
 30
0.0
  0
VERTEX
  5
1B6
330
1B5
100
AcDbEntity
  8
0
 62
     7
370
     9
100
AcDbVertex
100
AcDb2dVertex
 10
139.7884588819414
 20
136.9185201946714
 30
0.0
  0
VERTEX
  5
1B7
330
1B5
100
AcDbEntity
  8
0
 62
     7
370
     9
100
AcDbVertex
100
AcDb2dVertex
 10
146.4805612767819
 20
138.0367989269058
 30
0.0
  0
SEQEND
  5
1B8
330
1B5
100
AcDbEntity
  8
0
370
     9
  0
POLYLINE
  5
1B9
330
1AD
100
AcDbEntity
  8
0
 62
     7
370
     9
100
AcDb2dPolyline
 66
     1
 10
0.0
 20
0.0
 30
0.0
  0
VERTEX
  5
1BA
330
1B9
100
AcDbEntity
  8
0
 62
     7
370
     9
100
AcDbVertex
100
AcDb2dVertex
 10
146.4805612767819
 20
135.803686560195
 30
0.0
  0
VERTEX
  5
1BB
330
1B9
100
AcDbEntity
  8
0
 62
     7
370
     9
100
AcDbVertex
100
AcDb2dVertex
 10
146.4805612767819
 20
138.0367989269058
 30
0.0
  0
SEQEND
  5
1BC
330
1B9
100
AcDbEntity
  8
0
370
     9
  0
POLYLINE
  5
1BD
330
1AD
100
AcDbEntity
  8
0
 62
     7
370
     9
100
AcDb2dPolyline
 66
     1
 10
0.0
 20
0.0
 30
0.0
  0
VERTEX
  5
1BE
330
1BD
100
AcDbEntity
  8
0
 62
     7
370
     9
100
AcDbVertex
100
AcDb2dVertex
 10
181.8854864255784
 20
138.0367989269058
 30
0.0
  0
VERTEX
  5
1BF
330
1BD
100
AcDbEntity
  8
0
 62
     7
370
     9
100
AcDbVertex
100
AcDb2dVertex
 10
188.581033918177
 20
136.9185201946714
 30
0.0
  0
SEQEND
  5
1C0
330
1BD
100
AcDbEntity
  8
0
370
     9
  0
POLYLINE
  5
1C1
330
1AD
100
AcDbEntity
  8
0
 62
     7
370
     9
100
AcDb2dPolyline
 66
     1
 10
0.0
 20
0.0
 30
0.0
  0
VERTEX
  5
1C2
330
1C1
100
AcDbEntity
  8
0
 62
     7
370
     9
100
AcDbVertex
100
AcDb2dVertex
 10
188.581033918177
 20
136.9185201946714
 30
0.0
  0
VERTEX
  5
1C3
330
1C1
100
AcDbEntity
  8
0
 62
     7
370
     9
100
AcDbVertex
100
AcDb2dVertex
 10
181.8854864255784
 20
135.803686560195
 30
0.0
  0
SEQEND
  5
1C4
330
1C1
100
AcDbEntity
  8
0
370
     9
  0
POLYLINE
  5
1C5
330
1AD
100
AcDbEntity
  8
0
 62
     7
370
     9
100
AcDb2dPolyline
 66
     1
 10
0.0
 20
0.0
 30
0.0
  0
VERTEX
  5
1C6
330
1C5
100
AcDbEntity
  8
0
 62
     7
370
     9
100
AcDbVertex
100
AcDb2dVertex
 10
181.8854864255784
 20
138.0367989269058
 30
0.0
  0
VERTEX
  5
1C7
330
1C5
100
AcDbEntity
  8
0
 62
     7
370
     9
100
AcDbVertex
100
AcDb2dVertex
 10
181.8854864255784
 20
135.803686560195
 30
0.0
  0
SEQEND
  5
1C8
330
1C5
100
AcDbEntity
  8
0
370
     9
  0
ENDBLK
  5
1B0
330
1AD
100
AcDbEntity
  8
0
100
AcDbBlockEnd
  0
BLOCK
  5
1CB
330
1C9
100
AcDbEntity
  8
0
100
AcDbBlockBegin
  2
block 61
 70
     0
 71
     0
 10
0.0
 20
0.0
 30
0.0
  3
block 61
  1

  0
POLYLINE
  5
1CD
330
1C9
100
AcDbEntity
  8
0
 62
     7
370
     9
100
AcDb2dPolyline
 66
     1
 10
0.0
 20
0.0
 30
0.0
  0
VERTEX
  5
1CE
330
1CD
100
AcDbEntity
  8
0
 62
     7
370
     9
100
AcDbVertex
100
AcDb2dVertex
 10
188.5803448986254
 20
136.9198982337746
 30
0.0
  0
VERTEX
  5
1CF
330
1CD
100
AcDbEntity
  8
0
 62
     7
370
     9
100
AcDbVertex
100
AcDb2dVertex
 10
181.8865199549058
 20
136.9198982337746
 30
0.0
  0
SEQEND
  5
1D0
330
1CD
100
AcDbEntity
  8
0
370
     9
  0
ENDBLK
  5
1CC
330
1C9
100
AcDbEntity
  8
0
100
AcDbBlockEnd
  0
BLOCK
  5
1D3
330
1D1
100
AcDbEntity
  8
0
100
AcDbBlockBegin
  2
block 62
 70
     0
 71
     0
 10
0.0
 20
0.0
 30
0.0
  3
block 62
  1

  0
POLYLINE
  5
1D5
330
1D1
100
AcDbEntity
  8
0
 62
     7
370
     9
100
AcDb2dPolyline
 66
     1
 10
0.0
 20
0.0
 30
0.0
  0
VERTEX
  5
1D6
330
1D5
100
AcDbEntity
  8
0
 62
     7
370
     9
100
AcDbVertex
100
AcDb2dVertex
 10
139.7867363330624
 20
155.9532020720734
 30
0.0
  0
VERTEX
  5
1D7
330
1D5
100
AcDbEntity
  8
0
 62
     7
370
     9
100
AcDbVertex
100
AcDb2dVertex
 10
139.7867363330624
 20
135.8043755797466
 30
0.0
  0
SEQEND
  5
1D8
330
1D5
100
AcDbEntity
  8
0
370
     9
  0
ENDBLK
  5
1D4
330
1D1
100
AcDbEntity
  8
0
100
AcDbBlockEnd
  0
BLOCK
  5
1DB
330
1D9
100
AcDbEntity
  8
0
100
AcDbBlockBegin
  2
block 63
 70
     0
 71
     0
 10
0.0
 20
0.0
 30
0.0
  3
block 63
  1

  0
POLYLINE
  5
1DD
330
1D9
100
AcDbEntity
  8
0
 62
     7
370
     9
100
AcDb2dPolyline
 66
     1
 10
0.0
 20
0.0
 30
0.0
  0
VERTEX
  5
1DE
330
1DD
100
AcDbEntity
  8
0
 62
     7
370
     9
100
AcDbVertex
100
AcDb2dVertex
 10
188.5803448986254
 20
181.6637943848536
 30
0.0
  0
VERTEX
  5
1DF
330
1DD
100
AcDbEntity
  8
0
 62
     7
370
     9
100
AcDbVertex
100
AcDb2dVertex
 10
188.5803448986254
 20
135.8043755797466
 30
0.0
  0
SEQEND
  5
1E0
330
1DD
100
AcDbEntity
  8
0
370
     9
  0
ENDBLK
  5
1DC
330
1D9
100
AcDbEntity
  8
0
100
AcDbBlockEnd
  0
BLOCK
  5
1E3
330
1E1
100
AcDbEntity
  8
0
100
AcDbBlockBegin
  2
block 64
 70
     0
 71
     0
 10
0.0
 20
0.0
 30
0.0
  3
block 64
  1

  0
POLYLINE
  5
1E5
330
1E1
100
AcDbEntity
  8
0
 62
     7
370
     9
100
AcDb2dPolyline
 66
     1
 10
0.0
 20
0.0
 30
0.0
  0
VERTEX
  5
1E6
330
1E5
100
AcDbEntity
  8
0
 62
     7
370
     9
100
AcDbVertex
100
AcDb2dVertex
 10
139.7867363330624
 20
136.9198982337746
 30
0.0
  0
VERTEX
  5
1E7
330
1E5
100
AcDbEntity
  8
0
 62
     7
370
     9
100
AcDbVertex
100
AcDb2dVertex
 10
188.5803448986254
 20
136.9198982337746
 30
0.0
  0
SEQEND
  5
1E8
330
1E5
100
AcDbEntity
  8
0
370
     9
  0
ENDBLK
  5
1E4
330
1E1
100
AcDbEntity
  8
0
100
AcDbBlockEnd
  0
BLOCK
  5
1EB
330
1E9
100
AcDbEntity
  8
0
100
AcDbBlockBegin
  2
block 65
 70
     0
 71
     0
 10
0.0
 20
0.0
 30
0.0
  3
block 65
  1

  0
MTEXT
  5
1ED
330
1E9
100
AcDbEntity
  8
0
 62
     7
100
AcDbMText
 10
158.7178930228377
 20
138.0485122592828
 30
0.0
 40
2.398890470823883
 41
0.0
 71
     7
 72
     1
  1
\fArial|b1|i0|c0|p34;\W0.75;43,7
 73
     1
 44
1.0
  0
ENDBLK
  5
1EC
330
1E9
100
AcDbEntity
  8
0
100
AcDbBlockEnd
  0
BLOCK
  5
1F0
330
1EE
100
AcDbEntity
  8
0
100
AcDbBlockBegin
  2
block 66
 70
     0
 71
     0
 10
0.0
 20
0.0
 30
0.0
  3
block 66
  1

  0
INSERT
  5
1F3
330
1EE
100
AcDbEntity
  8
0
100
AcDbBlockReference
  2
block 67
 10
0.0
 20
0.0
 30
0.0
  0
INSERT
  5
1FB
330
1EE
100
AcDbEntity
  8
0
100
AcDbBlockReference
  2
block 68
 10
0.0
 20
0.0
 30
0.0
  0
INSERT
  5
203
330
1EE
100
AcDbEntity
  8
0
100
AcDbBlockReference
  2
block 69
 10
0.0
 20
0.0
 30
0.0
  0
INSERT
  5
208
330
1EE
100
AcDbEntity
  8
0
100
AcDbBlockReference
  2
block 70
 10
0.0
 20
0.0
 30
0.0
  0
INSERT
  5
23B
330
1EE
100
AcDbEntity
  8
0
100
AcDbBlockReference
  2
block 75
 10
0.0
 20
0.0
 30
0.0
  0
INSERT
  5
243
330
1EE
100
AcDbEntity
  8
0
100
AcDbBlockReference
  2
block 76
 10
0.0
 20
0.0
 30
0.0
  0
INSERT
  5
24B
330
1EE
100
AcDbEntity
  8
0
100
AcDbBlockReference
  2
block 77
 10
0.0
 20
0.0
 30
0.0
  0
INSERT
  5
253
330
1EE
100
AcDbEntity
  8
0
100
AcDbBlockReference
  2
block 78
 10
0.0
 20
0.0
 30
0.0
  0
ENDBLK
  5
1F1
330
1EE
100
AcDbEntity
  8
0
100
AcDbBlockEnd
  0
BLOCK
  5
1F4
330
1F2
100
AcDbEntity
  8
0
100
AcDbBlockBegin
  2
block 67
 70
     0
 71
     0
 10
0.0
 20
0.0
 30
0.0
  3
block 67
  1

  0
POLYLINE
  5
1F6
330
1F2
100
AcDbEntity
  8
0
 62
     7
370
     9
100
AcDb2dPolyline
 66
     1
 10
0.0
 20
0.0
 30
0.0
  0
VERTEX
  5
1F7
330
1F6
100
AcDbEntity
  8
0
 62
     7
370
     9
100
AcDbVertex
100
AcDb2dVertex
 10
20.95945799477522
 20
229.3790873521746
 30
0.0
  0
VERTEX
  5
1F8
330
1F6
100
AcDbEntity
  8
0
 62
     7
370
     9
100
AcDbVertex
100
AcDb2dVertex
 10
37.05822756284229
 20
229.3790873521746
 30
0.0
  0
SEQEND
  5
1F9
330
1F6
100
AcDbEntity
  8
0
370
     9
  0
ENDBLK
  5
1F5
330
1F2
100
AcDbEntity
  8
0
100
AcDbBlockEnd
  0
BLOCK
  5
1FC
330
1FA
100
AcDbEntity
  8
0
100
AcDbBlockBegin
  2
block 68
 70
     0
 71
     0
 10
0.0
 20
0.0
 30
0.0
  3
block 68
  1

  0
POLYLINE
  5
1FE
330
1FA
100
AcDbEntity
  8
0
 62
     7
370
     9
100
AcDb2dPolyline
 66
     1
 10
0.0
 20
0.0
 30
0.0
  0
VERTEX
  5
1FF
330
1FE
100
AcDbEntity
  8
0
 62
     7
370
     9
100
AcDbVertex
100
AcDb2dVertex
 10
37.05822756284229
 20
229.3790873521746
 30
0.0
  0
VERTEX
  5
200
330
1FE
100
AcDbEntity
  8
0
 62
     7
370
     9
100
AcDbVertex
100
AcDb2dVertex
 10
42.65496112553895
 20
215.00682852551
 30
0.0
  0
SEQEND
  5
201
330
1FE
100
AcDbEntity
  8
0
370
     9
  0
ENDBLK
  5
1FD
330
1FA
100
AcDbEntity
  8
0
100
AcDbBlockEnd
  0
BLOCK
  5
204
330
202
100
AcDbEntity
  8
0
100
AcDbBlockBegin
  2
block 69
 70
     0
 71
     0
 10
0.0
 20
0.0
 30
0.0
  3
block 69
  1

  0
MTEXT
  5
206
330
202
100
AcDbEntity
  8
0
 62
     7
100
AcDbMText
 10
20.00602719025932
 20
230.3554280567809
 30
0.0
 40
2.398890470823883
 41
0.0
 71
     7
 72
     1
  1
\fMyriad Pro|b0|i0|c0|p34;\W0.924383;0\fArial|b1|i0|c0|p34;50
 73
     1
 44
1.0
  0
ENDBLK
  5
205
330
202
100
AcDbEntity
  8
0
100
AcDbBlockEnd
  0
BLOCK
  5
209
330
207
100
AcDbEntity
  8
0
100
AcDbBlockBegin
  2
block 70
 70
     0
 71
     0
 10
0.0
 20
0.0
 30
0.0
  3
block 70
  1

  0
INSERT
  5
20C
330
207
100
AcDbEntity
  8
0
100
AcDbBlockReference
  2
block 71
 10
0.0
 20
0.0
 30
0.0
  0
ENDBLK
  5
20A
330
207
100
AcDbEntity
  8
0
100
AcDbBlockEnd
  0
BLOCK
  5
20D
330
20B
100
AcDbEntity
  8
0
100
AcDbBlockBegin
  2
block 71
 70
     0
 71
     0
 10
0.0
 20
0.0
 30
0.0
  3
block 71
  1

  0
INSERT
  5
210
330
20B
100
AcDbEntity
  8
0
100
AcDbBlockReference
  2
block 72
 10
0.0
 20
0.0
 30
0.0
  0
ENDBLK
  5
20E
330
20B
100
AcDbEntity
  8
0
100
AcDbBlockEnd
  0
BLOCK
  5
211
330
20F
100
AcDbEntity
  8
0
100
AcDbBlockBegin
  2
block 72
 70
     0
 71
     0
 10
0.0
 20
0.0
 30
0.0
  3
block 72
  1

  0
INSERT
  5
214
330
20F
100
AcDbEntity
  8
0
100
AcDbBlockReference
  2
block 73
 10
0.0
 20
0.0
 30
0.0
  0
INSERT
  5
226
330
20F
100
AcDbEntity
  8
0
100
AcDbBlockReference
  2
block 74
 10
0.0
 20
0.0
 30
0.0
  0
ENDBLK
  5
212
330
20F
100
AcDbEntity
  8
0
100
AcDbBlockEnd
  0
BLOCK
  5
215
330
213
100
AcDbEntity
  8
0
100
AcDbBlockBegin
  2
block 73
 70
     0
 71
     0
 10
0.0
 20
0.0
 30
0.0
  3
block 73
  1

  0
POLYLINE
  5
217
330
213
100
AcDbEntity
  8
0
370
     0
100
AcDb2dPolyline
 66
     1
 10
0.0
 20
0.0
 30
0.0
  0
VERTEX
  5
218
330
217
100
AcDbEntity
  8
0
370
     0
100
AcDbVertex
100
AcDb2dVertex
 10
43.69520839355548
 20
215.4116275120705
 30
0.0
  0
VERTEX
  5
219
330
217
100
AcDbEntity
  8
0
370
     0
100
AcDbVertex
100
AcDb2dVertex
 10
45.08513308400513
 20
208.7687900151688
 30
0.0
  0
VERTEX
  5
21A
330
217
100
AcDbEntity
  8
0
370
     0
100
AcDbVertex
100
AcDb2dVertex
 10
42.65444436087526
 20
215.0059672510705
 30
0.0
  0
VERTEX
  5
21B
330
217
100
AcDbEntity
  8
0
370
     0
100
AcDbVertex
100
AcDb2dVertex
 10
43.69520839355548
 20
215.4116275120705
 30
0.0
  0
SEQEND
  5
21C
330
217
100
AcDbEntity
  8
0
370
     0
  0
HATCH
  5
21D
330
213
100
AcDbEntity
  8
0
 62
     7
100
AcDbHatch
 10
0.0
 20
0.0
 30
0.0
210
0.0
220
0.0
230
1.0
  2
SOLID
 70
     1
 71
     0
 91
        1
 92
        1
 93
        3
 72
     1
 10
43.69520839355548
 20
215.4116275120705
 11
45.08513308400513
 21
208.7687900151688
 72
     1
 10
45.08513308400513
 20
208.7687900151688
 11
42.65444436087526
 21
215.0059672510705
 72
     1
 10
42.65444436087526
 20
215.0059672510705
 11
43.69520839355548
 21
215.4116275120705
 97
        0
 75
     2
 76
     1
 98
        0
  0
POLYLINE
  5
21E
330
213
100
AcDbEntity
  8
0
370
     0
100
AcDb2dPolyline
 66
     1
 10
0.0
 20
0.0
 30
0.0
  0
VERTEX
  5
21F
330
21E
100
AcDbEntity
  8
0
370
     0
100
AcDbVertex
100
AcDb2dVertex
 10
42.65444436087526
 20
215.0059672510705
 30
0.0
  0
VERTEX
  5
220
330
21E
100
AcDbEntity
  8
0
370
     0
100
AcDbVertex
100
AcDb2dVertex
 10
45.08513308400513
 20
208.7687900151688
 30
0.0
  0
VERTEX
  5
221
330
21E
100
AcDbEntity
  8
0
370
     0
100
AcDbVertex
100
AcDb2dVertex
 10
41.61368032819503
 20
214.6037520878285
 30
0.0
  0
VERTEX
  5
222
330
21E
100
AcDbEntity
  8
0
370
     0
100
AcDbVertex
100
AcDb2dVertex
 10
42.65444436087526
 20
215.0059672510705
 30
0.0
  0
SEQEND
  5
223
330
21E
100
AcDbEntity
  8
0
370
     0
  0
HATCH
  5
224
330
213
100
AcDbEntity
  8
0
 62
     7
100
AcDbHatch
 10
0.0
 20
0.0
 30
0.0
210
0.0
220
0.0
230
1.0
  2
SOLID
 70
     1
 71
     0
 91
        1
 92
        1
 93
        3
 72
     1
 10
42.65444436087526
 20
215.0059672510705
 11
45.08513308400513
 21
208.7687900151688
 72
     1
 10
45.08513308400513
 20
208.7687900151688
 11
41.61368032819503
 21
214.6037520878285
 72
     1
 10
41.61368032819503
 20
214.6037520878285
 11
42.65444436087526
 21
215.0059672510705
 97
        0
 75
     2
 76
     1
 98
        0
  0
ENDBLK
  5
216
330
213
100
AcDbEntity
  8
0
100
AcDbBlockEnd
  0
BLOCK
  5
227
330
225
100
AcDbEntity
  8
0
100
AcDbBlockBegin
  2
block 74
 70
     0
 71
     0
 10
0.0
 20
0.0
 30
0.0
  3
block 74
  1

  0
POLYLINE
  5
229
330
225
100
AcDbEntity
  8
0
 62
     7
370
     9
100
AcDb2dPolyline
 66
     1
 10
0.0
 20
0.0
 30
0.0
  0
VERTEX
  5
22A
330
229
100
AcDbEntity
  8
0
 62
     7
370
     9
100
AcDbVertex
100
AcDb2dVertex
 10
43.69520839355548
 20
215.4116275120705
 30
0.0
  0
VERTEX
  5
22B
330
229
100
AcDbEntity
  8
0
 62
     7
370
     9
100
AcDbVertex
100
AcDb2dVertex
 10
45.08513308400513
 20
208.7687900151688
 30
0.0
  0
SEQEND
  5
22C
330
229
100
AcDbEntity
  8
0
370
     9
  0
POLYLINE
  5
22D
330
225
100
AcDbEntity
  8
0
 62
     7
370
     9
100
AcDb2dPolyline
 66
     1
 10
0.0
 20
0.0
 30
0.0
  0
VERTEX
  5
22E
330
22D
100
AcDbEntity
  8
0
 62
     7
370
     9
100
AcDbVertex
100
AcDb2dVertex
 10
45.08513308400513
 20
208.7687900151688
 30
0.0
  0
VERTEX
  5
22F
330
22D
100
AcDbEntity
  8
0
 62
     7
370
     9
100
AcDbVertex
100
AcDb2dVertex
 10
41.61368032819503
 20
214.6037520878285
 30
0.0
  0
SEQEND
  5
230
330
22D
100
AcDbEntity
  8
0
370
     9
  0
POLYLINE
  5
231
330
225
100
AcDbEntity
  8
0
 62
     7
370
     9
100
AcDb2dPolyline
 66
     1
 10
0.0
 20
0.0
 30
0.0
  0
VERTEX
  5
232
330
231
100
AcDbEntity
  8
0
 62
     7
370
     9
100
AcDbVertex
100
AcDb2dVertex
 10
43.69520839355548
 20
215.4116275120705
 30
0.0
  0
VERTEX
  5
233
330
231
100
AcDbEntity
  8
0
 62
     7
370
     9
100
AcDbVertex
100
AcDb2dVertex
 10
42.65444436087526
 20
215.0059672510705
 30
0.0
  0
VERTEX
  5
234
330
231
100
AcDbEntity
  8
0
 62
     7
370
     9
100
AcDbVertex
100
AcDb2dVertex
 10
41.61368032819503
 20
214.6037520878285
 30
0.0
  0
SEQEND
  5
235
330
231
100
AcDbEntity
  8
0
370
     9
  0
POLYLINE
  5
236
330
225
100
AcDbEntity
  8
0
 62
     7
370
     9
100
AcDb2dPolyline
 66
     1
 10
0.0
 20
0.0
 30
0.0
  0
VERTEX
  5
237
330
236
100
AcDbEntity
  8
0
 62
     7
370
     9
100
AcDbVertex
100
AcDb2dVertex
 10
45.08513308400513
 20
208.7687900151688
 30
0.0
  0
VERTEX
  5
238
330
236
100
AcDbEntity
  8
0
 62
     7
370
     9
100
AcDbVertex
100
AcDb2dVertex
 10
42.65444436087526
 20
215.0059672510705
 30
0.0
  0
SEQEND
  5
239
330
236
100
AcDbEntity
  8
0
370
     9
  0
ENDBLK
  5
228
330
225
100
AcDbEntity
  8
0
100
AcDbBlockEnd
  0
BLOCK
  5
23C
330
23A
100
AcDbEntity
  8
0
100
AcDbBlockBegin
  2
block 75
 70
     0
 71
     0
 10
0.0
 20
0.0
 30
0.0
  3
block 75
  1

  0
POLYLINE
  5
23E
330
23A
100
AcDbEntity
  8
0
 62
     7
370
     9
100
AcDb2dPolyline
 66
     1
 10
0.0
 20
0.0
 30
0.0
  0
VERTEX
  5
23F
330
23E
100
AcDbEntity
  8
0
 62
     7
370
     9
100
AcDbVertex
100
AcDb2dVertex
 10
55.10433863859721
 20
182.7794892937695
 30
0.0
  0
VERTEX
  5
240
330
23E
100
AcDbEntity
  8
0
 62
     7
370
     9
100
AcDbVertex
100
AcDb2dVertex
 10
55.30518783788637
 20
182.7794892937695
 30
0.0
  0
SEQEND
  5
241
330
23E
100
AcDbEntity
  8
0
370
     9
  0
ENDBLK
  5
23D
330
23A
100
AcDbEntity
  8
0
100
AcDbBlockEnd
  0
BLOCK
  5
244
330
242
100
AcDbEntity
  8
0
100
AcDbBlockBegin
  2
block 76
 70
     0
 71
     0
 10
0.0
 20
0.0
 30
0.0
  3
block 76
  1

  0
POLYLINE
  5
246
330
242
100
AcDbEntity
  8
0
 62
     7
370
     9
100
AcDb2dPolyline
 66
     1
 10
0.0
 20
0.0
 30
0.0
  0
VERTEX
  5
247
330
246
100
AcDbEntity
  8
0
 62
     7
370
     9
100
AcDbVertex
100
AcDb2dVertex
 10
55.20476323824179
 20
182.6792369490128
 30
0.0
  0
VERTEX
  5
248
330
246
100
AcDbEntity
  8
0
 62
     7
370
     9
100
AcDbVertex
100
AcDb2dVertex
 10
55.20476323824179
 20
182.8799138934141
 30
0.0
  0
SEQEND
  5
249
330
246
100
AcDbEntity
  8
0
370
     9
  0
ENDBLK
  5
245
330
242
100
AcDbEntity
  8
0
100
AcDbBlockEnd
  0
BLOCK
  5
24C
330
24A
100
AcDbEntity
  8
0
100
AcDbBlockBegin
  2
block 77
 70
     0
 71
     0
 10
0.0
 20
0.0
 30
0.0
  3
block 77
  1

  0
POLYLINE
  5
24E
330
24A
100
AcDbEntity
  8
0
 62
     7
370
     9
100
AcDb2dPolyline
 66
     1
 10
0.0
 20
0.0
 30
0.0
  0
VERTEX
  5
24F
330
24E
100
AcDbEntity
  8
0
 62
     7
370
     9
100
AcDbVertex
100
AcDb2dVertex
 10
45.08409955467774
 20
208.7693067798324
 30
0.0
  0
VERTEX
  5
250
330
24E
100
AcDbEntity
  8
0
 62
     7
370
     9
100
AcDbVertex
100
AcDb2dVertex
 10
45.08409955467774
 20
208.7693067798324
 30
0.0
  0
SEQEND
  5
251
330
24E
100
AcDbEntity
  8
0
370
     9
  0
ENDBLK
  5
24D
330
24A
100
AcDbEntity
  8
0
100
AcDbBlockEnd
  0
BLOCK
  5
254
330
252
100
AcDbEntity
  8
0
100
AcDbBlockBegin
  2
block 78
 70
     0
 71
     0
 10
0.0
 20
0.0
 30
0.0
  3
block 78
  1

  0
POLYLINE
  5
256
330
252
100
AcDbEntity
  8
0
 62
     7
370
     9
100
AcDb2dPolyline
 66
     1
 10
0.0
 20
0.0
 30
0.0
  0
VERTEX
  5
257
330
256
100
AcDbEntity
  8
0
 62
     7
370
     9
100
AcDbVertex
100
AcDb2dVertex
 10
65.32542692180584
 20
156.7896718077065
 30
0.0
  0
VERTEX
  5
258
330
256
100
AcDbEntity
  8
0
 62
     7
370
     9
100
AcDbVertex
100
AcDb2dVertex
 10
65.32542692180584
 20
156.7896718077065
 30
0.0
  0
SEQEND
  5
259
330
256
100
AcDbEntity
  8
0
370
     9
  0
ENDBLK
  5
255
330
252
100
AcDbEntity
  8
0
100
AcDbBlockEnd
  0
ENDSEC
  0
SECTION
  2
ENTITIES
  0
INSERT
  5
3C
330
1F
100
AcDbEntity
  8
0
100
AcDbBlockReference
  2
block 2
 10
0.0
 20
0.0
 30
0.0
  0
INSERT
  5
41
330
1F
100
AcDbEntity
  8
0
100
AcDbBlockReference
  2
block 3
 10
0.0
 20
0.0
 30
0.0
  0
INSERT
  5
46
330
1F
100
AcDbEntity
  8
0
100
AcDbBlockReference
  2
block 4
 10
0.0
 20
0.0
 30
0.0
  0
INSERT
  5
4B
330
1F
100
AcDbEntity
  8
0
100
AcDbBlockReference
  2
block 5
 10
0.0
 20
0.0
 30
0.0
  0
INSERT
  5
50
330
1F
100
AcDbEntity
  8
0
100
AcDbBlockReference
  2
block 6
 10
0.0
 20
0.0
 30
0.0
  0
INSERT
  5
58
330
1F
100
AcDbEntity
  8
0
100
AcDbBlockReference
  2
block 7
 10
0.0
 20
0.0
 30
0.0
  0
INSERT
  5
60
330
1F
100
AcDbEntity
  8
0
100
AcDbBlockReference
  2
block 8
 10
0.0
 20
0.0
 30
0.0
  0
INSERT
  5
68
330
1F
100
AcDbEntity
  8
0
100
AcDbBlockReference
  2
block 9
 10
0.0
 20
0.0
 30
0.0
  0
INSERT
  5
70
330
1F
100
AcDbEntity
  8
0
100
AcDbBlockReference
  2
block 10
 10
0.0
 20
0.0
 30
0.0
  0
INSERT
  5
75
330
1F
100
AcDbEntity
  8
0
100
AcDbBlockReference
  2
block 11
 10
0.0
 20
0.0
 30
0.0
  0
INSERT
  5
7A
330
1F
100
AcDbEntity
  8
0
100
AcDbBlockReference
  2
block 12
 10
0.0
 20
0.0
 30
0.0
  0
INSERT
  5
82
330
1F
100
AcDbEntity
  8
0
100
AcDbBlockReference
  2
block 13
 10
0.0
 20
0.0
 30
0.0
  0
INSERT
  5
8A
330
1F
100
AcDbEntity
  8
0
100
AcDbBlockReference
  2
block 14
 10
0.0
 20
0.0
 30
0.0
  0
INSERT
  5
92
330
1F
100
AcDbEntity
  8
0
100
AcDbBlockReference
  2
block 15
 10
0.0
 20
0.0
 30
0.0
  0
INSERT
  5
9A
330
1F
100
AcDbEntity
  8
0
100
AcDbBlockReference
  2
block 16
 10
0.0
 20
0.0
 30
0.0
  0
INSERT
  5
9F
330
1F
100
AcDbEntity
  8
0
100
AcDbBlockReference
  2
block 17
 10
0.0
 20
0.0
 30
0.0
  0
INSERT
  5
A4
330
1F
100
AcDbEntity
  8
0
100
AcDbBlockReference
  2
block 18
 10
0.0
 20
0.0
 30
0.0
  0
INSERT
  5
A9
330
1F
100
AcDbEntity
  8
0
100
AcDbBlockReference
  2
block 19
 10
0.0
 20
0.0
 30
0.0
  0
INSERT
  5
AE
330
1F
100
AcDbEntity
  8
0
100
AcDbBlockReference
  2
block 20
 10
0.0
 20
0.0
 30
0.0
  0
INSERT
  5
B3
330
1F
100
AcDbEntity
  8
0
100
AcDbBlockReference
  2
block 21
 10
0.0
 20
0.0
 30
0.0
  0
INSERT
  5
B8
330
1F
100
AcDbEntity
  8
0
100
AcDbBlockReference
  2
block 22
 10
0.0
 20
0.0
 30
0.0
  0
INSERT
  5
BD
330
1F
100
AcDbEntity
  8
0
100
AcDbBlockReference
  2
block 23
 10
0.0
 20
0.0
 30
0.0
  0
INSERT
  5
C2
330
1F
100
AcDbEntity
  8
0
100
AcDbBlockReference
  2
block 24
 10
0.0
 20
0.0
 30
0.0
  0
INSERT
  5
C7
330
1F
100
AcDbEntity
  8
0
100
AcDbBlockReference
  2
block 25
 10
0.0
 20
0.0
 30
0.0
  0
INSERT
  5
CF
330
1F
100
AcDbEntity
  8
0
100
AcDbBlockReference
  2
block 26
 10
0.0
 20
0.0
 30
0.0
  0
INSERT
  5
D7
330
1F
100
AcDbEntity
  8
0
100
AcDbBlockReference
  2
block 27
 10
0.0
 20
0.0
 30
0.0
  0
INSERT
  5
DF
330
1F
100
AcDbEntity
  8
0
100
AcDbBlockReference
  2
block 28
 10
0.0
 20
0.0
 30
0.0
  0
INSERT
  5
E7
330
1F
100
AcDbEntity
  8
0
100
AcDbBlockReference
  2
block 29
 10
0.0
 20
0.0
 30
0.0
  0
INSERT
  5
EC
330
1F
100
AcDbEntity
  8
0
100
AcDbBlockReference
  2
block 30
 10
0.0
 20
0.0
 30
0.0
  0
INSERT
  5
F1
330
1F
100
AcDbEntity
  8
0
100
AcDbBlockReference
  2
block 31
 10
0.0
 20
0.0
 30
0.0
  0
INSERT
  5
F9
330
1F
100
AcDbEntity
  8
0
100
AcDbBlockReference
  2
block 32
 10
0.0
 20
0.0
 30
0.0
  0
INSERT
  5
101
330
1F
100
AcDbEntity
  8
0
100
AcDbBlockReference
  2
block 33
 10
0.0
 20
0.0
 30
0.0
  0
INSERT
  5
106
330
1F
100
AcDbEntity
  8
0
100
AcDbBlockReference
  2
block 34
 10
0.0
 20
0.0
 30
0.0
  0
INSERT
  5
10B
330
1F
100
AcDbEntity
  8
0
100
AcDbBlockReference
  2
block 35
 10
0.0
 20
0.0
 30
0.0
  0
INSERT
  5
110
330
1F
100
AcDbEntity
  8
0
100
AcDbBlockReference
  2
block 36
 10
0.0
 20
0.0
 30
0.0
  0
INSERT
  5
115
330
1F
100
AcDbEntity
  8
0
100
AcDbBlockReference
  2
block 37
 10
0.0
 20
0.0
 30
0.0
  0
INSERT
  5
11D
330
1F
100
AcDbEntity
  8
0
100
AcDbBlockReference
  2
block 38
 10
0.0
 20
0.0
 30
0.0
  0
INSERT
  5
125
330
1F
100
AcDbEntity
  8
0
100
AcDbBlockReference
  2
block 39
 10
0.0
 20
0.0
 30
0.0
  0
INSERT
  5
12D
330
1F
100
AcDbEntity
  8
0
100
AcDbBlockReference
  2
block 40
 10
0.0
 20
0.0
 30
0.0
  0
INSERT
  5
135
330
1F
100
AcDbEntity
  8
0
100
AcDbBlockReference
  2
block 41
 10
0.0
 20
0.0
 30
0.0
  0
INSERT
  5
13D
330
1F
100
AcDbEntity
  8
0
100
AcDbBlockReference
  2
block 42
 10
0.0
 20
0.0
 30
0.0
  0
INSERT
  5
142
330
1F
100
AcDbEntity
  8
0
100
AcDbBlockReference
  2
block 43
 10
0.0
 20
0.0
 30
0.0
  0
INSERT
  5
147
330
1F
100
AcDbEntity
  8
0
100
AcDbBlockReference
  2
block 44
 10
0.0
 20
0.0
 30
0.0
  0
INSERT
  5
14C
330
1F
100
AcDbEntity
  8
0
100
AcDbBlockReference
  2
block 45
 10
0.0
 20
0.0
 30
0.0
  0
INSERT
  5
151
330
1F
100
AcDbEntity
  8
0
100
AcDbBlockReference
  2
block 46
 10
0.0
 20
0.0
 30
0.0
  0
INSERT
  5
159
330
1F
100
AcDbEntity
  8
0
100
AcDbBlockReference
  2
block 47
 10
0.0
 20
0.0
 30
0.0
  0
INSERT
  5
161
330
1F
100
AcDbEntity
  8
0
100
AcDbBlockReference
  2
block 48
 10
0.0
 20
0.0
 30
0.0
  0
INSERT
  5
169
330
1F
100
AcDbEntity
  8
0
100
AcDbBlockReference
  2
block 49
 10
0.0
 20
0.0
 30
0.0
  0
INSERT
  5
16E
330
1F
100
AcDbEntity
  8
0
100
AcDbBlockReference
  2
block 50
 10
0.0
 20
0.0
 30
0.0
  0
INSERT
  5
173
330
1F
100
AcDbEntity
  8
0
100
AcDbBlockReference
  2
block 51
 10
0.0
 20
0.0
 30
0.0
  0
INSERT
  5
178
330
1F
100
AcDbEntity
  8
0
100
AcDbBlockReference
  2
block 52
 10
0.0
 20
0.0
 30
0.0
  0
INSERT
  5
180
330
1F
100
AcDbEntity
  8
0
100
AcDbBlockReference
  2
block 53
 10
0.0
 20
0.0
 30
0.0
  0
INSERT
  5
1EF
330
1F
100
AcDbEntity
  8
0
100
AcDbBlockReference
  2
block 66
 10
0.0
 20
0.0
 30
0.0
  0
ENDSEC
  0
SECTION
  2
OBJECTS
  0
DICTIONARY
  5
C
330
0
100
AcDbDictionary
281
     1
  3
ACAD_GROUP
350
D
  3
ACAD_LAYOUT
350
1A
  3
ACAD_MLINESTYLE
350
17
  3
ACAD_PLOTSETTINGS
350
19
  3
ACAD_PLOTSTYLENAME
350
E
  3
ACAD_TABLESTYLE
350
25A
  3
ACAD_VISUALSTYLE
350
2A
  0
DICTIONARY
  5
D
102
{ACAD_REACTORS
330
C
102
}
330
C
100
AcDbDictionary
281
     1
  0
DICTIONARY
  5
1A
102
{ACAD_REACTORS
330
C
102
}
330
C
100
AcDbDictionary
281
     1
  3
Layout1
350
1E
  3
Layout2
350
26
  3
Model
350
22
  0
DICTIONARY
  5
17
102
{ACAD_REACTORS
330
C
102
}
330
C
100
AcDbDictionary
281
     1
  3
Standard
350
18
  0
DICTIONARY
  5
19
102
{ACAD_REACTORS
330
C
102
}
330
C
100
AcDbDictionary
281
     1
  0
ACDBDICTIONARYWDFLT
  5
E
102
{ACAD_REACTORS
330
C
102
}
330
C
100
AcDbDictionary
281
     1
  3
Normal
350
F
100
AcDbDictionaryWithDefault
340
F
  0
DICTIONARY
  5
25A
102
{ACAD_REACTORS
330
C
102
}
330
C
100
AcDbDictionary
281
     1
  0
DICTIONARY
  5
2A
102
{ACAD_REACTORS
330
C
102
}
330
C
100
AcDbDictionary
281
     1
  3
2dWireframe
350
2F
  3
3D Hidden
350
31
  3
3dWireframe
350
30
  3
Basic
350
32
  3
Brighten
350
36
  3
ColorChange
350
3A
  3
Conceptual
350
34
  3
Dim
350
35
  3
Facepattern
350
39
  3
Flat
350
2B
  3
FlatWithEdges
350
2C
  3
Gouraud
350
2D
  3
GouraudWithEdges
350
2E
  3
Linepattern
350
38
  3
Realistic
350
33
  3
Thicken
350
37
  0
LAYOUT
  5
1E
102
{ACAD_REACTORS
330
1A
102
}
330
1A
100
AcDbPlotSettings
  1

  2
none_device
  4

  6

 40
0.0
 41
0.0
 42
0.0
 43
0.0
 44
0.0
 45
0.0
 46
0.0
 47
0.0
 48
0.0
 49
0.0
140
0.0
141
0.0
142
1.0
143
1.0
 70
   688
 72
     0
 73
     0
 74
     5
  7

 75
    16
 76
     0
 77
     2
 78
   300
147
1.0
148
0.0
149
0.0
100
AcDbLayout
  1
Layout1
 70
     1
 71
     1
 10
0.0
 20
0.0
 11
12.0
 21
9.0
 12
0.0
 22
0.0
 32
0.0
 14
1.000000000000000E+20
 24
1.000000000000000E+20
 34
1.000000000000000E+20
 15
-1.000000000000000E+20
 25
-1.000000000000000E+20
 35
-1.000000000000000E+20
146
0.0
 13
0.0
 23
0.0
 33
0.0
 16
1.0
 26
0.0
 36
0.0
 17
0.0
 27
1.0
 37
0.0
 76
     0
330
1B
  0
LAYOUT
  5
26
102
{ACAD_REACTORS
330
1A
102
}
330
1A
100
AcDbPlotSettings
  1

  2
none_device
  4

  6

 40
0.0
 41
0.0
 42
0.0
 43
0.0
 44
0.0
 45
0.0
 46
0.0
 47
0.0
 48
0.0
 49
0.0
140
0.0
141
0.0
142
1.0
143
1.0
 70
   688
 72
     0
 73
     0
 74
     5
  7

 75
    16
 76
     0
 77
     2
 78
   300
147
1.0
148
0.0
149
0.0
100
AcDbLayout
  1
Layout2
 70
     1
 71
     2
 10
0.0
 20
0.0
 11
0.0
 21
0.0
 12
0.0
 22
0.0
 32
0.0
 14
0.0
 24
0.0
 34
0.0
 15
0.0
 25
0.0
 35
0.0
146
0.0
 13
0.0
 23
0.0
 33
0.0
 16
1.0
 26
0.0
 36
0.0
 17
0.0
 27
1.0
 37
0.0
 76
     0
330
23
  0
LAYOUT
  5
22
102
{ACAD_REACTORS
330
1A
102
}
330
1A
100
AcDbPlotSettings
  1

  2
none_device
  4

  6

 40
0.0
 41
0.0
 42
0.0
 43
0.0
 44
0.0
 45
0.0
 46
0.0
 47
0.0
 48
0.0
 49
0.0
140
0.0
141
0.0
142
1.0
143
1.0
 70
  1712
 72
     0
 73
     0
 74
     0
  7

 75
     0
 76
     0
 77
     2
 78
   300
147
1.0
148
0.0
149
0.0
100
AcDbLayout
  1
Model
 70
     1
 71
     0
 10
0.0
 20
0.0
 11
12.0
 21
9.0
 12
0.0
 22
0.0
 32
0.0
 14
1.000000000000000E+20
 24
1.000000000000000E+20
 34
1.000000000000000E+20
 15
-1.000000000000000E+20
 25
-1.000000000000000E+20
 35
-1.000000000000000E+20
146
0.0
 13
0.0
 23
0.0
 33
0.0
 16
1.0
 26
0.0
 36
0.0
 17
0.0
 27
1.0
 37
0.0
 76
     0
330
1F
331
29
  0
MLINESTYLE
  5
18
102
{ACAD_REACTORS
330
17
102
}
330
17
100
AcDbMlineStyle
  2
Standard
 70
     0
  3

 62
   256
 51
90.0
 52
90.0
 71
     2
 49
0.5
 62
   256
  6
BYLAYER
 49
-0.5
 62
   256
  6
BYLAYER
  0
ACDBPLACEHOLDER
  5
F
102
{ACAD_REACTORS
330
E
102
}
330
E
  0
VISUALSTYLE
  5
2F
102
{ACAD_REACTORS
330
2A
102
}
330
2A
100
AcDbVisualStyle
  2
2dWireframe
 70
     4
 71
     0
 72
     2
 73
     0
 90
        0
 40
-0.6
 41
-30.0
 62
     5
 63
     7
421
 16777215
 74
     1
 91
        4
 64
     7
 65
   257
 75
     1
175
     1
 42
1.0
 92
        0
 66
   257
 43
1.0
 76
     1
 77
     6
 78
     2
 67
     7
 79
     5
170
     0
171
     0
290
     0
174
     0
 93
        1
 44
0.0
173
     0
291
     0
 45
0.0
1001
ACAD
1000
AcDbSavedByObjectVersion
1070
     0
  0
VISUALSTYLE
  5
31
102
{ACAD_REACTORS
330
2A
102
}
330
2A
100
AcDbVisualStyle
  2
3D Hidden
 70
     6
 71
     1
 72
     2
 73
     2
 90
        0
 40
-0.6
 41
-30.0
 62
     5
 63
     7
421
 16777215
 74
     2
 91
        2
 64
     7
 65
   257
 75
     2
175
     1
 42
40.0
 92
        0
 66
   257
 43
1.0
 76
     1
 77
     6
 78
     2
 67
     7
 79
     3
170
     0
171
     0
290
     0
174
     0
 93
        1
 44
0.0
173
     0
291
     0
 45
0.0
1001
ACAD
1000
AcDbSavedByObjectVersion
1070
     0
  0
VISUALSTYLE
  5
30
102
{ACAD_REACTORS
330
2A
102
}
330
2A
100
AcDbVisualStyle
  2
3dWireframe
 70
     5
 71
     0
 72
     2
 73
     0
 90
        0
 40
-0.6
 41
-30.0
 62
     5
 63
     7
421
 16777215
 74
     1
 91
        4
 64
     7
 65
   257
 75
     1
175
     1
 42
1.0
 92
        0
 66
   257
 43
1.0
 76
     1
 77
     6
 78
     2
 67
     7
 79
     5
170
     0
171
     0
290
     0
174
     0
 93
        1
 44
0.0
173
     0
291
     0
 45
0.0
1001
ACAD
1000
AcDbSavedByObjectVersion
1070
     0
  0
VISUALSTYLE
  5
32
102
{ACAD_REACTORS
330
2A
102
}
330
2A
100
AcDbVisualStyle
  2
Basic
 70
     7
 71
     1
 72
     0
 73
     1
 90
        0
 40
-0.6
 41
-30.0
 62
     5
 63
     7
421
 16777215
 74
     0
 91
        4
 64
     7
 65
   257
 75
     1
175
     1
 42
1.0
 92
        8
 66
     7
 43
1.0
 76
     1
 77
     6
 78
     2
 67
     7
 79
     5
170
     0
171
     0
290
     0
174
     0
 93
        1
 44
0.0
173
     0
291
     1
 45
0.0
1001
ACAD
1000
AcDbSavedByObjectVersion
1070
     0
  0
VISUALSTYLE
  5
36
102
{ACAD_REACTORS
330
2A
102
}
330
2A
100
AcDbVisualStyle
  2
Brighten
 70
    12
 71
     2
 72
     2
 73
     0
 90
        0
 40
-0.6
 41
-30.0
 62
     5
 63
     7
421
 16777215
 74
     1
 91
        4
 64
     7
 65
   257
 75
     1
175
     1
 42
1.0
 92
        8
 66
     7
 43
1.0
 76
     1
 77
     6
 78
     2
 67
     7
 79
     5
170
     0
171
     0
290
     0
174
     0
 93
        1
 44
50.0
173
     0
291
     1
 45
0.0
1001
ACAD
1000
AcDbSavedByObjectVersion
1070
     0
  0
VISUALSTYLE
  5
3A
102
{ACAD_REACTORS
330
2A
102
}
330
2A
100
AcDbVisualStyle
  2
ColorChange
 70
    16
 71
     2
 72
     2
 73
     3
 90
        0
 40
-0.6
 41
-30.0
 62
     5
 63
     8
421
  8421504
 74
     1
 91
        4
 64
     7
 65
   257
 75
     1
175
     1
 42
1.0
 92
        8
 66
     8
424
  8421504
 43
1.0
 76
     1
 77
     6
 78
     2
 67
     7
 79
     5
170
     0
171
     0
290
     0
174
     0
 93
        1
 44
0.0
173
     0
291
     1
 45
0.0
1001
ACAD
1000
AcDbSavedByObjectVersion
1070
     0
  0
VISUALSTYLE
  5
34
102
{ACAD_REACTORS
330
2A
102
}
330
2A
100
AcDbVisualStyle
  2
Conceptual
 70
     9
 71
     3
 72
     2
 73
     0
 90
        0
 40
-0.6
 41
-30.0
 62
     5
 63
     7
421
 16777215
 74
     2
 91
        2
 64
     7
 65
   257
 75
     1
175
     1
 42
40.0
 92
        8
 66
     7
 43
1.0
 76
     1
 77
     6
 78
     2
 67
     7
 79
     3
170
     0
171
     0
290
     0
174
     0
 93
        1
 44
0.0
173
     0
291
     0
 45
0.0
1001
ACAD
1000
AcDbSavedByObjectVersion
1070
     0
  0
VISUALSTYLE
  5
35
102
{ACAD_REACTORS
330
2A
102
}
330
2A
100
AcDbVisualStyle
  2
Dim
 70
    11
 71
     2
 72
     2
 73
     0
 90
        0
 40
-0.6
 41
-30.0
 62
     5
 63
     7
421
 16777215
 74
     1
 91
        4
 64
     7
 65
   257
 75
     1
175
     1
 42
1.0
 92
        8
 66
     7
 43
1.0
 76
     1
 77
     6
 78
     2
 67
     7
 79
     5
170
     0
171
     0
290
     0
174
     0
 93
        1
 44
-50.0
173
     0
291
     1
 45
0.0
1001
ACAD
1000
AcDbSavedByObjectVersion
1070
     0
  0
VISUALSTYLE
  5
39
102
{ACAD_REACTORS
330
2A
102
}
330
2A
100
AcDbVisualStyle
  2
Facepattern
 70
    15
 71
     2
 72
     2
 73
     0
 90
        0
 40
-0.6
 41
-30.0
 62
     5
 63
     7
421
 16777215
 74
     1
 91
        4
 64
     7
 65
   257
 75
     1
175
     1
 42
1.0
 92
        8
 66
     7
 43
1.0
 76
     1
 77
     6
 78
     2
 67
     7
 79
     5
170
     0
171
     0
290
     0
174
     0
 93
        1
 44
0.0
173
     0
291
     1
 45
0.0
1001
ACAD
1000
AcDbSavedByObjectVersion
1070
     0
  0
VISUALSTYLE
  5
2B
102
{ACAD_REACTORS
330
2A
102
}
330
2A
100
AcDbVisualStyle
  2
Flat
 70
     0
 71
     2
 72
     1
 73
     1
 90
        2
 40
-0.6
 41
30.0
 62
     5
 63
     7
421
 16777215
 74
     0
 91
        4
 64
     7
 65
   257
 75
     1
175
     1
 42
1.0
 92
        8
 66
     7
 43
1.0
 76
     1
 77
     6
 78
     2
 67
     7
 79
     5
170
     0
171
     0
290
     0
174
     0
 93
       13
 44
0.0
173
     0
291
     1
 45
0.0
1001
ACAD
1000
AcDbSavedByObjectVersion
1070
     0
  0
VISUALSTYLE
  5
2C
102
{ACAD_REACTORS
330
2A
102
}
330
2A
100
AcDbVisualStyle
  2
FlatWithEdges
 70
     1
 71
     2
 72
     1
 73
     1
 90
        2
 40
-0.6
 41
30.0
 62
     5
 63
     7
421
 16777215
 74
     1
 91
        4
 64
     7
 65
   257
 75
     1
175
     1
 42
1.0
 92
        0
 66
   257
 43
1.0
 76
     1
 77
     6
 78
     2
 67
     7
 79
     5
170
     0
171
     0
290
     0
174
     0
 93
       13
 44
0.0
173
     0
291
     1
 45
0.0
1001
ACAD
1000
AcDbSavedByObjectVersion
1070
     0
  0
VISUALSTYLE
  5
2D
102
{ACAD_REACTORS
330
2A
102
}
330
2A
100
AcDbVisualStyle
  2
Gouraud
 70
     2
 71
     2
 72
     2
 73
     1
 90
        2
 40
-0.6
 41
30.0
 62
     5
 63
     7
421
 16777215
 74
     0
 91
        4
 64
     7
 65
   257
 75
     1
175
     1
 42
1.0
 92
        0
 66
     7
 43
1.0
 76
     1
 77
     6
 78
     2
 67
     7
 79
     5
170
     0
171
     0
290
     0
174
     0
 93
       13
 44
0.0
173
     0
291
     1
 45
0.0
1001
ACAD
1000
AcDbSavedByObjectVersion
1070
     0
  0
VISUALSTYLE
  5
2E
102
{ACAD_REACTORS
330
2A
102
}
330
2A
100
AcDbVisualStyle
  2
GouraudWithEdges
 70
     3
 71
     2
 72
     2
 73
     1
 90
        2
 40
-0.6
 41
30.0
 62
     5
 63
     7
421
 16777215
 74
     1
 91
        4
 64
     7
 65
   257
 75
     1
175
     1
 42
1.0
 92
        0
 66
   257
 43
1.0
 76
     1
 77
     6
 78
     2
 67
     7
 79
     5
170
     0
171
     0
290
     0
174
     0
 93
       13
 44
0.0
173
     0
291
     1
 45
0.0
1001
ACAD
1000
AcDbSavedByObjectVersion
1070
     0
  0
VISUALSTYLE
  5
38
102
{ACAD_REACTORS
330
2A
102
}
330
2A
100
AcDbVisualStyle
  2
Linepattern
 70
    14
 71
     2
 72
     2
 73
     0
 90
        0
 40
-0.6
 41
-30.0
 62
     5
 63
     7
421
 16777215
 74
     1
 91
        4
 64
     7
 65
   257
 75
     7
175
     7
 42
1.0
 92
        8
 66
     7
 43
1.0
 76
     1
 77
     6
 78
     2
 67
     7
 79
     5
170
     0
171
     0
290
     0
174
     0
 93
        1
 44
0.0
173
     0
291
     1
 45
0.0
1001
ACAD
1000
AcDbSavedByObjectVersion
1070
     0
  0
VISUALSTYLE
  5
33
102
{ACAD_REACTORS
330
2A
102
}
330
2A
100
AcDbVisualStyle
  2
Realistic
 70
     8
 71
     2
 72
     2
 73
     0
 90
        0
 40
-0.6
 41
-30.0
 62
     5
 63
     7
421
 16777215
 74
     1
 91
        0
 64
     7
 65
   257
 75
     1
175
     1
 42
1.0
 92
        8
 66
     8
424
  7895160
 43
1.0
 76
     1
 77
     6
 78
     2
 67
     7
 79
     5
170
     0
171
     0
290
     0
174
     0
 93
       13
 44
0.0
173
     0
291
     0
 45
0.0
1001
ACAD
1000
AcDbSavedByObjectVersion
1070
     0
  0
VISUALSTYLE
  5
37
102
{ACAD_REACTORS
330
2A
102
}
330
2A
100
AcDbVisualStyle
  2
Thicken
 70
    13
 71
     2
 72
     2
 73
     0
 90
        0
 40
-0.6
 41
-30.0
 62
     5
 63
     7
421
 16777215
 74
     1
 91
        4
 64
     7
 65
   257
 75
     1
175
     1
 42
1.0
 92
       12
 66
     7
 43
1.0
 76
     1
 77
     6
 78
     2
 67
     7
 79
     5
170
     0
171
     0
290
     0
174
     0
 93
        1
 44
0.0
173
     0
291
     1
 45
0.0
1001
ACAD
1000
AcDbSavedByObjectVersion
1070
     0
  0
ENDSEC
  0
EOF
