  0
SECTION
  2
HEADER
  9
$ACADVER
  1
AC1018
  9
$ACADMAINTVER
 70
     0
  9
$DWGCODEPAGE
  3
ASCII
  9
$INSBASE
 10
0.0
 20
0.0
 30
0.0
  9
$EXTMIN
 10
1.000000000000000E+20
 20
1.000000000000000E+20
 30
1.000000000000000E+20
  9
$EXTMAX
 10
-1.000000000000000E+20
 20
-1.000000000000000E+20
 30
-1.000000000000000E+20
  9
$LIMMIN
 10
0.0
 20
0.0
  9
$LIMMAX
 10
12.0
 20
9.0
  9
$ORTHOMODE
 70
     0
  9
$REGENMODE
 70
     1
  9
$FILLMODE
 70
     1
  9
$QTEXTMODE
 70
     0
  9
$MIRRTEXT
 70
     1
  9
$LTSCALE
 40
1.0
  9
$ATTMODE
 70
     1
  9
$TEXTSIZE
 40
0.2
  9
$TRACEWID
 40
0.05
  9
$TEXTSTYLE
  7
Standard
  9
$CLAYER
  8
0
  9
$CELTYPE
  6
ByLayer
  9
$CECOLOR
 62
   256
  9
$CELTSCALE
 40
1.0
  9
$DISPSILH
 70
     0
  9
$DIMSCALE
 40
1.0
  9
$DIMASZ
 40
0.18
  9
$DIMEXO
 40
0.0625
  9
$DIMDLI
 40
0.38
  9
$DIMRND
 40
0.0
  9
$DIMDLE
 40
0.0
  9
$DIMEXE
 40
0.18
  9
$DIMTP
 40
0.0
  9
$DIMTM
 40
0.0
  9
$DIMTXT
 40
0.18
  9
$DIMCEN
 40
0.09
  9
$DIMTSZ
 40
0.0
  9
$DIMTOL
 70
     0
  9
$DIMLIM
 70
     0
  9
$DIMTIH
 70
     1
  9
$DIMTOH
 70
     1
  9
$DIMSE1
 70
     0
  9
$DIMSE2
 70
     0
  9
$DIMTAD
 70
     0
  9
$DIMZIN
 70
     0
  9
$DIMBLK
  1

  9
$DIMASO
 70
     1
  9
$DIMSHO
 70
     1
  9
$DIMPOST
  1

  9
$DIMAPOST
  1

  9
$DIMALT
 70
     0
  9
$DIMALTD
 70
     2
  9
$DIMALTF
 40
25.4
  9
$DIMLFAC
 40
1.0
  9
$DIMTOFL
 70
     0
  9
$DIMTVP
 40
0.0
  9
$DIMTIX
 70
     0
  9
$DIMSOXD
 70
     0
  9
$DIMSAH
 70
     0
  9
$DIMBLK1
  1

  9
$DIMBLK2
  1

  9
$DIMSTYLE
  2
Standard
  9
$DIMCLRD
 70
     0
  9
$DIMCLRE
 70
     0
  9
$DIMCLRT
 70
     0
  9
$DIMTFAC
 40
1.0
  9
$DIMGAP
 40
0.09
  9
$DIMJUST
 70
     0
  9
$DIMSD1
 70
     0
  9
$DIMSD2
 70
     0
  9
$DIMTOLJ
 70
     1
  9
$DIMTZIN
 70
     0
  9
$DIMALTZ
 70
     0
  9
$DIMALTTZ
 70
     0
  9
$DIMUPT
 70
     0
  9
$DIMDEC
 70
     4
  9
$DIMTDEC
 70
     4
  9
$DIMALTU
 70
     2
  9
$DIMALTTD
 70
     2
  9
$DIMTXSTY
  7
Standard
  9
$DIMAUNIT
 70
     0
  9
$DIMADEC
 70
     0
  9
$DIMALTRND
 40
0.0
  9
$DIMAZIN
 70
     0
  9
$DIMDSEP
 70
    46
  9
$DIMATFIT
 70
     3
  9
$DIMFRAC
 70
     0
  9
$DIMLDRBLK
  1

  9
$DIMLUNIT
 70
     2
  9
$DIMLWD
 70
    -2
  9
$DIMLWE
 70
    -2
  9
$DIMTMOVE
 70
     0
  9
$LUNITS
 70
     2
  9
$LUPREC
 70
     4
  9
$SKETCHINC
 40
0.1
  9
$FILLETRAD
 40
0.5
  9
$AUNITS
 70
     0
  9
$AUPREC
 70
     0
  9
$MENU
  1
.
  9
$ELEVATION
 40
0.0
  9
$PELEVATION
 40
0.0
  9
$THICKNESS
 40
0.0
  9
$LIMCHECK
 70
     0
  9
$CHAMFERA
 40
0.5
  9
$CHAMFERB
 40
0.5
  9
$CHAMFERC
 40
1.0
  9
$CHAMFERD
 40
0.0
  9
$SKPOLY
 70
     0
  9
$TDCREATE
 40
2456961.021264826
  9
$TDUCREATE
 40
2456960.97959816
  9
$TDUPDATE
 40
2456961.021264838
  9
$TDUUPDATE
 40
2456960.979598171
  9
$TDINDWG
 40
0.0000000116
  9
$TDUSRTIMER
 40
0.0000000116
  9
$USRTIMER
 70
     1
  9
$ANGBASE
 50
0.0
  9
$ANGDIR
 70
     0
  9
$PDMODE
 70
     0
  9
$PDSIZE
 40
0.0
  9
$PLINEWID
 40
0.0
  9
$SPLFRAME
 70
     0
  9
$SPLINETYPE
 70
     6
  9
$SPLINESEGS
 70
     8
  9
$HANDSEED
  5
5C6
  9
$SURFTAB1
 70
     6
  9
$SURFTAB2
 70
     6
  9
$SURFTYPE
 70
     6
  9
$SURFU
 70
     6
  9
$SURFV
 70
     6
  9
$UCSBASE
  2

  9
$UCSNAME
  2

  9
$UCSORG
 10
0.0
 20
0.0
 30
0.0
  9
$UCSXDIR
 10
1.0
 20
0.0
 30
0.0
  9
$UCSYDIR
 10
0.0
 20
1.0
 30
0.0
  9
$UCSORTHOREF
  2

  9
$UCSORTHOVIEW
 70
     0
  9
$UCSORGTOP
 10
0.0
 20
0.0
 30
0.0
  9
$UCSORGBOTTOM
 10
0.0
 20
0.0
 30
0.0
  9
$UCSORGLEFT
 10
0.0
 20
0.0
 30
0.0
  9
$UCSORGRIGHT
 10
0.0
 20
0.0
 30
0.0
  9
$UCSORGFRONT
 10
0.0
 20
0.0
 30
0.0
  9
$UCSORGBACK
 10
0.0
 20
0.0
 30
0.0
  9
$PUCSBASE
  2

  9
$PUCSNAME
  2

  9
$PUCSORG
 10
0.0
 20
0.0
 30
0.0
  9
$PUCSXDIR
 10
1.0
 20
0.0
 30
0.0
  9
$PUCSYDIR
 10
0.0
 20
1.0
 30
0.0
  9
$PUCSORTHOREF
  2

  9
$PUCSORTHOVIEW
 70
     0
  9
$PUCSORGTOP
 10
0.0
 20
0.0
 30
0.0
  9
$PUCSORGBOTTOM
 10
0.0
 20
0.0
 30
0.0
  9
$PUCSORGLEFT
 10
0.0
 20
0.0
 30
0.0
  9
$PUCSORGRIGHT
 10
0.0
 20
0.0
 30
0.0
  9
$PUCSORGFRONT
 10
0.0
 20
0.0
 30
0.0
  9
$PUCSORGBACK
 10
0.0
 20
0.0
 30
0.0
  9
$USERI1
 70
     0
  9
$USERI2
 70
     0
  9
$USERI3
 70
     0
  9
$USERI4
 70
     0
  9
$USERI5
 70
     0
  9
$USERR1
 40
0.0
  9
$USERR2
 40
0.0
  9
$USERR3
 40
0.0
  9
$USERR4
 40
0.0
  9
$USERR5
 40
0.0
  9
$WORLDVIEW
 70
     1
  9
$SHADEDGE
 70
     3
  9
$SHADEDIF
 70
    70
  9
$TILEMODE
 70
     1
  9
$MAXACTVP
 70
    64
  9
$PINSBASE
 10
0.0
 20
0.0
 30
0.0
  9
$PLIMCHECK
 70
     0
  9
$PEXTMIN
 10
1.000000000000000E+20
 20
1.000000000000000E+20
 30
1.000000000000000E+20
  9
$PEXTMAX
 10
-1.000000000000000E+20
 20
-1.000000000000000E+20
 30
-1.000000000000000E+20
  9
$PLIMMIN
 10
0.0
 20
0.0
  9
$PLIMMAX
 10
12.0
 20
9.0
  9
$UNITMODE
 70
     0
  9
$VISRETAIN
 70
     1
  9
$PLINEGEN
 70
     0
  9
$PSLTSCALE
 70
     1
  9
$TREEDEPTH
 70
  3020
  9
$CMLSTYLE
  2
Standard
  9
$CMLJUST
 70
     0
  9
$CMLSCALE
 40
1.0
  9
$PROXYGRAPHICS
 70
     1
  9
$MEASUREMENT
 70
     0
  9
$CELWEIGHT
370
    -1
  9
$ENDCAPS
280
     0
  9
$JOINSTYLE
280
     0
  9
$LWDISPLAY
290
     1
  9
$INSUNITS
 70
     1
  9
$HYPERLINKBASE
  1

  9
$STYLESHEET
  1

  9
$XEDIT
290
     1
  9
$CEPSNTYPE
380
     0
  9
$PSTYLEMODE
290
     1
  9
$FINGERPRINTGUID
  2
{6F2A62CD-2039-498B-9409-89FEF6F21F7F}
  9
$VERSIONGUID
  2
{FAEB1C32-E019-11D5-929B-00C0DF256EC4}
  9
$EXTNAMES
290
     1
  9
$PSVPSCALE
 40
0.0
  9
$OLESTARTUP
290
     0
  9
$SORTENTS
280
   127
  9
$INDEXCTL
280
     0
  9
$HIDETEXT
280
     1
  9
$XCLIPFRAME
290
     0
  9
$HALOGAP
280
     0
  9
$OBSCOLOR
 70
   257
  9
$OBSLTYPE
280
     0
  9
$INTERSECTIONDISPLAY
280
     0
  9
$INTERSECTIONCOLOR
 70
   257
  9
$DIMASSOC
280
     2
  9
$PROJECTNAME
  1

  0
ENDSEC
  0
SECTION
  2
CLASSES
  0
CLASS
  1
ACDBDICTIONARYWDFLT
  2
AcDbDictionaryWithDefault
  3
ObjectDBX Classes
 90
        0
 91
        3
280
     0
281
     0
  0
CLASS
  1
VISUALSTYLE
  2
AcDbVisualStyle
  3
ObjectDBX Classes
 90
     4095
 91
        3
280
     0
281
     0
  0
ENDSEC
  0
SECTION
  2
TABLES
  0
TABLE
  2
VPORT
  5
8
330
0
100
AcDbSymbolTable
 70
     1
  0
VPORT
  5
29
330
8
100
AcDbSymbolTableRecord
100
AcDbViewportTableRecord
  2
*Active
 70
     0
 10
0.0
 20
0.0
 11
1.0
 21
1.0
 12
0.0
 22
0.0
 13
0.0
 23
0.0
 14
0.5
 24
0.5
 15
0.5
 25
0.5
 16
0.0
 26
0.0
 36
1.0
 17
105.0008091239277
 27
148.5001637099431
 37
0.0
 40
297.0003274198861
 41
0.7070753762199199
 42
50.0
 43
0.0
 44
0.0
 50
0.0
 51
0.0
 71
     0
 72
   100
 73
     1
 74
     3
 75
     0
 76
     0
 77
     0
 78
     0
281
     0
 65
     1
110
0.0
120
0.0
130
0.0
111
1.0
121
0.0
131
0.0
112
0.0
122
1.0
132
0.0
 79
     0
146
0.0
  0
ENDTAB
  0
TABLE
  2
LTYPE
  5
5
330
0
100
AcDbSymbolTable
 70
     1
  0
LTYPE
  5
14
330
5
100
AcDbSymbolTableRecord
100
AcDbLinetypeTableRecord
  2
ByBlock
 70
     0
  3

 72
    65
 73
     0
 40
0.0
  0
LTYPE
  5
15
330
5
100
AcDbSymbolTableRecord
100
AcDbLinetypeTableRecord
  2
ByLayer
 70
     0
  3

 72
    65
 73
     0
 40
0.0
  0
LTYPE
  5
16
330
5
100
AcDbSymbolTableRecord
100
AcDbLinetypeTableRecord
  2
Continuous
 70
     0
  3
Solid line
 72
    65
 73
     0
 40
0.0
  0
ENDTAB
  0
TABLE
  2
LAYER
  5
2
330
0
100
AcDbSymbolTable
 70
     1
  0
LAYER
  5
10
330
2
100
AcDbSymbolTableRecord
100
AcDbLayerTableRecord
  2
0
 70
     0
 62
     7
  6
Continuous
370
    -3
390
F
  0
ENDTAB
  0
TABLE
  2
STYLE
  5
3
330
0
100
AcDbSymbolTable
 70
     1
  0
STYLE
  5
11
330
3
100
AcDbSymbolTableRecord
100
AcDbTextStyleTableRecord
  2
Standard
 70
     0
 40
0.0
 41
1.0
 50
0.0
 71
     0
 42
0.2
  3
txt
  4

  0
ENDTAB
  0
TABLE
  2
VIEW
  5
6
330
0
100
AcDbSymbolTable
 70
     0
  0
ENDTAB
  0
TABLE
  2
UCS
  5
7
330
0
100
AcDbSymbolTable
 70
     0
  0
ENDTAB
  0
TABLE
  2
APPID
  5
9
330
0
100
AcDbSymbolTable
 70
     1
  0
APPID
  5
12
330
9
100
AcDbSymbolTableRecord
100
AcDbRegAppTableRecord
  2
ACAD
 70
     0
  0
ENDTAB
  0
TABLE
  2
DIMSTYLE
  5
A
330
0
100
AcDbSymbolTable
 70
     1
100
AcDbDimStyleTable
  0
DIMSTYLE
105
27
330
A
100
AcDbSymbolTableRecord
100
AcDbDimStyleTableRecord
  2
Standard
 70
     0
340
11
  0
ENDTAB
  0
TABLE
  2
BLOCK_RECORD
  5
1
330
0
100
AcDbSymbolTable
 70
   168
  0
BLOCK_RECORD
  5
1F
330
1
100
AcDbSymbolTableRecord
100
AcDbBlockTableRecord
  2
*Model_Space
340
22
  0
BLOCK_RECORD
  5
1B
330
1
100
AcDbSymbolTableRecord
100
AcDbBlockTableRecord
  2
*Paper_Space
340
1E
  0
BLOCK_RECORD
  5
23
330
1
100
AcDbSymbolTableRecord
100
AcDbBlockTableRecord
  2
*Paper_Space0
340
26
  0
BLOCK_RECORD
  5
3B
330
1
100
AcDbSymbolTableRecord
100
AcDbBlockTableRecord
  2
block 2
340
0
102
{BLKREFS
331
3C
102
}
  0
BLOCK_RECORD
  5
43
330
1
100
AcDbSymbolTableRecord
100
AcDbBlockTableRecord
  2
block 3
340
0
102
{BLKREFS
331
44
102
}
  0
BLOCK_RECORD
  5
4B
330
1
100
AcDbSymbolTableRecord
100
AcDbBlockTableRecord
  2
block 4
340
0
102
{BLKREFS
331
4C
102
}
  0
BLOCK_RECORD
  5
50
330
1
100
AcDbSymbolTableRecord
100
AcDbBlockTableRecord
  2
block 5
340
0
102
{BLKREFS
331
51
102
}
  0
BLOCK_RECORD
  5
55
330
1
100
AcDbSymbolTableRecord
100
AcDbBlockTableRecord
  2
block 6
340
0
102
{BLKREFS
331
56
102
}
  0
BLOCK_RECORD
  5
5A
330
1
100
AcDbSymbolTableRecord
100
AcDbBlockTableRecord
  2
block 7
340
0
102
{BLKREFS
331
5B
102
}
  0
BLOCK_RECORD
  5
5F
330
1
100
AcDbSymbolTableRecord
100
AcDbBlockTableRecord
  2
block 8
340
0
102
{BLKREFS
331
60
102
}
  0
BLOCK_RECORD
  5
67
330
1
100
AcDbSymbolTableRecord
100
AcDbBlockTableRecord
  2
block 9
340
0
102
{BLKREFS
331
68
102
}
  0
BLOCK_RECORD
  5
6F
330
1
100
AcDbSymbolTableRecord
100
AcDbBlockTableRecord
  2
block 10
340
0
102
{BLKREFS
331
70
102
}
  0
BLOCK_RECORD
  5
77
330
1
100
AcDbSymbolTableRecord
100
AcDbBlockTableRecord
  2
block 11
340
0
102
{BLKREFS
331
78
102
}
  0
BLOCK_RECORD
  5
7F
330
1
100
AcDbSymbolTableRecord
100
AcDbBlockTableRecord
  2
block 12
340
0
102
{BLKREFS
331
80
102
}
  0
BLOCK_RECORD
  5
87
330
1
100
AcDbSymbolTableRecord
100
AcDbBlockTableRecord
  2
block 13
340
0
102
{BLKREFS
331
88
102
}
  0
BLOCK_RECORD
  5
8F
330
1
100
AcDbSymbolTableRecord
100
AcDbBlockTableRecord
  2
block 14
340
0
102
{BLKREFS
331
90
102
}
  0
BLOCK_RECORD
  5
94
330
1
100
AcDbSymbolTableRecord
100
AcDbBlockTableRecord
  2
block 15
340
0
102
{BLKREFS
331
95
102
}
  0
BLOCK_RECORD
  5
99
330
1
100
AcDbSymbolTableRecord
100
AcDbBlockTableRecord
  2
block 16
340
0
102
{BLKREFS
331
9A
102
}
  0
BLOCK_RECORD
  5
A1
330
1
100
AcDbSymbolTableRecord
100
AcDbBlockTableRecord
  2
block 17
340
0
102
{BLKREFS
331
A2
102
}
  0
BLOCK_RECORD
  5
A9
330
1
100
AcDbSymbolTableRecord
100
AcDbBlockTableRecord
  2
block 18
340
0
102
{BLKREFS
331
AA
102
}
  0
BLOCK_RECORD
  5
B1
330
1
100
AcDbSymbolTableRecord
100
AcDbBlockTableRecord
  2
block 19
340
0
102
{BLKREFS
331
B2
102
}
  0
BLOCK_RECORD
  5
B9
330
1
100
AcDbSymbolTableRecord
100
AcDbBlockTableRecord
  2
block 20
340
0
102
{BLKREFS
331
BA
102
}
  0
BLOCK_RECORD
  5
C1
330
1
100
AcDbSymbolTableRecord
100
AcDbBlockTableRecord
  2
block 21
340
0
102
{BLKREFS
331
C2
102
}
  0
BLOCK_RECORD
  5
C9
330
1
100
AcDbSymbolTableRecord
100
AcDbBlockTableRecord
  2
block 22
340
0
102
{BLKREFS
331
CA
102
}
  0
BLOCK_RECORD
  5
D1
330
1
100
AcDbSymbolTableRecord
100
AcDbBlockTableRecord
  2
block 23
340
0
102
{BLKREFS
331
D2
102
}
  0
BLOCK_RECORD
  5
D9
330
1
100
AcDbSymbolTableRecord
100
AcDbBlockTableRecord
  2
block 24
340
0
102
{BLKREFS
331
DA
102
}
  0
BLOCK_RECORD
  5
E1
330
1
100
AcDbSymbolTableRecord
100
AcDbBlockTableRecord
  2
block 25
340
0
102
{BLKREFS
331
E2
102
}
  0
BLOCK_RECORD
  5
E6
330
1
100
AcDbSymbolTableRecord
100
AcDbBlockTableRecord
  2
block 26
340
0
102
{BLKREFS
331
E7
102
}
  0
BLOCK_RECORD
  5
EB
330
1
100
AcDbSymbolTableRecord
100
AcDbBlockTableRecord
  2
block 27
340
0
102
{BLKREFS
331
EC
102
}
  0
BLOCK_RECORD
  5
F0
330
1
100
AcDbSymbolTableRecord
100
AcDbBlockTableRecord
  2
block 28
340
0
102
{BLKREFS
331
F1
102
}
  0
BLOCK_RECORD
  5
F8
330
1
100
AcDbSymbolTableRecord
100
AcDbBlockTableRecord
  2
block 29
340
0
102
{BLKREFS
331
F9
102
}
  0
BLOCK_RECORD
  5
FD
330
1
100
AcDbSymbolTableRecord
100
AcDbBlockTableRecord
  2
block 30
340
0
102
{BLKREFS
331
FE
102
}
  0
BLOCK_RECORD
  5
105
330
1
100
AcDbSymbolTableRecord
100
AcDbBlockTableRecord
  2
block 31
340
0
102
{BLKREFS
331
106
102
}
  0
BLOCK_RECORD
  5
10A
330
1
100
AcDbSymbolTableRecord
100
AcDbBlockTableRecord
  2
block 32
340
0
102
{BLKREFS
331
10B
102
}
  0
BLOCK_RECORD
  5
112
330
1
100
AcDbSymbolTableRecord
100
AcDbBlockTableRecord
  2
block 33
340
0
102
{BLKREFS
331
113
102
}
  0
BLOCK_RECORD
  5
117
330
1
100
AcDbSymbolTableRecord
100
AcDbBlockTableRecord
  2
block 34
340
0
102
{BLKREFS
331
118
102
}
  0
BLOCK_RECORD
  5
11F
330
1
100
AcDbSymbolTableRecord
100
AcDbBlockTableRecord
  2
block 35
340
0
102
{BLKREFS
331
120
102
}
  0
BLOCK_RECORD
  5
127
330
1
100
AcDbSymbolTableRecord
100
AcDbBlockTableRecord
  2
block 36
340
0
102
{BLKREFS
331
128
102
}
  0
BLOCK_RECORD
  5
12F
330
1
100
AcDbSymbolTableRecord
100
AcDbBlockTableRecord
  2
block 37
340
0
102
{BLKREFS
331
130
102
}
  0
BLOCK_RECORD
  5
134
330
1
100
AcDbSymbolTableRecord
100
AcDbBlockTableRecord
  2
block 38
340
0
102
{BLKREFS
331
135
102
}
  0
BLOCK_RECORD
  5
13C
330
1
100
AcDbSymbolTableRecord
100
AcDbBlockTableRecord
  2
block 39
340
0
102
{BLKREFS
331
13D
102
}
  0
BLOCK_RECORD
  5
141
330
1
100
AcDbSymbolTableRecord
100
AcDbBlockTableRecord
  2
block 40
340
0
102
{BLKREFS
331
142
102
}
  0
BLOCK_RECORD
  5
15A
330
1
100
AcDbSymbolTableRecord
100
AcDbBlockTableRecord
  2
block 41
340
0
102
{BLKREFS
331
15B
102
}
  0
BLOCK_RECORD
  5
15F
330
1
100
AcDbSymbolTableRecord
100
AcDbBlockTableRecord
  2
block 42
340
0
102
{BLKREFS
331
160
102
}
  0
BLOCK_RECORD
  5
167
330
1
100
AcDbSymbolTableRecord
100
AcDbBlockTableRecord
  2
block 43
340
0
102
{BLKREFS
331
168
102
}
  0
BLOCK_RECORD
  5
16F
330
1
100
AcDbSymbolTableRecord
100
AcDbBlockTableRecord
  2
block 44
340
0
102
{BLKREFS
331
170
102
}
  0
BLOCK_RECORD
  5
188
330
1
100
AcDbSymbolTableRecord
100
AcDbBlockTableRecord
  2
block 45
340
0
102
{BLKREFS
331
189
102
}
  0
BLOCK_RECORD
  5
1A1
330
1
100
AcDbSymbolTableRecord
100
AcDbBlockTableRecord
  2
block 46
340
0
102
{BLKREFS
331
1A2
102
}
  0
BLOCK_RECORD
  5
1BA
330
1
100
AcDbSymbolTableRecord
100
AcDbBlockTableRecord
  2
block 47
340
0
102
{BLKREFS
331
1BB
102
}
  0
BLOCK_RECORD
  5
1C2
330
1
100
AcDbSymbolTableRecord
100
AcDbBlockTableRecord
  2
block 48
340
0
102
{BLKREFS
331
1C3
102
}
  0
BLOCK_RECORD
  5
1C6
330
1
100
AcDbSymbolTableRecord
100
AcDbBlockTableRecord
  2
block 49
340
0
102
{BLKREFS
331
1C7
102
}
  0
BLOCK_RECORD
  5
1CA
330
1
100
AcDbSymbolTableRecord
100
AcDbBlockTableRecord
  2
block 50
340
0
102
{BLKREFS
331
1CB
102
}
  0
BLOCK_RECORD
  5
1D2
330
1
100
AcDbSymbolTableRecord
100
AcDbBlockTableRecord
  2
block 51
340
0
102
{BLKREFS
331
1D3
102
}
  0
BLOCK_RECORD
  5
1D6
330
1
100
AcDbSymbolTableRecord
100
AcDbBlockTableRecord
  2
block 52
340
0
102
{BLKREFS
331
1D7
102
}
  0
BLOCK_RECORD
  5
1DA
330
1
100
AcDbSymbolTableRecord
100
AcDbBlockTableRecord
  2
block 53
340
0
102
{BLKREFS
331
1DB
102
}
  0
BLOCK_RECORD
  5
1DE
330
1
100
AcDbSymbolTableRecord
100
AcDbBlockTableRecord
  2
block 54
340
0
102
{BLKREFS
331
1DF
102
}
  0
BLOCK_RECORD
  5
1F0
330
1
100
AcDbSymbolTableRecord
100
AcDbBlockTableRecord
  2
block 55
340
0
102
{BLKREFS
331
1F1
102
}
  0
BLOCK_RECORD
  5
20C
330
1
100
AcDbSymbolTableRecord
100
AcDbBlockTableRecord
  2
block 56
340
0
102
{BLKREFS
331
20D
102
}
  0
BLOCK_RECORD
  5
214
330
1
100
AcDbSymbolTableRecord
100
AcDbBlockTableRecord
  2
block 57
340
0
102
{BLKREFS
331
215
102
}
  0
BLOCK_RECORD
  5
21C
330
1
100
AcDbSymbolTableRecord
100
AcDbBlockTableRecord
  2
block 58
340
0
102
{BLKREFS
331
21D
102
}
  0
BLOCK_RECORD
  5
224
330
1
100
AcDbSymbolTableRecord
100
AcDbBlockTableRecord
  2
block 59
340
0
102
{BLKREFS
331
225
102
}
  0
BLOCK_RECORD
  5
22C
330
1
100
AcDbSymbolTableRecord
100
AcDbBlockTableRecord
  2
block 60
340
0
102
{BLKREFS
331
22D
102
}
  0
BLOCK_RECORD
  5
231
330
1
100
AcDbSymbolTableRecord
100
AcDbBlockTableRecord
  2
block 61
340
0
102
{BLKREFS
331
232
102
}
  0
BLOCK_RECORD
  5
239
330
1
100
AcDbSymbolTableRecord
100
AcDbBlockTableRecord
  2
block 62
340
0
102
{BLKREFS
331
23A
102
}
  0
BLOCK_RECORD
  5
23E
330
1
100
AcDbSymbolTableRecord
100
AcDbBlockTableRecord
  2
block 63
340
0
102
{BLKREFS
331
23F
102
}
  0
BLOCK_RECORD
  5
243
330
1
100
AcDbSymbolTableRecord
100
AcDbBlockTableRecord
  2
block 64
340
0
102
{BLKREFS
331
244
102
}
  0
BLOCK_RECORD
  5
248
330
1
100
AcDbSymbolTableRecord
100
AcDbBlockTableRecord
  2
block 65
340
0
102
{BLKREFS
331
249
102
}
  0
BLOCK_RECORD
  5
250
330
1
100
AcDbSymbolTableRecord
100
AcDbBlockTableRecord
  2
block 66
340
0
102
{BLKREFS
331
251
102
}
  0
BLOCK_RECORD
  5
255
330
1
100
AcDbSymbolTableRecord
100
AcDbBlockTableRecord
  2
block 67
340
0
102
{BLKREFS
331
256
102
}
  0
BLOCK_RECORD
  5
25D
330
1
100
AcDbSymbolTableRecord
100
AcDbBlockTableRecord
  2
block 68
340
0
102
{BLKREFS
331
25E
102
}
  0
BLOCK_RECORD
  5
265
330
1
100
AcDbSymbolTableRecord
100
AcDbBlockTableRecord
  2
block 69
340
0
102
{BLKREFS
331
266
102
}
  0
BLOCK_RECORD
  5
26D
330
1
100
AcDbSymbolTableRecord
100
AcDbBlockTableRecord
  2
block 70
340
0
102
{BLKREFS
331
26E
102
}
  0
BLOCK_RECORD
  5
275
330
1
100
AcDbSymbolTableRecord
100
AcDbBlockTableRecord
  2
block 71
340
0
102
{BLKREFS
331
276
102
}
  0
BLOCK_RECORD
  5
27A
330
1
100
AcDbSymbolTableRecord
100
AcDbBlockTableRecord
  2
block 72
340
0
102
{BLKREFS
331
27B
102
}
  0
BLOCK_RECORD
  5
27F
330
1
100
AcDbSymbolTableRecord
100
AcDbBlockTableRecord
  2
block 73
340
0
102
{BLKREFS
331
280
102
}
  0
BLOCK_RECORD
  5
287
330
1
100
AcDbSymbolTableRecord
100
AcDbBlockTableRecord
  2
block 74
340
0
102
{BLKREFS
331
288
102
}
  0
BLOCK_RECORD
  5
28F
330
1
100
AcDbSymbolTableRecord
100
AcDbBlockTableRecord
  2
block 75
340
0
102
{BLKREFS
331
290
102
}
  0
BLOCK_RECORD
  5
297
330
1
100
AcDbSymbolTableRecord
100
AcDbBlockTableRecord
  2
block 76
340
0
102
{BLKREFS
331
298
102
}
  0
BLOCK_RECORD
  5
29F
330
1
100
AcDbSymbolTableRecord
100
AcDbBlockTableRecord
  2
block 77
340
0
102
{BLKREFS
331
2A0
102
}
  0
BLOCK_RECORD
  5
2A4
330
1
100
AcDbSymbolTableRecord
100
AcDbBlockTableRecord
  2
block 78
340
0
102
{BLKREFS
331
2A5
102
}
  0
BLOCK_RECORD
  5
2A9
330
1
100
AcDbSymbolTableRecord
100
AcDbBlockTableRecord
  2
block 79
340
0
102
{BLKREFS
331
2AA
102
}
  0
BLOCK_RECORD
  5
2AE
330
1
100
AcDbSymbolTableRecord
100
AcDbBlockTableRecord
  2
block 80
340
0
102
{BLKREFS
331
2AF
102
}
  0
BLOCK_RECORD
  5
2B3
330
1
100
AcDbSymbolTableRecord
100
AcDbBlockTableRecord
  2
block 81
340
0
102
{BLKREFS
331
2B4
102
}
  0
BLOCK_RECORD
  5
2BB
330
1
100
AcDbSymbolTableRecord
100
AcDbBlockTableRecord
  2
block 82
340
0
102
{BLKREFS
331
2BC
102
}
  0
BLOCK_RECORD
  5
2C3
330
1
100
AcDbSymbolTableRecord
100
AcDbBlockTableRecord
  2
block 83
340
0
102
{BLKREFS
331
2C4
102
}
  0
BLOCK_RECORD
  5
2CB
330
1
100
AcDbSymbolTableRecord
100
AcDbBlockTableRecord
  2
block 84
340
0
102
{BLKREFS
331
2CC
102
}
  0
BLOCK_RECORD
  5
2D3
330
1
100
AcDbSymbolTableRecord
100
AcDbBlockTableRecord
  2
block 85
340
0
102
{BLKREFS
331
2D4
102
}
  0
BLOCK_RECORD
  5
2DB
330
1
100
AcDbSymbolTableRecord
100
AcDbBlockTableRecord
  2
block 86
340
0
102
{BLKREFS
331
2DC
102
}
  0
BLOCK_RECORD
  5
2E3
330
1
100
AcDbSymbolTableRecord
100
AcDbBlockTableRecord
  2
block 87
340
0
102
{BLKREFS
331
2E4
102
}
  0
BLOCK_RECORD
  5
2EB
330
1
100
AcDbSymbolTableRecord
100
AcDbBlockTableRecord
  2
block 88
340
0
102
{BLKREFS
331
2EC
102
}
  0
BLOCK_RECORD
  5
2F3
330
1
100
AcDbSymbolTableRecord
100
AcDbBlockTableRecord
  2
block 89
340
0
102
{BLKREFS
331
2F4
102
}
  0
BLOCK_RECORD
  5
2FB
330
1
100
AcDbSymbolTableRecord
100
AcDbBlockTableRecord
  2
block 90
340
0
102
{BLKREFS
331
2FC
102
}
  0
BLOCK_RECORD
  5
303
330
1
100
AcDbSymbolTableRecord
100
AcDbBlockTableRecord
  2
block 91
340
0
102
{BLKREFS
331
304
102
}
  0
BLOCK_RECORD
  5
30B
330
1
100
AcDbSymbolTableRecord
100
AcDbBlockTableRecord
  2
block 92
340
0
102
{BLKREFS
331
30C
102
}
  0
BLOCK_RECORD
  5
313
330
1
100
AcDbSymbolTableRecord
100
AcDbBlockTableRecord
  2
block 93
340
0
102
{BLKREFS
331
314
102
}
  0
BLOCK_RECORD
  5
31B
330
1
100
AcDbSymbolTableRecord
100
AcDbBlockTableRecord
  2
block 94
340
0
102
{BLKREFS
331
31C
102
}
  0
BLOCK_RECORD
  5
323
330
1
100
AcDbSymbolTableRecord
100
AcDbBlockTableRecord
  2
block 95
340
0
102
{BLKREFS
331
324
102
}
  0
BLOCK_RECORD
  5
32B
330
1
100
AcDbSymbolTableRecord
100
AcDbBlockTableRecord
  2
block 96
340
0
102
{BLKREFS
331
32C
102
}
  0
BLOCK_RECORD
  5
333
330
1
100
AcDbSymbolTableRecord
100
AcDbBlockTableRecord
  2
block 97
340
0
102
{BLKREFS
331
334
102
}
  0
BLOCK_RECORD
  5
33B
330
1
100
AcDbSymbolTableRecord
100
AcDbBlockTableRecord
  2
block 98
340
0
102
{BLKREFS
331
33C
102
}
  0
BLOCK_RECORD
  5
343
330
1
100
AcDbSymbolTableRecord
100
AcDbBlockTableRecord
  2
block 99
340
0
102
{BLKREFS
331
344
102
}
  0
BLOCK_RECORD
  5
34B
330
1
100
AcDbSymbolTableRecord
100
AcDbBlockTableRecord
  2
block 100
340
0
102
{BLKREFS
331
34C
102
}
  0
BLOCK_RECORD
  5
353
330
1
100
AcDbSymbolTableRecord
100
AcDbBlockTableRecord
  2
block 101
340
0
102
{BLKREFS
331
354
102
}
  0
BLOCK_RECORD
  5
35B
330
1
100
AcDbSymbolTableRecord
100
AcDbBlockTableRecord
  2
block 102
340
0
102
{BLKREFS
331
35C
102
}
  0
BLOCK_RECORD
  5
363
330
1
100
AcDbSymbolTableRecord
100
AcDbBlockTableRecord
  2
block 103
340
0
102
{BLKREFS
331
364
102
}
  0
BLOCK_RECORD
  5
36B
330
1
100
AcDbSymbolTableRecord
100
AcDbBlockTableRecord
  2
block 104
340
0
102
{BLKREFS
331
36C
102
}
  0
BLOCK_RECORD
  5
373
330
1
100
AcDbSymbolTableRecord
100
AcDbBlockTableRecord
  2
block 105
340
0
102
{BLKREFS
331
374
102
}
  0
BLOCK_RECORD
  5
37B
330
1
100
AcDbSymbolTableRecord
100
AcDbBlockTableRecord
  2
block 106
340
0
102
{BLKREFS
331
37C
102
}
  0
BLOCK_RECORD
  5
383
330
1
100
AcDbSymbolTableRecord
100
AcDbBlockTableRecord
  2
block 107
340
0
102
{BLKREFS
331
384
102
}
  0
BLOCK_RECORD
  5
3AE
330
1
100
AcDbSymbolTableRecord
100
AcDbBlockTableRecord
  2
block 108
340
0
102
{BLKREFS
331
3AF
102
}
  0
BLOCK_RECORD
  5
3D7
330
1
100
AcDbSymbolTableRecord
100
AcDbBlockTableRecord
  2
block 109
340
0
102
{BLKREFS
331
3D8
102
}
  0
BLOCK_RECORD
  5
3DF
330
1
100
AcDbSymbolTableRecord
100
AcDbBlockTableRecord
  2
block 110
340
0
102
{BLKREFS
331
3E0
102
}
  0
BLOCK_RECORD
  5
3E7
330
1
100
AcDbSymbolTableRecord
100
AcDbBlockTableRecord
  2
block 111
340
0
102
{BLKREFS
331
3E8
102
}
  0
BLOCK_RECORD
  5
3EF
330
1
100
AcDbSymbolTableRecord
100
AcDbBlockTableRecord
  2
block 112
340
0
102
{BLKREFS
331
3F0
102
}
  0
BLOCK_RECORD
  5
3F7
330
1
100
AcDbSymbolTableRecord
100
AcDbBlockTableRecord
  2
block 113
340
0
102
{BLKREFS
331
3F8
102
}
  0
BLOCK_RECORD
  5
3FF
330
1
100
AcDbSymbolTableRecord
100
AcDbBlockTableRecord
  2
block 114
340
0
102
{BLKREFS
331
400
102
}
  0
BLOCK_RECORD
  5
404
330
1
100
AcDbSymbolTableRecord
100
AcDbBlockTableRecord
  2
block 115
340
0
102
{BLKREFS
331
405
102
}
  0
BLOCK_RECORD
  5
409
330
1
100
AcDbSymbolTableRecord
100
AcDbBlockTableRecord
  2
block 116
340
0
102
{BLKREFS
331
40A
102
}
  0
BLOCK_RECORD
  5
425
330
1
100
AcDbSymbolTableRecord
100
AcDbBlockTableRecord
  2
block 117
340
0
102
{BLKREFS
331
426
102
}
  0
BLOCK_RECORD
  5
42D
330
1
100
AcDbSymbolTableRecord
100
AcDbBlockTableRecord
  2
block 118
340
0
102
{BLKREFS
331
42E
102
}
  0
BLOCK_RECORD
  5
435
330
1
100
AcDbSymbolTableRecord
100
AcDbBlockTableRecord
  2
block 119
340
0
102
{BLKREFS
331
436
102
}
  0
BLOCK_RECORD
  5
43D
330
1
100
AcDbSymbolTableRecord
100
AcDbBlockTableRecord
  2
block 120
340
0
102
{BLKREFS
331
43E
102
}
  0
BLOCK_RECORD
  5
441
330
1
100
AcDbSymbolTableRecord
100
AcDbBlockTableRecord
  2
block 121
340
0
102
{BLKREFS
331
442
102
}
  0
BLOCK_RECORD
  5
445
330
1
100
AcDbSymbolTableRecord
100
AcDbBlockTableRecord
  2
block 122
340
0
102
{BLKREFS
331
446
102
}
  0
BLOCK_RECORD
  5
44D
330
1
100
AcDbSymbolTableRecord
100
AcDbBlockTableRecord
  2
block 123
340
0
102
{BLKREFS
331
44E
102
}
  0
BLOCK_RECORD
  5
451
330
1
100
AcDbSymbolTableRecord
100
AcDbBlockTableRecord
  2
block 124
340
0
102
{BLKREFS
331
452
102
}
  0
BLOCK_RECORD
  5
455
330
1
100
AcDbSymbolTableRecord
100
AcDbBlockTableRecord
  2
block 125
340
0
102
{BLKREFS
331
456
102
}
  0
BLOCK_RECORD
  5
459
330
1
100
AcDbSymbolTableRecord
100
AcDbBlockTableRecord
  2
block 126
340
0
102
{BLKREFS
331
45A
102
}
  0
BLOCK_RECORD
  5
46B
330
1
100
AcDbSymbolTableRecord
100
AcDbBlockTableRecord
  2
block 127
340
0
102
{BLKREFS
331
46C
102
}
  0
BLOCK_RECORD
  5
487
330
1
100
AcDbSymbolTableRecord
100
AcDbBlockTableRecord
  2
block 128
340
0
102
{BLKREFS
331
488
102
}
  0
BLOCK_RECORD
  5
48F
330
1
100
AcDbSymbolTableRecord
100
AcDbBlockTableRecord
  2
block 129
340
0
102
{BLKREFS
331
490
102
}
  0
BLOCK_RECORD
  5
497
330
1
100
AcDbSymbolTableRecord
100
AcDbBlockTableRecord
  2
block 130
340
0
102
{BLKREFS
331
498
102
}
  0
BLOCK_RECORD
  5
49F
330
1
100
AcDbSymbolTableRecord
100
AcDbBlockTableRecord
  2
block 131
340
0
102
{BLKREFS
331
4A0
102
}
  0
BLOCK_RECORD
  5
4A7
330
1
100
AcDbSymbolTableRecord
100
AcDbBlockTableRecord
  2
block 132
340
0
102
{BLKREFS
331
4A8
102
}
  0
BLOCK_RECORD
  5
4AC
330
1
100
AcDbSymbolTableRecord
100
AcDbBlockTableRecord
  2
block 133
340
0
102
{BLKREFS
331
4AD
102
}
  0
BLOCK_RECORD
  5
4B4
330
1
100
AcDbSymbolTableRecord
100
AcDbBlockTableRecord
  2
block 134
340
0
102
{BLKREFS
331
4B5
102
}
  0
BLOCK_RECORD
  5
4BC
330
1
100
AcDbSymbolTableRecord
100
AcDbBlockTableRecord
  2
block 135
340
0
102
{BLKREFS
331
4BD
102
}
  0
BLOCK_RECORD
  5
4C4
330
1
100
AcDbSymbolTableRecord
100
AcDbBlockTableRecord
  2
block 136
340
0
102
{BLKREFS
331
4C5
102
}
  0
BLOCK_RECORD
  5
4CC
330
1
100
AcDbSymbolTableRecord
100
AcDbBlockTableRecord
  2
block 137
340
0
102
{BLKREFS
331
4CD
102
}
  0
BLOCK_RECORD
  5
4D4
330
1
100
AcDbSymbolTableRecord
100
AcDbBlockTableRecord
  2
block 138
340
0
102
{BLKREFS
331
4D5
102
}
  0
BLOCK_RECORD
  5
4DC
330
1
100
AcDbSymbolTableRecord
100
AcDbBlockTableRecord
  2
block 139
340
0
102
{BLKREFS
331
4DD
102
}
  0
BLOCK_RECORD
  5
4E4
330
1
100
AcDbSymbolTableRecord
100
AcDbBlockTableRecord
  2
block 140
340
0
102
{BLKREFS
331
4E5
102
}
  0
BLOCK_RECORD
  5
4EC
330
1
100
AcDbSymbolTableRecord
100
AcDbBlockTableRecord
  2
block 141
340
0
102
{BLKREFS
331
4ED
102
}
  0
BLOCK_RECORD
  5
4F1
330
1
100
AcDbSymbolTableRecord
100
AcDbBlockTableRecord
  2
block 142
340
0
102
{BLKREFS
331
4F2
102
}
  0
BLOCK_RECORD
  5
4F9
330
1
100
AcDbSymbolTableRecord
100
AcDbBlockTableRecord
  2
block 143
340
0
102
{BLKREFS
331
4FA
102
}
  0
BLOCK_RECORD
  5
501
330
1
100
AcDbSymbolTableRecord
100
AcDbBlockTableRecord
  2
block 144
340
0
102
{BLKREFS
331
502
102
}
  0
BLOCK_RECORD
  5
509
330
1
100
AcDbSymbolTableRecord
100
AcDbBlockTableRecord
  2
block 145
340
0
102
{BLKREFS
331
50A
102
}
  0
BLOCK_RECORD
  5
511
330
1
100
AcDbSymbolTableRecord
100
AcDbBlockTableRecord
  2
block 146
340
0
102
{BLKREFS
331
512
102
}
  0
BLOCK_RECORD
  5
519
330
1
100
AcDbSymbolTableRecord
100
AcDbBlockTableRecord
  2
block 147
340
0
102
{BLKREFS
331
51A
102
}
  0
BLOCK_RECORD
  5
51E
330
1
100
AcDbSymbolTableRecord
100
AcDbBlockTableRecord
  2
block 148
340
0
102
{BLKREFS
331
51F
102
}
  0
BLOCK_RECORD
  5
523
330
1
100
AcDbSymbolTableRecord
100
AcDbBlockTableRecord
  2
block 149
340
0
102
{BLKREFS
331
524
102
}
  0
BLOCK_RECORD
  5
528
330
1
100
AcDbSymbolTableRecord
100
AcDbBlockTableRecord
  2
block 150
340
0
102
{BLKREFS
331
529
102
}
  0
BLOCK_RECORD
  5
52D
330
1
100
AcDbSymbolTableRecord
100
AcDbBlockTableRecord
  2
block 151
340
0
102
{BLKREFS
331
52E
102
}
  0
BLOCK_RECORD
  5
535
330
1
100
AcDbSymbolTableRecord
100
AcDbBlockTableRecord
  2
block 152
340
0
102
{BLKREFS
331
536
102
}
  0
BLOCK_RECORD
  5
53D
330
1
100
AcDbSymbolTableRecord
100
AcDbBlockTableRecord
  2
block 153
340
0
102
{BLKREFS
331
53E
102
}
  0
BLOCK_RECORD
  5
545
330
1
100
AcDbSymbolTableRecord
100
AcDbBlockTableRecord
  2
block 154
340
0
102
{BLKREFS
331
546
102
}
  0
BLOCK_RECORD
  5
54D
330
1
100
AcDbSymbolTableRecord
100
AcDbBlockTableRecord
  2
block 155
340
0
102
{BLKREFS
331
54E
102
}
  0
BLOCK_RECORD
  5
555
330
1
100
AcDbSymbolTableRecord
100
AcDbBlockTableRecord
  2
block 156
340
0
102
{BLKREFS
331
556
102
}
  0
BLOCK_RECORD
  5
559
330
1
100
AcDbSymbolTableRecord
100
AcDbBlockTableRecord
  2
block 157
340
0
102
{BLKREFS
331
55A
102
}
  0
BLOCK_RECORD
  5
55D
330
1
100
AcDbSymbolTableRecord
100
AcDbBlockTableRecord
  2
block 158
340
0
102
{BLKREFS
331
55E
102
}
  0
BLOCK_RECORD
  5
565
330
1
100
AcDbSymbolTableRecord
100
AcDbBlockTableRecord
  2
block 159
340
0
102
{BLKREFS
331
566
102
}
  0
BLOCK_RECORD
  5
569
330
1
100
AcDbSymbolTableRecord
100
AcDbBlockTableRecord
  2
block 160
340
0
102
{BLKREFS
331
56A
102
}
  0
BLOCK_RECORD
  5
56D
330
1
100
AcDbSymbolTableRecord
100
AcDbBlockTableRecord
  2
block 161
340
0
102
{BLKREFS
331
56E
102
}
  0
BLOCK_RECORD
  5
571
330
1
100
AcDbSymbolTableRecord
100
AcDbBlockTableRecord
  2
block 162
340
0
102
{BLKREFS
331
572
102
}
  0
BLOCK_RECORD
  5
583
330
1
100
AcDbSymbolTableRecord
100
AcDbBlockTableRecord
  2
block 163
340
0
102
{BLKREFS
331
584
102
}
  0
BLOCK_RECORD
  5
59F
330
1
100
AcDbSymbolTableRecord
100
AcDbBlockTableRecord
  2
block 164
340
0
102
{BLKREFS
331
5A0
102
}
  0
BLOCK_RECORD
  5
5A7
330
1
100
AcDbSymbolTableRecord
100
AcDbBlockTableRecord
  2
block 165
340
0
102
{BLKREFS
331
5A8
102
}
  0
BLOCK_RECORD
  5
5AF
330
1
100
AcDbSymbolTableRecord
100
AcDbBlockTableRecord
  2
block 166
340
0
102
{BLKREFS
331
5B0
102
}
  0
BLOCK_RECORD
  5
5B7
330
1
100
AcDbSymbolTableRecord
100
AcDbBlockTableRecord
  2
block 167
340
0
102
{BLKREFS
331
5B8
102
}
  0
BLOCK_RECORD
  5
5BF
330
1
100
AcDbSymbolTableRecord
100
AcDbBlockTableRecord
  2
block 168
340
0
102
{BLKREFS
331
5C0
102
}
  0
ENDTAB
  0
ENDSEC
  0
SECTION
  2
BLOCKS
  0
BLOCK
  5
20
330
1F
100
AcDbEntity
  8
0
100
AcDbBlockBegin
  2
*Model_Space
 70
     0
 71
     0
 10
0.0
 20
0.0
 30
0.0
  3
*Model_Space
  1

  0
ENDBLK
  5
21
330
1F
100
AcDbEntity
  8
0
100
AcDbBlockEnd
  0
BLOCK
  5
1C
330
1B
100
AcDbEntity
 67
     1
  8
0
100
AcDbBlockBegin
  2
*Paper_Space
 70
     0
 71
     0
 10
0.0
 20
0.0
 30
0.0
  3
*Paper_Space
  1

  0
ENDBLK
  5
1D
330
1B
100
AcDbEntity
 67
     1
  8
0
100
AcDbBlockEnd
  0
BLOCK
  5
24
330
23
100
AcDbEntity
  8
0
100
AcDbBlockBegin
  2
*Paper_Space0
 70
     0
 71
     0
 10
0.0
 20
0.0
 30
0.0
  3
*Paper_Space0
  1

  0
ENDBLK
  5
25
330
23
100
AcDbEntity
  8
0
100
AcDbBlockEnd
  0
BLOCK
  5
3D
330
3B
100
AcDbEntity
  8
0
100
AcDbBlockBegin
  2
block 2
 70
     0
 71
     0
 10
0.0
 20
0.0
 30
0.0
  3
block 2
  1

  0
POLYLINE
  5
3F
330
3B
100
AcDbEntity
  8
0
 62
     7
420
 16777215
370
     9
100
AcDb2dPolyline
 66
     1
 10
0.0
 20
0.0
 30
0.0
  0
VERTEX
  5
40
330
3F
100
AcDbEntity
  8
0
 62
     7
420
 16777215
370
     9
100
AcDbVertex
100
AcDb2dVertex
 10
109.3062339194963
 20
165.0947689728247
 30
0.0
  0
VERTEX
  5
41
330
3F
100
AcDbEntity
  8
0
 62
     7
420
 16777215
370
     9
100
AcDbVertex
100
AcDb2dVertex
 10
44.62969116040259
 20
165.0947689728247
 30
0.0
  0
SEQEND
  5
42
330
3F
100
AcDbEntity
  8
0
370
     9
  0
ENDBLK
  5
3E
330
3B
100
AcDbEntity
  8
0
100
AcDbBlockEnd
  0
BLOCK
  5
45
330
43
100
AcDbEntity
  8
0
100
AcDbBlockBegin
  2
block 3
 70
     0
 71
     0
 10
0.0
 20
0.0
 30
0.0
  3
block 3
  1

  0
POLYLINE
  5
47
330
43
100
AcDbEntity
  8
0
 62
     7
420
 16777215
370
     9
100
AcDb2dPolyline
 66
     1
 10
0.0
 20
0.0
 30
0.0
  0
VERTEX
  5
48
330
47
100
AcDbEntity
  8
0
 62
     7
420
 16777215
370
     9
100
AcDbVertex
100
AcDb2dVertex
 10
44.62969116040259
 20
160.1197033005523
 30
0.0
  0
VERTEX
  5
49
330
47
100
AcDbEntity
  8
0
 62
     7
420
 16777215
370
     9
100
AcDbVertex
100
AcDb2dVertex
 10
109.3062339194963
 20
160.1197033005523
 30
0.0
  0
SEQEND
  5
4A
330
47
100
AcDbEntity
  8
0
370
     9
  0
ENDBLK
  5
46
330
43
100
AcDbEntity
  8
0
100
AcDbBlockEnd
  0
BLOCK
  5
4D
330
4B
100
AcDbEntity
  8
0
100
AcDbBlockBegin
  2
block 4
 70
     0
 71
     0
 10
0.0
 20
0.0
 30
0.0
  3
block 4
  1

  0
SPLINE
  5
4F
330
4B
100
AcDbEntity
  8
0
 62
     7
420
 16777215
370
     9
100
AcDbSpline
210
0.0
220
0.0
230
1.0
 70
     8
 71
     3
 72
   116
 73
   112
 74
     0
 42
0.0000000001
 43
0.0000000001
 40
0.0
 40
0.0
 40
0.0
 40
0.0
 40
1.0
 40
1.0
 40
1.0
 40
2.0
 40
2.0
 40
2.0
 40
3.0
 40
3.0
 40
3.0
 40
4.0
 40
4.0
 40
4.0
 40
5.0
 40
5.0
 40
5.0
 40
6.0
 40
6.0
 40
6.0
 40
7.0
 40
7.0
 40
7.0
 40
8.0
 40
8.0
 40
8.0
 40
9.0
 40
9.0
 40
9.0
 40
10.0
 40
10.0
 40
10.0
 40
11.0
 40
11.0
 40
11.0
 40
12.0
 40
12.0
 40
12.0
 40
13.0
 40
13.0
 40
13.0
 40
14.0
 40
14.0
 40
14.0
 40
15.0
 40
15.0
 40
15.0
 40
16.0
 40
16.0
 40
16.0
 40
17.0
 40
17.0
 40
17.0
 40
18.0
 40
18.0
 40
18.0
 40
19.0
 40
19.0
 40
19.0
 40
20.0
 40
20.0
 40
20.0
 40
21.0
 40
21.0
 40
21.0
 40
22.0
 40
22.0
 40
22.0
 40
23.0
 40
23.0
 40
23.0
 40
24.0
 40
24.0
 40
24.0
 40
25.0
 40
25.0
 40
25.0
 40
26.0
 40
26.0
 40
26.0
 40
27.0
 40
27.0
 40
27.0
 40
28.0
 40
28.0
 40
28.0
 40
29.0
 40
29.0
 40
29.0
 40
30.0
 40
30.0
 40
30.0
 40
31.0
 40
31.0
 40
31.0
 40
32.0
 40
32.0
 40
32.0
 40
33.0
 40
33.0
 40
33.0
 40
34.0
 40
34.0
 40
34.0
 40
35.0
 40
35.0
 40
35.0
 40
36.0
 40
36.0
 40
36.0
 40
37.0
 40
37.0
 40
37.0
 40
37.0
 10
35.61249228871367
 20
168.7432997533941
 30
0.0
 10
35.61490385714424
 20
168.5899929031648
 30
0.0
 10
35.61748768046271
 20
168.4370305627113
 30
0.0
 10
35.62523915041812
 20
168.2840682222578
 30
0.0
 10
35.62523915041812
 20
168.2840682222578
 30
0.0
 10
35.62523915041812
 20
168.2840682222578
 30
0.0
 10
35.62523915041812
 20
168.2840682222578
 30
0.0
 10
35.63764150234679
 20
168.0406720656578
 30
0.0
 10
35.66279071597991
 20
167.7979649286094
 30
0.0
 10
35.69810296799901
 20
167.5568080855521
 30
0.0
 10
35.69810296799901
 20
167.5568080855521
 30
0.0
 10
35.69810296799901
 20
167.5568080855521
 30
0.0
 10
35.69810296799901
 20
167.5568080855521
 30
0.0
 10
35.73358747490602
 20
167.3156512424947
 30
0.0
 10
35.77889051042322
 20
167.0758724385406
 30
0.0
 10
35.83504560387799
 20
166.8385052030171
 30
0.0
 10
35.83504560387799
 20
166.8385052030171
 30
0.0
 10
35.83504560387799
 20
166.8385052030171
 30
0.0
 10
35.83504560387799
 20
166.8385052030171
 30
0.0
 10
35.89120069733277
 20
166.6009657126056
 30
0.0
 10
35.95786333894933
 20
166.3658377906247
 30
0.0
 10
36.03486127383977
 20
166.1339827115139
 30
0.0
 10
36.03486127383977
 20
166.1339827115139
 30
0.0
 10
36.03486127383977
 20
166.1339827115139
 30
0.0
 10
36.03486127383977
 20
166.1339827115139
 30
0.0
 10
36.11185920873022
 20
165.9021276324031
 30
0.0
 10
36.19902018200665
 20
165.6733731412744
 30
0.0
 10
36.29599968389326
 20
165.4484082576795
 30
0.0
 10
36.29599968389326
 20
165.4484082576795
 30
0.0
 10
36.29599968389326
 20
165.4484082576795
 30
0.0
 10
36.29599968389326
 20
165.4484082576795
 30
0.0
 10
36.39332369555569
 20
165.2236156289725
 30
0.0
 10
36.50046623582829
 20
165.0026126077993
 30
0.0
 10
36.6169105400474
 20
164.7866049783751
 30
0.0
 10
36.6169105400474
 20
164.7866049783751
 30
0.0
 10
36.6169105400474
 20
164.7866049783751
 30
0.0
 10
36.6169105400474
 20
164.7866049783751
 30
0.0
 10
36.7336993540423
 20
164.5702528391751
 30
0.0
 10
36.8599621868716
 20
164.3587238368362
 30
0.0
 10
36.99518227387159
 20
164.1530515006859
 30
0.0
 10
36.99518227387159
 20
164.1530515006859
 30
0.0
 10
36.99518227387159
 20
164.1530515006859
 30
0.0
 10
36.99518227387159
 20
164.1530515006859
 30
0.0
 10
37.13074687064739
 20
163.946690144984
 30
0.0
 10
37.27526872159387
 20
163.7461854554707
 30
0.0
 10
37.42823106204737
 20
163.5520541968095
 30
0.0
 10
37.42823106204737
 20
163.5520541968095
 30
0.0
 10
37.42823106204737
 20
163.5520541968095
 30
0.0
 10
37.42823106204737
 20
163.5520541968095
 30
0.0
 10
37.58171016716457
 20
163.3575784283726
 30
0.0
 10
37.74328525201297
 20
163.1694760907879
 30
0.0
 10
37.91312857148048
 20
162.9882639487191
 30
0.0
 10
37.91312857148048
 20
162.9882639487191
 30
0.0
 10
37.91312857148048
 20
162.9882639487191
 30
0.0
 10
37.91312857148048
 20
162.9882639487191
 30
0.0
 10
38.0831441458359
 20
162.8067072968745
 30
0.0
 10
38.26108344503461
 20
162.6322130954337
 30
0.0
 10
38.44625744952506
 20
162.4654703639484
 30
0.0
 10
38.44625744952506
 20
162.4654703639484
 30
0.0
 10
38.44625744952506
 20
162.4654703639484
 30
0.0
 10
38.44625744952506
 20
162.4654703639484
 30
0.0
 10
38.63177596379129
 20
162.2982108677994
 30
0.0
 10
38.82470143823715
 20
162.1387028416057
 30
0.0
 10
39.02417259842313
 20
161.9874630500312
 30
0.0
 10
39.02417259842313
 20
161.9874630500312
 30
0.0
 10
39.02417259842313
 20
161.9874630500312
 30
0.0
 10
39.02417259842313
 20
161.9874630500312
 30
0.0
 10
39.22398826838491
 20
161.8358787486809
 30
0.0
 10
39.43034962408681
 20
161.6925626819497
 30
0.0
 10
39.64256764597725
 20
161.5578593596134
 30
0.0
 10
39.64256764597725
 20
161.5578593596134
 30
0.0
 10
39.64256764597725
 20
161.5578593596134
 30
0.0
 10
39.64256764597725
 20
161.5578593596134
 30
0.0
 10
39.85530243253139
 20
161.4228115275013
 30
0.0
 10
40.07372163038615
 20
161.2967209495599
 30
0.0
 10
40.29730847487787
 20
161.1795876257892
 30
0.0
 10
40.29730847487787
 20
161.1795876257892
 30
0.0
 10
40.29730847487787
 20
161.1795876257892
 30
0.0
 10
40.29730847487787
 20
161.1795876257892
 30
0.0
 10
40.52141208403328
 20
161.0622820471306
 30
0.0
 10
40.75051108493773
 20
160.9542782324185
 30
0.0
 10
40.98374420315174
 20
160.8555761816529
 30
0.0
 10
40.98374420315174
 20
160.8555761816529
 30
0.0
 10
40.98374420315174
 20
160.8555761816529
 30
0.0
 10
40.98374420315174
 20
160.8555761816529
 30
0.0
 10
41.21749408602944
 20
160.7568741308873
 30
0.0
 10
41.45537808621669
 20
160.6676460989561
 30
0.0
 10
41.69670718416191
 20
160.588408850523
 30
0.0
 10
41.69670718416191
 20
160.588408850523
 30
0.0
 10
41.69670718416191
 20
160.588408850523
 30
0.0
 10
41.69670718416191
 20
160.588408850523
 30
0.0
 10
41.93838079188292
 20
160.508827092314
 30
0.0
 10
42.18367175224979
 20
160.4390638627153
 30
0.0
 10
42.43137428104724
 20
160.3796359263905
 30
0.0
 10
42.43137428104724
 20
160.3796359263905
 30
0.0
 10
42.43137428104724
 20
160.3796359263905
 30
0.0
 10
42.43137428104724
 20
160.3796359263905
 30
0.0
 10
42.67942131962048
 20
160.3202079900657
 30
0.0
 10
42.93022443640009
 20
160.2711153470147
 30
0.0
 10
43.18240559228288
 20
160.2314967227981
 30
0.0
 10
43.18240559228288
 20
160.2314967227981
 30
0.0
 10
43.18240559228288
 20
160.2314967227981
 30
0.0
 10
43.18240559228288
 20
160.2314967227981
 30
0.0
 10
43.43493125794148
 20
160.1918780985816
 30
0.0
 10
43.68917947247905
 20
160.1617334931994
 30
0.0
 10
43.94428896145612
 20
160.1446802592975
 30
0.0
 10
43.94428896145612
 20
160.1446802592975
 30
0.0
 10
43.94428896145612
 20
160.1446802592975
 30
0.0
 10
43.94428896145612
 20
160.1446802592975
 30
0.0
 10
44.17235443303318
 20
160.1295218291625
 30
0.0
 10
44.40110892416183
 20
160.1245264374134
 30
0.0
 10
44.62969116040259
 20
160.1197033005523
 30
0.0
  0
ENDBLK
  5
4E
330
4B
100
AcDbEntity
  8
0
100
AcDbBlockEnd
  0
BLOCK
  5
52
330
50
100
AcDbEntity
  8
0
100
AcDbBlockBegin
  2
block 5
 70
     0
 71
     0
 10
0.0
 20
0.0
 30
0.0
  3
block 5
  1

  0
SPLINE
  5
54
330
50
100
AcDbEntity
  8
0
 62
     7
420
 16777215
370
     9
100
AcDbSpline
210
0.0
220
0.0
230
1.0
 70
     8
 71
     3
 72
    86
 73
    82
 74
     0
 42
0.0000000001
 43
0.0000000001
 40
0.0
 40
0.0
 40
0.0
 40
0.0
 40
1.0
 40
1.0
 40
1.0
 40
2.0
 40
2.0
 40
2.0
 40
3.0
 40
3.0
 40
3.0
 40
4.0
 40
4.0
 40
4.0
 40
5.0
 40
5.0
 40
5.0
 40
6.0
 40
6.0
 40
6.0
 40
7.0
 40
7.0
 40
7.0
 40
8.0
 40
8.0
 40
8.0
 40
9.0
 40
9.0
 40
9.0
 40
10.0
 40
10.0
 40
10.0
 40
11.0
 40
11.0
 40
11.0
 40
12.0
 40
12.0
 40
12.0
 40
13.0
 40
13.0
 40
13.0
 40
14.0
 40
14.0
 40
14.0
 40
15.0
 40
15.0
 40
15.0
 40
16.0
 40
16.0
 40
16.0
 40
17.0
 40
17.0
 40
17.0
 40
18.0
 40
18.0
 40
18.0
 40
19.0
 40
19.0
 40
19.0
 40
20.0
 40
20.0
 40
20.0
 40
21.0
 40
21.0
 40
21.0
 40
22.0
 40
22.0
 40
22.0
 40
23.0
 40
23.0
 40
23.0
 40
24.0
 40
24.0
 40
24.0
 40
25.0
 40
25.0
 40
25.0
 40
26.0
 40
26.0
 40
26.0
 40
27.0
 40
27.0
 40
27.0
 40
27.0
 10
44.62969116040259
 20
165.0947689728247
 30
0.0
 10
44.5568273428217
 20
165.09597475704
 30
0.0
 10
44.48361901546502
 20
165.0970082863674
 30
0.0
 10
44.41058294299623
 20
165.1001088743496
 30
0.0
 10
44.41058294299623
 20
165.1001088743496
 30
0.0
 10
44.41058294299623
 20
165.1001088743496
 30
0.0
 10
44.41058294299623
 20
165.1001088743496
 30
0.0
 10
44.24384021151089
 20
165.1073435796413
 30
0.0
 10
44.07761424468923
 20
165.1257748526464
 30
0.0
 10
43.91345533652235
 20
165.1528188700464
 30
0.0
 10
43.91345533652235
 20
165.1528188700464
 30
0.0
 10
43.91345533652235
 20
165.1528188700464
 30
0.0
 10
43.91345533652235
 20
165.1528188700464
 30
0.0
 10
43.74912417346759
 20
165.1796906325585
 30
0.0
 10
43.58686006906759
 20
165.2156919041292
 30
0.0
 10
43.42786880753766
 20
165.2603059200948
 30
0.0
 10
43.42786880753766
 20
165.2603059200948
 30
0.0
 10
43.42786880753766
 20
165.2603059200948
 30
0.0
 10
43.42786880753766
 20
165.2603059200948
 30
0.0
 10
43.26870529111983
 20
165.3052644458362
 30
0.0
 10
43.11298687245996
 20
165.3590079708604
 30
0.0
 10
42.96174708088544
 20
165.4211919853916
 30
0.0
 10
42.96174708088544
 20
165.4211919853916
 30
0.0
 10
42.96174708088544
 20
165.4211919853916
 30
0.0
 10
42.96174708088544
 20
165.4211919853916
 30
0.0
 10
42.81016277953513
 20
165.4832037450349
 30
0.0
 10
42.66305710527016
 20
165.5538282490731
 30
0.0
 10
42.52180809719373
 20
165.6320319681789
 30
0.0
 10
42.52180809719373
 20
165.6320319681789
 30
0.0
 10
42.52180809719373
 20
165.6320319681789
 30
0.0
 10
42.52180809719373
 20
165.6320319681789
 30
0.0
 10
42.37987006956571
 20
165.7104079421725
 30
0.0
 10
42.24396096301412
 20
165.7965353861215
 30
0.0
 10
42.11459754220266
 20
165.8893807706986
 30
0.0
 10
42.11459754220266
 20
165.8893807706986
 30
0.0
 10
42.11459754220266
 20
165.8893807706986
 30
0.0
 10
42.11459754220266
 20
165.8893807706986
 30
0.0
 10
41.98454510183961
 20
165.9829151748273
 30
0.0
 10
41.86121060210458
 20
166.0833397744719
 30
0.0
 10
41.74579982721286
 20
166.1894487854171
 30
0.0
 10
41.74579982721286
 20
166.1894487854171
 30
0.0
 10
41.74579982721286
 20
166.1894487854171
 30
0.0
 10
41.74579982721286
 20
166.1894487854171
 30
0.0
 10
41.62935552299376
 20
166.2967635805776
 30
0.0
 10
41.52066268873006
 20
166.4097627870387
 30
0.0
 10
41.42058259886128
 20
166.5281018950247
 30
0.0
 10
41.42058259886128
 20
166.5281018950247
 30
0.0
 10
41.42058259886128
 20
166.5281018950247
 30
0.0
 10
41.42058259886128
 20
166.5281018950247
 30
0.0
 10
41.3192967247772
 20
166.6473022774502
 30
0.0
 10
41.22696810486383
 20
166.7714980516247
 30
0.0
 10
41.14342448423326
 20
166.8998279431088
 30
0.0
 10
41.14342448423326
 20
166.8998279431088
 30
0.0
 10
41.14342448423326
 20
166.8998279431088
 30
0.0
 10
41.14342448423326
 20
166.8998279431088
 30
0.0
 10
41.0588473342753
 20
167.0297081285839
 30
0.0
 10
40.98391645803964
 20
167.1635501764808
 30
0.0
 10
40.91828734575046
 20
167.3004928123597
 30
0.0
 10
40.91828734575046
 20
167.3004928123597
 30
0.0
 10
40.91828734575046
 20
167.3004928123597
 30
0.0
 10
40.91828734575046
 20
167.3004928123597
 30
0.0
 10
40.8519692139097
 20
167.4389857422298
 30
0.0
 10
40.79546961067913
 20
167.5807515149699
 30
0.0
 10
40.74896079094665
 20
167.7245843463648
 30
0.0
 10
40.74896079094665
 20
167.7245843463648
 30
0.0
 10
40.74896079094665
 20
167.7245843463648
 30
0.0
 10
40.74896079094665
 20
167.7245843463648
 30
0.0
 10
40.70193520655047
 20
167.8701397266387
 30
0.0
 10
40.66524491542818
 20
168.0177621655673
 30
0.0
 10
40.63854540780397
 20
168.1667626435992
 30
0.0
 10
40.63854540780397
 20
168.1667626435992
 30
0.0
 10
40.63854540780397
 20
168.1667626435992
 30
0.0
 10
40.63854540780397
 20
168.1667626435992
 30
0.0
 10
40.61150139040397
 20
168.3173134156221
 30
0.0
 10
40.59479266627786
 20
168.4690699718603
 30
0.0
 10
40.58979727452882
 20
168.6209987829864
 30
0.0
 10
40.58979727452882
 20
168.6209987829864
 30
0.0
 10
40.58979727452882
 20
168.6209987829864
 30
0.0
 10
40.58979727452882
 20
168.6209987829864
 30
0.0
 10
40.58859149031353
 20
168.6618231914183
 30
0.0
 10
40.58807472564984
 20
168.7026475998501
 30
0.0
 10
40.58755796098614
 20
168.7432997533941
 30
0.0
  0
ENDBLK
  5
53
330
50
100
AcDbEntity
  8
0
100
AcDbBlockEnd
  0
BLOCK
  5
57
330
55
100
AcDbEntity
  8
0
100
AcDbBlockBegin
  2
block 6
 70
     0
 71
     0
 10
0.0
 20
0.0
 30
0.0
  3
block 6
  1

  0
SPLINE
  5
59
330
55
100
AcDbEntity
  8
0
 62
     7
420
 16777215
370
     9
100
AcDbSpline
210
0.0
220
0.0
230
1.0
 70
     8
 71
     3
 72
   116
 73
   112
 74
     0
 42
0.0000000001
 43
0.0000000001
 40
0.0
 40
0.0
 40
0.0
 40
0.0
 40
1.0
 40
1.0
 40
1.0
 40
2.0
 40
2.0
 40
2.0
 40
3.0
 40
3.0
 40
3.0
 40
4.0
 40
4.0
 40
4.0
 40
5.0
 40
5.0
 40
5.0
 40
6.0
 40
6.0
 40
6.0
 40
7.0
 40
7.0
 40
7.0
 40
8.0
 40
8.0
 40
8.0
 40
9.0
 40
9.0
 40
9.0
 40
10.0
 40
10.0
 40
10.0
 40
11.0
 40
11.0
 40
11.0
 40
12.0
 40
12.0
 40
12.0
 40
13.0
 40
13.0
 40
13.0
 40
14.0
 40
14.0
 40
14.0
 40
15.0
 40
15.0
 40
15.0
 40
16.0
 40
16.0
 40
16.0
 40
17.0
 40
17.0
 40
17.0
 40
18.0
 40
18.0
 40
18.0
 40
19.0
 40
19.0
 40
19.0
 40
20.0
 40
20.0
 40
20.0
 40
21.0
 40
21.0
 40
21.0
 40
22.0
 40
22.0
 40
22.0
 40
23.0
 40
23.0
 40
23.0
 40
24.0
 40
24.0
 40
24.0
 40
25.0
 40
25.0
 40
25.0
 40
26.0
 40
26.0
 40
26.0
 40
27.0
 40
27.0
 40
27.0
 40
28.0
 40
28.0
 40
28.0
 40
29.0
 40
29.0
 40
29.0
 40
30.0
 40
30.0
 40
30.0
 40
31.0
 40
31.0
 40
31.0
 40
32.0
 40
32.0
 40
32.0
 40
33.0
 40
33.0
 40
33.0
 40
34.0
 40
34.0
 40
34.0
 40
35.0
 40
35.0
 40
35.0
 40
36.0
 40
36.0
 40
36.0
 40
37.0
 40
37.0
 40
37.0
 40
37.0
 10
109.3062339194963
 20
160.1197033005523
 30
0.0
 10
109.4609188088288
 20
160.121942614095
 30
0.0
 10
109.6156036981613
 20
160.1243541825255
 30
0.0
 10
109.769944077718
 20
160.1310721231536
 30
0.0
 10
109.769944077718
 20
160.1310721231536
 30
0.0
 10
109.769944077718
 20
160.1310721231536
 30
0.0
 10
109.769944077718
 20
160.1310721231536
 30
0.0
 10
110.0255703313588
 20
160.1424409457548
 30
0.0
 10
110.2808520752237
 20
160.1663843751727
 30
0.0
 10
110.5344112702097
 20
160.1999740783128
 30
0.0
 10
110.5344112702097
 20
160.1999740783128
 30
0.0
 10
110.5344112702097
 20
160.1999740783128
 30
0.0
 10
110.5344112702097
 20
160.1999740783128
 30
0.0
 10
110.7886594847473
 20
160.2337360363408
 30
0.0
 10
111.0408406406301
 20
160.277316522979
 30
0.0
 10
111.2909547378581
 20
160.3310600480032
 30
0.0
 10
111.2909547378581
 20
160.3310600480032
 30
0.0
 10
111.2909547378581
 20
160.3310600480032
 30
0.0
 10
111.2909547378581
 20
160.3310600480032
 30
0.0
 10
111.5407243253103
 20
160.3848035730274
 30
0.0
 10
111.7884268541077
 20
160.4490546462134
 30
0.0
 10
112.033028794923
 20
160.5231242480096
 30
0.0
 10
112.033028794923
 20
160.5231242480096
 30
0.0
 10
112.033028794923
 20
160.5231242480096
 30
0.0
 10
112.033028794923
 20
160.5231242480096
 30
0.0
 10
112.2769417161867
 20
160.5971938498058
 30
0.0
 10
112.5184430690198
 20
160.6812542351
 30
0.0
 10
112.7554657947676
 20
160.7749608941166
 30
0.0
 10
112.7554657947676
 20
160.7749608941166
 30
0.0
 10
112.7554657947676
 20
160.7749608941166
 30
0.0
 10
112.7554657947676
 20
160.7749608941166
 30
0.0
 10
112.9921440107396
 20
160.8688398080211
 30
0.0
 10
113.2250326191778
 20
160.9721927407599
 30
0.0
 10
113.452753580979
 20
161.0848474374452
 30
0.0
 10
113.452753580979
 20
161.0848474374452
 30
0.0
 10
113.452753580979
 20
161.0848474374452
 30
0.0
 10
113.452753580979
 20
161.0848474374452
 30
0.0
 10
113.6804745427803
 20
161.1975021341306
 30
0.0
 10
113.9030278579446
 20
161.3196308496503
 30
0.0
 10
114.1200690166962
 20
161.4505445644529
 30
0.0
 10
114.1200690166962
 20
161.4505445644529
 30
0.0
 10
114.1200690166962
 20
161.4505445644529
 30
0.0
 10
114.1200690166962
 20
161.4505445644529
 30
0.0
 10
114.3371101754478
 20
161.5814582792554
 30
0.0
 10
114.5479501582351
 20
161.7211569933408
 30
0.0
 10
114.752588965058
 20
161.8692961969331
 30
0.0
 10
114.752588965058
 20
161.8692961969331
 30
0.0
 10
114.752588965058
 20
161.8692961969331
 30
0.0
 10
114.752588965058
 20
161.8692961969331
 30
0.0
 10
114.9568832621051
 20
162.0174354005255
 30
0.0
 10
115.1546318734121
 20
162.1738428387369
 30
0.0
 10
115.3451457794274
 20
162.3381740017917
 30
0.0
 10
115.3451457794274
 20
162.3381740017917
 30
0.0
 10
115.3451457794274
 20
162.3381740017917
 30
0.0
 10
115.3451457794274
 20
162.3381740017917
 30
0.0
 10
115.5356596854427
 20
162.5021606550707
 30
0.0
 10
115.7185943763904
 20
162.674071033193
 30
0.0
 10
115.8936053424949
 20
162.853216116607
 30
0.0
 10
115.8936053424949
 20
162.853216116607
 30
0.0
 10
115.8936053424949
 20
162.853216116607
 30
0.0
 10
115.8936053424949
 20
162.853216116607
 30
0.0
 10
116.0686163085993
 20
163.0321889451331
 30
0.0
 10
116.2357035498605
 20
163.2185687338388
 30
0.0
 10
116.3941780467267
 20
163.4113219533968
 30
0.0
 10
116.3941780467267
 20
163.4113219533968
 30
0.0
 10
116.3941780467267
 20
163.4113219533968
 30
0.0
 10
116.3941780467267
 20
163.4113219533968
 30
0.0
 10
116.552652543593
 20
163.603558408291
 30
0.0
 10
116.7025142960643
 20
163.8026850587012
 30
0.0
 10
116.8430742845891
 20
164.0076683752999
 30
0.0
 10
116.8430742845891
 20
164.0076683752999
 30
0.0
 10
116.8430742845891
 20
164.0076683752999
 30
0.0
 10
116.8430742845891
 20
164.0076683752999
 30
0.0
 10
116.983634273114
 20
164.212134927235
 30
0.0
 10
117.1152370074681
 20
164.4226304002464
 30
0.0
 10
117.2371934680999
 20
164.6381212650069
 30
0.0
 10
117.2371934680999
 20
164.6381212650069
 30
0.0
 10
117.2371934680999
 20
164.6381212650069
 30
0.0
 10
117.2371934680999
 20
164.6381212650069
 30
0.0
 10
117.358805418956
 20
164.8530953651037
 30
0.0
 10
117.4707710960897
 20
165.0732371118375
 30
0.0
 10
117.5727459897254
 20
165.2978574856566
 30
0.0
 10
117.5727459897254
 20
165.2978574856566
 30
0.0
 10
117.5727459897254
 20
165.2978574856566
 30
0.0
 10
117.5727459897254
 20
165.2978574856566
 30
0.0
 10
117.6750653931369
 20
165.5217888399241
 30
0.0
 10
117.7670495032745
 20
165.750198821277
 30
0.0
 10
117.849042829914
 20
165.9820539003878
 30
0.0
 10
117.849042829914
 20
165.9820539003878
 30
0.0
 10
117.849042829914
 20
165.9820539003878
 30
0.0
 10
117.849042829914
 20
165.9820539003878
 30
0.0
 10
117.9306916467776
 20
166.2133922148349
 30
0.0
 10
118.0023496801432
 20
166.44817562704
 30
0.0
 10
118.0633279104592
 20
166.6855428625636
 30
0.0
 10
118.0633279104592
 20
166.6855428625636
 30
0.0
 10
118.0633279104592
 20
166.6855428625636
 30
0.0
 10
118.0633279104592
 20
166.6855428625636
 30
0.0
 10
118.1239616309993
 20
166.9227378431992
 30
0.0
 10
118.1742600582655
 20
167.1621721373776
 30
0.0
 10
118.2142231922579
 20
167.4035012353228
 30
0.0
 10
118.2142231922579
 20
167.4035012353228
 30
0.0
 10
118.2142231922579
 20
167.4035012353228
 30
0.0
 10
118.2142231922579
 20
167.4035012353228
 30
0.0
 10
118.2541863262502
 20
167.6444858234922
 30
0.0
 10
118.2841586767445
 20
167.8871929605406
 30
0.0
 10
118.3006951459827
 20
168.1304168622527
 30
0.0
 10
118.3006951459827
 20
168.1304168622527
 30
0.0
 10
118.3006951459827
 20
168.1304168622527
 30
0.0
 10
118.3006951459827
 20
168.1304168622527
 30
0.0
 10
118.3148200467904
 20
168.334366649524
 30
0.0
 10
118.3189541640999
 20
168.5388332014591
 30
0.0
 10
118.3234327911853
 20
168.7432997533941
 30
0.0
  0
ENDBLK
  5
58
330
55
100
AcDbEntity
  8
0
100
AcDbBlockEnd
  0
BLOCK
  5
5C
330
5A
100
AcDbEntity
  8
0
100
AcDbBlockBegin
  2
block 7
 70
     0
 71
     0
 10
0.0
 20
0.0
 30
0.0
  3
block 7
  1

  0
SPLINE
  5
5E
330
5A
100
AcDbEntity
  8
0
 62
     7
420
 16777215
370
     9
100
AcDbSpline
210
0.0
220
0.0
230
1.0
 70
     8
 71
     3
 72
    86
 73
    82
 74
     0
 42
0.0000000001
 43
0.0000000001
 40
0.0
 40
0.0
 40
0.0
 40
0.0
 40
1.0
 40
1.0
 40
1.0
 40
2.0
 40
2.0
 40
2.0
 40
3.0
 40
3.0
 40
3.0
 40
4.0
 40
4.0
 40
4.0
 40
5.0
 40
5.0
 40
5.0
 40
6.0
 40
6.0
 40
6.0
 40
7.0
 40
7.0
 40
7.0
 40
8.0
 40
8.0
 40
8.0
 40
9.0
 40
9.0
 40
9.0
 40
10.0
 40
10.0
 40
10.0
 40
11.0
 40
11.0
 40
11.0
 40
12.0
 40
12.0
 40
12.0
 40
13.0
 40
13.0
 40
13.0
 40
14.0
 40
14.0
 40
14.0
 40
15.0
 40
15.0
 40
15.0
 40
16.0
 40
16.0
 40
16.0
 40
17.0
 40
17.0
 40
17.0
 40
18.0
 40
18.0
 40
18.0
 40
19.0
 40
19.0
 40
19.0
 40
20.0
 40
20.0
 40
20.0
 40
21.0
 40
21.0
 40
21.0
 40
22.0
 40
22.0
 40
22.0
 40
23.0
 40
23.0
 40
23.0
 40
24.0
 40
24.0
 40
24.0
 40
25.0
 40
25.0
 40
25.0
 40
26.0
 40
26.0
 40
26.0
 40
27.0
 40
27.0
 40
27.0
 40
27.0
 10
113.3483671189128
 20
168.7432997533941
 30
0.0
 10
113.3473335895854
 20
168.6823215230781
 30
0.0
 10
113.346300060258
 20
168.6215155476501
 30
0.0
 10
113.3435439820517
 20
168.56088182711
 30
0.0
 10
113.3435439820517
 20
168.56088182711
 30
0.0
 10
113.3435439820517
 20
168.56088182711
 30
0.0
 10
113.3435439820517
 20
168.56088182711
 30
0.0
 10
113.3356202572083
 20
168.4074027219928
 30
0.0
 10
113.315983199988
 20
168.2544403815393
 30
0.0
 10
113.2853218299421
 20
168.1026838253011
 30
0.0
 10
113.2853218299421
 20
168.1026838253011
 30
0.0
 10
113.2853218299421
 20
168.1026838253011
 30
0.0
 10
113.2853218299421
 20
168.1026838253011
 30
0.0
 10
113.255004969672
 20
167.9514440337266
 30
0.0
 10
113.2146973259039
 20
167.8014100263673
 30
0.0
 10
113.1633653693103
 20
167.6539598423266
 30
0.0
 10
113.1633653693103
 20
167.6539598423266
 30
0.0
 10
113.1633653693103
 20
167.6539598423266
 30
0.0
 10
113.1633653693103
 20
167.6539598423266
 30
0.0
 10
113.1123779224924
 20
167.5075431876132
 30
0.0
 10
113.0510551824007
 20
167.3635381013304
 30
0.0
 10
112.9793971490351
 20
167.2228058579177
 30
0.0
 10
112.9793971490351
 20
167.2228058579177
 30
0.0
 10
112.9793971490351
 20
167.2228058579177
 30
0.0
 10
112.9793971490351
 20
167.2228058579177
 30
0.0
 10
112.9084281352211
 20
167.0837961633839
 30
0.0
 10
112.8278128476848
 20
166.9480593117202
 30
0.0
 10
112.7372067766504
 20
166.8169733420298
 30
0.0
 10
112.7372067766504
 20
166.8169733420298
 30
0.0
 10
112.7372067766504
 20
166.8169733420298
 30
0.0
 10
112.7372067766504
 20
166.8169733420298
 30
0.0
 10
112.6476342349434
 20
166.6876099212183
 30
0.0
 10
112.5491044390657
 20
166.5625528726043
 30
0.0
 10
112.4412728792415
 20
166.4430079804031
 30
0.0
 10
112.4412728792415
 20
166.4430079804031
 30
0.0
 10
112.4412728792415
 20
166.4430079804031
 30
0.0
 10
112.4412728792415
 20
166.4430079804031
 30
0.0
 10
112.3348193585205
 20
166.324841127305
 30
0.0
 10
112.2197530934045
 20
166.2121864306196
 30
0.0
 10
112.0967631034453
 20
166.1064219294502
 30
0.0
 10
112.0967631034453
 20
166.1064219294502
 30
0.0
 10
112.0967631034453
 20
166.1064219294502
 30
0.0
 10
112.0967631034453
 20
166.1064219294502
 30
0.0
 10
111.9751511525893
 20
166.0013464478324
 30
0.0
 10
111.8456154768899
 20
165.9028166519547
 30
0.0
 10
111.7095341154504
 20
165.8118660711445
 30
0.0
 10
111.7095341154504
 20
165.8118660711445
 30
0.0
 10
111.7095341154504
 20
165.8118660711445
 30
0.0
 10
111.7095341154504
 20
165.8118660711445
 30
0.0
 10
111.5744862833383
 20
165.7216045098859
 30
0.0
 10
111.4328927654861
 20
165.638577653919
 30
0.0
 10
111.2857870912211
 20
165.5638190325712
 30
0.0
 10
111.2857870912211
 20
165.5638190325712
 30
0.0
 10
111.2857870912211
 20
165.5638190325712
 30
0.0
 10
111.2857870912211
 20
165.5638190325712
 30
0.0
 10
111.1393704365078
 20
165.4894049209992
 30
0.0
 10
110.9877861351574
 20
165.4232590440464
 30
0.0
 10
110.8317232067218
 20
165.3655536566005
 30
0.0
 10
110.8317232067218
 20
165.3655536566005
 30
0.0
 10
110.8317232067218
 20
165.3655536566005
 30
0.0
 10
110.8317232067218
 20
165.3655536566005
 30
0.0
 10
110.6766938076135
 20
165.3083650338184
 30
0.0
 10
110.5171857814199
 20
165.2596169005432
 30
0.0
 10
110.3545771672441
 20
165.2201705312146
 30
0.0
 10
110.3545771672441
 20
165.2201705312146
 30
0.0
 10
110.3545771672441
 20
165.2201705312146
 30
0.0
 10
110.3545771672441
 20
165.2201705312146
 30
0.0
 10
110.1933465921715
 20
165.1807241618859
 30
0.0
 10
110.0286709193409
 20
165.1507518113916
 30
0.0
 10
109.8622726976314
 20
165.129736715068
 30
0.0
 10
109.8622726976314
 20
165.129736715068
 30
0.0
 10
109.8622726976314
 20
165.129736715068
 30
0.0
 10
109.8622726976314
 20
165.129736715068
 30
0.0
 10
109.7055207496441
 20
165.1097551480719
 30
0.0
 10
109.5473907625537
 20
165.0980418156948
 30
0.0
 10
109.3889162656874
 20
165.0956302472642
 30
0.0
 10
109.3889162656874
 20
165.0956302472642
 30
0.0
 10
109.3889162656874
 20
165.0956302472642
 30
0.0
 10
109.3889162656874
 20
165.0956302472642
 30
0.0
 10
109.3613554836237
 20
165.0951134826005
 30
0.0
 10
109.33379470156
 20
165.0949412277126
 30
0.0
 10
109.3062339194963
 20
165.0947689728247
 30
0.0
  0
ENDBLK
  5
5D
330
5A
100
AcDbEntity
  8
0
100
AcDbBlockEnd
  0
BLOCK
  5
61
330
5F
100
AcDbEntity
  8
0
100
AcDbBlockBegin
  2
block 8
 70
     0
 71
     0
 10
0.0
 20
0.0
 30
0.0
  3
block 8
  1

  0
POLYLINE
  5
63
330
5F
100
AcDbEntity
  8
0
 62
     7
420
 16777215
370
     9
100
AcDb2dPolyline
 66
     1
 10
0.0
 20
0.0
 30
0.0
  0
VERTEX
  5
64
330
63
100
AcDbEntity
  8
0
 62
     7
420
 16777215
370
     9
100
AcDbVertex
100
AcDb2dVertex
 10
40.58755796098614
 20
168.7432997533941
 30
0.0
  0
VERTEX
  5
65
330
63
100
AcDbEntity
  8
0
 62
     7
420
 16777215
370
     9
100
AcDbVertex
100
AcDb2dVertex
 10
40.58755796098614
 20
200.3000507065474
 30
0.0
  0
SEQEND
  5
66
330
63
100
AcDbEntity
  8
0
370
     9
  0
ENDBLK
  5
62
330
5F
100
AcDbEntity
  8
0
100
AcDbBlockEnd
  0
BLOCK
  5
69
330
67
100
AcDbEntity
  8
0
100
AcDbBlockBegin
  2
block 9
 70
     0
 71
     0
 10
0.0
 20
0.0
 30
0.0
  3
block 9
  1

  0
POLYLINE
  5
6B
330
67
100
AcDbEntity
  8
0
 62
     7
420
 16777215
370
     9
100
AcDb2dPolyline
 66
     1
 10
0.0
 20
0.0
 30
0.0
  0
VERTEX
  5
6C
330
6B
100
AcDbEntity
  8
0
 62
     7
420
 16777215
370
     9
100
AcDbVertex
100
AcDb2dVertex
 10
35.61249228871367
 20
200.3000507065474
 30
0.0
  0
VERTEX
  5
6D
330
6B
100
AcDbEntity
  8
0
 62
     7
420
 16777215
370
     9
100
AcDbVertex
100
AcDb2dVertex
 10
35.61249228871367
 20
168.7432997533941
 30
0.0
  0
SEQEND
  5
6E
330
6B
100
AcDbEntity
  8
0
370
     9
  0
ENDBLK
  5
6A
330
67
100
AcDbEntity
  8
0
100
AcDbBlockEnd
  0
BLOCK
  5
71
330
6F
100
AcDbEntity
  8
0
100
AcDbBlockBegin
  2
block 10
 70
     0
 71
     0
 10
0.0
 20
0.0
 30
0.0
  3
block 10
  1

  0
POLYLINE
  5
73
330
6F
100
AcDbEntity
  8
0
 62
     7
420
 16777215
370
     9
100
AcDb2dPolyline
 66
     1
 10
0.0
 20
0.0
 30
0.0
  0
VERTEX
  5
74
330
73
100
AcDbEntity
  8
0
 62
     7
420
 16777215
370
     9
100
AcDbVertex
100
AcDb2dVertex
 10
113.3483671189128
 20
173.4182974109481
 30
0.0
  0
VERTEX
  5
75
330
73
100
AcDbEntity
  8
0
 62
     7
420
 16777215
370
     9
100
AcDbVertex
100
AcDb2dVertex
 10
113.3483671189128
 20
168.7432997533941
 30
0.0
  0
SEQEND
  5
76
330
73
100
AcDbEntity
  8
0
370
     9
  0
ENDBLK
  5
72
330
6F
100
AcDbEntity
  8
0
100
AcDbBlockEnd
  0
BLOCK
  5
79
330
77
100
AcDbEntity
  8
0
100
AcDbBlockBegin
  2
block 11
 70
     0
 71
     0
 10
0.0
 20
0.0
 30
0.0
  3
block 11
  1

  0
POLYLINE
  5
7B
330
77
100
AcDbEntity
  8
0
 62
     7
420
 16777215
370
     9
100
AcDb2dPolyline
 66
     1
 10
0.0
 20
0.0
 30
0.0
  0
VERTEX
  5
7C
330
7B
100
AcDbEntity
  8
0
 62
     7
420
 16777215
370
     9
100
AcDbVertex
100
AcDb2dVertex
 10
118.3234327911853
 20
168.7432997533941
 30
0.0
  0
VERTEX
  5
7D
330
7B
100
AcDbEntity
  8
0
 62
     7
420
 16777215
370
     9
100
AcDbVertex
100
AcDb2dVertex
 10
118.3234327911853
 20
173.4182974109481
 30
0.0
  0
SEQEND
  5
7E
330
7B
100
AcDbEntity
  8
0
370
     9
  0
ENDBLK
  5
7A
330
77
100
AcDbEntity
  8
0
100
AcDbBlockEnd
  0
BLOCK
  5
81
330
7F
100
AcDbEntity
  8
0
100
AcDbBlockBegin
  2
block 12
 70
     0
 71
     0
 10
0.0
 20
0.0
 30
0.0
  3
block 12
  1

  0
POLYLINE
  5
83
330
7F
100
AcDbEntity
  8
0
 62
     7
420
 16777215
370
     9
100
AcDb2dPolyline
 66
     1
 10
0.0
 20
0.0
 30
0.0
  0
VERTEX
  5
84
330
83
100
AcDbEntity
  8
0
 62
     7
420
 16777215
370
     9
100
AcDbVertex
100
AcDb2dVertex
 10
118.1529004521662
 20
173.7280116993888
 30
0.0
  0
VERTEX
  5
85
330
83
100
AcDbEntity
  8
0
 62
     7
420
 16777215
370
     9
100
AcDbVertex
100
AcDb2dVertex
 10
117.8635122404974
 20
173.9813986394869
 30
0.0
  0
SEQEND
  5
86
330
83
100
AcDbEntity
  8
0
370
     9
  0
ENDBLK
  5
82
330
7F
100
AcDbEntity
  8
0
100
AcDbBlockEnd
  0
BLOCK
  5
89
330
87
100
AcDbEntity
  8
0
100
AcDbBlockBegin
  2
block 13
 70
     0
 71
     0
 10
0.0
 20
0.0
 30
0.0
  3
block 13
  1

  0
POLYLINE
  5
8B
330
87
100
AcDbEntity
  8
0
 62
     7
420
 16777215
370
     9
100
AcDb2dPolyline
 66
     1
 10
0.0
 20
0.0
 30
0.0
  0
VERTEX
  5
8C
330
8B
100
AcDbEntity
  8
0
 62
     7
420
 16777215
370
     9
100
AcDbVertex
100
AcDb2dVertex
 10
113.8086321793765
 20
173.9813986394869
 30
0.0
  0
VERTEX
  5
8D
330
8B
100
AcDbEntity
  8
0
 62
     7
420
 16777215
370
     9
100
AcDbVertex
100
AcDb2dVertex
 10
113.5192439677077
 20
173.7280116993888
 30
0.0
  0
SEQEND
  5
8E
330
8B
100
AcDbEntity
  8
0
370
     9
  0
ENDBLK
  5
8A
330
87
100
AcDbEntity
  8
0
100
AcDbBlockEnd
  0
BLOCK
  5
91
330
8F
100
AcDbEntity
  8
0
100
AcDbBlockBegin
  2
block 14
 70
     0
 71
     0
 10
0.0
 20
0.0
 30
0.0
  3
block 14
  1

  0
SPLINE
  5
93
330
8F
100
AcDbEntity
  8
0
 62
     7
420
 16777215
370
     9
100
AcDbSpline
210
0.0
220
0.0
230
1.0
 70
     8
 71
     3
 72
   116
 73
   112
 74
     0
 42
0.0000000001
 43
0.0000000001
 40
0.0
 40
0.0
 40
0.0
 40
0.0
 40
1.0
 40
1.0
 40
1.0
 40
2.0
 40
2.0
 40
2.0
 40
3.0
 40
3.0
 40
3.0
 40
4.0
 40
4.0
 40
4.0
 40
5.0
 40
5.0
 40
5.0
 40
6.0
 40
6.0
 40
6.0
 40
7.0
 40
7.0
 40
7.0
 40
8.0
 40
8.0
 40
8.0
 40
9.0
 40
9.0
 40
9.0
 40
10.0
 40
10.0
 40
10.0
 40
11.0
 40
11.0
 40
11.0
 40
12.0
 40
12.0
 40
12.0
 40
13.0
 40
13.0
 40
13.0
 40
14.0
 40
14.0
 40
14.0
 40
15.0
 40
15.0
 40
15.0
 40
16.0
 40
16.0
 40
16.0
 40
17.0
 40
17.0
 40
17.0
 40
18.0
 40
18.0
 40
18.0
 40
19.0
 40
19.0
 40
19.0
 40
20.0
 40
20.0
 40
20.0
 40
21.0
 40
21.0
 40
21.0
 40
22.0
 40
22.0
 40
22.0
 40
23.0
 40
23.0
 40
23.0
 40
24.0
 40
24.0
 40
24.0
 40
25.0
 40
25.0
 40
25.0
 40
26.0
 40
26.0
 40
26.0
 40
27.0
 40
27.0
 40
27.0
 40
28.0
 40
28.0
 40
28.0
 40
29.0
 40
29.0
 40
29.0
 40
30.0
 40
30.0
 40
30.0
 40
31.0
 40
31.0
 40
31.0
 40
32.0
 40
32.0
 40
32.0
 40
33.0
 40
33.0
 40
33.0
 40
34.0
 40
34.0
 40
34.0
 40
35.0
 40
35.0
 40
35.0
 40
36.0
 40
36.0
 40
36.0
 40
37.0
 40
37.0
 40
37.0
 40
37.0
 10
44.62969116040259
 20
208.9234749045012
 30
0.0
 10
44.47517852595801
 20
208.9214078458465
 30
0.0
 10
44.32049363662553
 20
208.9189962774159
 30
0.0
 10
44.16615325706885
 20
208.9121060819
 30
0.0
 10
44.16615325706885
 20
208.9121060819
 30
0.0
 10
44.16615325706885
 20
208.9121060819
 30
0.0
 10
44.16615325706885
 20
208.9121060819
 30
0.0
 10
43.91035474854019
 20
208.9007372592987
 30
0.0
 10
43.65507300467523
 20
208.8769660847688
 30
0.0
 10
43.40151380968925
 20
208.8432041267407
 30
0.0
 10
43.40151380968925
 20
208.8432041267407
 30
0.0
 10
43.40151380968925
 20
208.8432041267407
 30
0.0
 10
43.40151380968925
 20
208.8432041267407
 30
0.0
 10
43.14761010492747
 20
208.8096144236006
 30
0.0
 10
42.89508443926888
 20
208.7660339369624
 30
0.0
 10
42.64514259692876
 20
208.7122904119382
 30
0.0
 10
42.64514259692876
 20
208.7122904119382
 30
0.0
 10
42.64514259692876
 20
208.7122904119382
 30
0.0
 10
42.64514259692876
 20
208.7122904119382
 30
0.0
 10
42.39520075458864
 20
208.6583746320261
 30
0.0
 10
42.1474982257912
 20
208.5941235588401
 30
0.0
 10
41.90306853986381
 20
208.5202262119318
 30
0.0
 10
41.90306853986381
 20
208.5202262119318
 30
0.0
 10
41.90306853986381
 20
208.5202262119318
 30
0.0
 10
41.90306853986381
 20
208.5202262119318
 30
0.0
 10
41.65881110882433
 20
208.4459843552478
 30
0.0
 10
41.41765426576701
 20
208.3619239699535
 30
0.0
 10
41.18063154001925
 20
208.2682173109369
 30
0.0
 10
41.18063154001925
 20
208.2682173109369
 30
0.0
 10
41.18063154001925
 20
208.2682173109369
 30
0.0
 10
41.18063154001925
 20
208.2682173109369
 30
0.0
 10
40.94378106915938
 20
208.1745106519204
 30
0.0
 10
40.71106471560907
 20
208.0711577191815
 30
0.0
 10
40.4831714989199
 20
207.9583307676083
 30
0.0
 10
40.4831714989199
 20
207.9583307676083
 30
0.0
 10
40.4831714989199
 20
207.9583307676083
 30
0.0
 10
40.4831714989199
 20
207.9583307676083
 30
0.0
 10
40.25545053711863
 20
207.8456760709229
 30
0.0
 10
40.03272496706641
 20
207.7235473554032
 30
0.0
 10
39.81585606320272
 20
207.5926336406006
 30
0.0
 10
39.81585606320272
 20
207.5926336406006
 30
0.0
 10
39.81585606320272
 20
207.5926336406006
 30
0.0
 10
39.81585606320272
 20
207.5926336406006
 30
0.0
 10
39.59915941422693
 20
207.461892180686
 30
0.0
 10
39.38797492166388
 20
207.3220212117128
 30
0.0
 10
39.18350836972886
 20
207.1738820081204
 30
0.0
 10
39.18350836972886
 20
207.1738820081204
 30
0.0
 10
39.18350836972886
 20
207.1738820081204
 30
0.0
 10
39.18350836972886
 20
207.1738820081204
 30
0.0
 10
38.97921407268173
 20
207.025915059416
 30
0.0
 10
38.78129320648683
 20
206.8695076212045
 30
0.0
 10
38.59077930047155
 20
206.7051764581497
 30
0.0
 10
38.59077930047155
 20
206.7051764581497
 30
0.0
 10
38.59077930047155
 20
206.7051764581497
 30
0.0
 10
38.59077930047155
 20
206.7051764581497
 30
0.0
 10
38.40043764934416
 20
206.5411898048707
 30
0.0
 10
38.2173307035085
 20
206.3691071718605
 30
0.0
 10
38.04214748251615
 20
206.1899620884465
 30
0.0
 10
38.04214748251615
 20
206.1899620884465
 30
0.0
 10
38.04214748251615
 20
206.1899620884465
 30
0.0
 10
38.04214748251615
 20
206.1899620884465
 30
0.0
 10
37.86730877129959
 20
206.0109892599204
 30
0.0
 10
37.70022153003845
 20
205.8247817261026
 30
0.0
 10
37.54174703317221
 20
205.6320285065447
 30
0.0
 10
37.54174703317221
 20
205.6320285065447
 30
0.0
 10
37.54174703317221
 20
205.6320285065447
 30
0.0
 10
37.54174703317221
 20
205.6320285065447
 30
0.0
 10
37.38344479119387
 20
205.4394475418746
 30
0.0
 10
37.23358303872254
 20
205.2404931463523
 30
0.0
 10
37.09285079530981
 20
205.0356820846415
 30
0.0
 10
37.09285079530981
 20
205.0356820846415
 30
0.0
 10
37.09285079530981
 20
205.0356820846415
 30
0.0
 10
37.09285079530981
 20
205.0356820846415
 30
0.0
 10
36.95246306167287
 20
204.8310432778186
 30
0.0
 10
36.82103258220663
 20
204.620720059695
 30
0.0
 10
36.69907612157478
 20
204.4052291949345
 30
0.0
 10
36.69907612157478
 20
204.4052291949345
 30
0.0
 10
36.69907612157478
 20
204.4052291949345
 30
0.0
 10
36.69907612157478
 20
204.4052291949345
 30
0.0
 10
36.57746417071873
 20
204.1900828399498
 30
0.0
 10
36.46515398380919
 20
203.969941093216
 30
0.0
 10
36.36300683528562
 20
203.7454929742848
 30
0.0
 10
36.36300683528562
 20
203.7454929742848
 30
0.0
 10
36.36300683528562
 20
203.7454929742848
 30
0.0
 10
36.36300683528562
 20
203.7454929742848
 30
0.0
 10
36.26085968676206
 20
203.5213893651294
 30
0.0
 10
36.16887557662448
 20
203.2929793837766
 30
0.0
 10
36.086882249985
 20
203.0612965595536
 30
0.0
 10
36.086882249985
 20
203.0612965595536
 30
0.0
 10
36.086882249985
 20
203.0612965595536
 30
0.0
 10
36.086882249985
 20
203.0612965595536
 30
0.0
 10
36.0050611782334
 20
202.8297859902186
 30
0.0
 10
35.9335753997557
 20
202.5951748329014
 30
0.0
 10
35.87259716943978
 20
202.35763534249
 30
0.0
 10
35.87259716943978
 20
202.35763534249
 30
0.0
 10
35.87259716943978
 20
202.35763534249
 30
0.0
 10
35.87259716943978
 20
202.35763534249
 30
0.0
 10
35.81196344889965
 20
202.1206126167422
 30
0.0
 10
35.76200953140921
 20
201.881006067676
 30
0.0
 10
35.72187414252895
 20
201.6396769697307
 30
0.0
 10
35.72187414252895
 20
201.6396769697307
 30
0.0
 10
35.72187414252895
 20
201.6396769697307
 30
0.0
 10
35.72187414252895
 20
201.6396769697307
 30
0.0
 10
35.68191100853659
 20
201.3986923815613
 30
0.0
 10
35.65176640315443
 20
201.1561574994008
 30
0.0
 10
35.63522993391621
 20
200.9127613428008
 30
0.0
 10
35.63522993391621
 20
200.9127613428008
 30
0.0
 10
35.63522993391621
 20
200.9127613428008
 30
0.0
 10
35.63522993391621
 20
200.9127613428008
 30
0.0
 10
35.62144954288437
 20
200.7088115555295
 30
0.0
 10
35.61697091579902
 20
200.5043450035945
 30
0.0
 10
35.61249228871367
 20
200.3000507065474
 30
0.0
  0
ENDBLK
  5
92
330
8F
100
AcDbEntity
  8
0
100
AcDbBlockEnd
  0
BLOCK
  5
96
330
94
100
AcDbEntity
  8
0
100
AcDbBlockBegin
  2
block 15
 70
     0
 71
     0
 10
0.0
 20
0.0
 30
0.0
  3
block 15
  1

  0
SPLINE
  5
98
330
94
100
AcDbEntity
  8
0
 62
     7
420
 16777215
370
     9
100
AcDbSpline
210
0.0
220
0.0
230
1.0
 70
     8
 71
     3
 72
    86
 73
    82
 74
     0
 42
0.0000000001
 43
0.0000000001
 40
0.0
 40
0.0
 40
0.0
 40
0.0
 40
1.0
 40
1.0
 40
1.0
 40
2.0
 40
2.0
 40
2.0
 40
3.0
 40
3.0
 40
3.0
 40
4.0
 40
4.0
 40
4.0
 40
5.0
 40
5.0
 40
5.0
 40
6.0
 40
6.0
 40
6.0
 40
7.0
 40
7.0
 40
7.0
 40
8.0
 40
8.0
 40
8.0
 40
9.0
 40
9.0
 40
9.0
 40
10.0
 40
10.0
 40
10.0
 40
11.0
 40
11.0
 40
11.0
 40
12.0
 40
12.0
 40
12.0
 40
13.0
 40
13.0
 40
13.0
 40
14.0
 40
14.0
 40
14.0
 40
15.0
 40
15.0
 40
15.0
 40
16.0
 40
16.0
 40
16.0
 40
17.0
 40
17.0
 40
17.0
 40
18.0
 40
18.0
 40
18.0
 40
19.0
 40
19.0
 40
19.0
 40
20.0
 40
20.0
 40
20.0
 40
21.0
 40
21.0
 40
21.0
 40
22.0
 40
22.0
 40
22.0
 40
23.0
 40
23.0
 40
23.0
 40
24.0
 40
24.0
 40
24.0
 40
25.0
 40
25.0
 40
25.0
 40
26.0
 40
26.0
 40
26.0
 40
27.0
 40
27.0
 40
27.0
 40
27.0
 10
40.58755796098614
 20
200.3000507065474
 30
0.0
 10
40.58859149031353
 20
200.3608566819754
 30
0.0
 10
40.58962501964092
 20
200.4216626574034
 30
0.0
 10
40.59272560762309
 20
200.4824686328314
 30
0.0
 10
40.59272560762309
 20
200.4824686328314
 30
0.0
 10
40.59272560762309
 20
200.4824686328314
 30
0.0
 10
40.59272560762309
 20
200.4824686328314
 30
0.0
 10
40.6001325678027
 20
200.6357754830607
 30
0.0
 10
40.62028638968678
 20
200.7889100784021
 30
0.0
 10
40.65060324995684
 20
200.9404943797524
 30
0.0
 10
40.65060324995684
 20
200.9404943797524
 30
0.0
 10
40.65060324995684
 20
200.9404943797524
 30
0.0
 10
40.65060324995684
 20
200.9404943797524
 30
0.0
 10
40.68092011022691
 20
201.0917341713269
 30
0.0
 10
40.72157226377085
 20
201.2417681786862
 30
0.0
 10
40.77255971058869
 20
201.3893906176148
 30
0.0
 10
40.77255971058869
 20
201.3893906176148
 30
0.0
 10
40.77255971058869
 20
201.3893906176148
 30
0.0
 10
40.77255971058869
 20
201.3893906176148
 30
0.0
 10
40.82354715740652
 20
201.5358072723282
 30
0.0
 10
40.88504215238613
 20
201.679812358611
 30
0.0
 10
40.95652793086384
 20
201.8203723471358
 30
0.0
 10
40.95652793086384
 20
201.8203723471358
 30
0.0
 10
40.95652793086384
 20
201.8203723471358
 30
0.0
 10
40.95652793086384
 20
201.8203723471358
 30
0.0
 10
41.02749694467785
 20
201.9595542965575
 30
0.0
 10
41.10845674198995
 20
202.0951188933333
 30
0.0
 10
41.19889055813644
 20
202.2262048630237
 30
0.0
 10
41.19889055813644
 20
202.2262048630237
 30
0.0
 10
41.19889055813644
 20
202.2262048630237
 30
0.0
 10
41.19889055813644
 20
202.2262048630237
 30
0.0
 10
41.28829084495555
 20
202.3557405387231
 30
0.0
 10
41.38716515060905
 20
202.4807975873371
 30
0.0
 10
41.49482445554536
 20
202.6003424795384
 30
0.0
 10
41.49482445554536
 20
202.6003424795384
 30
0.0
 10
41.49482445554536
 20
202.6003424795384
 30
0.0
 10
41.49482445554536
 20
202.6003424795384
 30
0.0
 10
41.60127797626637
 20
202.7183370777485
 30
0.0
 10
41.71617198649439
 20
202.8309917744339
 30
0.0
 10
41.83916197645362
 20
202.9369285304912
 30
0.0
 10
41.83916197645362
 20
202.9369285304912
 30
0.0
 10
41.83916197645362
 20
202.9369285304912
 30
0.0
 10
41.83916197645362
 20
202.9369285304912
 30
0.0
 10
41.96094618219757
 20
203.0418317572212
 30
0.0
 10
42.09030960300903
 20
203.1403615530989
 30
0.0
 10
42.22639096444852
 20
203.231484388797
 30
0.0
 10
42.22639096444852
 20
203.231484388797
 30
0.0
 10
42.22639096444852
 20
203.231484388797
 30
0.0
 10
42.22639096444852
 20
203.231484388797
 30
0.0
 10
42.36143879656061
 20
203.3217459500555
 30
0.0
 10
42.50303231441284
 20
203.4047728060224
 30
0.0
 10
42.65031024356571
 20
203.4795314273702
 30
0.0
 10
42.65031024356571
 20
203.4795314273702
 30
0.0
 10
42.65031024356571
 20
203.4795314273702
 30
0.0
 10
42.65031024356571
 20
203.4795314273702
 30
0.0
 10
42.79655464339118
 20
203.5537732840543
 30
0.0
 10
42.94813894474149
 20
203.620091415895
 30
0.0
 10
43.10420187317715
 20
203.677624548453
 30
0.0
 10
43.10420187317715
 20
203.677624548453
 30
0.0
 10
43.10420187317715
 20
203.677624548453
 30
0.0
 10
43.10420187317715
 20
203.677624548453
 30
0.0
 10
43.25940352717333
 20
203.734985426123
 30
0.0
 10
43.41873929847906
 20
203.7837335593982
 30
0.0
 10
43.58117565776695
 20
203.823007673839
 30
0.0
 10
43.58117565776695
 20
203.823007673839
 30
0.0
 10
43.58117565776695
 20
203.823007673839
 30
0.0
 10
43.58117565776695
 20
203.823007673839
 30
0.0
 10
43.74292299750325
 20
203.8622817882797
 30
0.0
 10
43.90742641544593
 20
203.8925986485498
 30
0.0
 10
44.07365238226757
 20
203.9136137448734
 30
0.0
 10
44.07365238226757
 20
203.9136137448734
 30
0.0
 10
44.07365238226757
 20
203.9136137448734
 30
0.0
 10
44.07365238226757
 20
203.9136137448734
 30
0.0
 10
44.23040433025484
 20
203.9335953118695
 30
0.0
 10
44.38870657223317
 20
203.9451363893587
 30
0.0
 10
44.54700881421151
 20
203.9477202126772
 30
0.0
 10
44.54700881421151
 20
203.9477202126772
 30
0.0
 10
44.54700881421151
 20
203.9477202126772
 30
0.0
 10
44.54700881421151
 20
203.9477202126772
 30
0.0
 10
44.5745695962752
 20
203.948064722453
 30
0.0
 10
44.6023026332268
 20
203.9482369773409
 30
0.0
 10
44.62969116040259
 20
203.9484092322288
 30
0.0
  0
ENDBLK
  5
97
330
94
100
AcDbEntity
  8
0
100
AcDbBlockEnd
  0
BLOCK
  5
9B
330
99
100
AcDbEntity
  8
0
100
AcDbBlockBegin
  2
block 16
 70
     0
 71
     0
 10
0.0
 20
0.0
 30
0.0
  3
block 16
  1

  0
POLYLINE
  5
9D
330
99
100
AcDbEntity
  8
0
 62
     7
420
 16777215
370
     9
100
AcDb2dPolyline
 66
     1
 10
0.0
 20
0.0
 30
0.0
  0
VERTEX
  5
9E
330
9D
100
AcDbEntity
  8
0
 62
     7
420
 16777215
370
     9
100
AcDbVertex
100
AcDb2dVertex
 10
88.78378657531857
 20
208.9234749045012
 30
0.0
  0
VERTEX
  5
9F
330
9D
100
AcDbEntity
  8
0
 62
     7
420
 16777215
370
     9
100
AcDbVertex
100
AcDb2dVertex
 10
65.15213850458036
 20
208.9234749045012
 30
0.0
  0
SEQEND
  5
A0
330
9D
100
AcDbEntity
  8
0
370
     9
  0
ENDBLK
  5
9C
330
99
100
AcDbEntity
  8
0
100
AcDbBlockEnd
  0
BLOCK
  5
A3
330
A1
100
AcDbEntity
  8
0
100
AcDbBlockBegin
  2
block 17
 70
     0
 71
     0
 10
0.0
 20
0.0
 30
0.0
  3
block 17
  1

  0
POLYLINE
  5
A5
330
A1
100
AcDbEntity
  8
0
 62
     7
420
 16777215
370
     9
100
AcDb2dPolyline
 66
     1
 10
0.0
 20
0.0
 30
0.0
  0
VERTEX
  5
A6
330
A5
100
AcDbEntity
  8
0
 62
     7
420
 16777215
370
     9
100
AcDbVertex
100
AcDb2dVertex
 10
51.47062177838712
 20
208.9234749045012
 30
0.0
  0
VERTEX
  5
A7
330
A5
100
AcDbEntity
  8
0
 62
     7
420
 16777215
370
     9
100
AcDbVertex
100
AcDb2dVertex
 10
44.62969116040259
 20
208.9234749045012
 30
0.0
  0
SEQEND
  5
A8
330
A5
100
AcDbEntity
  8
0
370
     9
  0
ENDBLK
  5
A4
330
A1
100
AcDbEntity
  8
0
100
AcDbBlockEnd
  0
BLOCK
  5
AB
330
A9
100
AcDbEntity
  8
0
100
AcDbBlockBegin
  2
block 18
 70
     0
 71
     0
 10
0.0
 20
0.0
 30
0.0
  3
block 18
  1

  0
POLYLINE
  5
AD
330
A9
100
AcDbEntity
  8
0
 62
     7
420
 16777215
370
     9
100
AcDb2dPolyline
 66
     1
 10
0.0
 20
0.0
 30
0.0
  0
VERTEX
  5
AE
330
AD
100
AcDbEntity
  8
0
 62
     7
420
 16777215
370
     9
100
AcDbVertex
100
AcDb2dVertex
 10
44.62969116040259
 20
203.9484092322288
 30
0.0
  0
VERTEX
  5
AF
330
AD
100
AcDbEntity
  8
0
 62
     7
420
 16777215
370
     9
100
AcDbVertex
100
AcDb2dVertex
 10
51.47062177838712
 20
203.9484092322288
 30
0.0
  0
SEQEND
  5
B0
330
AD
100
AcDbEntity
  8
0
370
     9
  0
ENDBLK
  5
AC
330
A9
100
AcDbEntity
  8
0
100
AcDbBlockEnd
  0
BLOCK
  5
B3
330
B1
100
AcDbEntity
  8
0
100
AcDbBlockBegin
  2
block 19
 70
     0
 71
     0
 10
0.0
 20
0.0
 30
0.0
  3
block 19
  1

  0
POLYLINE
  5
B5
330
B1
100
AcDbEntity
  8
0
 62
     7
420
 16777215
370
     9
100
AcDb2dPolyline
 66
     1
 10
0.0
 20
0.0
 30
0.0
  0
VERTEX
  5
B6
330
B5
100
AcDbEntity
  8
0
 62
     7
420
 16777215
370
     9
100
AcDbVertex
100
AcDb2dVertex
 10
65.15213850458036
 20
203.9484092322288
 30
0.0
  0
VERTEX
  5
B7
330
B5
100
AcDbEntity
  8
0
 62
     7
420
 16777215
370
     9
100
AcDbVertex
100
AcDb2dVertex
 10
88.78378657531857
 20
203.9484092322288
 30
0.0
  0
SEQEND
  5
B8
330
B5
100
AcDbEntity
  8
0
370
     9
  0
ENDBLK
  5
B4
330
B1
100
AcDbEntity
  8
0
100
AcDbBlockEnd
  0
BLOCK
  5
BB
330
B9
100
AcDbEntity
  8
0
100
AcDbBlockBegin
  2
block 20
 70
     0
 71
     0
 10
0.0
 20
0.0
 30
0.0
  3
block 20
  1

  0
POLYLINE
  5
BD
330
B9
100
AcDbEntity
  8
0
 62
     7
420
 16777215
370
     9
100
AcDb2dPolyline
 66
     1
 10
0.0
 20
0.0
 30
0.0
  0
VERTEX
  5
BE
330
BD
100
AcDbEntity
  8
0
 62
     7
420
 16777215
370
     9
100
AcDbVertex
100
AcDb2dVertex
 10
64.9965923408084
 20
201.4608763960925
 30
0.0
  0
VERTEX
  5
BF
330
BD
100
AcDbEntity
  8
0
 62
     7
420
 16777215
370
     9
100
AcDbVertex
100
AcDb2dVertex
 10
64.9965923408084
 20
211.4111799955254
 30
0.0
  0
SEQEND
  5
C0
330
BD
100
AcDbEntity
  8
0
370
     9
  0
ENDBLK
  5
BC
330
B9
100
AcDbEntity
  8
0
100
AcDbBlockEnd
  0
BLOCK
  5
C3
330
C1
100
AcDbEntity
  8
0
100
AcDbBlockBegin
  2
block 21
 70
     0
 71
     0
 10
0.0
 20
0.0
 30
0.0
  3
block 21
  1

  0
POLYLINE
  5
C5
330
C1
100
AcDbEntity
  8
0
 62
     7
420
 16777215
370
     9
100
AcDb2dPolyline
 66
     1
 10
0.0
 20
0.0
 30
0.0
  0
VERTEX
  5
C6
330
C5
100
AcDbEntity
  8
0
 62
     7
420
 16777215
370
     9
100
AcDbVertex
100
AcDb2dVertex
 10
64.9965923408084
 20
201.4608763960925
 30
0.0
  0
VERTEX
  5
C7
330
C5
100
AcDbEntity
  8
0
 62
     7
420
 16777215
370
     9
100
AcDbVertex
100
AcDb2dVertex
 10
51.62616794215909
 20
201.4608763960925
 30
0.0
  0
SEQEND
  5
C8
330
C5
100
AcDbEntity
  8
0
370
     9
  0
ENDBLK
  5
C4
330
C1
100
AcDbEntity
  8
0
100
AcDbBlockEnd
  0
BLOCK
  5
CB
330
C9
100
AcDbEntity
  8
0
100
AcDbBlockBegin
  2
block 22
 70
     0
 71
     0
 10
0.0
 20
0.0
 30
0.0
  3
block 22
  1

  0
POLYLINE
  5
CD
330
C9
100
AcDbEntity
  8
0
 62
     7
420
 16777215
370
     9
100
AcDb2dPolyline
 66
     1
 10
0.0
 20
0.0
 30
0.0
  0
VERTEX
  5
CE
330
CD
100
AcDbEntity
  8
0
 62
     7
420
 16777215
370
     9
100
AcDbVertex
100
AcDb2dVertex
 10
51.62616794215909
 20
211.4111799955254
 30
0.0
  0
VERTEX
  5
CF
330
CD
100
AcDbEntity
  8
0
 62
     7
420
 16777215
370
     9
100
AcDbVertex
100
AcDb2dVertex
 10
51.62616794215909
 20
201.4608763960925
 30
0.0
  0
SEQEND
  5
D0
330
CD
100
AcDbEntity
  8
0
370
     9
  0
ENDBLK
  5
CC
330
C9
100
AcDbEntity
  8
0
100
AcDbBlockEnd
  0
BLOCK
  5
D3
330
D1
100
AcDbEntity
  8
0
100
AcDbBlockBegin
  2
block 23
 70
     0
 71
     0
 10
0.0
 20
0.0
 30
0.0
  3
block 23
  1

  0
POLYLINE
  5
D5
330
D1
100
AcDbEntity
  8
0
 62
     7
420
 16777215
370
     9
100
AcDb2dPolyline
 66
     1
 10
0.0
 20
0.0
 30
0.0
  0
VERTEX
  5
D6
330
D5
100
AcDbEntity
  8
0
 62
     7
420
 16777215
370
     9
100
AcDbVertex
100
AcDb2dVertex
 10
64.9965923408084
 20
211.4111799955254
 30
0.0
  0
VERTEX
  5
D7
330
D5
100
AcDbEntity
  8
0
 62
     7
420
 16777215
370
     9
100
AcDbVertex
100
AcDb2dVertex
 10
51.62616794215909
 20
211.4111799955254
 30
0.0
  0
SEQEND
  5
D8
330
D5
100
AcDbEntity
  8
0
370
     9
  0
ENDBLK
  5
D4
330
D1
100
AcDbEntity
  8
0
100
AcDbBlockEnd
  0
BLOCK
  5
DB
330
D9
100
AcDbEntity
  8
0
100
AcDbBlockBegin
  2
block 24
 70
     0
 71
     0
 10
0.0
 20
0.0
 30
0.0
  3
block 24
  1

  0
POLYLINE
  5
DD
330
D9
100
AcDbEntity
  8
0
 62
     7
420
 16777215
370
     9
100
AcDb2dPolyline
 66
     1
 10
0.0
 20
0.0
 30
0.0
  0
VERTEX
  5
DE
330
DD
100
AcDbEntity
  8
0
 62
     7
420
 16777215
370
     9
100
AcDbVertex
100
AcDb2dVertex
 10
65.15213850458036
 20
211.2556338317534
 30
0.0
  0
VERTEX
  5
DF
330
DD
100
AcDbEntity
  8
0
 62
     7
420
 16777215
370
     9
100
AcDbVertex
100
AcDb2dVertex
 10
65.15213850458036
 20
201.6164225598645
 30
0.0
  0
SEQEND
  5
E0
330
DD
100
AcDbEntity
  8
0
370
     9
  0
ENDBLK
  5
DC
330
D9
100
AcDbEntity
  8
0
100
AcDbBlockEnd
  0
BLOCK
  5
E3
330
E1
100
AcDbEntity
  8
0
100
AcDbBlockBegin
  2
block 25
 70
     0
 71
     0
 10
0.0
 20
0.0
 30
0.0
  3
block 25
  1

  0
SPLINE
  5
E5
330
E1
100
AcDbEntity
  8
0
 62
     7
420
 16777215
370
     9
100
AcDbSpline
210
0.0
220
0.0
230
1.0
 70
     8
 71
     3
 72
    11
 73
     7
 74
     0
 42
0.0000000001
 43
0.0000000001
 40
0.0
 40
0.0
 40
0.0
 40
0.0
 40
1.0
 40
1.0
 40
1.0
 40
2.0
 40
2.0
 40
2.0
 40
2.0
 10
64.9965923408084
 20
201.4608763960925
 30
0.0
 10
65.08254752986954
 20
201.4608763960925
 30
0.0
 10
65.15213850458036
 20
201.5306396256913
 30
0.0
 10
65.15213850458036
 20
201.6164225598645
 30
0.0
 10
65.15213850458036
 20
201.6164225598645
 30
0.0
 10
65.15213850458036
 20
201.6164225598645
 30
0.0
 10
65.15213850458036
 20
201.6164225598645
 30
0.0
  0
ENDBLK
  5
E4
330
E1
100
AcDbEntity
  8
0
100
AcDbBlockEnd
  0
BLOCK
  5
E8
330
E6
100
AcDbEntity
  8
0
100
AcDbBlockBegin
  2
block 26
 70
     0
 71
     0
 10
0.0
 20
0.0
 30
0.0
  3
block 26
  1

  0
SPLINE
  5
EA
330
E6
100
AcDbEntity
  8
0
 62
     7
420
 16777215
370
     9
100
AcDbSpline
210
0.0
220
0.0
230
1.0
 70
     8
 71
     3
 72
    11
 73
     7
 74
     0
 42
0.0000000001
 43
0.0000000001
 40
0.0
 40
0.0
 40
0.0
 40
0.0
 40
1.0
 40
1.0
 40
1.0
 40
2.0
 40
2.0
 40
2.0
 40
2.0
 10
65.15213850458036
 20
211.2556338317534
 30
0.0
 10
65.15213850458036
 20
211.3414167659267
 30
0.0
 10
65.08254752986954
 20
211.4111799955254
 30
0.0
 10
64.9965923408084
 20
211.4111799955254
 30
0.0
 10
64.9965923408084
 20
211.4111799955254
 30
0.0
 10
64.9965923408084
 20
211.4111799955254
 30
0.0
 10
64.9965923408084
 20
211.4111799955254
 30
0.0
  0
ENDBLK
  5
E9
330
E6
100
AcDbEntity
  8
0
100
AcDbBlockEnd
  0
BLOCK
  5
ED
330
EB
100
AcDbEntity
  8
0
100
AcDbBlockBegin
  2
block 27
 70
     0
 71
     0
 10
0.0
 20
0.0
 30
0.0
  3
block 27
  1

  0
SPLINE
  5
EF
330
EB
100
AcDbEntity
  8
0
 62
     7
420
 16777215
370
     9
100
AcDbSpline
210
0.0
220
0.0
230
1.0
 70
     8
 71
     3
 72
    11
 73
     7
 74
     0
 42
0.0000000001
 43
0.0000000001
 40
0.0
 40
0.0
 40
0.0
 40
0.0
 40
1.0
 40
1.0
 40
1.0
 40
2.0
 40
2.0
 40
2.0
 40
2.0
 10
51.47062177838712
 20
201.6164225598645
 30
0.0
 10
51.47062177838712
 20
201.5306396256913
 30
0.0
 10
51.54021275309794
 20
201.4608763960925
 30
0.0
 10
51.62616794215909
 20
201.4608763960925
 30
0.0
 10
51.62616794215909
 20
201.4608763960925
 30
0.0
 10
51.62616794215909
 20
201.4608763960925
 30
0.0
 10
51.62616794215909
 20
201.4608763960925
 30
0.0
  0
ENDBLK
  5
EE
330
EB
100
AcDbEntity
  8
0
100
AcDbBlockEnd
  0
BLOCK
  5
F2
330
F0
100
AcDbEntity
  8
0
100
AcDbBlockBegin
  2
block 28
 70
     0
 71
     0
 10
0.0
 20
0.0
 30
0.0
  3
block 28
  1

  0
POLYLINE
  5
F4
330
F0
100
AcDbEntity
  8
0
 62
     7
420
 16777215
370
     9
100
AcDb2dPolyline
 66
     1
 10
0.0
 20
0.0
 30
0.0
  0
VERTEX
  5
F5
330
F4
100
AcDbEntity
  8
0
 62
     7
420
 16777215
370
     9
100
AcDbVertex
100
AcDb2dVertex
 10
51.47062177838712
 20
201.6164225598645
 30
0.0
  0
VERTEX
  5
F6
330
F4
100
AcDbEntity
  8
0
 62
     7
420
 16777215
370
     9
100
AcDbVertex
100
AcDb2dVertex
 10
51.47062177838712
 20
211.2556338317534
 30
0.0
  0
SEQEND
  5
F7
330
F4
100
AcDbEntity
  8
0
370
     9
  0
ENDBLK
  5
F3
330
F0
100
AcDbEntity
  8
0
100
AcDbBlockEnd
  0
BLOCK
  5
FA
330
F8
100
AcDbEntity
  8
0
100
AcDbBlockBegin
  2
block 29
 70
     0
 71
     0
 10
0.0
 20
0.0
 30
0.0
  3
block 29
  1

  0
SPLINE
  5
FC
330
F8
100
AcDbEntity
  8
0
 62
     7
420
 16777215
370
     9
100
AcDbSpline
210
0.0
220
0.0
230
1.0
 70
     8
 71
     3
 72
    11
 73
     7
 74
     0
 42
0.0000000001
 43
0.0000000001
 40
0.0
 40
0.0
 40
0.0
 40
0.0
 40
1.0
 40
1.0
 40
1.0
 40
2.0
 40
2.0
 40
2.0
 40
2.0
 10
51.62616794215909
 20
211.4111799955254
 30
0.0
 10
51.54021275309794
 20
211.4111799955254
 30
0.0
 10
51.47062177838712
 20
211.3414167659267
 30
0.0
 10
51.47062177838712
 20
211.2556338317534
 30
0.0
 10
51.47062177838712
 20
211.2556338317534
 30
0.0
 10
51.47062177838712
 20
211.2556338317534
 30
0.0
 10
51.47062177838712
 20
211.2556338317534
 30
0.0
  0
ENDBLK
  5
FB
330
F8
100
AcDbEntity
  8
0
100
AcDbBlockEnd
  0
BLOCK
  5
FF
330
FD
100
AcDbEntity
  8
0
100
AcDbBlockBegin
  2
block 30
 70
     0
 71
     0
 10
0.0
 20
0.0
 30
0.0
  3
block 30
  1

  0
POLYLINE
  5
101
330
FD
100
AcDbEntity
  8
0
 62
     7
420
 16777215
370
     9
100
AcDb2dPolyline
 66
     1
 10
0.0
 20
0.0
 30
0.0
  0
VERTEX
  5
102
330
101
100
AcDbEntity
  8
0
 62
     7
420
 16777215
370
     9
100
AcDbVertex
100
AcDb2dVertex
 10
102.4654755563997
 20
211.2556338317534
 30
0.0
  0
VERTEX
  5
103
330
101
100
AcDbEntity
  8
0
 62
     7
420
 16777215
370
     9
100
AcDbVertex
100
AcDb2dVertex
 10
102.4654755563997
 20
201.6164225598645
 30
0.0
  0
SEQEND
  5
104
330
101
100
AcDbEntity
  8
0
370
     9
  0
ENDBLK
  5
100
330
FD
100
AcDbEntity
  8
0
100
AcDbBlockEnd
  0
BLOCK
  5
107
330
105
100
AcDbEntity
  8
0
100
AcDbBlockBegin
  2
block 31
 70
     0
 71
     0
 10
0.0
 20
0.0
 30
0.0
  3
block 31
  1

  0
SPLINE
  5
109
330
105
100
AcDbEntity
  8
0
 62
     7
420
 16777215
370
     9
100
AcDbSpline
210
0.0
220
0.0
230
1.0
 70
     8
 71
     3
 72
    11
 73
     7
 74
     0
 42
0.0000000001
 43
0.0000000001
 40
0.0
 40
0.0
 40
0.0
 40
0.0
 40
1.0
 40
1.0
 40
1.0
 40
2.0
 40
2.0
 40
2.0
 40
2.0
 10
102.3099293926278
 20
201.4608763960925
 30
0.0
 10
102.395712326801
 20
201.4608763960925
 30
0.0
 10
102.4654755563997
 20
201.5306396256913
 30
0.0
 10
102.4654755563997
 20
201.6164225598645
 30
0.0
 10
102.4654755563997
 20
201.6164225598645
 30
0.0
 10
102.4654755563997
 20
201.6164225598645
 30
0.0
 10
102.4654755563997
 20
201.6164225598645
 30
0.0
  0
ENDBLK
  5
108
330
105
100
AcDbEntity
  8
0
100
AcDbBlockEnd
  0
BLOCK
  5
10C
330
10A
100
AcDbEntity
  8
0
100
AcDbBlockBegin
  2
block 32
 70
     0
 71
     0
 10
0.0
 20
0.0
 30
0.0
  3
block 32
  1

  0
POLYLINE
  5
10E
330
10A
100
AcDbEntity
  8
0
 62
     7
420
 16777215
370
     9
100
AcDb2dPolyline
 66
     1
 10
0.0
 20
0.0
 30
0.0
  0
VERTEX
  5
10F
330
10E
100
AcDbEntity
  8
0
 62
     7
420
 16777215
370
     9
100
AcDbVertex
100
AcDb2dVertex
 10
102.3099293926278
 20
201.4608763960925
 30
0.0
  0
VERTEX
  5
110
330
10E
100
AcDbEntity
  8
0
 62
     7
420
 16777215
370
     9
100
AcDbVertex
100
AcDb2dVertex
 10
102.3099293926278
 20
211.4111799955254
 30
0.0
  0
SEQEND
  5
111
330
10E
100
AcDbEntity
  8
0
370
     9
  0
ENDBLK
  5
10D
330
10A
100
AcDbEntity
  8
0
100
AcDbBlockEnd
  0
BLOCK
  5
114
330
112
100
AcDbEntity
  8
0
100
AcDbBlockBegin
  2
block 33
 70
     0
 71
     0
 10
0.0
 20
0.0
 30
0.0
  3
block 33
  1

  0
SPLINE
  5
116
330
112
100
AcDbEntity
  8
0
 62
     7
420
 16777215
370
     9
100
AcDbSpline
210
0.0
220
0.0
230
1.0
 70
     8
 71
     3
 72
    11
 73
     7
 74
     0
 42
0.0000000001
 43
0.0000000001
 40
0.0
 40
0.0
 40
0.0
 40
0.0
 40
1.0
 40
1.0
 40
1.0
 40
2.0
 40
2.0
 40
2.0
 40
2.0
 10
102.4654755563997
 20
211.2556338317534
 30
0.0
 10
102.4654755563997
 20
211.3414167659267
 30
0.0
 10
102.395712326801
 20
211.4111799955254
 30
0.0
 10
102.3099293926278
 20
211.4111799955254
 30
0.0
 10
102.3099293926278
 20
211.4111799955254
 30
0.0
 10
102.3099293926278
 20
211.4111799955254
 30
0.0
 10
102.3099293926278
 20
211.4111799955254
 30
0.0
  0
ENDBLK
  5
115
330
112
100
AcDbEntity
  8
0
100
AcDbBlockEnd
  0
BLOCK
  5
119
330
117
100
AcDbEntity
  8
0
100
AcDbBlockBegin
  2
block 34
 70
     0
 71
     0
 10
0.0
 20
0.0
 30
0.0
  3
block 34
  1

  0
POLYLINE
  5
11B
330
117
100
AcDbEntity
  8
0
 62
     7
420
 16777215
370
     9
100
AcDb2dPolyline
 66
     1
 10
0.0
 20
0.0
 30
0.0
  0
VERTEX
  5
11C
330
11B
100
AcDbEntity
  8
0
 62
     7
420
 16777215
370
     9
100
AcDbVertex
100
AcDb2dVertex
 10
102.3099293926278
 20
201.4608763960925
 30
0.0
  0
VERTEX
  5
11D
330
11B
100
AcDbEntity
  8
0
 62
     7
420
 16777215
370
     9
100
AcDbVertex
100
AcDb2dVertex
 10
88.93933273909055
 20
201.4608763960925
 30
0.0
  0
SEQEND
  5
11E
330
11B
100
AcDbEntity
  8
0
370
     9
  0
ENDBLK
  5
11A
330
117
100
AcDbEntity
  8
0
100
AcDbBlockEnd
  0
BLOCK
  5
121
330
11F
100
AcDbEntity
  8
0
100
AcDbBlockBegin
  2
block 35
 70
     0
 71
     0
 10
0.0
 20
0.0
 30
0.0
  3
block 35
  1

  0
POLYLINE
  5
123
330
11F
100
AcDbEntity
  8
0
 62
     7
420
 16777215
370
     9
100
AcDb2dPolyline
 66
     1
 10
0.0
 20
0.0
 30
0.0
  0
VERTEX
  5
124
330
123
100
AcDbEntity
  8
0
 62
     7
420
 16777215
370
     9
100
AcDbVertex
100
AcDb2dVertex
 10
88.93933273909055
 20
211.4111799955254
 30
0.0
  0
VERTEX
  5
125
330
123
100
AcDbEntity
  8
0
 62
     7
420
 16777215
370
     9
100
AcDbVertex
100
AcDb2dVertex
 10
88.93933273909055
 20
201.4608763960925
 30
0.0
  0
SEQEND
  5
126
330
123
100
AcDbEntity
  8
0
370
     9
  0
ENDBLK
  5
122
330
11F
100
AcDbEntity
  8
0
100
AcDbBlockEnd
  0
BLOCK
  5
129
330
127
100
AcDbEntity
  8
0
100
AcDbBlockBegin
  2
block 36
 70
     0
 71
     0
 10
0.0
 20
0.0
 30
0.0
  3
block 36
  1

  0
POLYLINE
  5
12B
330
127
100
AcDbEntity
  8
0
 62
     7
420
 16777215
370
     9
100
AcDb2dPolyline
 66
     1
 10
0.0
 20
0.0
 30
0.0
  0
VERTEX
  5
12C
330
12B
100
AcDbEntity
  8
0
 62
     7
420
 16777215
370
     9
100
AcDbVertex
100
AcDb2dVertex
 10
102.3099293926278
 20
211.4111799955254
 30
0.0
  0
VERTEX
  5
12D
330
12B
100
AcDbEntity
  8
0
 62
     7
420
 16777215
370
     9
100
AcDbVertex
100
AcDb2dVertex
 10
88.93933273909055
 20
211.4111799955254
 30
0.0
  0
SEQEND
  5
12E
330
12B
100
AcDbEntity
  8
0
370
     9
  0
ENDBLK
  5
12A
330
127
100
AcDbEntity
  8
0
100
AcDbBlockEnd
  0
BLOCK
  5
131
330
12F
100
AcDbEntity
  8
0
100
AcDbBlockBegin
  2
block 37
 70
     0
 71
     0
 10
0.0
 20
0.0
 30
0.0
  3
block 37
  1

  0
SPLINE
  5
133
330
12F
100
AcDbEntity
  8
0
 62
     7
420
 16777215
370
     9
100
AcDbSpline
210
0.0
220
0.0
230
1.0
 70
     8
 71
     3
 72
    11
 73
     7
 74
     0
 42
0.0000000001
 43
0.0000000001
 40
0.0
 40
0.0
 40
0.0
 40
0.0
 40
1.0
 40
1.0
 40
1.0
 40
2.0
 40
2.0
 40
2.0
 40
2.0
 10
88.78378657531857
 20
201.6164225598645
 30
0.0
 10
88.78378657531857
 20
201.5306396256913
 30
0.0
 10
88.85337755002939
 20
201.4608763960925
 30
0.0
 10
88.93933273909055
 20
201.4608763960925
 30
0.0
 10
88.93933273909055
 20
201.4608763960925
 30
0.0
 10
88.93933273909055
 20
201.4608763960925
 30
0.0
 10
88.93933273909055
 20
201.4608763960925
 30
0.0
  0
ENDBLK
  5
132
330
12F
100
AcDbEntity
  8
0
100
AcDbBlockEnd
  0
BLOCK
  5
136
330
134
100
AcDbEntity
  8
0
100
AcDbBlockBegin
  2
block 38
 70
     0
 71
     0
 10
0.0
 20
0.0
 30
0.0
  3
block 38
  1

  0
POLYLINE
  5
138
330
134
100
AcDbEntity
  8
0
 62
     7
420
 16777215
370
     9
100
AcDb2dPolyline
 66
     1
 10
0.0
 20
0.0
 30
0.0
  0
VERTEX
  5
139
330
138
100
AcDbEntity
  8
0
 62
     7
420
 16777215
370
     9
100
AcDbVertex
100
AcDb2dVertex
 10
88.78378657531857
 20
201.6164225598645
 30
0.0
  0
VERTEX
  5
13A
330
138
100
AcDbEntity
  8
0
 62
     7
420
 16777215
370
     9
100
AcDbVertex
100
AcDb2dVertex
 10
88.78378657531857
 20
211.2556338317534
 30
0.0
  0
SEQEND
  5
13B
330
138
100
AcDbEntity
  8
0
370
     9
  0
ENDBLK
  5
137
330
134
100
AcDbEntity
  8
0
100
AcDbBlockEnd
  0
BLOCK
  5
13E
330
13C
100
AcDbEntity
  8
0
100
AcDbBlockBegin
  2
block 39
 70
     0
 71
     0
 10
0.0
 20
0.0
 30
0.0
  3
block 39
  1

  0
SPLINE
  5
140
330
13C
100
AcDbEntity
  8
0
 62
     7
420
 16777215
370
     9
100
AcDbSpline
210
0.0
220
0.0
230
1.0
 70
     8
 71
     3
 72
    11
 73
     7
 74
     0
 42
0.0000000001
 43
0.0000000001
 40
0.0
 40
0.0
 40
0.0
 40
0.0
 40
1.0
 40
1.0
 40
1.0
 40
2.0
 40
2.0
 40
2.0
 40
2.0
 10
88.93933273909055
 20
211.4111799955254
 30
0.0
 10
88.85337755002939
 20
211.4111799955254
 30
0.0
 10
88.78378657531857
 20
211.3414167659267
 30
0.0
 10
88.78378657531857
 20
211.2556338317534
 30
0.0
 10
88.78378657531857
 20
211.2556338317534
 30
0.0
 10
88.78378657531857
 20
211.2556338317534
 30
0.0
 10
88.78378657531857
 20
211.2556338317534
 30
0.0
  0
ENDBLK
  5
13F
330
13C
100
AcDbEntity
  8
0
100
AcDbBlockEnd
  0
BLOCK
  5
143
330
141
100
AcDbEntity
  8
0
100
AcDbBlockBegin
  2
block 40
 70
     0
 71
     0
 10
0.0
 20
0.0
 30
0.0
  3
block 40
  1

  0
POLYLINE
  5
145
330
141
100
AcDbEntity
  8
0
 62
     7
420
 16777215
370
     9
100
AcDb2dPolyline
 66
     1
 10
0.0
 20
0.0
 30
0.0
  0
VERTEX
  5
146
330
145
100
AcDbEntity
  8
0
 62
     7
420
 16777215
370
     9
100
AcDbVertex
100
AcDb2dVertex
 10
118.3234327911853
 20
173.4182974109481
 30
0.0
  0
VERTEX
  5
147
330
145
100
AcDbEntity
  8
0
 62
     7
420
 16777215
370
     9
100
AcDbVertex
100
AcDb2dVertex
 10
118.2858812256235
 20
173.5660921047646
 30
0.0
  0
VERTEX
  5
148
330
145
100
AcDbEntity
  8
0
 62
     7
420
 16777215
370
     9
100
AcDbVertex
100
AcDb2dVertex
 10
118.1735710387139
 20
173.7094081714959
 30
0.0
  0
VERTEX
  5
149
330
145
100
AcDbEntity
  8
0
 62
     7
420
 16777215
370
     9
100
AcDbVertex
100
AcDb2dVertex
 10
117.9902918379904
 20
173.8437669840563
 30
0.0
  0
VERTEX
  5
14A
330
145
100
AcDbEntity
  8
0
 62
     7
420
 16777215
370
     9
100
AcDbVertex
100
AcDb2dVertex
 10
117.7415557798655
 20
173.9652066800245
 30
0.0
  0
VERTEX
  5
14B
330
145
100
AcDbEntity
  8
0
 62
     7
420
 16777215
370
     9
100
AcDbVertex
100
AcDb2dVertex
 10
117.434942079407
 20
174.0701099067544
 30
0.0
  0
VERTEX
  5
14C
330
145
100
AcDbEntity
  8
0
 62
     7
420
 16777215
370
     9
100
AcDbVertex
100
AcDb2dVertex
 10
117.0797525005611
 20
174.1552038213761
 30
0.0
  0
VERTEX
  5
14D
330
145
100
AcDbEntity
  8
0
 62
     7
420
 16777215
370
     9
100
AcDbVertex
100
AcDb2dVertex
 10
116.6866668463777
 20
174.217904600571
 30
0.0
  0
VERTEX
  5
14E
330
145
100
AcDbEntity
  8
0
 62
     7
420
 16777215
370
     9
100
AcDbVertex
100
AcDb2dVertex
 10
116.2677429590095
 20
174.2561451856844
 30
0.0
  0
VERTEX
  5
14F
330
145
100
AcDbEntity
  8
0
 62
     7
420
 16777215
370
     9
100
AcDbVertex
100
AcDb2dVertex
 10
115.8360722099369
 20
174.2692365571646
 30
0.0
  0
VERTEX
  5
150
330
145
100
AcDbEntity
  8
0
 62
     7
420
 16777215
370
     9
100
AcDbVertex
100
AcDb2dVertex
 10
115.4040569510885
 20
174.2561451856844
 30
0.0
  0
VERTEX
  5
151
330
145
100
AcDbEntity
  8
0
 62
     7
420
 16777215
370
     9
100
AcDbVertex
100
AcDb2dVertex
 10
114.9851330637204
 20
174.217904600571
 30
0.0
  0
VERTEX
  5
152
330
145
100
AcDbEntity
  8
0
 62
     7
420
 16777215
370
     9
100
AcDbVertex
100
AcDb2dVertex
 10
114.592047409537
 20
174.1552038213761
 30
0.0
  0
VERTEX
  5
153
330
145
100
AcDbEntity
  8
0
 62
     7
420
 16777215
370
     9
100
AcDbVertex
100
AcDb2dVertex
 10
114.2368578306911
 20
174.0701099067544
 30
0.0
  0
VERTEX
  5
154
330
145
100
AcDbEntity
  8
0
 62
     7
420
 16777215
370
     9
100
AcDbVertex
100
AcDb2dVertex
 10
113.9305886400083
 20
173.9652066800245
 30
0.0
  0
VERTEX
  5
155
330
145
100
AcDbEntity
  8
0
 62
     7
420
 16777215
370
     9
100
AcDbVertex
100
AcDb2dVertex
 10
113.6818525818835
 20
173.8437669840563
 30
0.0
  0
VERTEX
  5
156
330
145
100
AcDbEntity
  8
0
 62
     7
420
 16777215
370
     9
100
AcDbVertex
100
AcDb2dVertex
 10
113.4985733811599
 20
173.7094081714959
 30
0.0
  0
VERTEX
  5
157
330
145
100
AcDbEntity
  8
0
 62
     7
420
 16777215
370
     9
100
AcDbVertex
100
AcDb2dVertex
 10
113.3862631942504
 20
173.5660921047646
 30
0.0
  0
VERTEX
  5
158
330
145
100
AcDbEntity
  8
0
 62
     7
420
 16777215
370
     9
100
AcDbVertex
100
AcDb2dVertex
 10
113.3483671189128
 20
173.4182974109481
 30
0.0
  0
SEQEND
  5
159
330
145
100
AcDbEntity
  8
0
370
     9
  0
ENDBLK
  5
144
330
141
100
AcDbEntity
  8
0
100
AcDbBlockEnd
  0
BLOCK
  5
15C
330
15A
100
AcDbEntity
  8
0
100
AcDbBlockBegin
  2
block 41
 70
     0
 71
     0
 10
0.0
 20
0.0
 30
0.0
  3
block 41
  1

  0
SPLINE
  5
15E
330
15A
100
AcDbEntity
  8
0
 62
     7
420
 16777215
370
     9
100
AcDbSpline
210
0.0
220
0.0
230
1.0
 70
     8
 71
     3
 72
     8
 73
     4
 74
     0
 42
0.0000000001
 43
0.0000000001
 40
0.0
 40
0.0
 40
0.0
 40
0.0
 40
1.0
 40
1.0
 40
1.0
 40
1.0
 10
117.8635122404974
 20
173.9813986394869
 30
0.0
 10
116.7431664496083
 20
174.6700736813035
 30
0.0
 10
114.9286334604898
 20
174.6700736813035
 30
0.0
 10
113.8086321793765
 20
173.9813986394869
 30
0.0
  0
ENDBLK
  5
15D
330
15A
100
AcDbEntity
  8
0
100
AcDbBlockEnd
  0
BLOCK
  5
161
330
15F
100
AcDbEntity
  8
0
100
AcDbBlockBegin
  2
block 42
 70
     0
 71
     0
 10
0.0
 20
0.0
 30
0.0
  3
block 42
  1

  0
POLYLINE
  5
163
330
15F
100
AcDbEntity
  8
0
 62
     7
420
 16777215
370
     9
100
AcDb2dPolyline
 66
     1
 10
0.0
 20
0.0
 30
0.0
  0
VERTEX
  5
164
330
163
100
AcDbEntity
  8
0
 62
     7
420
 16777215
370
     9
100
AcDbVertex
100
AcDb2dVertex
 10
109.3062339194963
 20
160.1197033005523
 30
0.0
  0
VERTEX
  5
165
330
163
100
AcDbEntity
  8
0
 62
     7
420
 16777215
370
     9
100
AcDbVertex
100
AcDb2dVertex
 10
109.3062339194963
 20
165.0947689728247
 30
0.0
  0
SEQEND
  5
166
330
163
100
AcDbEntity
  8
0
370
     9
  0
ENDBLK
  5
162
330
15F
100
AcDbEntity
  8
0
100
AcDbBlockEnd
  0
BLOCK
  5
169
330
167
100
AcDbEntity
  8
0
100
AcDbBlockBegin
  2
block 43
 70
     0
 71
     0
 10
0.0
 20
0.0
 30
0.0
  3
block 43
  1

  0
POLYLINE
  5
16B
330
167
100
AcDbEntity
  8
0
 62
     7
420
 16777215
370
     9
100
AcDb2dPolyline
 66
     1
 10
0.0
 20
0.0
 30
0.0
  0
VERTEX
  5
16C
330
16B
100
AcDbEntity
  8
0
 62
     7
420
 16777215
370
     9
100
AcDbVertex
100
AcDb2dVertex
 10
44.62969116040259
 20
160.1197033005523
 30
0.0
  0
VERTEX
  5
16D
330
16B
100
AcDbEntity
  8
0
 62
     7
420
 16777215
370
     9
100
AcDbVertex
100
AcDb2dVertex
 10
44.62969116040259
 20
165.0947689728247
 30
0.0
  0
SEQEND
  5
16E
330
16B
100
AcDbEntity
  8
0
370
     9
  0
ENDBLK
  5
16A
330
167
100
AcDbEntity
  8
0
100
AcDbBlockEnd
  0
BLOCK
  5
171
330
16F
100
AcDbEntity
  8
0
100
AcDbBlockBegin
  2
block 44
 70
     0
 71
     0
 10
0.0
 20
0.0
 30
0.0
  3
block 44
  1

  0
POLYLINE
  5
173
330
16F
100
AcDbEntity
  8
0
 62
     7
420
 16777215
370
     9
100
AcDb2dPolyline
 66
     1
 10
0.0
 20
0.0
 30
0.0
  0
VERTEX
  5
174
330
173
100
AcDbEntity
  8
0
 62
     7
420
 16777215
370
     9
100
AcDbVertex
100
AcDb2dVertex
 10
35.61249228871367
 20
168.7432997533941
 30
0.0
  0
VERTEX
  5
175
330
173
100
AcDbEntity
  8
0
 62
     7
420
 16777215
370
     9
100
AcDbVertex
100
AcDb2dVertex
 10
35.65021610916335
 20
168.8910944472106
 30
0.0
  0
VERTEX
  5
176
330
173
100
AcDbEntity
  8
0
 62
     7
420
 16777215
370
     9
100
AcDbVertex
100
AcDb2dVertex
 10
35.7625262960729
 20
169.0344105139419
 30
0.0
  0
VERTEX
  5
177
330
173
100
AcDbEntity
  8
0
 62
     7
420
 16777215
370
     9
100
AcDbVertex
100
AcDb2dVertex
 10
35.94563324190856
 20
169.1687693265023
 30
0.0
  0
VERTEX
  5
178
330
173
100
AcDbEntity
  8
0
 62
     7
420
 16777215
370
     9
100
AcDbVertex
100
AcDb2dVertex
 10
36.19454155492129
 20
169.2900367675826
 30
0.0
  0
VERTEX
  5
179
330
173
100
AcDbEntity
  8
0
 62
     7
420
 16777215
370
     9
100
AcDbVertex
100
AcDb2dVertex
 10
36.50098300049198
 20
169.3951122492004
 30
0.0
  0
VERTEX
  5
17A
330
173
100
AcDbEntity
  8
0
 62
     7
420
 16777215
370
     9
100
AcDbVertex
100
AcDb2dVertex
 10
36.85617257933784
 20
169.4800339089342
 30
0.0
  0
VERTEX
  5
17B
330
173
100
AcDbEntity
  8
0
 62
     7
420
 16777215
370
     9
100
AcDbVertex
100
AcDb2dVertex
 10
37.24925823352127
 20
169.542906943017
 30
0.0
  0
VERTEX
  5
17C
330
173
100
AcDbEntity
  8
0
 62
     7
420
 16777215
370
     9
100
AcDbVertex
100
AcDb2dVertex
 10
37.66800986600151
 20
169.5811475281303
 30
0.0
  0
VERTEX
  5
17D
330
173
100
AcDbEntity
  8
0
 62
     7
420
 16777215
370
     9
100
AcDbVertex
100
AcDb2dVertex
 10
38.10002512484991
 20
169.5940666447227
 30
0.0
  0
VERTEX
  5
17E
330
173
100
AcDbEntity
  8
0
 62
     7
420
 16777215
370
     9
100
AcDbVertex
100
AcDb2dVertex
 10
38.5318681288104
 20
169.5811475281303
 30
0.0
  0
VERTEX
  5
17F
330
173
100
AcDbEntity
  8
0
 62
     7
420
 16777215
370
     9
100
AcDbVertex
100
AcDb2dVertex
 10
38.95079201617855
 20
169.542906943017
 30
0.0
  0
VERTEX
  5
180
330
173
100
AcDbEntity
  8
0
 62
     7
420
 16777215
370
     9
100
AcDbVertex
100
AcDb2dVertex
 10
39.34387767036197
 20
169.4800339089342
 30
0.0
  0
VERTEX
  5
181
330
173
100
AcDbEntity
  8
0
 62
     7
420
 16777215
370
     9
100
AcDbVertex
100
AcDb2dVertex
 10
39.69889499431992
 20
169.3951122492004
 30
0.0
  0
VERTEX
  5
182
330
173
100
AcDbEntity
  8
0
 62
     7
420
 16777215
370
     9
100
AcDbVertex
100
AcDb2dVertex
 10
40.00568094966641
 20
169.2900367675826
 30
0.0
  0
VERTEX
  5
183
330
173
100
AcDbEntity
  8
0
 62
     7
420
 16777215
370
     9
100
AcDbVertex
100
AcDb2dVertex
 10
40.25441700779125
 20
169.1687693265023
 30
0.0
  0
VERTEX
  5
184
330
173
100
AcDbEntity
  8
0
 62
     7
420
 16777215
370
     9
100
AcDbVertex
100
AcDb2dVertex
 10
40.43752395362691
 20
169.0344105139419
 30
0.0
  0
VERTEX
  5
185
330
173
100
AcDbEntity
  8
0
 62
     7
420
 16777215
370
     9
100
AcDbVertex
100
AcDb2dVertex
 10
40.54983414053646
 20
168.8910944472106
 30
0.0
  0
VERTEX
  5
186
330
173
100
AcDbEntity
  8
0
 62
     7
420
 16777215
370
     9
100
AcDbVertex
100
AcDb2dVertex
 10
40.58755796098614
 20
168.7455390669367
 30
0.0
  0
SEQEND
  5
187
330
173
100
AcDbEntity
  8
0
370
     9
  0
ENDBLK
  5
172
330
16F
100
AcDbEntity
  8
0
100
AcDbBlockEnd
  0
BLOCK
  5
18A
330
188
100
AcDbEntity
  8
0
100
AcDbBlockBegin
  2
block 45
 70
     0
 71
     0
 10
0.0
 20
0.0
 30
0.0
  3
block 45
  1

  0
POLYLINE
  5
18C
330
188
100
AcDbEntity
  8
0
 62
     7
420
 16777215
370
     9
100
AcDb2dPolyline
 66
     1
 10
0.0
 20
0.0
 30
0.0
  0
VERTEX
  5
18D
330
18C
100
AcDbEntity
  8
0
 62
     7
420
 16777215
370
     9
100
AcDbVertex
100
AcDb2dVertex
 10
118.3234327911853
 20
168.7432997533941
 30
0.0
  0
VERTEX
  5
18E
330
18C
100
AcDbEntity
  8
0
 62
     7
420
 16777215
370
     9
100
AcDbVertex
100
AcDb2dVertex
 10
118.2858812256235
 20
168.8910944472106
 30
0.0
  0
VERTEX
  5
18F
330
18C
100
AcDbEntity
  8
0
 62
     7
420
 16777215
370
     9
100
AcDbVertex
100
AcDb2dVertex
 10
118.1735710387139
 20
169.0344105139419
 30
0.0
  0
VERTEX
  5
190
330
18C
100
AcDbEntity
  8
0
 62
     7
420
 16777215
370
     9
100
AcDbVertex
100
AcDb2dVertex
 10
117.9902918379904
 20
169.1687693265023
 30
0.0
  0
VERTEX
  5
191
330
18C
100
AcDbEntity
  8
0
 62
     7
420
 16777215
370
     9
100
AcDbVertex
100
AcDb2dVertex
 10
117.7415557798655
 20
169.2900367675826
 30
0.0
  0
VERTEX
  5
192
330
18C
100
AcDbEntity
  8
0
 62
     7
420
 16777215
370
     9
100
AcDbVertex
100
AcDb2dVertex
 10
117.434942079407
 20
169.3951122492004
 30
0.0
  0
VERTEX
  5
193
330
18C
100
AcDbEntity
  8
0
 62
     7
420
 16777215
370
     9
100
AcDbVertex
100
AcDb2dVertex
 10
117.0797525005611
 20
169.4800339089342
 30
0.0
  0
VERTEX
  5
194
330
18C
100
AcDbEntity
  8
0
 62
     7
420
 16777215
370
     9
100
AcDbVertex
100
AcDb2dVertex
 10
116.6866668463777
 20
169.542906943017
 30
0.0
  0
VERTEX
  5
195
330
18C
100
AcDbEntity
  8
0
 62
     7
420
 16777215
370
     9
100
AcDbVertex
100
AcDb2dVertex
 10
116.2677429590095
 20
169.5811475281303
 30
0.0
  0
VERTEX
  5
196
330
18C
100
AcDbEntity
  8
0
 62
     7
420
 16777215
370
     9
100
AcDbVertex
100
AcDb2dVertex
 10
115.8360722099369
 20
169.5940666447227
 30
0.0
  0
VERTEX
  5
197
330
18C
100
AcDbEntity
  8
0
 62
     7
420
 16777215
370
     9
100
AcDbVertex
100
AcDb2dVertex
 10
115.4040569510885
 20
169.5811475281303
 30
0.0
  0
VERTEX
  5
198
330
18C
100
AcDbEntity
  8
0
 62
     7
420
 16777215
370
     9
100
AcDbVertex
100
AcDb2dVertex
 10
114.9851330637204
 20
169.542906943017
 30
0.0
  0
VERTEX
  5
199
330
18C
100
AcDbEntity
  8
0
 62
     7
420
 16777215
370
     9
100
AcDbVertex
100
AcDb2dVertex
 10
114.592047409537
 20
169.4800339089342
 30
0.0
  0
VERTEX
  5
19A
330
18C
100
AcDbEntity
  8
0
 62
     7
420
 16777215
370
     9
100
AcDbVertex
100
AcDb2dVertex
 10
114.2368578306911
 20
169.3951122492004
 30
0.0
  0
VERTEX
  5
19B
330
18C
100
AcDbEntity
  8
0
 62
     7
420
 16777215
370
     9
100
AcDbVertex
100
AcDb2dVertex
 10
113.9305886400083
 20
169.2900367675826
 30
0.0
  0
VERTEX
  5
19C
330
18C
100
AcDbEntity
  8
0
 62
     7
420
 16777215
370
     9
100
AcDbVertex
100
AcDb2dVertex
 10
113.6818525818835
 20
169.1687693265023
 30
0.0
  0
VERTEX
  5
19D
330
18C
100
AcDbEntity
  8
0
 62
     7
420
 16777215
370
     9
100
AcDbVertex
100
AcDb2dVertex
 10
113.4985733811599
 20
169.0344105139419
 30
0.0
  0
VERTEX
  5
19E
330
18C
100
AcDbEntity
  8
0
 62
     7
420
 16777215
370
     9
100
AcDbVertex
100
AcDb2dVertex
 10
113.3862631942504
 20
168.8910944472106
 30
0.0
  0
VERTEX
  5
19F
330
18C
100
AcDbEntity
  8
0
 62
     7
420
 16777215
370
     9
100
AcDbVertex
100
AcDb2dVertex
 10
113.3483671189128
 20
168.7455390669367
 30
0.0
  0
SEQEND
  5
1A0
330
18C
100
AcDbEntity
  8
0
370
     9
  0
ENDBLK
  5
18B
330
188
100
AcDbEntity
  8
0
100
AcDbBlockEnd
  0
BLOCK
  5
1A3
330
1A1
100
AcDbEntity
  8
0
100
AcDbBlockBegin
  2
block 46
 70
     0
 71
     0
 10
0.0
 20
0.0
 30
0.0
  3
block 46
  1

  0
POLYLINE
  5
1A5
330
1A1
100
AcDbEntity
  8
0
 62
     7
420
 16777215
370
     9
100
AcDb2dPolyline
 66
     1
 10
0.0
 20
0.0
 30
0.0
  0
VERTEX
  5
1A6
330
1A5
100
AcDbEntity
  8
0
 62
     7
420
 16777215
370
     9
100
AcDbVertex
100
AcDb2dVertex
 10
35.61249228871367
 20
200.3000507065474
 30
0.0
  0
VERTEX
  5
1A7
330
1A5
100
AcDbEntity
  8
0
 62
     7
420
 16777215
370
     9
100
AcDbVertex
100
AcDb2dVertex
 10
35.65021610916335
 20
200.447673145476
 30
0.0
  0
VERTEX
  5
1A8
330
1A5
100
AcDbEntity
  8
0
 62
     7
420
 16777215
370
     9
100
AcDbVertex
100
AcDb2dVertex
 10
35.7625262960729
 20
200.5909892122072
 30
0.0
  0
VERTEX
  5
1A9
330
1A5
100
AcDbEntity
  8
0
 62
     7
420
 16777215
370
     9
100
AcDbVertex
100
AcDb2dVertex
 10
35.94563324190856
 20
200.7255202796556
 30
0.0
  0
VERTEX
  5
1AA
330
1A5
100
AcDbEntity
  8
0
 62
     7
420
 16777215
370
     9
100
AcDbVertex
100
AcDb2dVertex
 10
36.19454155492129
 20
200.8467877207359
 30
0.0
  0
VERTEX
  5
1AB
330
1A5
100
AcDbEntity
  8
0
 62
     7
420
 16777215
370
     9
100
AcDbVertex
100
AcDb2dVertex
 10
36.50098300049198
 20
200.9518632023537
 30
0.0
  0
VERTEX
  5
1AC
330
1A5
100
AcDbEntity
  8
0
 62
     7
420
 16777215
370
     9
100
AcDbVertex
100
AcDb2dVertex
 10
36.85617257933784
 20
201.0367848620874
 30
0.0
  0
VERTEX
  5
1AD
330
1A5
100
AcDbEntity
  8
0
 62
     7
420
 16777215
370
     9
100
AcDbVertex
100
AcDb2dVertex
 10
37.24925823352127
 20
201.0994856412823
 30
0.0
  0
VERTEX
  5
1AE
330
1A5
100
AcDbEntity
  8
0
 62
     7
420
 16777215
370
     9
100
AcDbVertex
100
AcDb2dVertex
 10
37.66800986600151
 20
201.1378984812836
 30
0.0
  0
VERTEX
  5
1AF
330
1A5
100
AcDbEntity
  8
0
 62
     7
420
 16777215
370
     9
100
AcDbVertex
100
AcDb2dVertex
 10
38.10002512484991
 20
201.1506453429881
 30
0.0
  0
VERTEX
  5
1B0
330
1A5
100
AcDbEntity
  8
0
 62
     7
420
 16777215
370
     9
100
AcDbVertex
100
AcDb2dVertex
 10
38.5318681288104
 20
201.1378984812836
 30
0.0
  0
VERTEX
  5
1B1
330
1A5
100
AcDbEntity
  8
0
 62
     7
420
 16777215
370
     9
100
AcDbVertex
100
AcDb2dVertex
 10
38.95079201617855
 20
201.0994856412823
 30
0.0
  0
VERTEX
  5
1B2
330
1A5
100
AcDbEntity
  8
0
 62
     7
420
 16777215
370
     9
100
AcDbVertex
100
AcDb2dVertex
 10
39.34387767036197
 20
201.0367848620874
 30
0.0
  0
VERTEX
  5
1B3
330
1A5
100
AcDbEntity
  8
0
 62
     7
420
 16777215
370
     9
100
AcDbVertex
100
AcDb2dVertex
 10
39.69889499431992
 20
200.9518632023537
 30
0.0
  0
VERTEX
  5
1B4
330
1A5
100
AcDbEntity
  8
0
 62
     7
420
 16777215
370
     9
100
AcDbVertex
100
AcDb2dVertex
 10
40.00568094966641
 20
200.8467877207359
 30
0.0
  0
VERTEX
  5
1B5
330
1A5
100
AcDbEntity
  8
0
 62
     7
420
 16777215
370
     9
100
AcDbVertex
100
AcDb2dVertex
 10
40.25441700779125
 20
200.7255202796556
 30
0.0
  0
VERTEX
  5
1B6
330
1A5
100
AcDbEntity
  8
0
 62
     7
420
 16777215
370
     9
100
AcDbVertex
100
AcDb2dVertex
 10
40.43752395362691
 20
200.5909892122072
 30
0.0
  0
VERTEX
  5
1B7
330
1A5
100
AcDbEntity
  8
0
 62
     7
420
 16777215
370
     9
100
AcDbVertex
100
AcDb2dVertex
 10
40.54983414053646
 20
200.447673145476
 30
0.0
  0
VERTEX
  5
1B8
330
1A5
100
AcDbEntity
  8
0
 62
     7
420
 16777215
370
     9
100
AcDbVertex
100
AcDb2dVertex
 10
40.58755796098614
 20
200.3000507065474
 30
0.0
  0
SEQEND
  5
1B9
330
1A5
100
AcDbEntity
  8
0
370
     9
  0
ENDBLK
  5
1A4
330
1A1
100
AcDbEntity
  8
0
100
AcDbBlockEnd
  0
BLOCK
  5
1BC
330
1BA
100
AcDbEntity
  8
0
100
AcDbBlockBegin
  2
block 47
 70
     0
 71
     0
 10
0.0
 20
0.0
 30
0.0
  3
block 47
  1

  0
POLYLINE
  5
1BE
330
1BA
100
AcDbEntity
  8
0
 62
     7
420
 16777215
370
     9
100
AcDb2dPolyline
 66
     1
 10
0.0
 20
0.0
 30
0.0
  0
VERTEX
  5
1BF
330
1BE
100
AcDbEntity
  8
0
 62
     7
420
 16777215
370
     9
100
AcDbVertex
100
AcDb2dVertex
 10
44.62969116040259
 20
208.9234749045012
 30
0.0
  0
VERTEX
  5
1C0
330
1BE
100
AcDbEntity
  8
0
 62
     7
420
 16777215
370
     9
100
AcDbVertex
100
AcDb2dVertex
 10
44.62969116040259
 20
203.9484092322288
 30
0.0
  0
SEQEND
  5
1C1
330
1BE
100
AcDbEntity
  8
0
370
     9
  0
ENDBLK
  5
1BD
330
1BA
100
AcDbEntity
  8
0
100
AcDbBlockEnd
  0
BLOCK
  5
1C4
330
1C2
100
AcDbEntity
  8
0
100
AcDbBlockBegin
  2
block 48
 70
     0
 71
     0
 10
0.0
 20
0.0
 30
0.0
  3
block 48
  1

  0
INSERT
  5
1C7
330
1C2
100
AcDbEntity
  8
0
100
AcDbBlockReference
  2
block 49
 10
0.0
 20
0.0
 30
0.0
  0
INSERT
  5
1D3
330
1C2
100
AcDbEntity
  8
0
100
AcDbBlockReference
  2
block 51
 10
0.0
 20
0.0
 30
0.0
  0
INSERT
  5
215
330
1C2
100
AcDbEntity
  8
0
100
AcDbBlockReference
  2
block 57
 10
0.0
 20
0.0
 30
0.0
  0
INSERT
  5
21D
330
1C2
100
AcDbEntity
  8
0
100
AcDbBlockReference
  2
block 58
 10
0.0
 20
0.0
 30
0.0
  0
INSERT
  5
225
330
1C2
100
AcDbEntity
  8
0
100
AcDbBlockReference
  2
block 59
 10
0.0
 20
0.0
 30
0.0
  0
INSERT
  5
22D
330
1C2
100
AcDbEntity
  8
0
100
AcDbBlockReference
  2
block 60
 10
0.0
 20
0.0
 30
0.0
  0
ENDBLK
  5
1C5
330
1C2
100
AcDbEntity
  8
0
100
AcDbBlockEnd
  0
BLOCK
  5
1C8
330
1C6
100
AcDbEntity
  8
0
100
AcDbBlockBegin
  2
block 49
 70
     0
 71
     0
 10
0.0
 20
0.0
 30
0.0
  3
block 49
  1

  0
INSERT
  5
1CB
330
1C6
100
AcDbEntity
  8
0
100
AcDbBlockReference
  2
block 50
 10
0.0
 20
0.0
 30
0.0
  0
ENDBLK
  5
1C9
330
1C6
100
AcDbEntity
  8
0
100
AcDbBlockEnd
  0
BLOCK
  5
1CC
330
1CA
100
AcDbEntity
  8
0
100
AcDbBlockBegin
  2
block 50
 70
     0
 71
     0
 10
0.0
 20
0.0
 30
0.0
  3
block 50
  1

  0
POLYLINE
  5
1CE
330
1CA
100
AcDbEntity
  8
0
 62
     7
420
 16777215
370
     9
100
AcDb2dPolyline
 66
     1
 10
0.0
 20
0.0
 30
0.0
  0
VERTEX
  5
1CF
330
1CE
100
AcDbEntity
  8
0
 62
     7
420
 16777215
370
     9
100
AcDbVertex
100
AcDb2dVertex
 10
29.39357407092913
 20
160.1197033005523
 30
0.0
  0
VERTEX
  5
1D0
330
1CE
100
AcDbEntity
  8
0
 62
     7
420
 16777215
370
     9
100
AcDbVertex
100
AcDb2dVertex
 10
29.39357407092913
 20
163.8510886822006
 30
0.0
  0
SEQEND
  5
1D1
330
1CE
100
AcDbEntity
  8
0
370
     9
  0
ENDBLK
  5
1CD
330
1CA
100
AcDbEntity
  8
0
100
AcDbBlockEnd
  0
BLOCK
  5
1D4
330
1D2
100
AcDbEntity
  8
0
100
AcDbBlockBegin
  2
block 51
 70
     0
 71
     0
 10
0.0
 20
0.0
 30
0.0
  3
block 51
  1

  0
INSERT
  5
1D7
330
1D2
100
AcDbEntity
  8
0
100
AcDbBlockReference
  2
block 52
 10
0.0
 20
0.0
 30
0.0
  0
INSERT
  5
20D
330
1D2
100
AcDbEntity
  8
0
100
AcDbBlockReference
  2
block 56
 10
0.0
 20
0.0
 30
0.0
  0
ENDBLK
  5
1D5
330
1D2
100
AcDbEntity
  8
0
100
AcDbBlockEnd
  0
BLOCK
  5
1D8
330
1D6
100
AcDbEntity
  8
0
100
AcDbBlockBegin
  2
block 52
 70
     0
 71
     0
 10
0.0
 20
0.0
 30
0.0
  3
block 52
  1

  0
INSERT
  5
1DB
330
1D6
100
AcDbEntity
  8
0
100
AcDbBlockReference
  2
block 53
 10
0.0
 20
0.0
 30
0.0
  0
ENDBLK
  5
1D9
330
1D6
100
AcDbEntity
  8
0
100
AcDbBlockEnd
  0
BLOCK
  5
1DC
330
1DA
100
AcDbEntity
  8
0
100
AcDbBlockBegin
  2
block 53
 70
     0
 71
     0
 10
0.0
 20
0.0
 30
0.0
  3
block 53
  1

  0
INSERT
  5
1DF
330
1DA
100
AcDbEntity
  8
0
100
AcDbBlockReference
  2
block 54
 10
0.0
 20
0.0
 30
0.0
  0
INSERT
  5
1F1
330
1DA
100
AcDbEntity
  8
0
100
AcDbBlockReference
  2
block 55
 10
0.0
 20
0.0
 30
0.0
  0
ENDBLK
  5
1DD
330
1DA
100
AcDbEntity
  8
0
100
AcDbBlockEnd
  0
BLOCK
  5
1E0
330
1DE
100
AcDbEntity
  8
0
100
AcDbBlockBegin
  2
block 54
 70
     0
 71
     0
 10
0.0
 20
0.0
 30
0.0
  3
block 54
  1

  0
POLYLINE
  5
1E2
330
1DE
100
AcDbEntity
  8
0
370
     0
100
AcDb2dPolyline
 66
     1
 10
0.0
 20
0.0
 30
0.0
  0
VERTEX
  5
1E3
330
1E2
100
AcDbEntity
  8
0
370
     0
100
AcDbVertex
100
AcDb2dVertex
 10
29.39357407092913
 20
211.4111799955254
 30
0.0
  0
VERTEX
  5
1E4
330
1E2
100
AcDbEntity
  8
0
370
     0
100
AcDbVertex
100
AcDb2dVertex
 10
30.01438068691382
 20
207.6787610845497
 30
0.0
  0
VERTEX
  5
1E5
330
1E2
100
AcDbEntity
  8
0
370
     0
100
AcDbVertex
100
AcDb2dVertex
 10
28.77259520005653
 20
207.6787610845497
 30
0.0
  0
VERTEX
  5
1E6
330
1E2
100
AcDbEntity
  8
0
370
     0
100
AcDbVertex
100
AcDb2dVertex
 10
29.39357407092913
 20
211.4111799955254
 30
0.0
  0
SEQEND
  5
1E7
330
1E2
100
AcDbEntity
  8
0
370
     0
  0
HATCH
  5
1E8
330
1DE
100
AcDbEntity
  8
0
 62
     7
420
 16777215
100
AcDbHatch
 10
0.0
 20
0.0
 30
0.0
210
0.0
220
0.0
230
1.0
  2
SOLID
 70
     1
 71
     0
 91
        1
 92
        1
 93
        3
 72
     1
 10
29.39357407092913
 20
211.4111799955254
 11
30.01438068691382
 21
207.6787610845497
 72
     1
 10
30.01438068691382
 20
207.6787610845497
 11
28.77259520005653
 21
207.6787610845497
 72
     1
 10
28.77259520005653
 20
207.6787610845497
 11
29.39357407092913
 21
211.4111799955254
 97
        0
 75
     2
 76
     1
 98
        0
  0
POLYLINE
  5
1E9
330
1DE
100
AcDbEntity
  8
0
370
     0
100
AcDb2dPolyline
 66
     1
 10
0.0
 20
0.0
 30
0.0
  0
VERTEX
  5
1EA
330
1E9
100
AcDbEntity
  8
0
370
     0
100
AcDbVertex
100
AcDb2dVertex
 10
30.01438068691382
 20
163.8495383882095
 30
0.0
  0
VERTEX
  5
1EB
330
1E9
100
AcDbEntity
  8
0
370
     0
100
AcDbVertex
100
AcDb2dVertex
 10
29.39357407092913
 20
160.1207368298797
 30
0.0
  0
VERTEX
  5
1EC
330
1E9
100
AcDbEntity
  8
0
370
     0
100
AcDbVertex
100
AcDb2dVertex
 10
28.77259520005653
 20
163.8495383882095
 30
0.0
  0
VERTEX
  5
1ED
330
1E9
100
AcDbEntity
  8
0
370
     0
100
AcDbVertex
100
AcDb2dVertex
 10
30.01438068691382
 20
163.8495383882095
 30
0.0
  0
SEQEND
  5
1EE
330
1E9
100
AcDbEntity
  8
0
370
     0
  0
HATCH
  5
1EF
330
1DE
100
AcDbEntity
  8
0
 62
     7
420
 16777215
100
AcDbHatch
 10
0.0
 20
0.0
 30
0.0
210
0.0
220
0.0
230
1.0
  2
SOLID
 70
     1
 71
     0
 91
        1
 92
        1
 93
        3
 72
     1
 10
30.01438068691382
 20
163.8495383882095
 11
29.39357407092913
 21
160.1207368298797
 72
     1
 10
29.39357407092913
 20
160.1207368298797
 11
28.77259520005653
 21
163.8495383882095
 72
     1
 10
28.77259520005653
 20
163.8495383882095
 11
30.01438068691382
 21
163.8495383882095
 97
        0
 75
     2
 76
     1
 98
        0
  0
ENDBLK
  5
1E1
330
1DE
100
AcDbEntity
  8
0
100
AcDbBlockEnd
  0
BLOCK
  5
1F2
330
1F0
100
AcDbEntity
  8
0
100
AcDbBlockBegin
  2
block 55
 70
     0
 71
     0
 10
0.0
 20
0.0
 30
0.0
  3
block 55
  1

  0
POLYLINE
  5
1F4
330
1F0
100
AcDbEntity
  8
0
 62
     7
420
 16777215
370
     9
100
AcDb2dPolyline
 66
     1
 10
0.0
 20
0.0
 30
0.0
  0
VERTEX
  5
1F5
330
1F4
100
AcDbEntity
  8
0
 62
     7
420
 16777215
370
     9
100
AcDbVertex
100
AcDb2dVertex
 10
30.01438068691382
 20
163.8495383882095
 30
0.0
  0
VERTEX
  5
1F6
330
1F4
100
AcDbEntity
  8
0
 62
     7
420
 16777215
370
     9
100
AcDbVertex
100
AcDb2dVertex
 10
29.39357407092913
 20
160.1207368298797
 30
0.0
  0
SEQEND
  5
1F7
330
1F4
100
AcDbEntity
  8
0
370
     9
  0
POLYLINE
  5
1F8
330
1F0
100
AcDbEntity
  8
0
 62
     7
420
 16777215
370
     9
100
AcDb2dPolyline
 66
     1
 10
0.0
 20
0.0
 30
0.0
  0
VERTEX
  5
1F9
330
1F8
100
AcDbEntity
  8
0
 62
     7
420
 16777215
370
     9
100
AcDbVertex
100
AcDb2dVertex
 10
29.39357407092913
 20
160.1207368298797
 30
0.0
  0
VERTEX
  5
1FA
330
1F8
100
AcDbEntity
  8
0
 62
     7
420
 16777215
370
     9
100
AcDbVertex
100
AcDb2dVertex
 10
28.77259520005653
 20
163.8495383882095
 30
0.0
  0
SEQEND
  5
1FB
330
1F8
100
AcDbEntity
  8
0
370
     9
  0
POLYLINE
  5
1FC
330
1F0
100
AcDbEntity
  8
0
 62
     7
420
 16777215
370
     9
100
AcDb2dPolyline
 66
     1
 10
0.0
 20
0.0
 30
0.0
  0
VERTEX
  5
1FD
330
1FC
100
AcDbEntity
  8
0
 62
     7
420
 16777215
370
     9
100
AcDbVertex
100
AcDb2dVertex
 10
30.01438068691382
 20
163.8495383882095
 30
0.0
  0
VERTEX
  5
1FE
330
1FC
100
AcDbEntity
  8
0
 62
     7
420
 16777215
370
     9
100
AcDbVertex
100
AcDb2dVertex
 10
28.77259520005653
 20
163.8495383882095
 30
0.0
  0
SEQEND
  5
1FF
330
1FC
100
AcDbEntity
  8
0
370
     9
  0
POLYLINE
  5
200
330
1F0
100
AcDbEntity
  8
0
 62
     7
420
 16777215
370
     9
100
AcDb2dPolyline
 66
     1
 10
0.0
 20
0.0
 30
0.0
  0
VERTEX
  5
201
330
200
100
AcDbEntity
  8
0
 62
     7
420
 16777215
370
     9
100
AcDbVertex
100
AcDb2dVertex
 10
28.77259520005653
 20
207.6787610845497
 30
0.0
  0
VERTEX
  5
202
330
200
100
AcDbEntity
  8
0
 62
     7
420
 16777215
370
     9
100
AcDbVertex
100
AcDb2dVertex
 10
29.39357407092913
 20
211.4111799955254
 30
0.0
  0
SEQEND
  5
203
330
200
100
AcDbEntity
  8
0
370
     9
  0
POLYLINE
  5
204
330
1F0
100
AcDbEntity
  8
0
 62
     7
420
 16777215
370
     9
100
AcDb2dPolyline
 66
     1
 10
0.0
 20
0.0
 30
0.0
  0
VERTEX
  5
205
330
204
100
AcDbEntity
  8
0
 62
     7
420
 16777215
370
     9
100
AcDbVertex
100
AcDb2dVertex
 10
29.39357407092913
 20
211.4111799955254
 30
0.0
  0
VERTEX
  5
206
330
204
100
AcDbEntity
  8
0
 62
     7
420
 16777215
370
     9
100
AcDbVertex
100
AcDb2dVertex
 10
30.01438068691382
 20
207.6787610845497
 30
0.0
  0
SEQEND
  5
207
330
204
100
AcDbEntity
  8
0
370
     9
  0
POLYLINE
  5
208
330
1F0
100
AcDbEntity
  8
0
 62
     7
420
 16777215
370
     9
100
AcDb2dPolyline
 66
     1
 10
0.0
 20
0.0
 30
0.0
  0
VERTEX
  5
209
330
208
100
AcDbEntity
  8
0
 62
     7
420
 16777215
370
     9
100
AcDbVertex
100
AcDb2dVertex
 10
28.77259520005653
 20
207.6787610845497
 30
0.0
  0
VERTEX
  5
20A
330
208
100
AcDbEntity
  8
0
 62
     7
420
 16777215
370
     9
100
AcDbVertex
100
AcDb2dVertex
 10
30.01438068691382
 20
207.6787610845497
 30
0.0
  0
SEQEND
  5
20B
330
208
100
AcDbEntity
  8
0
370
     9
  0
ENDBLK
  5
1F3
330
1F0
100
AcDbEntity
  8
0
100
AcDbBlockEnd
  0
BLOCK
  5
20E
330
20C
100
AcDbEntity
  8
0
100
AcDbBlockBegin
  2
block 56
 70
     0
 71
     0
 10
0.0
 20
0.0
 30
0.0
  3
block 56
  1

  0
POLYLINE
  5
210
330
20C
100
AcDbEntity
  8
0
 62
     7
420
 16777215
370
     9
100
AcDb2dPolyline
 66
     1
 10
0.0
 20
0.0
 30
0.0
  0
VERTEX
  5
211
330
210
100
AcDbEntity
  8
0
 62
     7
420
 16777215
370
     9
100
AcDbVertex
100
AcDb2dVertex
 10
29.39357407092913
 20
211.4111799955254
 30
0.0
  0
VERTEX
  5
212
330
210
100
AcDbEntity
  8
0
 62
     7
420
 16777215
370
     9
100
AcDbVertex
100
AcDb2dVertex
 10
29.39357407092913
 20
207.6797946138771
 30
0.0
  0
SEQEND
  5
213
330
210
100
AcDbEntity
  8
0
370
     9
  0
ENDBLK
  5
20F
330
20C
100
AcDbEntity
  8
0
100
AcDbBlockEnd
  0
BLOCK
  5
216
330
214
100
AcDbEntity
  8
0
100
AcDbBlockBegin
  2
block 57
 70
     0
 71
     0
 10
0.0
 20
0.0
 30
0.0
  3
block 57
  1

  0
POLYLINE
  5
218
330
214
100
AcDbEntity
  8
0
 62
     7
420
 16777215
370
     9
100
AcDb2dPolyline
 66
     1
 10
0.0
 20
0.0
 30
0.0
  0
VERTEX
  5
219
330
218
100
AcDbEntity
  8
0
 62
     7
420
 16777215
370
     9
100
AcDbVertex
100
AcDb2dVertex
 10
44.0080232699784
 20
160.1197033005523
 30
0.0
  0
VERTEX
  5
21A
330
218
100
AcDbEntity
  8
0
 62
     7
420
 16777215
370
     9
100
AcDbVertex
100
AcDb2dVertex
 10
28.77173392561704
 20
160.1197033005523
 30
0.0
  0
SEQEND
  5
21B
330
218
100
AcDbEntity
  8
0
370
     9
  0
ENDBLK
  5
217
330
214
100
AcDbEntity
  8
0
100
AcDbBlockEnd
  0
BLOCK
  5
21E
330
21C
100
AcDbEntity
  8
0
100
AcDbBlockBegin
  2
block 58
 70
     0
 71
     0
 10
0.0
 20
0.0
 30
0.0
  3
block 58
  1

  0
POLYLINE
  5
220
330
21C
100
AcDbEntity
  8
0
 62
     7
420
 16777215
370
     9
100
AcDb2dPolyline
 66
     1
 10
0.0
 20
0.0
 30
0.0
  0
VERTEX
  5
221
330
220
100
AcDbEntity
  8
0
 62
     7
420
 16777215
370
     9
100
AcDbVertex
100
AcDb2dVertex
 10
51.0041555419591
 20
211.4111799955254
 30
0.0
  0
VERTEX
  5
222
330
220
100
AcDbEntity
  8
0
 62
     7
420
 16777215
370
     9
100
AcDbVertex
100
AcDb2dVertex
 10
28.77173392561704
 20
211.4111799955254
 30
0.0
  0
SEQEND
  5
223
330
220
100
AcDbEntity
  8
0
370
     9
  0
ENDBLK
  5
21F
330
21C
100
AcDbEntity
  8
0
100
AcDbBlockEnd
  0
BLOCK
  5
226
330
224
100
AcDbEntity
  8
0
100
AcDbBlockBegin
  2
block 59
 70
     0
 71
     0
 10
0.0
 20
0.0
 30
0.0
  3
block 59
  1

  0
POLYLINE
  5
228
330
224
100
AcDbEntity
  8
0
 62
     7
420
 16777215
370
     9
100
AcDb2dPolyline
 66
     1
 10
0.0
 20
0.0
 30
0.0
  0
VERTEX
  5
229
330
228
100
AcDbEntity
  8
0
 62
     7
420
 16777215
370
     9
100
AcDbVertex
100
AcDb2dVertex
 10
29.39357407092913
 20
160.1197033005523
 30
0.0
  0
VERTEX
  5
22A
330
228
100
AcDbEntity
  8
0
 62
     7
420
 16777215
370
     9
100
AcDbVertex
100
AcDb2dVertex
 10
29.39357407092913
 20
211.4111799955254
 30
0.0
  0
SEQEND
  5
22B
330
228
100
AcDbEntity
  8
0
370
     9
  0
ENDBLK
  5
227
330
224
100
AcDbEntity
  8
0
100
AcDbBlockEnd
  0
BLOCK
  5
22E
330
22C
100
AcDbEntity
  8
0
100
AcDbBlockBegin
  2
block 60
 70
     0
 71
     0
 10
0.0
 20
0.0
 30
0.0
  3
block 60
  1

  0
MTEXT
  5
230
330
22C
100
AcDbEntity
  8
0
 62
     7
420
 16777215
100
AcDbMText
 10
28.76432696543742
 20
182.0782396451364
 30
0.0
 40
2.398890470823883
 41
0.0
 71
     7
 72
     1
  1
\fArial|b1|i0|c0|p34;\W0.75;82.48
 11
-4.371139000186241E-8
 21
0.999999999999999
 31
0.0
 73
     1
 44
1.0
  0
ENDBLK
  5
22F
330
22C
100
AcDbEntity
  8
0
100
AcDbBlockEnd
  0
BLOCK
  5
233
330
231
100
AcDbEntity
  8
0
100
AcDbBlockBegin
  2
block 61
 70
     0
 71
     0
 10
0.0
 20
0.0
 30
0.0
  3
block 61
  1

  0
POLYLINE
  5
235
330
231
100
AcDbEntity
  8
0
 62
     7
420
 16777215
370
     9
100
AcDb2dPolyline
 66
     1
 10
0.0
 20
0.0
 30
0.0
  0
VERTEX
  5
236
330
235
100
AcDbEntity
  8
0
 62
     7
420
 16777215
370
     9
100
AcDbVertex
100
AcDb2dVertex
 10
51.62616794215909
 20
105.9350335084429
 30
0.0
  0
VERTEX
  5
237
330
235
100
AcDbEntity
  8
0
 62
     7
420
 16777215
370
     9
100
AcDbVertex
100
AcDb2dVertex
 10
64.9965923408084
 20
105.9350335084429
 30
0.0
  0
SEQEND
  5
238
330
235
100
AcDbEntity
  8
0
370
     9
  0
ENDBLK
  5
234
330
231
100
AcDbEntity
  8
0
100
AcDbBlockEnd
  0
BLOCK
  5
23B
330
239
100
AcDbEntity
  8
0
100
AcDbBlockBegin
  2
block 62
 70
     0
 71
     0
 10
0.0
 20
0.0
 30
0.0
  3
block 62
  1

  0
SPLINE
  5
23D
330
239
100
AcDbEntity
  8
0
 62
     7
420
 16777215
370
     9
100
AcDbSpline
210
0.0
220
0.0
230
1.0
 70
     8
 71
     3
 72
    11
 73
     7
 74
     0
 42
0.0000000001
 43
0.0000000001
 40
0.0
 40
0.0
 40
0.0
 40
0.0
 40
1.0
 40
1.0
 40
1.0
 40
2.0
 40
2.0
 40
2.0
 40
2.0
 10
64.9965923408084
 20
105.9350335084429
 30
0.0
 10
65.08254752986954
 20
105.9350335084429
 30
0.0
 10
65.15213850458036
 20
106.0049689929296
 30
0.0
 10
65.15213850458036
 20
106.090407417327
 30
0.0
 10
65.15213850458036
 20
106.090407417327
 30
0.0
 10
65.15213850458036
 20
106.090407417327
 30
0.0
 10
65.15213850458036
 20
106.090407417327
 30
0.0
  0
ENDBLK
  5
23C
330
239
100
AcDbEntity
  8
0
100
AcDbBlockEnd
  0
BLOCK
  5
240
330
23E
100
AcDbEntity
  8
0
100
AcDbBlockBegin
  2
block 63
 70
     0
 71
     0
 10
0.0
 20
0.0
 30
0.0
  3
block 63
  1

  0
SPLINE
  5
242
330
23E
100
AcDbEntity
  8
0
 62
     7
420
 16777215
370
     9
100
AcDbSpline
210
0.0
220
0.0
230
1.0
 70
     8
 71
     3
 72
    11
 73
     7
 74
     0
 42
0.0000000001
 43
0.0000000001
 40
0.0
 40
0.0
 40
0.0
 40
0.0
 40
1.0
 40
1.0
 40
1.0
 40
2.0
 40
2.0
 40
2.0
 40
2.0
 10
51.47062177838712
 20
106.090407417327
 30
0.0
 10
51.47062177838712
 20
106.0049689929296
 30
0.0
 10
51.54021275309794
 20
105.9350335084429
 30
0.0
 10
51.62616794215909
 20
105.9350335084429
 30
0.0
 10
51.62616794215909
 20
105.9350335084429
 30
0.0
 10
51.62616794215909
 20
105.9350335084429
 30
0.0
 10
51.62616794215909
 20
105.9350335084429
 30
0.0
  0
ENDBLK
  5
241
330
23E
100
AcDbEntity
  8
0
100
AcDbBlockEnd
  0
BLOCK
  5
245
330
243
100
AcDbEntity
  8
0
100
AcDbBlockBegin
  2
block 64
 70
     0
 71
     0
 10
0.0
 20
0.0
 30
0.0
  3
block 64
  1

  0
SPLINE
  5
247
330
243
100
AcDbEntity
  8
0
 62
     7
420
 16777215
370
     9
100
AcDbSpline
210
0.0
220
0.0
230
1.0
 70
     8
 71
     3
 72
    11
 73
     7
 74
     0
 42
0.0000000001
 43
0.0000000001
 40
0.0
 40
0.0
 40
0.0
 40
0.0
 40
1.0
 40
1.0
 40
1.0
 40
2.0
 40
2.0
 40
2.0
 40
2.0
 10
102.3099293926278
 20
105.9350335084429
 30
0.0
 10
102.395712326801
 20
105.9350335084429
 30
0.0
 10
102.4654755563997
 20
106.0049689929296
 30
0.0
 10
102.4654755563997
 20
106.090407417327
 30
0.0
 10
102.4654755563997
 20
106.090407417327
 30
0.0
 10
102.4654755563997
 20
106.090407417327
 30
0.0
 10
102.4654755563997
 20
106.090407417327
 30
0.0
  0
ENDBLK
  5
246
330
243
100
AcDbEntity
  8
0
100
AcDbBlockEnd
  0
BLOCK
  5
24A
330
248
100
AcDbEntity
  8
0
100
AcDbBlockBegin
  2
block 65
 70
     0
 71
     0
 10
0.0
 20
0.0
 30
0.0
  3
block 65
  1

  0
POLYLINE
  5
24C
330
248
100
AcDbEntity
  8
0
 62
     7
420
 16777215
370
     9
100
AcDb2dPolyline
 66
     1
 10
0.0
 20
0.0
 30
0.0
  0
VERTEX
  5
24D
330
24C
100
AcDbEntity
  8
0
 62
     7
420
 16777215
370
     9
100
AcDbVertex
100
AcDb2dVertex
 10
88.93933273909055
 20
105.9350335084429
 30
0.0
  0
VERTEX
  5
24E
330
24C
100
AcDbEntity
  8
0
 62
     7
420
 16777215
370
     9
100
AcDbVertex
100
AcDb2dVertex
 10
102.3099293926278
 20
105.9350335084429
 30
0.0
  0
SEQEND
  5
24F
330
24C
100
AcDbEntity
  8
0
370
     9
  0
ENDBLK
  5
24B
330
248
100
AcDbEntity
  8
0
100
AcDbBlockEnd
  0
BLOCK
  5
252
330
250
100
AcDbEntity
  8
0
100
AcDbBlockBegin
  2
block 66
 70
     0
 71
     0
 10
0.0
 20
0.0
 30
0.0
  3
block 66
  1

  0
SPLINE
  5
254
330
250
100
AcDbEntity
  8
0
 62
     7
420
 16777215
370
     9
100
AcDbSpline
210
0.0
220
0.0
230
1.0
 70
     8
 71
     3
 72
    11
 73
     7
 74
     0
 42
0.0000000001
 43
0.0000000001
 40
0.0
 40
0.0
 40
0.0
 40
0.0
 40
1.0
 40
1.0
 40
1.0
 40
2.0
 40
2.0
 40
2.0
 40
2.0
 10
88.78378657531857
 20
106.090407417327
 30
0.0
 10
88.78378657531857
 20
106.0049689929296
 30
0.0
 10
88.85337755002939
 20
105.9350335084429
 30
0.0
 10
88.93933273909055
 20
105.9350335084429
 30
0.0
 10
88.93933273909055
 20
105.9350335084429
 30
0.0
 10
88.93933273909055
 20
105.9350335084429
 30
0.0
 10
88.93933273909055
 20
105.9350335084429
 30
0.0
  0
ENDBLK
  5
253
330
250
100
AcDbEntity
  8
0
100
AcDbBlockEnd
  0
BLOCK
  5
257
330
255
100
AcDbEntity
  8
0
100
AcDbBlockBegin
  2
block 67
 70
     0
 71
     0
 10
0.0
 20
0.0
 30
0.0
  3
block 67
  1

  0
POLYLINE
  5
259
330
255
100
AcDbEntity
  8
0
 62
     7
420
 16777215
370
     9
100
AcDb2dPolyline
 66
     1
 10
0.0
 20
0.0
 30
0.0
  0
VERTEX
  5
25A
330
259
100
AcDbEntity
  8
0
 62
     7
420
 16777215
370
     9
100
AcDbVertex
100
AcDb2dVertex
 10
51.47062177838712
 20
113.3978042717395
 30
0.0
  0
VERTEX
  5
25B
330
259
100
AcDbEntity
  8
0
 62
     7
420
 16777215
370
     9
100
AcDbVertex
100
AcDb2dVertex
 10
44.62969116040259
 20
113.3978042717395
 30
0.0
  0
SEQEND
  5
25C
330
259
100
AcDbEntity
  8
0
370
     9
  0
ENDBLK
  5
258
330
255
100
AcDbEntity
  8
0
100
AcDbBlockEnd
  0
BLOCK
  5
25F
330
25D
100
AcDbEntity
  8
0
100
AcDbBlockBegin
  2
block 68
 70
     0
 71
     0
 10
0.0
 20
0.0
 30
0.0
  3
block 68
  1

  0
POLYLINE
  5
261
330
25D
100
AcDbEntity
  8
0
 62
     7
420
 16777215
370
     9
100
AcDb2dPolyline
 66
     1
 10
0.0
 20
0.0
 30
0.0
  0
VERTEX
  5
262
330
261
100
AcDbEntity
  8
0
 62
     7
420
 16777215
370
     9
100
AcDbVertex
100
AcDb2dVertex
 10
88.78378657531857
 20
113.3978042717395
 30
0.0
  0
VERTEX
  5
263
330
261
100
AcDbEntity
  8
0
 62
     7
420
 16777215
370
     9
100
AcDbVertex
100
AcDb2dVertex
 10
65.15213850458036
 20
113.3978042717395
 30
0.0
  0
SEQEND
  5
264
330
261
100
AcDbEntity
  8
0
370
     9
  0
ENDBLK
  5
260
330
25D
100
AcDbEntity
  8
0
100
AcDbBlockEnd
  0
BLOCK
  5
267
330
265
100
AcDbEntity
  8
0
100
AcDbBlockBegin
  2
block 69
 70
     0
 71
     0
 10
0.0
 20
0.0
 30
0.0
  3
block 69
  1

  0
POLYLINE
  5
269
330
265
100
AcDbEntity
  8
0
 62
     7
420
 16777215
370
     9
100
AcDb2dPolyline
 66
     1
 10
0.0
 20
0.0
 30
0.0
  0
VERTEX
  5
26A
330
269
100
AcDbEntity
  8
0
 62
     7
420
 16777215
370
     9
100
AcDbVertex
100
AcDb2dVertex
 10
44.62969116040259
 20
108.4227385994671
 30
0.0
  0
VERTEX
  5
26B
330
269
100
AcDbEntity
  8
0
 62
     7
420
 16777215
370
     9
100
AcDbVertex
100
AcDb2dVertex
 10
51.47062177838712
 20
108.4227385994671
 30
0.0
  0
SEQEND
  5
26C
330
269
100
AcDbEntity
  8
0
370
     9
  0
ENDBLK
  5
268
330
265
100
AcDbEntity
  8
0
100
AcDbBlockEnd
  0
BLOCK
  5
26F
330
26D
100
AcDbEntity
  8
0
100
AcDbBlockBegin
  2
block 70
 70
     0
 71
     0
 10
0.0
 20
0.0
 30
0.0
  3
block 70
  1

  0
POLYLINE
  5
271
330
26D
100
AcDbEntity
  8
0
 62
     7
420
 16777215
370
     9
100
AcDb2dPolyline
 66
     1
 10
0.0
 20
0.0
 30
0.0
  0
VERTEX
  5
272
330
271
100
AcDbEntity
  8
0
 62
     7
420
 16777215
370
     9
100
AcDbVertex
100
AcDb2dVertex
 10
65.15213850458036
 20
108.4227385994671
 30
0.0
  0
VERTEX
  5
273
330
271
100
AcDbEntity
  8
0
 62
     7
420
 16777215
370
     9
100
AcDbVertex
100
AcDb2dVertex
 10
88.78378657531857
 20
108.4227385994671
 30
0.0
  0
SEQEND
  5
274
330
271
100
AcDbEntity
  8
0
370
     9
  0
ENDBLK
  5
270
330
26D
100
AcDbEntity
  8
0
100
AcDbBlockEnd
  0
BLOCK
  5
277
330
275
100
AcDbEntity
  8
0
100
AcDbBlockBegin
  2
block 71
 70
     0
 71
     0
 10
0.0
 20
0.0
 30
0.0
  3
block 71
  1

  0
SPLINE
  5
279
330
275
100
AcDbEntity
  8
0
 62
     7
420
 16777215
370
     9
100
AcDbSpline
210
0.0
220
0.0
230
1.0
 70
     8
 71
     3
 72
   122
 73
   118
 74
     0
 42
0.0000000001
 43
0.0000000001
 40
0.0
 40
0.0
 40
0.0
 40
0.0
 40
1.0
 40
1.0
 40
1.0
 40
2.0
 40
2.0
 40
2.0
 40
3.0
 40
3.0
 40
3.0
 40
4.0
 40
4.0
 40
4.0
 40
5.0
 40
5.0
 40
5.0
 40
6.0
 40
6.0
 40
6.0
 40
7.0
 40
7.0
 40
7.0
 40
8.0
 40
8.0
 40
8.0
 40
9.0
 40
9.0
 40
9.0
 40
10.0
 40
10.0
 40
10.0
 40
11.0
 40
11.0
 40
11.0
 40
12.0
 40
12.0
 40
12.0
 40
13.0
 40
13.0
 40
13.0
 40
14.0
 40
14.0
 40
14.0
 40
15.0
 40
15.0
 40
15.0
 40
16.0
 40
16.0
 40
16.0
 40
17.0
 40
17.0
 40
17.0
 40
18.0
 40
18.0
 40
18.0
 40
19.0
 40
19.0
 40
19.0
 40
20.0
 40
20.0
 40
20.0
 40
21.0
 40
21.0
 40
21.0
 40
22.0
 40
22.0
 40
22.0
 40
23.0
 40
23.0
 40
23.0
 40
24.0
 40
24.0
 40
24.0
 40
25.0
 40
25.0
 40
25.0
 40
26.0
 40
26.0
 40
26.0
 40
27.0
 40
27.0
 40
27.0
 40
28.0
 40
28.0
 40
28.0
 40
29.0
 40
29.0
 40
29.0
 40
30.0
 40
30.0
 40
30.0
 40
31.0
 40
31.0
 40
31.0
 40
32.0
 40
32.0
 40
32.0
 40
33.0
 40
33.0
 40
33.0
 40
34.0
 40
34.0
 40
34.0
 40
35.0
 40
35.0
 40
35.0
 40
36.0
 40
36.0
 40
36.0
 40
37.0
 40
37.0
 40
37.0
 40
38.0
 40
38.0
 40
38.0
 40
39.0
 40
39.0
 40
39.0
 40
39.0
 10
44.62969116040259
 20
113.3978042717395
 30
0.0
 10
44.50118901403062
 20
113.397115252188
 30
0.0
 10
44.37234235788285
 20
113.3964262326364
 30
0.0
 10
44.24384021151089
 20
113.3943591739816
 30
0.0
 10
44.24384021151089
 20
113.3943591739816
 30
0.0
 10
44.24384021151089
 20
113.3943591739816
 30
0.0
 10
44.24384021151089
 20
113.3943591739816
 30
0.0
 10
44.00096081957458
 20
113.3905695664478
 30
0.0
 10
43.75842593741408
 20
113.3816123122771
 30
0.0
 10
43.51761360413256
 20
113.3688654505727
 30
0.0
 10
43.51761360413256
 20
113.3688654505727
 30
0.0
 10
43.51761360413256
 20
113.3688654505727
 30
0.0
 10
43.51761360413256
 20
113.3688654505727
 30
0.0
 10
43.27611225129944
 20
113.3561185888682
 30
0.0
 10
43.03598893756951
 20
113.33958211963
 30
0.0
 10
42.79844944715806
 20
113.3189115330822
 30
0.0
 10
42.79844944715806
 20
113.3189115330822
 30
0.0
 10
42.79844944715806
 20
113.3189115330822
 30
0.0
 10
42.79844944715806
 20
113.3189115330822
 30
0.0
 10
42.55953191764341
 20
113.2982409465345
 30
0.0
 10
42.32337046633514
 20
113.2730917329013
 30
0.0
 10
42.09013734812113
 20
113.2441529117345
 30
0.0
 10
42.09013734812113
 20
113.2441529117345
 30
0.0
 10
42.09013734812113
 20
113.2441529117345
 30
0.0
 10
42.09013734812113
 20
113.2441529117345
 30
0.0
 10
41.85535393591604
 20
113.2148695807918
 30
0.0
 10
41.62367111169312
 20
113.1817966423153
 30
0.0
 10
41.39595014989185
 20
113.1442450767536
 30
0.0
 10
41.39595014989185
 20
113.1442450767536
 30
0.0
 10
41.39595014989185
 20
113.1442450767536
 30
0.0
 10
41.39595014989185
 20
113.1442450767536
 30
0.0
 10
41.16598987454791
 20
113.1060044916402
 30
0.0
 10
40.93981920673772
 20
113.0643188087689
 30
0.0
 10
40.71881618556449
 20
113.0181544988122
 30
0.0
 10
40.71881618556449
 20
113.0181544988122
 30
0.0
 10
40.71881618556449
 20
113.0181544988122
 30
0.0
 10
40.71881618556449
 20
113.0181544988122
 30
0.0
 10
40.49402355685748
 20
112.9709566595281
 30
0.0
 10
40.27439857478743
 20
112.9199692127103
 30
0.0
 10
40.06011349424221
 20
112.8641586290313
 30
0.0
 10
40.06011349424221
 20
112.8641586290313
 30
0.0
 10
40.06011349424221
 20
112.8641586290313
 30
0.0
 10
40.06011349424221
 20
112.8641586290313
 30
0.0
 10
39.84134978661164
 20
112.8076590258007
 30
0.0
 10
39.62809823539381
 20
112.746336285709
 30
0.0
 10
39.42104786014031
 20
112.6801904087561
 30
0.0
 10
39.42104786014031
 20
112.6801904087561
 30
0.0
 10
39.42104786014031
 20
112.6801904087561
 30
0.0
 10
39.42104786014031
 20
112.6801904087561
 30
0.0
 10
39.20814081869828
 20
112.6123219829243
 30
0.0
 10
39.00160720810848
 20
112.5396304202313
 30
0.0
 10
38.8014470283709
 20
112.4610821913498
 30
0.0
 10
38.8014470283709
 20
112.4610821913498
 30
0.0
 10
38.8014470283709
 20
112.4610821913498
 30
0.0
 10
38.8014470283709
 20
112.4610821913498
 30
0.0
 10
38.59422439822951
 20
112.3797778842619
 30
0.0
 10
38.39406421849193
 20
112.2929614207612
 30
0.0
 10
38.20062197938238
 20
112.1985657421931
 30
0.0
 10
38.20062197938238
 20
112.1985657421931
 30
0.0
 10
38.20062197938238
 20
112.1985657421931
 30
0.0
 10
38.20062197938238
 20
112.1985657421931
 30
0.0
 10
38.00011728986902
 20
112.1010694756428
 30
0.0
 10
37.80701956053527
 20
111.9959939940249
 30
0.0
 10
37.62098428160533
 20
111.8819612582364
 30
0.0
 10
37.62098428160533
 20
111.8819612582364
 30
0.0
 10
37.62098428160533
 20
111.8819612582364
 30
0.0
 10
37.62098428160533
 20
111.8819612582364
 30
0.0
 10
37.46423233361808
 20
111.7854985210135
 30
0.0
 10
37.31247577737987
 20
111.6821455882746
 30
0.0
 10
37.16640363244229
 20
111.5712134404683
 30
0.0
 10
37.16640363244229
 20
111.5712134404683
 30
0.0
 10
37.16640363244229
 20
111.5712134404683
 30
0.0
 10
37.16640363244229
 20
111.5712134404683
 30
0.0
 10
37.03290609432127
 20
111.4695830566084
 30
0.0
 10
36.9040594381735
 20
111.3610624772326
 30
0.0
 10
36.78106944821428
 20
111.2449626827893
 30
0.0
 10
36.78106944821428
 20
111.2449626827893
 30
0.0
 10
36.78106944821428
 20
111.2449626827893
 30
0.0
 10
36.78106944821428
 20
111.2449626827893
 30
0.0
 10
36.66738122220153
 20
111.1374756327409
 30
0.0
 10
36.55851613304995
 20
111.0230983871766
 30
0.0
 10
36.45567996497479
 20
110.9014864363205
 30
0.0
 10
36.45567996497479
 20
110.9014864363205
 30
0.0
 10
36.45567996497479
 20
110.9014864363205
 30
0.0
 10
36.45567996497479
 20
110.9014864363205
 30
0.0
 10
36.35904497286396
 20
110.7867646809804
 30
0.0
 10
36.26792213716588
 20
110.6658417496759
 30
0.0
 10
36.18368949698372
 20
110.5380286228555
 30
0.0
 10
36.18368949698372
 20
110.5380286228555
 30
0.0
 10
36.18368949698372
 20
110.5380286228555
 30
0.0
 10
36.18368949698372
 20
110.5380286228555
 30
0.0
 10
36.10307420944741
 20
110.4160721622237
 30
0.0
 10
36.02883235276334
 20
110.2879145256275
 30
0.0
 10
35.96268647581047
 20
110.1542447326186
 30
0.0
 10
35.96268647581047
 20
110.1542447326186
 30
0.0
 10
35.96268647581047
 20
110.1542447326186
 30
0.0
 10
35.96268647581047
 20
110.1542447326186
 30
0.0
 10
35.89843540262449
 20
110.0243645471435
 30
0.0
 10
35.84159128961812
 20
109.8896612248072
 30
0.0
 10
35.79370443078246
 20
109.7504792753855
 30
0.0
 10
35.79370443078246
 20
109.7504792753855
 30
0.0
 10
35.79370443078246
 20
109.7504792753855
 30
0.0
 10
35.79370443078246
 20
109.7504792753855
 30
0.0
 10
35.74667884638627
 20
109.6140534041702
 30
0.0
 10
35.708266006385
 20
109.4738379254212
 30
0.0
 10
35.67881042055443
 20
109.3308663684658
 30
0.0
 10
35.67881042055443
 20
109.3308663684658
 30
0.0
 10
35.67881042055443
 20
109.3308663684658
 30
0.0
 10
35.67881042055443
 20
109.3308663684658
 30
0.0
 10
35.64694326629328
 20
109.1765259889091
 30
0.0
 10
35.62558366019393
 20
109.0187405115944
 30
0.0
 10
35.61765993535061
 20
108.8602660147282
 30
0.0
 10
35.61765993535061
 20
108.8602660147282
 30
0.0
 10
35.61765993535061
 20
108.8602660147282
 30
0.0
 10
35.61765993535061
 20
108.8602660147282
 30
0.0
 10
35.61455934736844
 20
108.7992877844123
 30
0.0
 10
35.61352581804105
 20
108.7379650443206
 30
0.0
 10
35.61249228871367
 20
108.6769868140046
 30
0.0
  0
ENDBLK
  5
278
330
275
100
AcDbEntity
  8
0
100
AcDbBlockEnd
  0
BLOCK
  5
27C
330
27A
100
AcDbEntity
  8
0
100
AcDbBlockBegin
  2
block 72
 70
     0
 71
     0
 10
0.0
 20
0.0
 30
0.0
  3
block 72
  1

  0
SPLINE
  5
27E
330
27A
100
AcDbEntity
  8
0
 62
     7
420
 16777215
370
     9
100
AcDbSpline
210
0.0
220
0.0
230
1.0
 70
     8
 71
     3
 72
    86
 73
    82
 74
     0
 42
0.0000000001
 43
0.0000000001
 40
0.0
 40
0.0
 40
0.0
 40
0.0
 40
1.0
 40
1.0
 40
1.0
 40
2.0
 40
2.0
 40
2.0
 40
3.0
 40
3.0
 40
3.0
 40
4.0
 40
4.0
 40
4.0
 40
5.0
 40
5.0
 40
5.0
 40
6.0
 40
6.0
 40
6.0
 40
7.0
 40
7.0
 40
7.0
 40
8.0
 40
8.0
 40
8.0
 40
9.0
 40
9.0
 40
9.0
 40
10.0
 40
10.0
 40
10.0
 40
11.0
 40
11.0
 40
11.0
 40
12.0
 40
12.0
 40
12.0
 40
13.0
 40
13.0
 40
13.0
 40
14.0
 40
14.0
 40
14.0
 40
15.0
 40
15.0
 40
15.0
 40
16.0
 40
16.0
 40
16.0
 40
17.0
 40
17.0
 40
17.0
 40
18.0
 40
18.0
 40
18.0
 40
19.0
 40
19.0
 40
19.0
 40
20.0
 40
20.0
 40
20.0
 40
21.0
 40
21.0
 40
21.0
 40
22.0
 40
22.0
 40
22.0
 40
23.0
 40
23.0
 40
23.0
 40
24.0
 40
24.0
 40
24.0
 40
25.0
 40
25.0
 40
25.0
 40
26.0
 40
26.0
 40
26.0
 40
27.0
 40
27.0
 40
27.0
 40
27.0
 10
40.18517054285622
 20
107.616585724104
 30
0.0
 10
40.18448152330463
 20
107.6158967045524
 30
0.0
 10
40.18379250375303
 20
107.6155521947767
 30
0.0
 10
40.18758211128679
 20
107.6179637632072
 30
0.0
 10
40.18758211128679
 20
107.6179637632072
 30
0.0
 10
40.18758211128679
 20
107.6179637632072
 30
0.0
 10
40.18758211128679
 20
107.6179637632072
 30
0.0
 10
40.19447230680272
 20
107.6227869000684
 30
0.0
 10
40.21445387379889
 20
107.6365672911002
 30
0.0
 10
40.24167014608679
 20
107.6527592505626
 30
0.0
 10
40.24167014608679
 20
107.6527592505626
 30
0.0
 10
40.24167014608679
 20
107.6527592505626
 30
0.0
 10
40.24167014608679
 20
107.6527592505626
 30
0.0
 10
40.26991994770207
 20
107.6696402295766
 30
0.0
 10
40.30592121927278
 20
107.6896217965728
 30
0.0
 10
40.35053523523838
 20
107.7116704222238
 30
0.0
 10
40.35053523523838
 20
107.7116704222238
 30
0.0
 10
40.35053523523838
 20
107.7116704222238
 30
0.0
 10
40.35053523523838
 20
107.7116704222238
 30
0.0
 10
40.39721630985876
 20
107.7350970869779
 30
0.0
 10
40.45354365820143
 20
107.7612798299384
 30
0.0
 10
40.51796698627532
 20
107.7888406120021
 30
0.0
 10
40.51796698627532
 20
107.7888406120021
 30
0.0
 10
40.51796698627532
 20
107.7888406120021
 30
0.0
 10
40.51796698627532
 20
107.7888406120021
 30
0.0
 10
40.58549090233137
 20
107.8174349233932
 30
0.0
 10
40.66214432744601
 20
107.8474072738875
 30
0.0
 10
40.74637696762817
 20
107.8777241341575
 30
0.0
 10
40.74637696762817
 20
107.8777241341575
 30
0.0
 10
40.74637696762817
 20
107.8777241341575
 30
0.0
 10
40.74637696762817
 20
107.8777241341575
 30
0.0
 10
40.83474372511989
 20
107.909074523755
 30
0.0
 10
40.93172322700651
 20
107.941113932904
 30
0.0
 10
41.03610968907275
 20
107.9724643225015
 30
0.0
 10
41.03610968907275
 20
107.9724643225015
 30
0.0
 10
41.03610968907275
 20
107.9724643225015
 30
0.0
 10
41.03610968907275
 20
107.9724643225015
 30
0.0
 10
41.14463026844854
 20
108.0048482414263
 30
0.0
 10
41.26141908244345
 20
108.0368876505754
 30
0.0
 10
41.38440907240268
 20
108.067893530397
 30
0.0
 10
41.38440907240268
 20
108.067893530397
 30
0.0
 10
41.38440907240268
 20
108.067893530397
 30
0.0
 10
41.38440907240268
 20
108.067893530397
 30
0.0
 10
41.51222219922306
 20
108.0995884297703
 30
0.0
 10
41.64675326667146
 20
108.1299052900403
 30
0.0
 10
41.7873132551963
 20
108.1588441112072
 30
0.0
 10
41.7873132551963
 20
108.1588441112072
 30
0.0
 10
41.7873132551963
 20
108.1588441112072
 30
0.0
 10
41.7873132551963
 20
108.1588441112072
 30
0.0
 10
41.93183510614279
 20
108.1881274421499
 30
0.0
 10
42.08255813305362
 20
108.2153437144378
 30
0.0
 10
42.23810429682559
 20
108.2404929280709
 30
0.0
 10
42.23810429682559
 20
108.2404929280709
 30
0.0
 10
42.23810429682559
 20
108.2404929280709
 30
0.0
 10
42.23810429682559
 20
108.2404929280709
 30
0.0
 10
42.39726781324342
 20
108.2663311612556
 30
0.0
 10
42.56159897629819
 20
108.2897578260097
 30
0.0
 10
42.72989200177462
 20
108.3104284125575
 30
0.0
 10
42.72989200177462
 20
108.3104284125575
 30
0.0
 10
42.72989200177462
 20
108.3104284125575
 30
0.0
 10
42.72989200177462
 20
108.3104284125575
 30
0.0
 10
42.90094110545741
 20
108.3310989991053
 30
0.0
 10
43.07612432644977
 20
108.3493580172225
 30
0.0
 10
43.25406362564849
 20
108.3645164473575
 30
0.0
 10
43.25406362564849
 20
108.3645164473575
 30
0.0
 10
43.25406362564849
 20
108.3645164473575
 30
0.0
 10
43.25406362564849
 20
108.3645164473575
 30
0.0
 10
43.43424223838988
 20
108.3800193872683
 30
0.0
 10
43.61717692933765
 20
108.392421739197
 30
0.0
 10
43.80200642405229
 20
108.4017235031435
 30
0.0
 10
43.80200642405229
 20
108.4017235031435
 30
0.0
 10
43.80200642405229
 20
108.4017235031435
 30
0.0
 10
43.80200642405229
 20
108.4017235031435
 30
0.0
 10
43.98838621275802
 20
108.4113697768658
 30
0.0
 10
44.17631629545483
 20
108.4179154626059
 30
0.0
 10
44.36493539770323
 20
108.4206715408123
 30
0.0
 10
44.36493539770323
 20
108.4206715408123
 30
0.0
 10
44.36493539770323
 20
108.4206715408123
 30
0.0
 10
44.36493539770323
 20
108.4206715408123
 30
0.0
 10
44.45312990030705
 20
108.4217050701397
 30
0.0
 10
44.54149665779877
 20
108.4220495799155
 30
0.0
 10
44.62969116040259
 20
108.4227385994671
 30
0.0
  0
ENDBLK
  5
27D
330
27A
100
AcDbEntity
  8
0
100
AcDbBlockEnd
  0
BLOCK
  5
281
330
27F
100
AcDbEntity
  8
0
100
AcDbBlockBegin
  2
block 73
 70
     0
 71
     0
 10
0.0
 20
0.0
 30
0.0
  3
block 73
  1

  0
POLYLINE
  5
283
330
27F
100
AcDbEntity
  8
0
 62
     7
420
 16777215
370
     9
100
AcDb2dPolyline
 66
     1
 10
0.0
 20
0.0
 30
0.0
  0
VERTEX
  5
284
330
283
100
AcDbEntity
  8
0
 62
     7
420
 16777215
370
     9
100
AcDbVertex
100
AcDb2dVertex
 10
40.58755796098614
 20
97.19103088896038
 30
0.0
  0
VERTEX
  5
285
330
283
100
AcDbEntity
  8
0
 62
     7
420
 16777215
370
     9
100
AcDbVertex
100
AcDb2dVertex
 10
40.58755796098614
 20
107.8157123745142
 30
0.0
  0
SEQEND
  5
286
330
283
100
AcDbEntity
  8
0
370
     9
  0
ENDBLK
  5
282
330
27F
100
AcDbEntity
  8
0
100
AcDbBlockEnd
  0
BLOCK
  5
289
330
287
100
AcDbEntity
  8
0
100
AcDbBlockBegin
  2
block 74
 70
     0
 71
     0
 10
0.0
 20
0.0
 30
0.0
  3
block 74
  1

  0
POLYLINE
  5
28B
330
287
100
AcDbEntity
  8
0
 62
     7
420
 16777215
370
     9
100
AcDb2dPolyline
 66
     1
 10
0.0
 20
0.0
 30
0.0
  0
VERTEX
  5
28C
330
28B
100
AcDbEntity
  8
0
 62
     7
420
 16777215
370
     9
100
AcDbVertex
100
AcDb2dVertex
 10
35.61249228871367
 20
108.6769868140046
 30
0.0
  0
VERTEX
  5
28D
330
28B
100
AcDbEntity
  8
0
 62
     7
420
 16777215
370
     9
100
AcDbVertex
100
AcDb2dVertex
 10
35.61249228871367
 20
97.19103088896038
 30
0.0
  0
SEQEND
  5
28E
330
28B
100
AcDbEntity
  8
0
370
     9
  0
ENDBLK
  5
28A
330
287
100
AcDbEntity
  8
0
100
AcDbBlockEnd
  0
BLOCK
  5
291
330
28F
100
AcDbEntity
  8
0
100
AcDbBlockBegin
  2
block 75
 70
     0
 71
     0
 10
0.0
 20
0.0
 30
0.0
  3
block 75
  1

  0
POLYLINE
  5
293
330
28F
100
AcDbEntity
  8
0
 62
     7
420
 16777215
370
     9
100
AcDb2dPolyline
 66
     1
 10
0.0
 20
0.0
 30
0.0
  0
VERTEX
  5
294
330
293
100
AcDbEntity
  8
0
 62
     7
420
 16777215
370
     9
100
AcDbVertex
100
AcDb2dVertex
 10
113.3483671189128
 20
98.89290918139345
 30
0.0
  0
VERTEX
  5
295
330
293
100
AcDbEntity
  8
0
 62
     7
420
 16777215
370
     9
100
AcDbVertex
100
AcDb2dVertex
 10
113.3483671189128
 20
97.19103088896038
 30
0.0
  0
SEQEND
  5
296
330
293
100
AcDbEntity
  8
0
370
     9
  0
ENDBLK
  5
292
330
28F
100
AcDbEntity
  8
0
100
AcDbBlockEnd
  0
BLOCK
  5
299
330
297
100
AcDbEntity
  8
0
100
AcDbBlockBegin
  2
block 76
 70
     0
 71
     0
 10
0.0
 20
0.0
 30
0.0
  3
block 76
  1

  0
POLYLINE
  5
29B
330
297
100
AcDbEntity
  8
0
 62
     7
420
 16777215
370
     9
100
AcDb2dPolyline
 66
     1
 10
0.0
 20
0.0
 30
0.0
  0
VERTEX
  5
29C
330
29B
100
AcDbEntity
  8
0
 62
     7
420
 16777215
370
     9
100
AcDbVertex
100
AcDb2dVertex
 10
118.3234327911853
 20
97.19103088896038
 30
0.0
  0
VERTEX
  5
29D
330
29B
100
AcDbEntity
  8
0
 62
     7
420
 16777215
370
     9
100
AcDbVertex
100
AcDb2dVertex
 10
118.3234327911853
 20
98.89290918139345
 30
0.0
  0
SEQEND
  5
29E
330
29B
100
AcDbEntity
  8
0
370
     9
  0
ENDBLK
  5
29A
330
297
100
AcDbEntity
  8
0
100
AcDbBlockEnd
  0
BLOCK
  5
2A1
330
29F
100
AcDbEntity
  8
0
100
AcDbBlockBegin
  2
block 77
 70
     0
 71
     0
 10
0.0
 20
0.0
 30
0.0
  3
block 77
  1

  0
SPLINE
  5
2A3
330
29F
100
AcDbEntity
  8
0
 62
     7
420
 16777215
370
     9
100
AcDbSpline
210
0.0
220
0.0
230
1.0
 70
     8
 71
     3
 72
   122
 73
   118
 74
     0
 42
0.0000000001
 43
0.0000000001
 40
0.0
 40
0.0
 40
0.0
 40
0.0
 40
1.0
 40
1.0
 40
1.0
 40
2.0
 40
2.0
 40
2.0
 40
3.0
 40
3.0
 40
3.0
 40
4.0
 40
4.0
 40
4.0
 40
5.0
 40
5.0
 40
5.0
 40
6.0
 40
6.0
 40
6.0
 40
7.0
 40
7.0
 40
7.0
 40
8.0
 40
8.0
 40
8.0
 40
9.0
 40
9.0
 40
9.0
 40
10.0
 40
10.0
 40
10.0
 40
11.0
 40
11.0
 40
11.0
 40
12.0
 40
12.0
 40
12.0
 40
13.0
 40
13.0
 40
13.0
 40
14.0
 40
14.0
 40
14.0
 40
15.0
 40
15.0
 40
15.0
 40
16.0
 40
16.0
 40
16.0
 40
17.0
 40
17.0
 40
17.0
 40
18.0
 40
18.0
 40
18.0
 40
19.0
 40
19.0
 40
19.0
 40
20.0
 40
20.0
 40
20.0
 40
21.0
 40
21.0
 40
21.0
 40
22.0
 40
22.0
 40
22.0
 40
23.0
 40
23.0
 40
23.0
 40
24.0
 40
24.0
 40
24.0
 40
25.0
 40
25.0
 40
25.0
 40
26.0
 40
26.0
 40
26.0
 40
27.0
 40
27.0
 40
27.0
 40
28.0
 40
28.0
 40
28.0
 40
29.0
 40
29.0
 40
29.0
 40
30.0
 40
30.0
 40
30.0
 40
31.0
 40
31.0
 40
31.0
 40
32.0
 40
32.0
 40
32.0
 40
33.0
 40
33.0
 40
33.0
 40
34.0
 40
34.0
 40
34.0
 40
35.0
 40
35.0
 40
35.0
 40
36.0
 40
36.0
 40
36.0
 40
37.0
 40
37.0
 40
37.0
 40
38.0
 40
38.0
 40
38.0
 40
39.0
 40
39.0
 40
39.0
 40
39.0
 10
109.3062339194963
 20
92.47021343122547
 30
0.0
 10
109.4347360658683
 20
92.47090245077707
 30
0.0
 10
109.5635827220161
 20
92.47193598010446
 30
0.0
 10
109.6924293781639
 20
92.47400303875924
 30
0.0
 10
109.6924293781639
 20
92.47400303875924
 30
0.0
 10
109.6924293781639
 20
92.47400303875924
 30
0.0
 10
109.6924293781639
 20
92.47400303875924
 30
0.0
 10
109.9349642603244
 20
92.477792646293
 30
0.0
 10
110.1774991424849
 20
92.48640539068789
 30
0.0
 10
110.4183114757664
 20
92.49915225239235
 30
0.0
 10
110.4183114757664
 20
92.49915225239235
 30
0.0
 10
110.4183114757664
 20
92.49915225239235
 30
0.0
 10
110.4183114757664
 20
92.49915225239235
 30
0.0
 10
110.6598128285995
 20
92.5118991140968
 30
0.0
 10
110.8999361423294
 20
92.52843558333502
 30
0.0
 10
111.1376478876288
 20
92.5491061698828
 30
0.0
 10
111.1376478876288
 20
92.5491061698828
 30
0.0
 10
111.1376478876288
 20
92.5491061698828
 30
0.0
 10
111.1376478876288
 20
92.5491061698828
 30
0.0
 10
111.3763931622555
 20
92.56977675643057
 30
0.0
 10
111.6127268684517
 20
92.59492597006368
 30
0.0
 10
111.8459599866657
 20
92.62386479123057
 30
0.0
 10
111.8459599866657
 20
92.62386479123057
 30
0.0
 10
111.8459599866657
 20
92.62386479123057
 30
0.0
 10
111.8459599866657
 20
92.62386479123057
 30
0.0
 10
112.0805711439829
 20
92.65314812217323
 30
0.0
 10
112.3124262230937
 20
92.68656557042547
 30
0.0
 10
112.5398026751192
 20
92.72411713598726
 30
0.0
 10
112.5398026751192
 20
92.72411713598726
 30
0.0
 10
112.5398026751192
 20
92.72411713598726
 30
0.0
 10
112.5398026751192
 20
92.72411713598726
 30
0.0
 10
112.7702797151268
 20
92.76166870154904
 30
0.0
 10
112.9962781280491
 20
92.80369889419617
 30
0.0
 10
113.2174534041103
 20
92.85020771392865
 30
0.0
 10
113.2174534041103
 20
92.85020771392865
 30
0.0
 10
113.2174534041103
 20
92.85020771392865
 30
0.0
 10
113.2174534041103
 20
92.85020771392865
 30
0.0
 10
113.4420737779294
 20
92.89671653366113
 30
0.0
 10
113.6618710148873
 20
92.94804849025476
 30
0.0
 10
113.8761560954325
 20
93.00385907393374
 30
0.0
 10
113.8761560954325
 20
93.00385907393374
 30
0.0
 10
113.8761560954325
 20
93.00385907393374
 30
0.0
 10
113.8761560954325
 20
93.00385907393374
 30
0.0
 10
114.0949198030631
 20
93.06035867716432
 30
0.0
 10
114.3078268445051
 20
93.12168141725603
 30
0.0
 10
114.5148772197586
 20
93.1878272942089
 30
0.0
 10
114.5148772197586
 20
93.1878272942089
 30
0.0
 10
114.5148772197586
 20
93.1878272942089
 30
0.0
 10
114.5148772197586
 20
93.1878272942089
 30
0.0
 10
114.7277842612007
 20
93.25569572004075
 30
0.0
 10
114.9344901266784
 20
93.32838728273373
 30
0.0
 10
115.1346503064159
 20
93.40693551161526
 30
0.0
 10
115.1346503064159
 20
93.40693551161526
 30
0.0
 10
115.1346503064159
 20
93.40693551161526
 30
0.0
 10
115.1346503064159
 20
93.40693551161526
 30
0.0
 10
115.3417006816694
 20
93.48823981870315
 30
0.0
 10
115.5422053711828
 20
93.57540079197959
 30
0.0
 10
115.7351308456287
 20
93.66945196077194
 30
0.0
 10
115.7351308456287
 20
93.66945196077194
 30
0.0
 10
115.7351308456287
 20
93.66945196077194
 30
0.0
 10
115.7351308456287
 20
93.66945196077194
 30
0.0
 10
115.935635535142
 20
93.76694822732226
 30
0.0
 10
116.1292500291395
 20
93.87202370894009
 30
0.0
 10
116.3149407982936
 20
93.98605644472862
 30
0.0
 10
116.3149407982936
 20
93.98605644472862
 30
0.0
 10
116.3149407982936
 20
93.98605644472862
 30
0.0
 10
116.3149407982936
 20
93.98605644472862
 30
0.0
 10
116.4716927462809
 20
94.08251918195154
 30
0.0
 10
116.623621557407
 20
94.1855276049146
 30
0.0
 10
116.7696937023446
 20
94.29714877227256
 30
0.0
 10
116.7696937023446
 20
94.29714877227256
 30
0.0
 10
116.7696937023446
 20
94.29714877227256
 30
0.0
 10
116.7696937023446
 20
94.29714877227256
 30
0.0
 10
116.9030189855777
 20
94.39843464635663
 30
0.0
 10
117.0318656417254
 20
94.50695522573243
 30
0.0
 10
117.1548556316847
 20
94.62339952995153
 30
0.0
 10
117.1548556316847
 20
94.62339952995153
 30
0.0
 10
117.1548556316847
 20
94.62339952995153
 30
0.0
 10
117.1548556316847
 20
94.62339952995153
 30
0.0
 10
117.2685438576974
 20
94.73088657999993
 30
0.0
 10
117.3777534566248
 20
94.84491931578847
 30
0.0
 10
117.480417369812
 20
94.96687577642031
 30
0.0
 10
117.480417369812
 20
94.96687577642031
 30
0.0
 10
117.480417369812
 20
94.96687577642031
 30
0.0
 10
117.480417369812
 20
94.96687577642031
 30
0.0
 10
117.576880107035
 20
95.08125302198464
 30
0.0
 10
117.668175197621
 20
95.20252046306489
 30
0.0
 10
117.7522355829152
 20
95.32998908010947
 30
0.0
 10
117.7522355829152
 20
95.32998908010947
 30
0.0
 10
117.7522355829152
 20
95.32998908010947
 30
0.0
 10
117.7522355829152
 20
95.32998908010947
 30
0.0
 10
117.8328508704515
 20
95.45229005051712
 30
0.0
 10
117.9069204722477
 20
95.58044768711329
 30
0.0
 10
117.9734108589764
 20
95.71377297034641
 30
0.0
 10
117.9734108589764
 20
95.71377297034641
 30
0.0
 10
117.9734108589764
 20
95.71377297034641
 30
0.0
 10
117.9734108589764
 20
95.71377297034641
 30
0.0
 10
118.0374896772745
 20
95.84365315582156
 30
0.0
 10
118.0943337902808
 20
95.97835647815786
 30
0.0
 10
118.1425651588923
 20
96.11753842757952
 30
0.0
 10
118.1425651588923
 20
96.11753842757952
 30
0.0
 10
118.1425651588923
 20
96.11753842757952
 30
0.0
 10
118.1425651588923
 20
96.11753842757952
 30
0.0
 10
118.1894184884006
 20
96.2539642987948
 30
0.0
 10
118.2276590735139
 20
96.39417977754384
 30
0.0
 10
118.2569424044566
 20
96.53715133449926
 30
0.0
 10
118.2569424044566
 20
96.53715133449926
 30
0.0
 10
118.2569424044566
 20
96.53715133449926
 30
0.0
 10
118.2569424044566
 20
96.53715133449926
 30
0.0
 10
118.2893263233815
 20
96.69149171405593
 30
0.0
 10
118.310341419705
 20
96.84927719137058
 30
0.0
 10
118.3182651445483
 20
97.00775168823682
 30
0.0
 10
118.3182651445483
 20
97.00775168823682
 30
0.0
 10
118.3182651445483
 20
97.00775168823682
 30
0.0
 10
118.3182651445483
 20
97.00775168823682
 30
0.0
 10
118.3213657325305
 20
97.06907442832853
 30
0.0
 10
118.3223992618579
 20
97.12970814886866
 30
0.0
 10
118.3234327911853
 20
97.19103088896038
 30
0.0
  0
ENDBLK
  5
2A2
330
29F
100
AcDbEntity
  8
0
100
AcDbBlockEnd
  0
BLOCK
  5
2A6
330
2A4
100
AcDbEntity
  8
0
100
AcDbBlockBegin
  2
block 78
 70
     0
 71
     0
 10
0.0
 20
0.0
 30
0.0
  3
block 78
  1

  0
SPLINE
  5
2A8
330
2A4
100
AcDbEntity
  8
0
 62
     7
420
 16777215
370
     9
100
AcDbSpline
210
0.0
220
0.0
230
1.0
 70
     8
 71
     3
 72
    62
 73
    58
 74
     0
 42
0.0000000001
 43
0.0000000001
 40
0.0
 40
0.0
 40
0.0
 40
0.0
 40
1.0
 40
1.0
 40
1.0
 40
2.0
 40
2.0
 40
2.0
 40
3.0
 40
3.0
 40
3.0
 40
4.0
 40
4.0
 40
4.0
 40
5.0
 40
5.0
 40
5.0
 40
6.0
 40
6.0
 40
6.0
 40
7.0
 40
7.0
 40
7.0
 40
8.0
 40
8.0
 40
8.0
 40
9.0
 40
9.0
 40
9.0
 40
10.0
 40
10.0
 40
10.0
 40
11.0
 40
11.0
 40
11.0
 40
12.0
 40
12.0
 40
12.0
 40
13.0
 40
13.0
 40
13.0
 40
14.0
 40
14.0
 40
14.0
 40
15.0
 40
15.0
 40
15.0
 40
16.0
 40
16.0
 40
16.0
 40
17.0
 40
17.0
 40
17.0
 40
18.0
 40
18.0
 40
18.0
 40
19.0
 40
19.0
 40
19.0
 40
19.0
 10
113.3483671189128
 20
98.0523053284508
 30
0.0
 10
113.297379672095
 20
98.03197925167882
 30
0.0
 10
113.2463922252771
 20
98.01165317490685
 30
0.0
 10
113.1898926220466
 20
97.99063807858329
 30
0.0
 10
113.1898926220466
 20
97.99063807858329
 30
0.0
 10
113.1898926220466
 20
97.99063807858329
 30
0.0
 10
113.1898926220466
 20
97.99063807858329
 30
0.0
 10
113.1037651780975
 20
97.95928768898584
 30
0.0
 10
113.004890872444
 20
97.92690377006099
 30
0.0
 10
112.900159900602
 20
97.89589789023934
 30
0.0
 10
112.900159900602
 20
97.89589789023934
 30
0.0
 10
112.900159900602
 20
97.89589789023934
 30
0.0
 10
112.900159900602
 20
97.89589789023934
 30
0.0
 10
112.7906057918988
 20
97.8628249517629
 30
0.0
 10
112.6745059974555
 20
97.83078554261387
 30
0.0
 10
112.5515160074963
 20
97.8004686823438
 30
0.0
 10
112.5515160074963
 20
97.8004686823438
 30
0.0
 10
112.5515160074963
 20
97.8004686823438
 30
0.0
 10
112.5515160074963
 20
97.8004686823438
 30
0.0
 10
112.4240473904517
 20
97.76842927319476
 30
0.0
 10
112.2893440681154
 20
97.73811241292469
 30
0.0
 10
112.1487840795905
 20
97.70951810153362
 30
0.0
 10
112.1487840795905
 20
97.70951810153362
 30
0.0
 10
112.1487840795905
 20
97.70951810153362
 30
0.0
 10
112.1487840795905
 20
97.70951810153362
 30
0.0
 10
112.0040899737562
 20
97.67989026081514
 30
0.0
 10
111.8531946919574
 20
97.65267398852724
 30
0.0
 10
111.6978207830734
 20
97.62752477489413
 30
0.0
 10
111.6978207830734
 20
97.62752477489413
 30
0.0
 10
111.6978207830734
 20
97.62752477489413
 30
0.0
 10
111.6978207830734
 20
97.62752477489413
 30
0.0
 10
111.5386572666555
 20
97.60168654170941
 30
0.0
 10
111.3743261036008
 20
97.57825987695527
 30
0.0
 10
111.2062053330122
 20
97.5575892904075
 30
0.0
 10
111.2062053330122
 20
97.5575892904075
 30
0.0
 10
111.2062053330122
 20
97.5575892904075
 30
0.0
 10
111.2062053330122
 20
97.5575892904075
 30
0.0
 10
111.0349839744415
 20
97.53691870385973
 30
0.0
 10
110.8599730083371
 20
97.51865968574253
 30
0.0
 10
110.6818614542505
 20
97.5035012556075
 30
0.0
 10
110.6818614542505
 20
97.5035012556075
 30
0.0
 10
110.6818614542505
 20
97.5035012556075
 30
0.0
 10
110.6818614542505
 20
97.5035012556075
 30
0.0
 10
110.5016828415091
 20
97.48799831569667
 30
0.0
 10
110.3187481505613
 20
97.47559596376801
 30
0.0
 10
110.1337464009587
 20
97.46594969004572
 30
0.0
 10
110.1337464009587
 20
97.46594969004572
 30
0.0
 10
110.1337464009587
 20
97.46594969004572
 30
0.0
 10
110.1337464009587
 20
97.46594969004572
 30
0.0
 10
109.9477111220288
 20
97.45664792609922
 30
0.0
 10
109.7596087844441
 20
97.4501022403591
 30
0.0
 10
109.5711619370836
 20
97.44734616215273
 30
0.0
 10
109.5711619370836
 20
97.44734616215273
 30
0.0
 10
109.5711619370836
 20
97.44734616215273
 30
0.0
 10
109.5711619370836
 20
97.44734616215273
 30
0.0
 10
109.4829674344798
 20
97.44596812304954
 30
0.0
 10
109.394772931876
 20
97.44596812304954
 30
0.0
 10
109.3062339194963
 20
97.44527910349795
 30
0.0
  0
ENDBLK
  5
2A7
330
2A4
100
AcDbEntity
  8
0
100
AcDbBlockEnd
  0
BLOCK
  5
2AB
330
2A9
100
AcDbEntity
  8
0
100
AcDbBlockBegin
  2
block 79
 70
     0
 71
     0
 10
0.0
 20
0.0
 30
0.0
  3
block 79
  1

  0
SPLINE
  5
2AD
330
2A9
100
AcDbEntity
  8
0
 62
     7
420
 16777215
370
     9
100
AcDbSpline
210
0.0
220
0.0
230
1.0
 70
     8
 71
     3
 72
   122
 73
   118
 74
     0
 42
0.0000000001
 43
0.0000000001
 40
0.0
 40
0.0
 40
0.0
 40
0.0
 40
1.0
 40
1.0
 40
1.0
 40
2.0
 40
2.0
 40
2.0
 40
3.0
 40
3.0
 40
3.0
 40
4.0
 40
4.0
 40
4.0
 40
5.0
 40
5.0
 40
5.0
 40
6.0
 40
6.0
 40
6.0
 40
7.0
 40
7.0
 40
7.0
 40
8.0
 40
8.0
 40
8.0
 40
9.0
 40
9.0
 40
9.0
 40
10.0
 40
10.0
 40
10.0
 40
11.0
 40
11.0
 40
11.0
 40
12.0
 40
12.0
 40
12.0
 40
13.0
 40
13.0
 40
13.0
 40
14.0
 40
14.0
 40
14.0
 40
15.0
 40
15.0
 40
15.0
 40
16.0
 40
16.0
 40
16.0
 40
17.0
 40
17.0
 40
17.0
 40
18.0
 40
18.0
 40
18.0
 40
19.0
 40
19.0
 40
19.0
 40
20.0
 40
20.0
 40
20.0
 40
21.0
 40
21.0
 40
21.0
 40
22.0
 40
22.0
 40
22.0
 40
23.0
 40
23.0
 40
23.0
 40
24.0
 40
24.0
 40
24.0
 40
25.0
 40
25.0
 40
25.0
 40
26.0
 40
26.0
 40
26.0
 40
27.0
 40
27.0
 40
27.0
 40
28.0
 40
28.0
 40
28.0
 40
29.0
 40
29.0
 40
29.0
 40
30.0
 40
30.0
 40
30.0
 40
31.0
 40
31.0
 40
31.0
 40
32.0
 40
32.0
 40
32.0
 40
33.0
 40
33.0
 40
33.0
 40
34.0
 40
34.0
 40
34.0
 40
35.0
 40
35.0
 40
35.0
 40
36.0
 40
36.0
 40
36.0
 40
37.0
 40
37.0
 40
37.0
 40
38.0
 40
38.0
 40
38.0
 40
39.0
 40
39.0
 40
39.0
 40
39.0
 10
35.61249228871367
 20
97.19103088896038
 30
0.0
 10
35.6181767000143
 20
97.0459922733502
 30
0.0
 10
35.62368885642704
 20
96.9006091479642
 30
0.0
 10
35.64160336476844
 20
96.7569485714572
 30
0.0
 10
35.64160336476844
 20
96.7569485714572
 30
0.0
 10
35.64160336476844
 20
96.7569485714572
 30
0.0
 10
35.64160336476844
 20
96.7569485714572
 30
0.0
 10
35.66003463777354
 20
96.60812034831326
 30
0.0
 10
35.69138502737099
 20
96.4606701642725
 30
0.0
 10
35.73169267113914
 20
96.3170095877655
 30
0.0
 10
35.73169267113914
 20
96.3170095877655
 30
0.0
 10
35.73169267113914
 20
96.3170095877655
 30
0.0
 10
35.73169267113914
 20
96.3170095877655
 30
0.0
 10
35.77165580513149
 20
96.17403803081008
 30
0.0
 10
35.82023168351876
 20
96.03485608138844
 30
0.0
 10
35.87724805141303
 20
95.90015275905213
 30
0.0
 10
35.87724805141303
 20
95.90015275905213
 30
0.0
 10
35.87724805141303
 20
95.90015275905213
 30
0.0
 10
35.87724805141303
 20
95.90015275905213
 30
0.0
 10
35.93443667419519
 20
95.76476041716424
 30
0.0
 10
36.00023804137226
 20
95.6341912121375
 30
0.0
 10
36.07275734917735
 20
95.50913416352348
 30
0.0
 10
36.07275734917735
 20
95.50913416352348
 30
0.0
 10
36.07275734917735
 20
95.50913416352348
 30
0.0
 10
36.07275734917735
 20
95.50913416352348
 30
0.0
 10
36.14699920586143
 20
95.38097652692731
 30
0.0
 10
36.22813125806142
 20
95.25902006629546
 30
0.0
 10
36.31494772156206
 20
95.14326478162795
 30
0.0
 10
36.31494772156206
 20
95.14326478162795
 30
0.0
 10
36.31494772156206
 20
95.14326478162795
 30
0.0
 10
36.31494772156206
 20
95.14326478162795
 30
0.0
 10
36.40538153770855
 20
95.02303086987509
 30
0.0
 10
36.50167202004358
 20
94.90934264386235
 30
0.0
 10
36.60295789412766
 20
94.80185559381394
 30
0.0
 10
36.60295789412766
 20
94.80185559381394
 30
0.0
 10
36.60295789412766
 20
94.80185559381394
 30
0.0
 10
36.60295789412766
 20
94.80185559381394
 30
0.0
 10
36.70992817951237
 20
94.68816736780121
 30
0.0
 10
36.82223836642191
 20
94.5813693373044
 30
0.0
 10
36.93885492552891
 20
94.48111699254771
 30
0.0
 10
36.93885492552891
 20
94.48111699254771
 30
0.0
 10
36.93885492552891
 20
94.48111699254771
 30
0.0
 10
36.93885492552891
 20
94.48111699254771
 30
0.0
 10
37.06460099369452
 20
94.37259641317192
 30
0.0
 10
37.19534245360916
 20
94.27199955863944
 30
0.0
 10
37.33039028572126
 20
94.17725937029549
 30
0.0
 10
37.33039028572126
 20
94.17725937029549
 30
0.0
 10
37.33039028572126
 20
94.17725937029549
 30
0.0
 10
37.33039028572126
 20
94.17725937029549
 30
0.0
 10
37.47766821487413
 20
94.07356192778084
 30
0.0
 10
37.63028604555183
 20
93.97744370033371
 30
0.0
 10
37.78789926797857
 20
93.88718213907512
 30
0.0
 10
37.78789926797857
 20
93.88718213907512
 30
0.0
 10
37.78789926797857
 20
93.88718213907512
 30
0.0
 10
37.78789926797857
 20
93.88718213907512
 30
0.0
 10
37.95912062654927
 20
93.78934136274901
 30
0.0
 10
38.1361986513085
 20
93.69804627216303
 30
0.0
 10
38.31947785203207
 20
93.61295235754137
 30
0.0
 10
38.31947785203207
 20
93.61295235754137
 30
0.0
 10
38.31947785203207
 20
93.61295235754137
 30
0.0
 10
38.31947785203207
 20
93.61295235754137
 30
0.0
 10
38.51223107159002
 20
93.52303530605857
 30
0.0
 10
38.711702231776
 20
93.4400084500917
 30
0.0
 10
38.91806358747791
 20
93.36214924076175
 30
0.0
 10
38.91806358747791
 20
93.36214924076175
 30
0.0
 10
38.91806358747791
 20
93.36214924076175
 30
0.0
 10
38.91806358747791
 20
93.36214924076175
 30
0.0
 10
39.12408043340402
 20
93.28463454120762
 30
0.0
 10
39.33698747484605
 20
93.21263199806621
 30
0.0
 10
39.55644020202821
 20
93.14579710156177
 30
0.0
 10
39.55644020202821
 20
93.14579710156177
 30
0.0
 10
39.55644020202821
 20
93.14579710156177
 30
0.0
 10
39.55644020202821
 20
93.14579710156177
 30
0.0
 10
39.77072528257342
 20
93.0803402441605
 30
0.0
 10
39.99121153908298
 20
93.01970652362037
 30
0.0
 10
40.21755446178106
 20
92.96389593994138
 30
0.0
 10
40.21755446178106
 20
92.96389593994138
 30
0.0
 10
40.21755446178106
 20
92.96389593994138
 30
0.0
 10
40.21755446178106
 20
92.96389593994138
 30
0.0
 10
40.4383852280664
 20
92.90946339536559
 30
0.0
 10
40.66472815076448
 20
92.85950947787515
 30
0.0
 10
40.89606646521161
 20
92.81403418747006
 30
0.0
 10
40.89606646521161
 20
92.81403418747006
 30
0.0
 10
40.89606646521161
 20
92.81403418747006
 30
0.0
 10
40.89606646521161
 20
92.81403418747006
 30
0.0
 10
41.12258164279759
 20
92.76959242639235
 30
0.0
 10
41.35409221213262
 20
92.72928478262419
 30
0.0
 10
41.5895646438893
 20
92.6931112561656
 30
0.0
 10
41.5895646438893
 20
92.6931112561656
 30
0.0
 10
41.5895646438893
 20
92.6931112561656
 30
0.0
 10
41.5895646438893
 20
92.6931112561656
 30
0.0
 10
41.82141972300012
 20
92.65797125903438
 30
0.0
 10
42.0572366645326
 20
92.62662086943693
 30
0.0
 10
42.29615419404724
 20
92.59940459714905
 30
0.0
 10
42.29615419404724
 20
92.59940459714905
 30
0.0
 10
42.29615419404724
 20
92.59940459714905
 30
0.0
 10
42.29615419404724
 20
92.59940459714905
 30
0.0
 10
42.53248790024341
 20
92.57253283463695
 30
0.0
 10
42.77192219442175
 20
92.55013969921019
 30
0.0
 10
43.01342354725487
 20
92.5315361713172
 30
0.0
 10
43.01342354725487
 20
92.5315361713172
 30
0.0
 10
43.01342354725487
 20
92.5315361713172
 30
0.0
 10
43.01342354725487
 20
92.5315361713172
 30
0.0
 10
43.253202351209
 20
92.5132771532
 30
0.0
 10
43.49504821381791
 20
92.49880774261656
 30
0.0
 10
43.73827211553
 20
92.48881695911847
 30
0.0
 10
43.73827211553
 20
92.48881695911847
 30
0.0
 10
43.73827211553
 20
92.48881695911847
 30
0.0
 10
43.73827211553
 20
92.48881695911847
 30
0.0
 10
43.96719886154656
 20
92.47917068539617
 30
0.0
 10
44.1973313917784
 20
92.47296950943185
 30
0.0
 10
44.42763617689814
 20
92.47124696055286
 30
0.0
 10
44.42763617689814
 20
92.47124696055286
 30
0.0
 10
44.42763617689814
 20
92.47124696055286
 30
0.0
 10
44.42763617689814
 20
92.47124696055286
 30
0.0
 10
44.49498783806629
 20
92.47055794100127
 30
0.0
 10
44.56251175412234
 20
92.47055794100127
 30
0.0
 10
44.62969116040259
 20
92.47021343122547
 30
0.0
  0
ENDBLK
  5
2AC
330
2A9
100
AcDbEntity
  8
0
100
AcDbBlockEnd
  0
BLOCK
  5
2B0
330
2AE
100
AcDbEntity
  8
0
100
AcDbBlockBegin
  2
block 80
 70
     0
 71
     0
 10
0.0
 20
0.0
 30
0.0
  3
block 80
  1

  0
SPLINE
  5
2B2
330
2AE
100
AcDbEntity
  8
0
 62
     7
420
 16777215
370
     9
100
AcDbSpline
210
0.0
220
0.0
230
1.0
 70
     8
 71
     3
 72
    62
 73
    58
 74
     0
 42
0.0000000001
 43
0.0000000001
 40
0.0
 40
0.0
 40
0.0
 40
0.0
 40
1.0
 40
1.0
 40
1.0
 40
2.0
 40
2.0
 40
2.0
 40
3.0
 40
3.0
 40
3.0
 40
4.0
 40
4.0
 40
4.0
 40
5.0
 40
5.0
 40
5.0
 40
6.0
 40
6.0
 40
6.0
 40
7.0
 40
7.0
 40
7.0
 40
8.0
 40
8.0
 40
8.0
 40
9.0
 40
9.0
 40
9.0
 40
10.0
 40
10.0
 40
10.0
 40
11.0
 40
11.0
 40
11.0
 40
12.0
 40
12.0
 40
12.0
 40
13.0
 40
13.0
 40
13.0
 40
14.0
 40
14.0
 40
14.0
 40
15.0
 40
15.0
 40
15.0
 40
16.0
 40
16.0
 40
16.0
 40
17.0
 40
17.0
 40
17.0
 40
18.0
 40
18.0
 40
18.0
 40
19.0
 40
19.0
 40
19.0
 40
19.0
 10
44.62969116040259
 20
97.44527910349795
 30
0.0
 10
44.53081685474909
 20
97.44596812304954
 30
0.0
 10
44.43177029420769
 20
97.44631263282534
 30
0.0
 10
44.33289598855419
 20
97.44803518170433
 30
0.0
 10
44.33289598855419
 20
97.44803518170433
 30
0.0
 10
44.33289598855419
 20
97.44803518170433
 30
0.0
 10
44.33289598855419
 20
97.44803518170433
 30
0.0
 10
44.1435878667542
 20
97.45113576968649
 30
0.0
 10
43.9547965096179
 20
97.45802596520241
 30
0.0
 10
43.76789995624848
 20
97.46801674870049
 30
0.0
 10
43.76789995624848
 20
97.46801674870049
 30
0.0
 10
43.76789995624848
 20
97.46801674870049
 30
0.0
 10
43.76789995624848
 20
97.46801674870049
 30
0.0
 10
43.58169242243065
 20
97.47800753219859
 30
0.0
 10
43.39720743749179
 20
97.49075439390305
 30
0.0
 10
43.21582304053511
 20
97.50660184358966
 30
0.0
 10
43.21582304053511
 20
97.50660184358966
 30
0.0
 10
43.21582304053511
 20
97.50660184358966
 30
0.0
 10
43.21582304053511
 20
97.50660184358966
 30
0.0
 10
43.03564442779372
 20
97.5224492932763
 30
0.0
 10
42.85856640303449
 20
97.54139733094509
 30
0.0
 10
42.68562249558481
 20
97.56310144682024
 30
0.0
 10
42.68562249558481
 20
97.56310144682024
 30
0.0
 10
42.68562249558481
 20
97.56310144682024
 30
0.0
 10
42.68562249558481
 20
97.56310144682024
 30
0.0
 10
42.51474564678991
 20
97.5848055626954
 30
0.0
 10
42.34800291530456
 20
97.60926575677692
 30
0.0
 10
42.18677234023196
 20
97.63579300951324
 30
0.0
 10
42.18677234023196
 20
97.63579300951324
 30
0.0
 10
42.18677234023196
 20
97.63579300951324
 30
0.0
 10
42.18677234023196
 20
97.63579300951324
 30
0.0
 10
42.02795333358993
 20
97.66232026224954
 30
0.0
 10
41.87447422847273
 20
97.69091457364063
 30
0.0
 10
41.72754080909566
 20
97.72192045346227
 30
0.0
 10
41.72754080909566
 20
97.72192045346227
 30
0.0
 10
41.72754080909566
 20
97.72192045346227
 30
0.0
 10
41.72754080909566
 20
97.72192045346227
 30
0.0
 10
41.58353572281287
 20
97.75189280395654
 30
0.0
 10
41.4457318124944
 20
97.78427672288139
 30
0.0
 10
41.31654064657084
 20
97.81734966135781
 30
0.0
 10
41.31654064657084
 20
97.81734966135781
 30
0.0
 10
41.31654064657084
 20
97.81734966135781
 30
0.0
 10
41.31654064657084
 20
97.81734966135781
 30
0.0
 10
41.19062232351734
 20
97.85007809005845
 30
0.0
 10
41.07297223508294
 20
97.88384004808647
 30
0.0
 10
40.96135106772498
 20
97.9186355354419
 30
0.0
 10
40.96135106772498
 20
97.9186355354419
 30
0.0
 10
40.96135106772498
 20
97.9186355354419
 30
0.0
 10
40.96135106772498
 20
97.9186355354419
 30
0.0
 10
40.85317499812499
 20
97.95239749346992
 30
0.0
 10
40.75120010448932
 20
97.98684847104953
 30
0.0
 10
40.66869001318614
 20
98.01923238997436
 30
0.0
 10
40.66869001318614
 20
98.01923238997436
 30
0.0
 10
40.66869001318614
 20
98.01923238997436
 30
0.0
 10
40.66869001318614
 20
98.01923238997436
 30
0.0
 10
40.64009570179505
 20
98.03025670279985
 30
0.0
 10
40.61391295883455
 20
98.04128101562532
 30
0.0
 10
40.58755796098614
 20
98.0526498382266
 30
0.0
  0
ENDBLK
  5
2B1
330
2AE
100
AcDbEntity
  8
0
100
AcDbBlockEnd
  0
BLOCK
  5
2B5
330
2B3
100
AcDbEntity
  8
0
100
AcDbBlockBegin
  2
block 81
 70
     0
 71
     0
 10
0.0
 20
0.0
 30
0.0
  3
block 81
  1

  0
POLYLINE
  5
2B7
330
2B3
100
AcDbEntity
  8
0
 62
     7
420
 16777215
370
     9
100
AcDb2dPolyline
 66
     1
 10
0.0
 20
0.0
 30
0.0
  0
VERTEX
  5
2B8
330
2B7
100
AcDbEntity
  8
0
 62
     7
420
 16777215
370
     9
100
AcDbVertex
100
AcDb2dVertex
 10
109.3062339194963
 20
97.44527910349795
 30
0.0
  0
VERTEX
  5
2B9
330
2B7
100
AcDbEntity
  8
0
 62
     7
420
 16777215
370
     9
100
AcDbVertex
100
AcDb2dVertex
 10
44.62969116040259
 20
97.44527910349795
 30
0.0
  0
SEQEND
  5
2BA
330
2B7
100
AcDbEntity
  8
0
370
     9
  0
ENDBLK
  5
2B6
330
2B3
100
AcDbEntity
  8
0
100
AcDbBlockEnd
  0
BLOCK
  5
2BD
330
2BB
100
AcDbEntity
  8
0
100
AcDbBlockBegin
  2
block 82
 70
     0
 71
     0
 10
0.0
 20
0.0
 30
0.0
  3
block 82
  1

  0
POLYLINE
  5
2BF
330
2BB
100
AcDbEntity
  8
0
 62
     7
420
 16777215
370
     9
100
AcDb2dPolyline
 66
     1
 10
0.0
 20
0.0
 30
0.0
  0
VERTEX
  5
2C0
330
2BF
100
AcDbEntity
  8
0
 62
     7
420
 16777215
370
     9
100
AcDbVertex
100
AcDb2dVertex
 10
44.62969116040259
 20
92.47021343122547
 30
0.0
  0
VERTEX
  5
2C1
330
2BF
100
AcDbEntity
  8
0
 62
     7
420
 16777215
370
     9
100
AcDbVertex
100
AcDb2dVertex
 10
109.3062339194963
 20
92.47021343122547
 30
0.0
  0
SEQEND
  5
2C2
330
2BF
100
AcDbEntity
  8
0
370
     9
  0
ENDBLK
  5
2BE
330
2BB
100
AcDbEntity
  8
0
100
AcDbBlockEnd
  0
BLOCK
  5
2C5
330
2C3
100
AcDbEntity
  8
0
100
AcDbBlockBegin
  2
block 83
 70
     0
 71
     0
 10
0.0
 20
0.0
 30
0.0
  3
block 83
  1

  0
POLYLINE
  5
2C7
330
2C3
100
AcDbEntity
  8
0
 62
     7
420
 16777215
370
     9
100
AcDb2dPolyline
 66
     1
 10
0.0
 20
0.0
 30
0.0
  0
VERTEX
  5
2C8
330
2C7
100
AcDbEntity
  8
0
 62
     7
420
 16777215
370
     9
100
AcDbVertex
100
AcDb2dVertex
 10
64.9965923408084
 20
110.9100991807154
 30
0.0
  0
VERTEX
  5
2C9
330
2C7
100
AcDbEntity
  8
0
 62
     7
420
 16777215
370
     9
100
AcDbVertex
100
AcDb2dVertex
 10
64.9965923408084
 20
132.0543866702053
 30
0.0
  0
SEQEND
  5
2CA
330
2C7
100
AcDbEntity
  8
0
370
     9
  0
ENDBLK
  5
2C6
330
2C3
100
AcDbEntity
  8
0
100
AcDbBlockEnd
  0
BLOCK
  5
2CD
330
2CB
100
AcDbEntity
  8
0
100
AcDbBlockBegin
  2
block 84
 70
     0
 71
     0
 10
0.0
 20
0.0
 30
0.0
  3
block 84
  1

  0
POLYLINE
  5
2CF
330
2CB
100
AcDbEntity
  8
0
 62
     7
420
 16777215
370
     9
100
AcDb2dPolyline
 66
     1
 10
0.0
 20
0.0
 30
0.0
  0
VERTEX
  5
2D0
330
2CF
100
AcDbEntity
  8
0
 62
     7
420
 16777215
370
     9
100
AcDbVertex
100
AcDb2dVertex
 10
64.9965923408084
 20
110.9100991807154
 30
0.0
  0
VERTEX
  5
2D1
330
2CF
100
AcDbEntity
  8
0
 62
     7
420
 16777215
370
     9
100
AcDbVertex
100
AcDb2dVertex
 10
51.62616794215909
 20
110.9100991807154
 30
0.0
  0
SEQEND
  5
2D2
330
2CF
100
AcDbEntity
  8
0
370
     9
  0
ENDBLK
  5
2CE
330
2CB
100
AcDbEntity
  8
0
100
AcDbBlockEnd
  0
BLOCK
  5
2D5
330
2D3
100
AcDbEntity
  8
0
100
AcDbBlockBegin
  2
block 85
 70
     0
 71
     0
 10
0.0
 20
0.0
 30
0.0
  3
block 85
  1

  0
POLYLINE
  5
2D7
330
2D3
100
AcDbEntity
  8
0
 62
     7
420
 16777215
370
     9
100
AcDb2dPolyline
 66
     1
 10
0.0
 20
0.0
 30
0.0
  0
VERTEX
  5
2D8
330
2D7
100
AcDbEntity
  8
0
 62
     7
420
 16777215
370
     9
100
AcDbVertex
100
AcDb2dVertex
 10
51.62616794215909
 20
132.0543866702053
 30
0.0
  0
VERTEX
  5
2D9
330
2D7
100
AcDbEntity
  8
0
 62
     7
420
 16777215
370
     9
100
AcDbVertex
100
AcDb2dVertex
 10
51.62616794215909
 20
110.9100991807154
 30
0.0
  0
SEQEND
  5
2DA
330
2D7
100
AcDbEntity
  8
0
370
     9
  0
ENDBLK
  5
2D6
330
2D3
100
AcDbEntity
  8
0
100
AcDbBlockEnd
  0
BLOCK
  5
2DD
330
2DB
100
AcDbEntity
  8
0
100
AcDbBlockBegin
  2
block 86
 70
     0
 71
     0
 10
0.0
 20
0.0
 30
0.0
  3
block 86
  1

  0
POLYLINE
  5
2DF
330
2DB
100
AcDbEntity
  8
0
 62
     7
420
 16777215
370
     9
100
AcDb2dPolyline
 66
     1
 10
0.0
 20
0.0
 30
0.0
  0
VERTEX
  5
2E0
330
2DF
100
AcDbEntity
  8
0
 62
     7
420
 16777215
370
     9
100
AcDbVertex
100
AcDb2dVertex
 10
64.9965923408084
 20
132.0543866702053
 30
0.0
  0
VERTEX
  5
2E1
330
2DF
100
AcDbEntity
  8
0
 62
     7
420
 16777215
370
     9
100
AcDbVertex
100
AcDb2dVertex
 10
51.62616794215909
 20
132.0543866702053
 30
0.0
  0
SEQEND
  5
2E2
330
2DF
100
AcDbEntity
  8
0
370
     9
  0
ENDBLK
  5
2DE
330
2DB
100
AcDbEntity
  8
0
100
AcDbBlockEnd
  0
BLOCK
  5
2E5
330
2E3
100
AcDbEntity
  8
0
100
AcDbBlockBegin
  2
block 87
 70
     0
 71
     0
 10
0.0
 20
0.0
 30
0.0
  3
block 87
  1

  0
POLYLINE
  5
2E7
330
2E3
100
AcDbEntity
  8
0
 62
     7
420
 16777215
370
     9
100
AcDb2dPolyline
 66
     1
 10
0.0
 20
0.0
 30
0.0
  0
VERTEX
  5
2E8
330
2E7
100
AcDbEntity
  8
0
 62
     7
420
 16777215
370
     9
100
AcDbVertex
100
AcDb2dVertex
 10
65.15213850458036
 20
132.0543866702053
 30
0.0
  0
VERTEX
  5
2E9
330
2E7
100
AcDbEntity
  8
0
 62
     7
420
 16777215
370
     9
100
AcDbVertex
100
AcDb2dVertex
 10
65.15213850458036
 20
110.9100991807154
 30
0.0
  0
SEQEND
  5
2EA
330
2E7
100
AcDbEntity
  8
0
370
     9
  0
ENDBLK
  5
2E6
330
2E3
100
AcDbEntity
  8
0
100
AcDbBlockEnd
  0
BLOCK
  5
2ED
330
2EB
100
AcDbEntity
  8
0
100
AcDbBlockBegin
  2
block 88
 70
     0
 71
     0
 10
0.0
 20
0.0
 30
0.0
  3
block 88
  1

  0
POLYLINE
  5
2EF
330
2EB
100
AcDbEntity
  8
0
 62
     7
420
 16777215
370
     9
100
AcDb2dPolyline
 66
     1
 10
0.0
 20
0.0
 30
0.0
  0
VERTEX
  5
2F0
330
2EF
100
AcDbEntity
  8
0
 62
     7
420
 16777215
370
     9
100
AcDbVertex
100
AcDb2dVertex
 10
65.15213850458036
 20
110.9100991807154
 30
0.0
  0
VERTEX
  5
2F1
330
2EF
100
AcDbEntity
  8
0
 62
     7
420
 16777215
370
     9
100
AcDbVertex
100
AcDb2dVertex
 10
64.9965923408084
 20
110.9100991807154
 30
0.0
  0
SEQEND
  5
2F2
330
2EF
100
AcDbEntity
  8
0
370
     9
  0
ENDBLK
  5
2EE
330
2EB
100
AcDbEntity
  8
0
100
AcDbBlockEnd
  0
BLOCK
  5
2F5
330
2F3
100
AcDbEntity
  8
0
100
AcDbBlockBegin
  2
block 89
 70
     0
 71
     0
 10
0.0
 20
0.0
 30
0.0
  3
block 89
  1

  0
POLYLINE
  5
2F7
330
2F3
100
AcDbEntity
  8
0
 62
     7
420
 16777215
370
     9
100
AcDb2dPolyline
 66
     1
 10
0.0
 20
0.0
 30
0.0
  0
VERTEX
  5
2F8
330
2F7
100
AcDbEntity
  8
0
 62
     7
420
 16777215
370
     9
100
AcDbVertex
100
AcDb2dVertex
 10
64.9965923408084
 20
132.0543866702053
 30
0.0
  0
VERTEX
  5
2F9
330
2F7
100
AcDbEntity
  8
0
 62
     7
420
 16777215
370
     9
100
AcDbVertex
100
AcDb2dVertex
 10
65.15213850458036
 20
132.0543866702053
 30
0.0
  0
SEQEND
  5
2FA
330
2F7
100
AcDbEntity
  8
0
370
     9
  0
ENDBLK
  5
2F6
330
2F3
100
AcDbEntity
  8
0
100
AcDbBlockEnd
  0
BLOCK
  5
2FD
330
2FB
100
AcDbEntity
  8
0
100
AcDbBlockBegin
  2
block 90
 70
     0
 71
     0
 10
0.0
 20
0.0
 30
0.0
  3
block 90
  1

  0
POLYLINE
  5
2FF
330
2FB
100
AcDbEntity
  8
0
 62
     7
420
 16777215
370
     9
100
AcDb2dPolyline
 66
     1
 10
0.0
 20
0.0
 30
0.0
  0
VERTEX
  5
300
330
2FF
100
AcDbEntity
  8
0
 62
     7
420
 16777215
370
     9
100
AcDbVertex
100
AcDb2dVertex
 10
51.47062177838712
 20
132.0543866702053
 30
0.0
  0
VERTEX
  5
301
330
2FF
100
AcDbEntity
  8
0
 62
     7
420
 16777215
370
     9
100
AcDbVertex
100
AcDb2dVertex
 10
51.62616794215909
 20
132.0543866702053
 30
0.0
  0
SEQEND
  5
302
330
2FF
100
AcDbEntity
  8
0
370
     9
  0
ENDBLK
  5
2FE
330
2FB
100
AcDbEntity
  8
0
100
AcDbBlockEnd
  0
BLOCK
  5
305
330
303
100
AcDbEntity
  8
0
100
AcDbBlockBegin
  2
block 91
 70
     0
 71
     0
 10
0.0
 20
0.0
 30
0.0
  3
block 91
  1

  0
POLYLINE
  5
307
330
303
100
AcDbEntity
  8
0
 62
     7
420
 16777215
370
     9
100
AcDb2dPolyline
 66
     1
 10
0.0
 20
0.0
 30
0.0
  0
VERTEX
  5
308
330
307
100
AcDbEntity
  8
0
 62
     7
420
 16777215
370
     9
100
AcDbVertex
100
AcDb2dVertex
 10
51.62616794215909
 20
110.9100991807154
 30
0.0
  0
VERTEX
  5
309
330
307
100
AcDbEntity
  8
0
 62
     7
420
 16777215
370
     9
100
AcDbVertex
100
AcDb2dVertex
 10
51.47062177838712
 20
110.9100991807154
 30
0.0
  0
SEQEND
  5
30A
330
307
100
AcDbEntity
  8
0
370
     9
  0
ENDBLK
  5
306
330
303
100
AcDbEntity
  8
0
100
AcDbBlockEnd
  0
BLOCK
  5
30D
330
30B
100
AcDbEntity
  8
0
100
AcDbBlockBegin
  2
block 92
 70
     0
 71
     0
 10
0.0
 20
0.0
 30
0.0
  3
block 92
  1

  0
POLYLINE
  5
30F
330
30B
100
AcDbEntity
  8
0
 62
     7
420
 16777215
370
     9
100
AcDb2dPolyline
 66
     1
 10
0.0
 20
0.0
 30
0.0
  0
VERTEX
  5
310
330
30F
100
AcDbEntity
  8
0
 62
     7
420
 16777215
370
     9
100
AcDbVertex
100
AcDb2dVertex
 10
51.47062177838712
 20
110.9100991807154
 30
0.0
  0
VERTEX
  5
311
330
30F
100
AcDbEntity
  8
0
 62
     7
420
 16777215
370
     9
100
AcDbVertex
100
AcDb2dVertex
 10
51.47062177838712
 20
132.0543866702053
 30
0.0
  0
SEQEND
  5
312
330
30F
100
AcDbEntity
  8
0
370
     9
  0
ENDBLK
  5
30E
330
30B
100
AcDbEntity
  8
0
100
AcDbBlockEnd
  0
BLOCK
  5
315
330
313
100
AcDbEntity
  8
0
100
AcDbBlockBegin
  2
block 93
 70
     0
 71
     0
 10
0.0
 20
0.0
 30
0.0
  3
block 93
  1

  0
POLYLINE
  5
317
330
313
100
AcDbEntity
  8
0
 62
     7
420
 16777215
370
     9
100
AcDb2dPolyline
 66
     1
 10
0.0
 20
0.0
 30
0.0
  0
VERTEX
  5
318
330
317
100
AcDbEntity
  8
0
 62
     7
420
 16777215
370
     9
100
AcDbVertex
100
AcDb2dVertex
 10
65.15213850458036
 20
110.9100991807154
 30
0.0
  0
VERTEX
  5
319
330
317
100
AcDbEntity
  8
0
 62
     7
420
 16777215
370
     9
100
AcDbVertex
100
AcDb2dVertex
 10
65.15213850458036
 20
106.090407417327
 30
0.0
  0
SEQEND
  5
31A
330
317
100
AcDbEntity
  8
0
370
     9
  0
ENDBLK
  5
316
330
313
100
AcDbEntity
  8
0
100
AcDbBlockEnd
  0
BLOCK
  5
31D
330
31B
100
AcDbEntity
  8
0
100
AcDbBlockBegin
  2
block 94
 70
     0
 71
     0
 10
0.0
 20
0.0
 30
0.0
  3
block 94
  1

  0
POLYLINE
  5
31F
330
31B
100
AcDbEntity
  8
0
 62
     7
420
 16777215
370
     9
100
AcDb2dPolyline
 66
     1
 10
0.0
 20
0.0
 30
0.0
  0
VERTEX
  5
320
330
31F
100
AcDbEntity
  8
0
 62
     7
420
 16777215
370
     9
100
AcDbVertex
100
AcDb2dVertex
 10
51.47062177838712
 20
106.090407417327
 30
0.0
  0
VERTEX
  5
321
330
31F
100
AcDbEntity
  8
0
 62
     7
420
 16777215
370
     9
100
AcDbVertex
100
AcDb2dVertex
 10
51.47062177838712
 20
110.9100991807154
 30
0.0
  0
SEQEND
  5
322
330
31F
100
AcDbEntity
  8
0
370
     9
  0
ENDBLK
  5
31E
330
31B
100
AcDbEntity
  8
0
100
AcDbBlockEnd
  0
BLOCK
  5
325
330
323
100
AcDbEntity
  8
0
100
AcDbBlockBegin
  2
block 95
 70
     0
 71
     0
 10
0.0
 20
0.0
 30
0.0
  3
block 95
  1

  0
POLYLINE
  5
327
330
323
100
AcDbEntity
  8
0
 62
     7
420
 16777215
370
     9
100
AcDb2dPolyline
 66
     1
 10
0.0
 20
0.0
 30
0.0
  0
VERTEX
  5
328
330
327
100
AcDbEntity
  8
0
 62
     7
420
 16777215
370
     9
100
AcDbVertex
100
AcDb2dVertex
 10
102.4654755563997
 20
132.0543866702053
 30
0.0
  0
VERTEX
  5
329
330
327
100
AcDbEntity
  8
0
 62
     7
420
 16777215
370
     9
100
AcDbVertex
100
AcDb2dVertex
 10
102.4654755563997
 20
110.9100991807154
 30
0.0
  0
SEQEND
  5
32A
330
327
100
AcDbEntity
  8
0
370
     9
  0
ENDBLK
  5
326
330
323
100
AcDbEntity
  8
0
100
AcDbBlockEnd
  0
BLOCK
  5
32D
330
32B
100
AcDbEntity
  8
0
100
AcDbBlockBegin
  2
block 96
 70
     0
 71
     0
 10
0.0
 20
0.0
 30
0.0
  3
block 96
  1

  0
POLYLINE
  5
32F
330
32B
100
AcDbEntity
  8
0
 62
     7
420
 16777215
370
     9
100
AcDb2dPolyline
 66
     1
 10
0.0
 20
0.0
 30
0.0
  0
VERTEX
  5
330
330
32F
100
AcDbEntity
  8
0
 62
     7
420
 16777215
370
     9
100
AcDbVertex
100
AcDb2dVertex
 10
102.4654755563997
 20
110.9100991807154
 30
0.0
  0
VERTEX
  5
331
330
32F
100
AcDbEntity
  8
0
 62
     7
420
 16777215
370
     9
100
AcDbVertex
100
AcDb2dVertex
 10
102.3099293926278
 20
110.9100991807154
 30
0.0
  0
SEQEND
  5
332
330
32F
100
AcDbEntity
  8
0
370
     9
  0
ENDBLK
  5
32E
330
32B
100
AcDbEntity
  8
0
100
AcDbBlockEnd
  0
BLOCK
  5
335
330
333
100
AcDbEntity
  8
0
100
AcDbBlockBegin
  2
block 97
 70
     0
 71
     0
 10
0.0
 20
0.0
 30
0.0
  3
block 97
  1

  0
POLYLINE
  5
337
330
333
100
AcDbEntity
  8
0
 62
     7
420
 16777215
370
     9
100
AcDb2dPolyline
 66
     1
 10
0.0
 20
0.0
 30
0.0
  0
VERTEX
  5
338
330
337
100
AcDbEntity
  8
0
 62
     7
420
 16777215
370
     9
100
AcDbVertex
100
AcDb2dVertex
 10
102.3099293926278
 20
110.9100991807154
 30
0.0
  0
VERTEX
  5
339
330
337
100
AcDbEntity
  8
0
 62
     7
420
 16777215
370
     9
100
AcDbVertex
100
AcDb2dVertex
 10
102.3099293926278
 20
132.0543866702053
 30
0.0
  0
SEQEND
  5
33A
330
337
100
AcDbEntity
  8
0
370
     9
  0
ENDBLK
  5
336
330
333
100
AcDbEntity
  8
0
100
AcDbBlockEnd
  0
BLOCK
  5
33D
330
33B
100
AcDbEntity
  8
0
100
AcDbBlockBegin
  2
block 98
 70
     0
 71
     0
 10
0.0
 20
0.0
 30
0.0
  3
block 98
  1

  0
POLYLINE
  5
33F
330
33B
100
AcDbEntity
  8
0
 62
     7
420
 16777215
370
     9
100
AcDb2dPolyline
 66
     1
 10
0.0
 20
0.0
 30
0.0
  0
VERTEX
  5
340
330
33F
100
AcDbEntity
  8
0
 62
     7
420
 16777215
370
     9
100
AcDbVertex
100
AcDb2dVertex
 10
102.3099293926278
 20
132.0543866702053
 30
0.0
  0
VERTEX
  5
341
330
33F
100
AcDbEntity
  8
0
 62
     7
420
 16777215
370
     9
100
AcDbVertex
100
AcDb2dVertex
 10
102.4654755563997
 20
132.0543866702053
 30
0.0
  0
SEQEND
  5
342
330
33F
100
AcDbEntity
  8
0
370
     9
  0
ENDBLK
  5
33E
330
33B
100
AcDbEntity
  8
0
100
AcDbBlockEnd
  0
BLOCK
  5
345
330
343
100
AcDbEntity
  8
0
100
AcDbBlockBegin
  2
block 99
 70
     0
 71
     0
 10
0.0
 20
0.0
 30
0.0
  3
block 99
  1

  0
POLYLINE
  5
347
330
343
100
AcDbEntity
  8
0
 62
     7
420
 16777215
370
     9
100
AcDb2dPolyline
 66
     1
 10
0.0
 20
0.0
 30
0.0
  0
VERTEX
  5
348
330
347
100
AcDbEntity
  8
0
 62
     7
420
 16777215
370
     9
100
AcDbVertex
100
AcDb2dVertex
 10
102.3099293926278
 20
110.9100991807154
 30
0.0
  0
VERTEX
  5
349
330
347
100
AcDbEntity
  8
0
 62
     7
420
 16777215
370
     9
100
AcDbVertex
100
AcDb2dVertex
 10
88.93933273909055
 20
110.9100991807154
 30
0.0
  0
SEQEND
  5
34A
330
347
100
AcDbEntity
  8
0
370
     9
  0
ENDBLK
  5
346
330
343
100
AcDbEntity
  8
0
100
AcDbBlockEnd
  0
BLOCK
  5
34D
330
34B
100
AcDbEntity
  8
0
100
AcDbBlockBegin
  2
block 100
 70
     0
 71
     0
 10
0.0
 20
0.0
 30
0.0
  3
block 100
  1

  0
POLYLINE
  5
34F
330
34B
100
AcDbEntity
  8
0
 62
     7
420
 16777215
370
     9
100
AcDb2dPolyline
 66
     1
 10
0.0
 20
0.0
 30
0.0
  0
VERTEX
  5
350
330
34F
100
AcDbEntity
  8
0
 62
     7
420
 16777215
370
     9
100
AcDbVertex
100
AcDb2dVertex
 10
88.93933273909055
 20
132.0543866702053
 30
0.0
  0
VERTEX
  5
351
330
34F
100
AcDbEntity
  8
0
 62
     7
420
 16777215
370
     9
100
AcDbVertex
100
AcDb2dVertex
 10
88.93933273909055
 20
110.9100991807154
 30
0.0
  0
SEQEND
  5
352
330
34F
100
AcDbEntity
  8
0
370
     9
  0
ENDBLK
  5
34E
330
34B
100
AcDbEntity
  8
0
100
AcDbBlockEnd
  0
BLOCK
  5
355
330
353
100
AcDbEntity
  8
0
100
AcDbBlockBegin
  2
block 101
 70
     0
 71
     0
 10
0.0
 20
0.0
 30
0.0
  3
block 101
  1

  0
POLYLINE
  5
357
330
353
100
AcDbEntity
  8
0
 62
     7
420
 16777215
370
     9
100
AcDb2dPolyline
 66
     1
 10
0.0
 20
0.0
 30
0.0
  0
VERTEX
  5
358
330
357
100
AcDbEntity
  8
0
 62
     7
420
 16777215
370
     9
100
AcDbVertex
100
AcDb2dVertex
 10
102.3099293926278
 20
132.0543866702053
 30
0.0
  0
VERTEX
  5
359
330
357
100
AcDbEntity
  8
0
 62
     7
420
 16777215
370
     9
100
AcDbVertex
100
AcDb2dVertex
 10
88.93933273909055
 20
132.0543866702053
 30
0.0
  0
SEQEND
  5
35A
330
357
100
AcDbEntity
  8
0
370
     9
  0
ENDBLK
  5
356
330
353
100
AcDbEntity
  8
0
100
AcDbBlockEnd
  0
BLOCK
  5
35D
330
35B
100
AcDbEntity
  8
0
100
AcDbBlockBegin
  2
block 102
 70
     0
 71
     0
 10
0.0
 20
0.0
 30
0.0
  3
block 102
  1

  0
POLYLINE
  5
35F
330
35B
100
AcDbEntity
  8
0
 62
     7
420
 16777215
370
     9
100
AcDb2dPolyline
 66
     1
 10
0.0
 20
0.0
 30
0.0
  0
VERTEX
  5
360
330
35F
100
AcDbEntity
  8
0
 62
     7
420
 16777215
370
     9
100
AcDbVertex
100
AcDb2dVertex
 10
88.93933273909055
 20
110.9100991807154
 30
0.0
  0
VERTEX
  5
361
330
35F
100
AcDbEntity
  8
0
 62
     7
420
 16777215
370
     9
100
AcDbVertex
100
AcDb2dVertex
 10
88.78378657531857
 20
110.9100991807154
 30
0.0
  0
SEQEND
  5
362
330
35F
100
AcDbEntity
  8
0
370
     9
  0
ENDBLK
  5
35E
330
35B
100
AcDbEntity
  8
0
100
AcDbBlockEnd
  0
BLOCK
  5
365
330
363
100
AcDbEntity
  8
0
100
AcDbBlockBegin
  2
block 103
 70
     0
 71
     0
 10
0.0
 20
0.0
 30
0.0
  3
block 103
  1

  0
POLYLINE
  5
367
330
363
100
AcDbEntity
  8
0
 62
     7
420
 16777215
370
     9
100
AcDb2dPolyline
 66
     1
 10
0.0
 20
0.0
 30
0.0
  0
VERTEX
  5
368
330
367
100
AcDbEntity
  8
0
 62
     7
420
 16777215
370
     9
100
AcDbVertex
100
AcDb2dVertex
 10
88.78378657531857
 20
110.9100991807154
 30
0.0
  0
VERTEX
  5
369
330
367
100
AcDbEntity
  8
0
 62
     7
420
 16777215
370
     9
100
AcDbVertex
100
AcDb2dVertex
 10
88.78378657531857
 20
132.0543866702053
 30
0.0
  0
SEQEND
  5
36A
330
367
100
AcDbEntity
  8
0
370
     9
  0
ENDBLK
  5
366
330
363
100
AcDbEntity
  8
0
100
AcDbBlockEnd
  0
BLOCK
  5
36D
330
36B
100
AcDbEntity
  8
0
100
AcDbBlockBegin
  2
block 104
 70
     0
 71
     0
 10
0.0
 20
0.0
 30
0.0
  3
block 104
  1

  0
POLYLINE
  5
36F
330
36B
100
AcDbEntity
  8
0
 62
     7
420
 16777215
370
     9
100
AcDb2dPolyline
 66
     1
 10
0.0
 20
0.0
 30
0.0
  0
VERTEX
  5
370
330
36F
100
AcDbEntity
  8
0
 62
     7
420
 16777215
370
     9
100
AcDbVertex
100
AcDb2dVertex
 10
88.78378657531857
 20
132.0543866702053
 30
0.0
  0
VERTEX
  5
371
330
36F
100
AcDbEntity
  8
0
 62
     7
420
 16777215
370
     9
100
AcDbVertex
100
AcDb2dVertex
 10
88.93933273909055
 20
132.0543866702053
 30
0.0
  0
SEQEND
  5
372
330
36F
100
AcDbEntity
  8
0
370
     9
  0
ENDBLK
  5
36E
330
36B
100
AcDbEntity
  8
0
100
AcDbBlockEnd
  0
BLOCK
  5
375
330
373
100
AcDbEntity
  8
0
100
AcDbBlockBegin
  2
block 105
 70
     0
 71
     0
 10
0.0
 20
0.0
 30
0.0
  3
block 105
  1

  0
POLYLINE
  5
377
330
373
100
AcDbEntity
  8
0
 62
     7
420
 16777215
370
     9
100
AcDb2dPolyline
 66
     1
 10
0.0
 20
0.0
 30
0.0
  0
VERTEX
  5
378
330
377
100
AcDbEntity
  8
0
 62
     7
420
 16777215
370
     9
100
AcDbVertex
100
AcDb2dVertex
 10
102.4654755563997
 20
110.9100991807154
 30
0.0
  0
VERTEX
  5
379
330
377
100
AcDbEntity
  8
0
 62
     7
420
 16777215
370
     9
100
AcDbVertex
100
AcDb2dVertex
 10
102.4654755563997
 20
106.090407417327
 30
0.0
  0
SEQEND
  5
37A
330
377
100
AcDbEntity
  8
0
370
     9
  0
ENDBLK
  5
376
330
373
100
AcDbEntity
  8
0
100
AcDbBlockEnd
  0
BLOCK
  5
37D
330
37B
100
AcDbEntity
  8
0
100
AcDbBlockBegin
  2
block 106
 70
     0
 71
     0
 10
0.0
 20
0.0
 30
0.0
  3
block 106
  1

  0
POLYLINE
  5
37F
330
37B
100
AcDbEntity
  8
0
 62
     7
420
 16777215
370
     9
100
AcDb2dPolyline
 66
     1
 10
0.0
 20
0.0
 30
0.0
  0
VERTEX
  5
380
330
37F
100
AcDbEntity
  8
0
 62
     7
420
 16777215
370
     9
100
AcDbVertex
100
AcDb2dVertex
 10
88.78378657531857
 20
106.090407417327
 30
0.0
  0
VERTEX
  5
381
330
37F
100
AcDbEntity
  8
0
 62
     7
420
 16777215
370
     9
100
AcDbVertex
100
AcDb2dVertex
 10
88.78378657531857
 20
110.9100991807154
 30
0.0
  0
SEQEND
  5
382
330
37F
100
AcDbEntity
  8
0
370
     9
  0
ENDBLK
  5
37E
330
37B
100
AcDbEntity
  8
0
100
AcDbBlockEnd
  0
BLOCK
  5
385
330
383
100
AcDbEntity
  8
0
100
AcDbBlockBegin
  2
block 107
 70
     0
 71
     0
 10
0.0
 20
0.0
 30
0.0
  3
block 107
  1

  0
POLYLINE
  5
387
330
383
100
AcDbEntity
  8
0
 62
     7
420
 16777215
370
     9
100
AcDb2dPolyline
 66
     1
 10
0.0
 20
0.0
 30
0.0
  0
VERTEX
  5
388
330
387
100
AcDbEntity
  8
0
 62
     7
420
 16777215
370
     9
100
AcDbVertex
100
AcDb2dVertex
 10
115.8360722099369
 20
101.2304080101705
 30
0.0
  0
VERTEX
  5
389
330
387
100
AcDbEntity
  8
0
 62
     7
420
 16777215
370
     9
100
AcDbVertex
100
AcDb2dVertex
 10
116.2677429590095
 20
101.1949235032635
 30
0.0
  0
VERTEX
  5
38A
330
387
100
AcDbEntity
  8
0
 62
     7
420
 16777215
370
     9
100
AcDbVertex
100
AcDb2dVertex
 10
116.6866668463777
 20
101.0895035118698
 30
0.0
  0
VERTEX
  5
38B
330
387
100
AcDbEntity
  8
0
 62
     7
420
 16777215
370
     9
100
AcDbVertex
100
AcDb2dVertex
 10
117.0797525005611
 20
100.9172486239717
 30
0.0
  0
VERTEX
  5
38C
330
387
100
AcDbEntity
  8
0
 62
     7
420
 16777215
370
     9
100
AcDbVertex
100
AcDb2dVertex
 10
117.434942079407
 20
100.6833264862061
 30
0.0
  0
VERTEX
  5
38D
330
387
100
AcDbEntity
  8
0
 62
     7
420
 16777215
370
     9
100
AcDbVertex
100
AcDb2dVertex
 10
117.7415557798655
 20
100.3953163136405
 30
0.0
  0
VERTEX
  5
38E
330
387
100
AcDbEntity
  8
0
 62
     7
420
 16777215
370
     9
100
AcDbVertex
100
AcDb2dVertex
 10
117.9902918379904
 20
100.0614863408941
 30
0.0
  0
VERTEX
  5
38F
330
387
100
AcDbEntity
  8
0
 62
     7
420
 16777215
370
     9
100
AcDbVertex
100
AcDb2dVertex
 10
118.1735710387139
 20
99.69217186124057
 30
0.0
  0
VERTEX
  5
390
330
387
100
AcDbEntity
  8
0
 62
     7
420
 16777215
370
     9
100
AcDbVertex
100
AcDb2dVertex
 10
118.2858812256235
 20
99.29874169728134
 30
0.0
  0
VERTEX
  5
391
330
387
100
AcDbEntity
  8
0
 62
     7
420
 16777215
370
     9
100
AcDbVertex
100
AcDb2dVertex
 10
118.3234327911853
 20
98.89290918139345
 30
0.0
  0
VERTEX
  5
392
330
387
100
AcDbEntity
  8
0
 62
     7
420
 16777215
370
     9
100
AcDbVertex
100
AcDb2dVertex
 10
118.2858812256235
 20
98.48707666550557
 30
0.0
  0
VERTEX
  5
393
330
387
100
AcDbEntity
  8
0
 62
     7
420
 16777215
370
     9
100
AcDbVertex
100
AcDb2dVertex
 10
118.1735710387139
 20
98.09330199177055
 30
0.0
  0
VERTEX
  5
394
330
387
100
AcDbEntity
  8
0
 62
     7
420
 16777215
370
     9
100
AcDbVertex
100
AcDb2dVertex
 10
117.9902918379904
 20
97.72398751211705
 30
0.0
  0
VERTEX
  5
395
330
387
100
AcDbEntity
  8
0
 62
     7
420
 16777215
370
     9
100
AcDbVertex
100
AcDb2dVertex
 10
117.7415557798655
 20
97.39015753937056
 30
0.0
  0
VERTEX
  5
396
330
387
100
AcDbEntity
  8
0
 62
     7
420
 16777215
370
     9
100
AcDbVertex
100
AcDb2dVertex
 10
117.434942079407
 20
97.10214736680497
 30
0.0
  0
VERTEX
  5
397
330
387
100
AcDbEntity
  8
0
 62
     7
420
 16777215
370
     9
100
AcDbVertex
100
AcDb2dVertex
 10
117.0797525005611
 20
96.86856973881517
 30
0.0
  0
VERTEX
  5
398
330
387
100
AcDbEntity
  8
0
 62
     7
420
 16777215
370
     9
100
AcDbVertex
100
AcDb2dVertex
 10
116.6866668463777
 20
96.69631485091708
 30
0.0
  0
VERTEX
  5
399
330
387
100
AcDbEntity
  8
0
 62
     7
420
 16777215
370
     9
100
AcDbVertex
100
AcDb2dVertex
 10
116.2677429590095
 20
96.59055034974766
 30
0.0
  0
VERTEX
  5
39A
330
387
100
AcDbEntity
  8
0
 62
     7
420
 16777215
370
     9
100
AcDbVertex
100
AcDb2dVertex
 10
115.8360722099369
 20
96.55506584284065
 30
0.0
  0
VERTEX
  5
39B
330
387
100
AcDbEntity
  8
0
 62
     7
420
 16777215
370
     9
100
AcDbVertex
100
AcDb2dVertex
 10
115.4040569510885
 20
96.59055034974766
 30
0.0
  0
VERTEX
  5
39C
330
387
100
AcDbEntity
  8
0
 62
     7
420
 16777215
370
     9
100
AcDbVertex
100
AcDb2dVertex
 10
114.9851330637204
 20
96.69631485091708
 30
0.0
  0
VERTEX
  5
39D
330
387
100
AcDbEntity
  8
0
 62
     7
420
 16777215
370
     9
100
AcDbVertex
100
AcDb2dVertex
 10
114.592047409537
 20
96.86856973881517
 30
0.0
  0
VERTEX
  5
39E
330
387
100
AcDbEntity
  8
0
 62
     7
420
 16777215
370
     9
100
AcDbVertex
100
AcDb2dVertex
 10
114.2368578306911
 20
97.10214736680497
 30
0.0
  0
VERTEX
  5
39F
330
387
100
AcDbEntity
  8
0
 62
     7
420
 16777215
370
     9
100
AcDbVertex
100
AcDb2dVertex
 10
113.9305886400083
 20
97.39015753937056
 30
0.0
  0
VERTEX
  5
3A0
330
387
100
AcDbEntity
  8
0
 62
     7
420
 16777215
370
     9
100
AcDbVertex
100
AcDb2dVertex
 10
113.6818525818835
 20
97.72398751211705
 30
0.0
  0
VERTEX
  5
3A1
330
387
100
AcDbEntity
  8
0
 62
     7
420
 16777215
370
     9
100
AcDbVertex
100
AcDb2dVertex
 10
113.4985733811599
 20
98.09330199177055
 30
0.0
  0
VERTEX
  5
3A2
330
387
100
AcDbEntity
  8
0
 62
     7
420
 16777215
370
     9
100
AcDbVertex
100
AcDb2dVertex
 10
113.3862631942504
 20
98.48707666550557
 30
0.0
  0
VERTEX
  5
3A3
330
387
100
AcDbEntity
  8
0
 62
     7
420
 16777215
370
     9
100
AcDbVertex
100
AcDb2dVertex
 10
113.3483671189128
 20
98.89290918139345
 30
0.0
  0
VERTEX
  5
3A4
330
387
100
AcDbEntity
  8
0
 62
     7
420
 16777215
370
     9
100
AcDbVertex
100
AcDb2dVertex
 10
113.3862631942504
 20
99.29874169728134
 30
0.0
  0
VERTEX
  5
3A5
330
387
100
AcDbEntity
  8
0
 62
     7
420
 16777215
370
     9
100
AcDbVertex
100
AcDb2dVertex
 10
113.4985733811599
 20
99.69217186124057
 30
0.0
  0
VERTEX
  5
3A6
330
387
100
AcDbEntity
  8
0
 62
     7
420
 16777215
370
     9
100
AcDbVertex
100
AcDb2dVertex
 10
113.6818525818835
 20
100.0614863408941
 30
0.0
  0
VERTEX
  5
3A7
330
387
100
AcDbEntity
  8
0
 62
     7
420
 16777215
370
     9
100
AcDbVertex
100
AcDb2dVertex
 10
113.9305886400083
 20
100.3953163136405
 30
0.0
  0
VERTEX
  5
3A8
330
387
100
AcDbEntity
  8
0
 62
     7
420
 16777215
370
     9
100
AcDbVertex
100
AcDb2dVertex
 10
114.2368578306911
 20
100.6833264862061
 30
0.0
  0
VERTEX
  5
3A9
330
387
100
AcDbEntity
  8
0
 62
     7
420
 16777215
370
     9
100
AcDbVertex
100
AcDb2dVertex
 10
114.592047409537
 20
100.9172486239717
 30
0.0
  0
VERTEX
  5
3AA
330
387
100
AcDbEntity
  8
0
 62
     7
420
 16777215
370
     9
100
AcDbVertex
100
AcDb2dVertex
 10
114.9851330637204
 20
101.0895035118698
 30
0.0
  0
VERTEX
  5
3AB
330
387
100
AcDbEntity
  8
0
 62
     7
420
 16777215
370
     9
100
AcDbVertex
100
AcDb2dVertex
 10
115.4040569510885
 20
101.1949235032635
 30
0.0
  0
VERTEX
  5
3AC
330
387
100
AcDbEntity
  8
0
 62
     7
420
 16777215
370
     9
100
AcDbVertex
100
AcDb2dVertex
 10
115.8360722099369
 20
101.2304080101705
 30
0.0
  0
SEQEND
  5
3AD
330
387
100
AcDbEntity
  8
0
370
     9
  0
ENDBLK
  5
386
330
383
100
AcDbEntity
  8
0
100
AcDbBlockEnd
  0
BLOCK
  5
3B0
330
3AE
100
AcDbEntity
  8
0
100
AcDbBlockBegin
  2
block 108
 70
     0
 71
     0
 10
0.0
 20
0.0
 30
0.0
  3
block 108
  1

  0
POLYLINE
  5
3B2
330
3AE
100
AcDbEntity
  8
0
 62
     7
420
 16777215
370
     9
100
AcDb2dPolyline
 66
     1
 10
0.0
 20
0.0
 30
0.0
  0
VERTEX
  5
3B3
330
3B2
100
AcDbEntity
  8
0
 62
     7
420
 16777215
370
     9
100
AcDbVertex
100
AcDb2dVertex
 10
118.0126849734171
 20
98.99901819233867
 30
0.0
  0
VERTEX
  5
3B4
330
3B2
100
AcDbEntity
  8
0
 62
     7
420
 16777215
370
     9
100
AcDbVertex
100
AcDb2dVertex
 10
117.9754779176311
 20
99.37487835773229
 30
0.0
  0
VERTEX
  5
3B5
330
3B2
100
AcDbEntity
  8
0
 62
     7
420
 16777215
370
     9
100
AcDbVertex
100
AcDb2dVertex
 10
117.8655792991522
 20
99.73799166142146
 30
0.0
  0
VERTEX
  5
3B6
330
3B2
100
AcDbEntity
  8
0
 62
     7
420
 16777215
370
     9
100
AcDbVertex
100
AcDb2dVertex
 10
117.6864342157382
 20
100.0759557514775
 30
0.0
  0
VERTEX
  5
3B7
330
3B2
100
AcDbEntity
  8
0
 62
     7
420
 16777215
370
     9
100
AcDbVertex
100
AcDb2dVertex
 10
117.4445883531292
 20
100.3770572955233
 30
0.0
  0
VERTEX
  5
3B8
330
3B2
100
AcDbEntity
  8
0
 62
     7
420
 16777215
370
     9
100
AcDbVertex
100
AcDb2dVertex
 10
117.1476209263929
 20
100.6313055100609
 30
0.0
  0
VERTEX
  5
3B9
330
3B2
100
AcDbEntity
  8
0
 62
     7
420
 16777215
370
     9
100
AcDbVertex
100
AcDb2dVertex
 10
116.806211738579
 20
100.8297431409195
 30
0.0
  0
VERTEX
  5
3BA
330
3B2
100
AcDbEntity
  8
0
 62
     7
420
 16777215
370
     9
100
AcDbVertex
100
AcDb2dVertex
 10
116.4317296122885
 20
100.9661690121348
 30
0.0
  0
VERTEX
  5
3BB
330
3B2
100
AcDbEntity
  8
0
 62
     7
420
 16777215
370
     9
100
AcDbVertex
100
AcDb2dVertex
 10
116.0369214092261
 20
101.0357599868456
 30
0.0
  0
VERTEX
  5
3BC
330
3B2
100
AcDbEntity
  8
0
 62
     7
420
 16777215
370
     9
100
AcDbVertex
100
AcDb2dVertex
 10
115.6352230106478
 20
101.0357599868456
 30
0.0
  0
VERTEX
  5
3BD
330
3B2
100
AcDbEntity
  8
0
 62
     7
420
 16777215
370
     9
100
AcDbVertex
100
AcDb2dVertex
 10
115.2404148075854
 20
100.9661690121348
 30
0.0
  0
VERTEX
  5
3BE
330
3B2
100
AcDbEntity
  8
0
 62
     7
420
 16777215
370
     9
100
AcDbVertex
100
AcDb2dVertex
 10
114.8659326812949
 20
100.8297431409195
 30
0.0
  0
VERTEX
  5
3BF
330
3B2
100
AcDbEntity
  8
0
 62
     7
420
 16777215
370
     9
100
AcDbVertex
100
AcDb2dVertex
 10
114.5241789837051
 20
100.6313055100609
 30
0.0
  0
VERTEX
  5
3C0
330
3B2
100
AcDbEntity
  8
0
 62
     7
420
 16777215
370
     9
100
AcDbVertex
100
AcDb2dVertex
 10
114.2275560667446
 20
100.3770572955233
 30
0.0
  0
VERTEX
  5
3C1
330
3B2
100
AcDbEntity
  8
0
 62
     7
420
 16777215
370
     9
100
AcDbVertex
100
AcDb2dVertex
 10
113.9853656943599
 20
100.0759557514775
 30
0.0
  0
VERTEX
  5
3C2
330
3B2
100
AcDbEntity
  8
0
 62
     7
420
 16777215
370
     9
100
AcDbVertex
100
AcDb2dVertex
 10
113.8065651207217
 20
99.73799166142146
 30
0.0
  0
VERTEX
  5
3C3
330
3B2
100
AcDbEntity
  8
0
 62
     7
420
 16777215
370
     9
100
AcDbVertex
100
AcDb2dVertex
 10
113.6963219924669
 20
99.37487835773229
 30
0.0
  0
VERTEX
  5
3C4
330
3B2
100
AcDbEntity
  8
0
 62
     7
420
 16777215
370
     9
100
AcDbVertex
100
AcDb2dVertex
 10
113.6594594464567
 20
98.99901819233867
 30
0.0
  0
VERTEX
  5
3C5
330
3B2
100
AcDbEntity
  8
0
 62
     7
420
 16777215
370
     9
100
AcDbVertex
100
AcDb2dVertex
 10
113.6963219924669
 20
98.62350253672085
 30
0.0
  0
VERTEX
  5
3C6
330
3B2
100
AcDbEntity
  8
0
 62
     7
420
 16777215
370
     9
100
AcDbVertex
100
AcDb2dVertex
 10
113.8065651207217
 20
98.26038923303169
 30
0.0
  0
VERTEX
  5
3C7
330
3B2
100
AcDbEntity
  8
0
 62
     7
420
 16777215
370
     9
100
AcDbVertex
100
AcDb2dVertex
 10
113.9853656943599
 20
97.92242514297564
 30
0.0
  0
VERTEX
  5
3C8
330
3B2
100
AcDbEntity
  8
0
 62
     7
420
 16777215
370
     9
100
AcDbVertex
100
AcDb2dVertex
 10
114.2275560667446
 20
97.62097908915399
 30
0.0
  0
VERTEX
  5
3C9
330
3B2
100
AcDbEntity
  8
0
 62
     7
420
 16777215
370
     9
100
AcDbVertex
100
AcDb2dVertex
 10
114.5241789837051
 20
97.36673087461642
 30
0.0
  0
VERTEX
  5
3CA
330
3B2
100
AcDbEntity
  8
0
 62
     7
420
 16777215
370
     9
100
AcDbVertex
100
AcDb2dVertex
 10
114.8659326812949
 20
97.16829324375783
 30
0.0
  0
VERTEX
  5
3CB
330
3B2
100
AcDbEntity
  8
0
 62
     7
420
 16777215
370
     9
100
AcDbVertex
100
AcDb2dVertex
 10
115.2404148075854
 20
97.03186737254255
 30
0.0
  0
VERTEX
  5
3CC
330
3B2
100
AcDbEntity
  8
0
 62
     7
420
 16777215
370
     9
100
AcDbVertex
100
AcDb2dVertex
 10
115.6352230106478
 20
96.96227639783172
 30
0.0
  0
VERTEX
  5
3CD
330
3B2
100
AcDbEntity
  8
0
 62
     7
420
 16777215
370
     9
100
AcDbVertex
100
AcDb2dVertex
 10
116.0369214092261
 20
96.96227639783172
 30
0.0
  0
VERTEX
  5
3CE
330
3B2
100
AcDbEntity
  8
0
 62
     7
420
 16777215
370
     9
100
AcDbVertex
100
AcDb2dVertex
 10
116.4317296122885
 20
97.03186737254255
 30
0.0
  0
VERTEX
  5
3CF
330
3B2
100
AcDbEntity
  8
0
 62
     7
420
 16777215
370
     9
100
AcDbVertex
100
AcDb2dVertex
 10
116.806211738579
 20
97.16829324375783
 30
0.0
  0
VERTEX
  5
3D0
330
3B2
100
AcDbEntity
  8
0
 62
     7
420
 16777215
370
     9
100
AcDbVertex
100
AcDb2dVertex
 10
117.1476209263929
 20
97.36673087461642
 30
0.0
  0
VERTEX
  5
3D1
330
3B2
100
AcDbEntity
  8
0
 62
     7
420
 16777215
370
     9
100
AcDbVertex
100
AcDb2dVertex
 10
117.4445883531292
 20
97.62097908915399
 30
0.0
  0
VERTEX
  5
3D2
330
3B2
100
AcDbEntity
  8
0
 62
     7
420
 16777215
370
     9
100
AcDbVertex
100
AcDb2dVertex
 10
117.6864342157382
 20
97.92242514297564
 30
0.0
  0
VERTEX
  5
3D3
330
3B2
100
AcDbEntity
  8
0
 62
     7
420
 16777215
370
     9
100
AcDbVertex
100
AcDb2dVertex
 10
117.8655792991522
 20
98.26038923303169
 30
0.0
  0
VERTEX
  5
3D4
330
3B2
100
AcDbEntity
  8
0
 62
     7
420
 16777215
370
     9
100
AcDbVertex
100
AcDb2dVertex
 10
117.9754779176311
 20
98.62350253672085
 30
0.0
  0
VERTEX
  5
3D5
330
3B2
100
AcDbEntity
  8
0
 62
     7
420
 16777215
370
     9
100
AcDbVertex
100
AcDb2dVertex
 10
118.0126849734171
 20
98.99901819233867
 30
0.0
  0
SEQEND
  5
3D6
330
3B2
100
AcDbEntity
  8
0
370
     9
  0
ENDBLK
  5
3B1
330
3AE
100
AcDbEntity
  8
0
100
AcDbBlockEnd
  0
BLOCK
  5
3D9
330
3D7
100
AcDbEntity
  8
0
100
AcDbBlockBegin
  2
block 109
 70
     0
 71
     0
 10
0.0
 20
0.0
 30
0.0
  3
block 109
  1

  0
POLYLINE
  5
3DB
330
3D7
100
AcDbEntity
  8
0
 62
     7
420
 16777215
370
     9
100
AcDb2dPolyline
 66
     1
 10
0.0
 20
0.0
 30
0.0
  0
VERTEX
  5
3DC
330
3DB
100
AcDbEntity
  8
0
 62
     7
420
 16777215
370
     9
100
AcDbVertex
100
AcDb2dVertex
 10
64.9965923408084
 20
105.9350335084429
 30
0.0
  0
VERTEX
  5
3DD
330
3DB
100
AcDbEntity
  8
0
 62
     7
420
 16777215
370
     9
100
AcDbVertex
100
AcDb2dVertex
 10
64.9965923408084
 20
110.9100991807154
 30
0.0
  0
SEQEND
  5
3DE
330
3DB
100
AcDbEntity
  8
0
370
     9
  0
ENDBLK
  5
3DA
330
3D7
100
AcDbEntity
  8
0
100
AcDbBlockEnd
  0
BLOCK
  5
3E1
330
3DF
100
AcDbEntity
  8
0
100
AcDbBlockBegin
  2
block 110
 70
     0
 71
     0
 10
0.0
 20
0.0
 30
0.0
  3
block 110
  1

  0
POLYLINE
  5
3E3
330
3DF
100
AcDbEntity
  8
0
 62
     7
420
 16777215
370
     9
100
AcDb2dPolyline
 66
     1
 10
0.0
 20
0.0
 30
0.0
  0
VERTEX
  5
3E4
330
3E3
100
AcDbEntity
  8
0
 62
     7
420
 16777215
370
     9
100
AcDbVertex
100
AcDb2dVertex
 10
51.62616794215909
 20
110.9100991807154
 30
0.0
  0
VERTEX
  5
3E5
330
3E3
100
AcDbEntity
  8
0
 62
     7
420
 16777215
370
     9
100
AcDbVertex
100
AcDb2dVertex
 10
51.62616794215909
 20
105.9350335084429
 30
0.0
  0
SEQEND
  5
3E6
330
3E3
100
AcDbEntity
  8
0
370
     9
  0
ENDBLK
  5
3E2
330
3DF
100
AcDbEntity
  8
0
100
AcDbBlockEnd
  0
BLOCK
  5
3E9
330
3E7
100
AcDbEntity
  8
0
100
AcDbBlockBegin
  2
block 111
 70
     0
 71
     0
 10
0.0
 20
0.0
 30
0.0
  3
block 111
  1

  0
POLYLINE
  5
3EB
330
3E7
100
AcDbEntity
  8
0
 62
     7
420
 16777215
370
     9
100
AcDb2dPolyline
 66
     1
 10
0.0
 20
0.0
 30
0.0
  0
VERTEX
  5
3EC
330
3EB
100
AcDbEntity
  8
0
 62
     7
420
 16777215
370
     9
100
AcDbVertex
100
AcDb2dVertex
 10
102.3099293926278
 20
105.9350335084429
 30
0.0
  0
VERTEX
  5
3ED
330
3EB
100
AcDbEntity
  8
0
 62
     7
420
 16777215
370
     9
100
AcDbVertex
100
AcDb2dVertex
 10
102.3099293926278
 20
110.9100991807154
 30
0.0
  0
SEQEND
  5
3EE
330
3EB
100
AcDbEntity
  8
0
370
     9
  0
ENDBLK
  5
3EA
330
3E7
100
AcDbEntity
  8
0
100
AcDbBlockEnd
  0
BLOCK
  5
3F1
330
3EF
100
AcDbEntity
  8
0
100
AcDbBlockBegin
  2
block 112
 70
     0
 71
     0
 10
0.0
 20
0.0
 30
0.0
  3
block 112
  1

  0
POLYLINE
  5
3F3
330
3EF
100
AcDbEntity
  8
0
 62
     7
420
 16777215
370
     9
100
AcDb2dPolyline
 66
     1
 10
0.0
 20
0.0
 30
0.0
  0
VERTEX
  5
3F4
330
3F3
100
AcDbEntity
  8
0
 62
     7
420
 16777215
370
     9
100
AcDbVertex
100
AcDb2dVertex
 10
88.93933273909055
 20
110.9100991807154
 30
0.0
  0
VERTEX
  5
3F5
330
3F3
100
AcDbEntity
  8
0
 62
     7
420
 16777215
370
     9
100
AcDbVertex
100
AcDb2dVertex
 10
88.93933273909055
 20
105.9350335084429
 30
0.0
  0
SEQEND
  5
3F6
330
3F3
100
AcDbEntity
  8
0
370
     9
  0
ENDBLK
  5
3F2
330
3EF
100
AcDbEntity
  8
0
100
AcDbBlockEnd
  0
BLOCK
  5
3F9
330
3F7
100
AcDbEntity
  8
0
100
AcDbBlockBegin
  2
block 113
 70
     0
 71
     0
 10
0.0
 20
0.0
 30
0.0
  3
block 113
  1

  0
POLYLINE
  5
3FB
330
3F7
100
AcDbEntity
  8
0
 62
     7
420
 16777215
370
     9
100
AcDb2dPolyline
 66
     1
 10
0.0
 20
0.0
 30
0.0
  0
VERTEX
  5
3FC
330
3FB
100
AcDbEntity
  8
0
 62
     7
420
 16777215
370
     9
100
AcDbVertex
100
AcDb2dVertex
 10
44.62969116040259
 20
113.3978042717395
 30
0.0
  0
VERTEX
  5
3FD
330
3FB
100
AcDbEntity
  8
0
 62
     7
420
 16777215
370
     9
100
AcDbVertex
100
AcDb2dVertex
 10
44.62969116040259
 20
108.4227385994671
 30
0.0
  0
SEQEND
  5
3FE
330
3FB
100
AcDbEntity
  8
0
370
     9
  0
ENDBLK
  5
3FA
330
3F7
100
AcDbEntity
  8
0
100
AcDbBlockEnd
  0
BLOCK
  5
401
330
3FF
100
AcDbEntity
  8
0
100
AcDbBlockBegin
  2
block 114
 70
     0
 71
     0
 10
0.0
 20
0.0
 30
0.0
  3
block 114
  1

  0
SPLINE
  5
403
330
3FF
100
AcDbEntity
  8
0
 62
     7
420
 16777215
370
     9
100
AcDbSpline
210
0.0
220
0.0
230
1.0
 70
     8
 71
     3
 72
    11
 73
     7
 74
     0
 42
0.0000000001
 43
0.0000000001
 40
0.0
 40
0.0
 40
0.0
 40
0.0
 40
1.0
 40
1.0
 40
1.0
 40
2.0
 40
2.0
 40
2.0
 40
2.0
 10
35.61266454360157
 20
108.6990354396556
 30
0.0
 10
35.67846591077863
 20
107.3161731996098
 30
0.0
 10
36.85307199135567
 20
106.2485374044174
 30
0.0
 10
38.23593423140149
 20
106.3143387715945
 30
0.0
 10
39.06585828129447
 20
106.3129607324913
 30
0.0
 10
40.00981506697597
 20
106.9227430356506
 30
0.0
 10
40.34984621568679
 20
107.6796310130747
 30
0.0
  0
ENDBLK
  5
402
330
3FF
100
AcDbEntity
  8
0
100
AcDbBlockEnd
  0
BLOCK
  5
406
330
404
100
AcDbEntity
  8
0
100
AcDbBlockBegin
  2
block 115
 70
     0
 71
     0
 10
0.0
 20
0.0
 30
0.0
  3
block 115
  1

  0
SPLINE
  5
408
330
404
100
AcDbEntity
  8
0
 62
     7
420
 16777215
370
     9
100
AcDbSpline
210
0.0
220
0.0
230
1.0
 70
     8
 71
     3
 72
    11
 73
     7
 74
     0
 42
0.0000000001
 43
0.0000000001
 40
0.0
 40
0.0
 40
0.0
 40
0.0
 40
1.0
 40
1.0
 40
1.0
 40
2.0
 40
2.0
 40
2.0
 40
2.0
 10
35.61249228871367
 20
97.19103088896038
 30
0.0
 10
35.67760463633915
 20
95.81712590308526
 30
0.0
 10
36.84411473718497
 20
94.75638030340885
 30
0.0
 10
38.2180197230601
 20
94.82149265103433
 30
0.0
 10
39.4854711882142
 20
94.86731245121521
 30
0.0
 10
40.54191041569315
 20
95.92392393358207
 30
0.0
 10
40.58755796098614
 20
97.19103088896038
 30
0.0
  0
ENDBLK
  5
407
330
404
100
AcDbEntity
  8
0
100
AcDbBlockEnd
  0
BLOCK
  5
40B
330
409
100
AcDbEntity
  8
0
100
AcDbBlockBegin
  2
block 116
 70
     0
 71
     0
 10
0.0
 20
0.0
 30
0.0
  3
block 116
  1

  0
POLYLINE
  5
40D
330
409
100
AcDbEntity
  8
0
 62
     7
420
 16777215
370
     9
100
AcDb2dPolyline
 66
     1
 10
0.0
 20
0.0
 30
0.0
  0
VERTEX
  5
40E
330
40D
100
AcDbEntity
  8
0
 62
     7
420
 16777215
370
     9
100
AcDbVertex
100
AcDb2dVertex
 10
113.3483671189128
 20
97.19103088896038
 30
0.0
  0
VERTEX
  5
5C4
330
40D
100
AcDbEntity
  8
0
100
AcDbVertex
100
AcDb2dVertex
 10
113.3483671189128
 20
97.19103088896038
 30
0.0
  0
SEQEND
  5
40F
330
40D
100
AcDbEntity
  8
0
370
     9
  0
POLYLINE
  5
410
330
409
100
AcDbEntity
  8
0
 62
     7
420
 16777215
370
     9
100
AcDb2dPolyline
 66
     1
 10
0.0
 20
0.0
 30
0.0
  0
VERTEX
  5
411
330
410
100
AcDbEntity
  8
0
 62
     7
420
 16777215
370
     9
100
AcDbVertex
100
AcDb2dVertex
 10
118.3234327911853
 20
97.19103088896038
 30
0.0
  0
VERTEX
  5
412
330
410
100
AcDbEntity
  8
0
 62
     7
420
 16777215
370
     9
100
AcDbVertex
100
AcDb2dVertex
 10
118.2858812256235
 20
96.78519837307249
 30
0.0
  0
VERTEX
  5
413
330
410
100
AcDbEntity
  8
0
 62
     7
420
 16777215
370
     9
100
AcDbVertex
100
AcDb2dVertex
 10
118.1735710387139
 20
96.39176820911327
 30
0.0
  0
VERTEX
  5
414
330
410
100
AcDbEntity
  8
0
 62
     7
420
 16777215
370
     9
100
AcDbVertex
100
AcDb2dVertex
 10
117.9902918379904
 20
96.02245372945977
 30
0.0
  0
VERTEX
  5
415
330
410
100
AcDbEntity
  8
0
 62
     7
420
 16777215
370
     9
100
AcDbVertex
100
AcDb2dVertex
 10
117.7415557798655
 20
95.68862375671328
 30
0.0
  0
VERTEX
  5
416
330
410
100
AcDbEntity
  8
0
 62
     7
420
 16777215
370
     9
100
AcDbVertex
100
AcDb2dVertex
 10
117.434942079407
 20
95.40061358414769
 30
0.0
  0
VERTEX
  5
417
330
410
100
AcDbEntity
  8
0
 62
     7
420
 16777215
370
     9
100
AcDbVertex
100
AcDb2dVertex
 10
117.0797525005611
 20
95.16703595615789
 30
0.0
  0
VERTEX
  5
418
330
410
100
AcDbEntity
  8
0
 62
     7
420
 16777215
370
     9
100
AcDbVertex
100
AcDb2dVertex
 10
116.6866668463777
 20
94.99443655848401
 30
0.0
  0
VERTEX
  5
419
330
410
100
AcDbEntity
  8
0
 62
     7
420
 16777215
370
     9
100
AcDbVertex
100
AcDb2dVertex
 10
116.2677429590095
 20
94.88901656709038
 30
0.0
  0
VERTEX
  5
41A
330
410
100
AcDbEntity
  8
0
 62
     7
420
 16777215
370
     9
100
AcDbVertex
100
AcDb2dVertex
 10
115.8360722099369
 20
94.85353206018337
 30
0.0
  0
VERTEX
  5
41B
330
410
100
AcDbEntity
  8
0
 62
     7
420
 16777215
370
     9
100
AcDbVertex
100
AcDb2dVertex
 10
115.4040569510885
 20
94.88901656709038
 30
0.0
  0
VERTEX
  5
41C
330
410
100
AcDbEntity
  8
0
 62
     7
420
 16777215
370
     9
100
AcDbVertex
100
AcDb2dVertex
 10
114.9851330637204
 20
94.99443655848401
 30
0.0
  0
VERTEX
  5
41D
330
410
100
AcDbEntity
  8
0
 62
     7
420
 16777215
370
     9
100
AcDbVertex
100
AcDb2dVertex
 10
114.592047409537
 20
95.16703595615789
 30
0.0
  0
VERTEX
  5
41E
330
410
100
AcDbEntity
  8
0
 62
     7
420
 16777215
370
     9
100
AcDbVertex
100
AcDb2dVertex
 10
114.2368578306911
 20
95.40061358414769
 30
0.0
  0
VERTEX
  5
41F
330
410
100
AcDbEntity
  8
0
 62
     7
420
 16777215
370
     9
100
AcDbVertex
100
AcDb2dVertex
 10
113.9305886400083
 20
95.68862375671328
 30
0.0
  0
VERTEX
  5
420
330
410
100
AcDbEntity
  8
0
 62
     7
420
 16777215
370
     9
100
AcDbVertex
100
AcDb2dVertex
 10
113.6818525818835
 20
96.02245372945977
 30
0.0
  0
VERTEX
  5
421
330
410
100
AcDbEntity
  8
0
 62
     7
420
 16777215
370
     9
100
AcDbVertex
100
AcDb2dVertex
 10
113.4985733811599
 20
96.39176820911327
 30
0.0
  0
VERTEX
  5
422
330
410
100
AcDbEntity
  8
0
 62
     7
420
 16777215
370
     9
100
AcDbVertex
100
AcDb2dVertex
 10
113.3862631942504
 20
96.78519837307249
 30
0.0
  0
VERTEX
  5
423
330
410
100
AcDbEntity
  8
0
 62
     7
420
 16777215
370
     9
100
AcDbVertex
100
AcDb2dVertex
 10
113.3483671189128
 20
97.19103088896038
 30
0.0
  0
SEQEND
  5
424
330
410
100
AcDbEntity
  8
0
370
     9
  0
ENDBLK
  5
40C
330
409
100
AcDbEntity
  8
0
100
AcDbBlockEnd
  0
BLOCK
  5
427
330
425
100
AcDbEntity
  8
0
100
AcDbBlockBegin
  2
block 117
 70
     0
 71
     0
 10
0.0
 20
0.0
 30
0.0
  3
block 117
  1

  0
POLYLINE
  5
429
330
425
100
AcDbEntity
  8
0
 62
     7
420
 16777215
370
     9
100
AcDb2dPolyline
 66
     1
 10
0.0
 20
0.0
 30
0.0
  0
VERTEX
  5
42A
330
429
100
AcDbEntity
  8
0
 62
     7
420
 16777215
370
     9
100
AcDbVertex
100
AcDb2dVertex
 10
109.3062339194963
 20
97.44527910349795
 30
0.0
  0
VERTEX
  5
42B
330
429
100
AcDbEntity
  8
0
 62
     7
420
 16777215
370
     9
100
AcDbVertex
100
AcDb2dVertex
 10
109.3062339194963
 20
92.47021343122547
 30
0.0
  0
SEQEND
  5
42C
330
429
100
AcDbEntity
  8
0
370
     9
  0
ENDBLK
  5
428
330
425
100
AcDbEntity
  8
0
100
AcDbBlockEnd
  0
BLOCK
  5
42F
330
42D
100
AcDbEntity
  8
0
100
AcDbBlockBegin
  2
block 118
 70
     0
 71
     0
 10
0.0
 20
0.0
 30
0.0
  3
block 118
  1

  0
POLYLINE
  5
431
330
42D
100
AcDbEntity
  8
0
 62
     7
420
 16777215
370
     9
100
AcDb2dPolyline
 66
     1
 10
0.0
 20
0.0
 30
0.0
  0
VERTEX
  5
432
330
431
100
AcDbEntity
  8
0
 62
     7
420
 16777215
370
     9
100
AcDbVertex
100
AcDb2dVertex
 10
44.62969116040259
 20
97.44527910349795
 30
0.0
  0
VERTEX
  5
433
330
431
100
AcDbEntity
  8
0
 62
     7
420
 16777215
370
     9
100
AcDbVertex
100
AcDb2dVertex
 10
44.62969116040259
 20
92.47021343122547
 30
0.0
  0
SEQEND
  5
434
330
431
100
AcDbEntity
  8
0
370
     9
  0
ENDBLK
  5
430
330
42D
100
AcDbEntity
  8
0
100
AcDbBlockEnd
  0
BLOCK
  5
437
330
435
100
AcDbEntity
  8
0
100
AcDbBlockBegin
  2
block 119
 70
     0
 71
     0
 10
0.0
 20
0.0
 30
0.0
  3
block 119
  1

  0
POLYLINE
  5
439
330
435
100
AcDbEntity
  8
0
 62
     7
420
 16777215
370
     9
100
AcDb2dPolyline
 66
     1
 10
0.0
 20
0.0
 30
0.0
  0
VERTEX
  5
43A
330
439
100
AcDbEntity
  8
0
 62
     7
420
 16777215
370
     9
100
AcDbVertex
100
AcDb2dVertex
 10
118.2641771097483
 20
96.68322347943682
 30
0.0
  0
VERTEX
  5
43B
330
439
100
AcDbEntity
  8
0
 62
     7
420
 16777215
370
     9
100
AcDbVertex
100
AcDb2dVertex
 10
118.2641771097483
 20
96.68322347943682
 30
0.0
  0
SEQEND
  5
43C
330
439
100
AcDbEntity
  8
0
370
     9
  0
ENDBLK
  5
438
330
435
100
AcDbEntity
  8
0
100
AcDbBlockEnd
  0
BLOCK
  5
43F
330
43D
100
AcDbEntity
  8
0
100
AcDbBlockBegin
  2
block 120
 70
     0
 71
     0
 10
0.0
 20
0.0
 30
0.0
  3
block 120
  1

  0
INSERT
  5
442
330
43D
100
AcDbEntity
  8
0
100
AcDbBlockReference
  2
block 121
 10
0.0
 20
0.0
 30
0.0
  0
INSERT
  5
44E
330
43D
100
AcDbEntity
  8
0
100
AcDbBlockReference
  2
block 123
 10
0.0
 20
0.0
 30
0.0
  0
INSERT
  5
490
330
43D
100
AcDbEntity
  8
0
100
AcDbBlockReference
  2
block 129
 10
0.0
 20
0.0
 30
0.0
  0
INSERT
  5
498
330
43D
100
AcDbEntity
  8
0
100
AcDbBlockReference
  2
block 130
 10
0.0
 20
0.0
 30
0.0
  0
INSERT
  5
4A0
330
43D
100
AcDbEntity
  8
0
100
AcDbBlockReference
  2
block 131
 10
0.0
 20
0.0
 30
0.0
  0
INSERT
  5
4A8
330
43D
100
AcDbEntity
  8
0
100
AcDbBlockReference
  2
block 132
 10
0.0
 20
0.0
 30
0.0
  0
ENDBLK
  5
440
330
43D
100
AcDbEntity
  8
0
100
AcDbBlockEnd
  0
BLOCK
  5
443
330
441
100
AcDbEntity
  8
0
100
AcDbBlockBegin
  2
block 121
 70
     0
 71
     0
 10
0.0
 20
0.0
 30
0.0
  3
block 121
  1

  0
INSERT
  5
446
330
441
100
AcDbEntity
  8
0
100
AcDbBlockReference
  2
block 122
 10
0.0
 20
0.0
 30
0.0
  0
ENDBLK
  5
444
330
441
100
AcDbEntity
  8
0
100
AcDbBlockEnd
  0
BLOCK
  5
447
330
445
100
AcDbEntity
  8
0
100
AcDbBlockBegin
  2
block 122
 70
     0
 71
     0
 10
0.0
 20
0.0
 30
0.0
  3
block 122
  1

  0
POLYLINE
  5
449
330
445
100
AcDbEntity
  8
0
 62
     7
420
 16777215
370
     9
100
AcDb2dPolyline
 66
     1
 10
0.0
 20
0.0
 30
0.0
  0
VERTEX
  5
44A
330
449
100
AcDbEntity
  8
0
 62
     7
420
 16777215
370
     9
100
AcDbVertex
100
AcDb2dVertex
 10
118.2641771097483
 20
86.25146746832883
 30
0.0
  0
VERTEX
  5
44B
330
449
100
AcDbEntity
  8
0
 62
     7
420
 16777215
370
     9
100
AcDbVertex
100
AcDb2dVertex
 10
114.5327917281
 20
86.25146746832883
 30
0.0
  0
SEQEND
  5
44C
330
449
100
AcDbEntity
  8
0
370
     9
  0
ENDBLK
  5
448
330
445
100
AcDbEntity
  8
0
100
AcDbBlockEnd
  0
BLOCK
  5
44F
330
44D
100
AcDbEntity
  8
0
100
AcDbBlockBegin
  2
block 123
 70
     0
 71
     0
 10
0.0
 20
0.0
 30
0.0
  3
block 123
  1

  0
INSERT
  5
452
330
44D
100
AcDbEntity
  8
0
100
AcDbBlockReference
  2
block 124
 10
0.0
 20
0.0
 30
0.0
  0
INSERT
  5
488
330
44D
100
AcDbEntity
  8
0
100
AcDbBlockReference
  2
block 128
 10
0.0
 20
0.0
 30
0.0
  0
ENDBLK
  5
450
330
44D
100
AcDbEntity
  8
0
100
AcDbBlockEnd
  0
BLOCK
  5
453
330
451
100
AcDbEntity
  8
0
100
AcDbBlockBegin
  2
block 124
 70
     0
 71
     0
 10
0.0
 20
0.0
 30
0.0
  3
block 124
  1

  0
INSERT
  5
456
330
451
100
AcDbEntity
  8
0
100
AcDbBlockReference
  2
block 125
 10
0.0
 20
0.0
 30
0.0
  0
ENDBLK
  5
454
330
451
100
AcDbEntity
  8
0
100
AcDbBlockEnd
  0
BLOCK
  5
457
330
455
100
AcDbEntity
  8
0
100
AcDbBlockBegin
  2
block 125
 70
     0
 71
     0
 10
0.0
 20
0.0
 30
0.0
  3
block 125
  1

  0
INSERT
  5
45A
330
455
100
AcDbEntity
  8
0
100
AcDbBlockReference
  2
block 126
 10
0.0
 20
0.0
 30
0.0
  0
INSERT
  5
46C
330
455
100
AcDbEntity
  8
0
100
AcDbBlockReference
  2
block 127
 10
0.0
 20
0.0
 30
0.0
  0
ENDBLK
  5
458
330
455
100
AcDbEntity
  8
0
100
AcDbBlockEnd
  0
BLOCK
  5
45B
330
459
100
AcDbEntity
  8
0
100
AcDbBlockBegin
  2
block 126
 70
     0
 71
     0
 10
0.0
 20
0.0
 30
0.0
  3
block 126
  1

  0
POLYLINE
  5
45D
330
459
100
AcDbEntity
  8
0
370
     0
100
AcDb2dPolyline
 66
     1
 10
0.0
 20
0.0
 30
0.0
  0
VERTEX
  5
45E
330
45D
100
AcDbEntity
  8
0
370
     0
100
AcDbVertex
100
AcDb2dVertex
 10
118.2652106390757
 20
86.25250099765623
 30
0.0
  0
VERTEX
  5
45F
330
45D
100
AcDbEntity
  8
0
370
     0
100
AcDbVertex
100
AcDb2dVertex
 10
114.5327917281
 20
85.62824928391356
 30
0.0
  0
VERTEX
  5
460
330
45D
100
AcDbEntity
  8
0
370
     0
100
AcDbVertex
100
AcDb2dVertex
 10
114.5327917281
 20
86.87330761364092
 30
0.0
  0
VERTEX
  5
461
330
45D
100
AcDbEntity
  8
0
370
     0
100
AcDbVertex
100
AcDb2dVertex
 10
118.2652106390757
 20
86.25250099765623
 30
0.0
  0
SEQEND
  5
462
330
45D
100
AcDbEntity
  8
0
370
     0
  0
HATCH
  5
463
330
459
100
AcDbEntity
  8
0
 62
     7
420
 16777215
100
AcDbHatch
 10
0.0
 20
0.0
 30
0.0
210
0.0
220
0.0
230
1.0
  2
SOLID
 70
     1
 71
     0
 91
        1
 92
        1
 93
        3
 72
     1
 10
118.2652106390757
 20
86.25250099765623
 11
114.5327917281
 21
85.62824928391356
 72
     1
 10
114.5327917281
 20
85.62824928391356
 11
114.5327917281
 21
86.87330761364092
 72
     1
 10
114.5327917281
 20
86.87330761364092
 11
118.2652106390757
 21
86.25250099765623
 97
        0
 75
     2
 76
     1
 98
        0
  0
POLYLINE
  5
464
330
459
100
AcDbEntity
  8
0
370
     0
100
AcDb2dPolyline
 66
     1
 10
0.0
 20
0.0
 30
0.0
  0
VERTEX
  5
465
330
464
100
AcDbEntity
  8
0
370
     0
100
AcDbVertex
100
AcDb2dVertex
 10
39.34542796435306
 20
86.87330761364092
 30
0.0
  0
VERTEX
  5
466
330
464
100
AcDbEntity
  8
0
370
     0
100
AcDbVertex
100
AcDb2dVertex
 10
39.34542796435306
 20
85.62824928391356
 30
0.0
  0
VERTEX
  5
467
330
464
100
AcDbEntity
  8
0
370
     0
100
AcDbVertex
100
AcDb2dVertex
 10
35.61300905337736
 20
86.25250099765623
 30
0.0
  0
VERTEX
  5
468
330
464
100
AcDbEntity
  8
0
370
     0
100
AcDbVertex
100
AcDb2dVertex
 10
39.34542796435306
 20
86.87330761364092
 30
0.0
  0
SEQEND
  5
469
330
464
100
AcDbEntity
  8
0
370
     0
  0
HATCH
  5
46A
330
459
100
AcDbEntity
  8
0
 62
     7
420
 16777215
100
AcDbHatch
 10
0.0
 20
0.0
 30
0.0
210
0.0
220
0.0
230
1.0
  2
SOLID
 70
     1
 71
     0
 91
        1
 92
        1
 93
        3
 72
     1
 10
39.34542796435306
 20
86.87330761364092
 11
39.34542796435306
 21
85.62824928391356
 72
     1
 10
39.34542796435306
 20
85.62824928391356
 11
35.61300905337736
 21
86.25250099765623
 72
     1
 10
35.61300905337736
 20
86.25250099765623
 11
39.34542796435306
 21
86.87330761364092
 97
        0
 75
     2
 76
     1
 98
        0
  0
ENDBLK
  5
45C
330
459
100
AcDbEntity
  8
0
100
AcDbBlockEnd
  0
BLOCK
  5
46D
330
46B
100
AcDbEntity
  8
0
100
AcDbBlockBegin
  2
block 127
 70
     0
 71
     0
 10
0.0
 20
0.0
 30
0.0
  3
block 127
  1

  0
POLYLINE
  5
46F
330
46B
100
AcDbEntity
  8
0
 62
     7
420
 16777215
370
     9
100
AcDb2dPolyline
 66
     1
 10
0.0
 20
0.0
 30
0.0
  0
VERTEX
  5
470
330
46F
100
AcDbEntity
  8
0
 62
     7
420
 16777215
370
     9
100
AcDbVertex
100
AcDb2dVertex
 10
114.5327917281
 20
86.87330761364092
 30
0.0
  0
VERTEX
  5
471
330
46F
100
AcDbEntity
  8
0
 62
     7
420
 16777215
370
     9
100
AcDbVertex
100
AcDb2dVertex
 10
118.2652106390757
 20
86.25250099765623
 30
0.0
  0
SEQEND
  5
472
330
46F
100
AcDbEntity
  8
0
370
     9
  0
POLYLINE
  5
473
330
46B
100
AcDbEntity
  8
0
 62
     7
420
 16777215
370
     9
100
AcDb2dPolyline
 66
     1
 10
0.0
 20
0.0
 30
0.0
  0
VERTEX
  5
474
330
473
100
AcDbEntity
  8
0
 62
     7
420
 16777215
370
     9
100
AcDbVertex
100
AcDb2dVertex
 10
118.2652106390757
 20
86.25250099765623
 30
0.0
  0
VERTEX
  5
475
330
473
100
AcDbEntity
  8
0
 62
     7
420
 16777215
370
     9
100
AcDbVertex
100
AcDb2dVertex
 10
114.5327917281
 20
85.62824928391356
 30
0.0
  0
SEQEND
  5
476
330
473
100
AcDbEntity
  8
0
370
     9
  0
POLYLINE
  5
477
330
46B
100
AcDbEntity
  8
0
 62
     7
420
 16777215
370
     9
100
AcDb2dPolyline
 66
     1
 10
0.0
 20
0.0
 30
0.0
  0
VERTEX
  5
478
330
477
100
AcDbEntity
  8
0
 62
     7
420
 16777215
370
     9
100
AcDbVertex
100
AcDb2dVertex
 10
114.5327917281
 20
86.87330761364092
 30
0.0
  0
VERTEX
  5
479
330
477
100
AcDbEntity
  8
0
 62
     7
420
 16777215
370
     9
100
AcDbVertex
100
AcDb2dVertex
 10
114.5327917281
 20
85.62824928391356
 30
0.0
  0
SEQEND
  5
47A
330
477
100
AcDbEntity
  8
0
370
     9
  0
POLYLINE
  5
47B
330
46B
100
AcDbEntity
  8
0
 62
     7
420
 16777215
370
     9
100
AcDb2dPolyline
 66
     1
 10
0.0
 20
0.0
 30
0.0
  0
VERTEX
  5
47C
330
47B
100
AcDbEntity
  8
0
 62
     7
420
 16777215
370
     9
100
AcDbVertex
100
AcDb2dVertex
 10
39.34542796435306
 20
85.62824928391356
 30
0.0
  0
VERTEX
  5
47D
330
47B
100
AcDbEntity
  8
0
 62
     7
420
 16777215
370
     9
100
AcDbVertex
100
AcDb2dVertex
 10
35.61300905337736
 20
86.25250099765623
 30
0.0
  0
SEQEND
  5
47E
330
47B
100
AcDbEntity
  8
0
370
     9
  0
POLYLINE
  5
47F
330
46B
100
AcDbEntity
  8
0
 62
     7
420
 16777215
370
     9
100
AcDb2dPolyline
 66
     1
 10
0.0
 20
0.0
 30
0.0
  0
VERTEX
  5
480
330
47F
100
AcDbEntity
  8
0
 62
     7
420
 16777215
370
     9
100
AcDbVertex
100
AcDb2dVertex
 10
35.61300905337736
 20
86.25250099765623
 30
0.0
  0
VERTEX
  5
481
330
47F
100
AcDbEntity
  8
0
 62
     7
420
 16777215
370
     9
100
AcDbVertex
100
AcDb2dVertex
 10
39.34542796435306
 20
86.87330761364092
 30
0.0
  0
SEQEND
  5
482
330
47F
100
AcDbEntity
  8
0
370
     9
  0
POLYLINE
  5
483
330
46B
100
AcDbEntity
  8
0
 62
     7
420
 16777215
370
     9
100
AcDb2dPolyline
 66
     1
 10
0.0
 20
0.0
 30
0.0
  0
VERTEX
  5
484
330
483
100
AcDbEntity
  8
0
 62
     7
420
 16777215
370
     9
100
AcDbVertex
100
AcDb2dVertex
 10
39.34542796435306
 20
85.62824928391356
 30
0.0
  0
VERTEX
  5
485
330
483
100
AcDbEntity
  8
0
 62
     7
420
 16777215
370
     9
100
AcDbVertex
100
AcDb2dVertex
 10
39.34542796435306
 20
86.87330761364092
 30
0.0
  0
SEQEND
  5
486
330
483
100
AcDbEntity
  8
0
370
     9
  0
ENDBLK
  5
46E
330
46B
100
AcDbEntity
  8
0
100
AcDbBlockEnd
  0
BLOCK
  5
489
330
487
100
AcDbEntity
  8
0
100
AcDbBlockBegin
  2
block 128
 70
     0
 71
     0
 10
0.0
 20
0.0
 30
0.0
  3
block 128
  1

  0
POLYLINE
  5
48B
330
487
100
AcDbEntity
  8
0
 62
     7
420
 16777215
370
     9
100
AcDb2dPolyline
 66
     1
 10
0.0
 20
0.0
 30
0.0
  0
VERTEX
  5
48C
330
48B
100
AcDbEntity
  8
0
 62
     7
420
 16777215
370
     9
100
AcDbVertex
100
AcDb2dVertex
 10
35.61249228871367
 20
86.25146746832883
 30
0.0
  0
VERTEX
  5
48D
330
48B
100
AcDbEntity
  8
0
 62
     7
420
 16777215
370
     9
100
AcDbVertex
100
AcDb2dVertex
 10
39.34387767036197
 20
86.25146746832883
 30
0.0
  0
SEQEND
  5
48E
330
48B
100
AcDbEntity
  8
0
370
     9
  0
ENDBLK
  5
48A
330
487
100
AcDbEntity
  8
0
100
AcDbBlockEnd
  0
BLOCK
  5
491
330
48F
100
AcDbEntity
  8
0
100
AcDbBlockBegin
  2
block 129
 70
     0
 71
     0
 10
0.0
 20
0.0
 30
0.0
  3
block 129
  1

  0
POLYLINE
  5
493
330
48F
100
AcDbEntity
  8
0
 62
     7
420
 16777215
370
     9
100
AcDb2dPolyline
 66
     1
 10
0.0
 20
0.0
 30
0.0
  0
VERTEX
  5
494
330
493
100
AcDbEntity
  8
0
 62
     7
420
 16777215
370
     9
100
AcDbVertex
100
AcDb2dVertex
 10
118.2641771097483
 20
96.06138333412474
 30
0.0
  0
VERTEX
  5
495
330
493
100
AcDbEntity
  8
0
 62
     7
420
 16777215
370
     9
100
AcDbVertex
100
AcDb2dVertex
 10
118.2641771097483
 20
85.62962732301675
 30
0.0
  0
SEQEND
  5
496
330
493
100
AcDbEntity
  8
0
370
     9
  0
ENDBLK
  5
492
330
48F
100
AcDbEntity
  8
0
100
AcDbBlockEnd
  0
BLOCK
  5
499
330
497
100
AcDbEntity
  8
0
100
AcDbBlockBegin
  2
block 130
 70
     0
 71
     0
 10
0.0
 20
0.0
 30
0.0
  3
block 130
  1

  0
POLYLINE
  5
49B
330
497
100
AcDbEntity
  8
0
 62
     7
420
 16777215
370
     9
100
AcDb2dPolyline
 66
     1
 10
0.0
 20
0.0
 30
0.0
  0
VERTEX
  5
49C
330
49B
100
AcDbEntity
  8
0
 62
     7
420
 16777215
370
     9
100
AcDbVertex
100
AcDb2dVertex
 10
35.61249228871367
 20
96.56919074364829
 30
0.0
  0
VERTEX
  5
49D
330
49B
100
AcDbEntity
  8
0
 62
     7
420
 16777215
370
     9
100
AcDbVertex
100
AcDb2dVertex
 10
35.61249228871367
 20
85.62962732301675
 30
0.0
  0
SEQEND
  5
49E
330
49B
100
AcDbEntity
  8
0
370
     9
  0
ENDBLK
  5
49A
330
497
100
AcDbEntity
  8
0
100
AcDbBlockEnd
  0
BLOCK
  5
4A1
330
49F
100
AcDbEntity
  8
0
100
AcDbBlockBegin
  2
block 131
 70
     0
 71
     0
 10
0.0
 20
0.0
 30
0.0
  3
block 131
  1

  0
POLYLINE
  5
4A3
330
49F
100
AcDbEntity
  8
0
 62
     7
420
 16777215
370
     9
100
AcDb2dPolyline
 66
     1
 10
0.0
 20
0.0
 30
0.0
  0
VERTEX
  5
4A4
330
4A3
100
AcDbEntity
  8
0
 62
     7
420
 16777215
370
     9
100
AcDbVertex
100
AcDb2dVertex
 10
118.2641771097483
 20
86.25146746832883
 30
0.0
  0
VERTEX
  5
4A5
330
4A3
100
AcDbEntity
  8
0
 62
     7
420
 16777215
370
     9
100
AcDbVertex
100
AcDb2dVertex
 10
35.61249228871367
 20
86.25146746832883
 30
0.0
  0
SEQEND
  5
4A6
330
4A3
100
AcDbEntity
  8
0
370
     9
  0
ENDBLK
  5
4A2
330
49F
100
AcDbEntity
  8
0
100
AcDbBlockEnd
  0
BLOCK
  5
4A9
330
4A7
100
AcDbEntity
  8
0
100
AcDbBlockBegin
  2
block 132
 70
     0
 71
     0
 10
0.0
 20
0.0
 30
0.0
  3
block 132
  1

  0
MTEXT
  5
4AB
330
4A7
100
AcDbEntity
  8
0
 62
     7
420
 16777215
100
AcDbMText
 10
74.10388051886802
 20
86.88088682870843
 30
0.0
 40
2.398890470823883
 41
0.0
 71
     7
 72
     1
  1
\fArial|b1|i0|c0|p34;\W0.75;132.90
 73
     1
 44
1.0
  0
ENDBLK
  5
4AA
330
4A7
100
AcDbEntity
  8
0
100
AcDbBlockEnd
  0
BLOCK
  5
4AE
330
4AC
100
AcDbEntity
  8
0
100
AcDbBlockBegin
  2
block 133
 70
     0
 71
     0
 10
0.0
 20
0.0
 30
0.0
  3
block 133
  1

  0
POLYLINE
  5
4B0
330
4AC
100
AcDbEntity
  8
0
 62
     7
420
 16777215
370
     9
100
AcDb2dPolyline
 66
     1
 10
0.0
 20
0.0
 30
0.0
  0
VERTEX
  5
4B1
330
4B0
100
AcDbEntity
  8
0
 62
     7
420
 16777215
370
     9
100
AcDbVertex
100
AcDb2dVertex
 10
163.2633550046923
 20
205.5851751770364
 30
0.0
  0
VERTEX
  5
4B2
330
4B0
100
AcDbEntity
  8
0
 62
     7
420
 16777215
370
     9
100
AcDbVertex
100
AcDb2dVertex
 10
165.4968118811789
 20
199.4491115603308
 30
0.0
  0
SEQEND
  5
4B3
330
4B0
100
AcDbEntity
  8
0
370
     9
  0
ENDBLK
  5
4AF
330
4AC
100
AcDbEntity
  8
0
100
AcDbBlockEnd
  0
BLOCK
  5
4B6
330
4B4
100
AcDbEntity
  8
0
100
AcDbBlockBegin
  2
block 134
 70
     0
 71
     0
 10
0.0
 20
0.0
 30
0.0
  3
block 134
  1

  0
POLYLINE
  5
4B8
330
4B4
100
AcDbEntity
  8
0
 62
     7
420
 16777215
370
     9
100
AcDb2dPolyline
 66
     1
 10
0.0
 20
0.0
 30
0.0
  0
VERTEX
  5
4B9
330
4B8
100
AcDbEntity
  8
0
 62
     7
420
 16777215
370
     9
100
AcDbVertex
100
AcDb2dVertex
 10
170.1718095387329
 20
201.1506453429881
 30
0.0
  0
VERTEX
  5
4BA
330
4B8
100
AcDbEntity
  8
0
 62
     7
420
 16777215
370
     9
100
AcDbVertex
100
AcDb2dVertex
 10
167.9386971720221
 20
207.2867089596936
 30
0.0
  0
SEQEND
  5
4BB
330
4B8
100
AcDbEntity
  8
0
370
     9
  0
ENDBLK
  5
4B7
330
4B4
100
AcDbEntity
  8
0
100
AcDbBlockEnd
  0
BLOCK
  5
4BE
330
4BC
100
AcDbEntity
  8
0
100
AcDbBlockBegin
  2
block 135
 70
     0
 71
     0
 10
0.0
 20
0.0
 30
0.0
  3
block 135
  1

  0
POLYLINE
  5
4C0
330
4BC
100
AcDbEntity
  8
0
 62
     7
420
 16777215
370
     9
100
AcDb2dPolyline
 66
     1
 10
0.0
 20
0.0
 30
0.0
  0
VERTEX
  5
4C1
330
4C0
100
AcDbEntity
  8
0
 62
     7
420
 16777215
370
     9
100
AcDbVertex
100
AcDb2dVertex
 10
181.6577654637772
 20
169.5940666447227
 30
0.0
  0
VERTEX
  5
4C2
330
4C0
100
AcDbEntity
  8
0
 62
     7
420
 16777215
370
     9
100
AcDbVertex
100
AcDb2dVertex
 10
170.1718095387329
 20
201.1506453429881
 30
0.0
  0
SEQEND
  5
4C3
330
4C0
100
AcDbEntity
  8
0
370
     9
  0
ENDBLK
  5
4BF
330
4BC
100
AcDbEntity
  8
0
100
AcDbBlockEnd
  0
BLOCK
  5
4C6
330
4C4
100
AcDbEntity
  8
0
100
AcDbBlockBegin
  2
block 136
 70
     0
 71
     0
 10
0.0
 20
0.0
 30
0.0
  3
block 136
  1

  0
POLYLINE
  5
4C8
330
4C4
100
AcDbEntity
  8
0
 62
     7
420
 16777215
370
     9
100
AcDb2dPolyline
 66
     1
 10
0.0
 20
0.0
 30
0.0
  0
VERTEX
  5
4C9
330
4C8
100
AcDbEntity
  8
0
 62
     7
420
 16777215
370
     9
100
AcDbVertex
100
AcDb2dVertex
 10
165.4968118811789
 20
199.4491115603308
 30
0.0
  0
VERTEX
  5
4CA
330
4C8
100
AcDbEntity
  8
0
 62
     7
420
 16777215
370
     9
100
AcDbVertex
100
AcDb2dVertex
 10
176.9824232964473
 20
167.8925328620654
 30
0.0
  0
SEQEND
  5
4CB
330
4C8
100
AcDbEntity
  8
0
370
     9
  0
ENDBLK
  5
4C7
330
4C4
100
AcDbEntity
  8
0
100
AcDbBlockEnd
  0
BLOCK
  5
4CE
330
4CC
100
AcDbEntity
  8
0
100
AcDbBlockBegin
  2
block 137
 70
     0
 71
     0
 10
0.0
 20
0.0
 30
0.0
  3
block 137
  1

  0
POLYLINE
  5
4D0
330
4CC
100
AcDbEntity
  8
0
 62
     7
420
 16777215
370
     9
100
AcDb2dPolyline
 66
     1
 10
0.0
 20
0.0
 30
0.0
  0
VERTEX
  5
4D1
330
4D0
100
AcDbEntity
  8
0
 62
     7
420
 16777215
370
     9
100
AcDbVertex
100
AcDb2dVertex
 10
176.9824232964473
 20
167.8925328620654
 30
0.0
  0
VERTEX
  5
4D2
330
4D0
100
AcDbEntity
  8
0
 62
     7
420
 16777215
370
     9
100
AcDbVertex
100
AcDb2dVertex
 10
179.2158801729339
 20
161.7564692453599
 30
0.0
  0
SEQEND
  5
4D3
330
4D0
100
AcDbEntity
  8
0
370
     9
  0
ENDBLK
  5
4CF
330
4CC
100
AcDbEntity
  8
0
100
AcDbBlockEnd
  0
BLOCK
  5
4D6
330
4D4
100
AcDbEntity
  8
0
100
AcDbBlockBegin
  2
block 138
 70
     0
 71
     0
 10
0.0
 20
0.0
 30
0.0
  3
block 138
  1

  0
POLYLINE
  5
4D8
330
4D4
100
AcDbEntity
  8
0
 62
     7
420
 16777215
370
     9
100
AcDb2dPolyline
 66
     1
 10
0.0
 20
0.0
 30
0.0
  0
VERTEX
  5
4D9
330
4D8
100
AcDbEntity
  8
0
 62
     7
420
 16777215
370
     9
100
AcDbVertex
100
AcDb2dVertex
 10
183.8908778304879
 20
163.4580030280171
 30
0.0
  0
VERTEX
  5
4DA
330
4D8
100
AcDbEntity
  8
0
 62
     7
420
 16777215
370
     9
100
AcDbVertex
100
AcDb2dVertex
 10
181.6577654637772
 20
169.5940666447227
 30
0.0
  0
SEQEND
  5
4DB
330
4D8
100
AcDbEntity
  8
0
370
     9
  0
ENDBLK
  5
4D7
330
4D4
100
AcDbEntity
  8
0
100
AcDbBlockEnd
  0
BLOCK
  5
4DE
330
4DC
100
AcDbEntity
  8
0
100
AcDbBlockBegin
  2
block 139
 70
     0
 71
     0
 10
0.0
 20
0.0
 30
0.0
  3
block 139
  1

  0
POLYLINE
  5
4E0
330
4DC
100
AcDbEntity
  8
0
 62
     7
420
 16777215
370
     9
100
AcDb2dPolyline
 66
     1
 10
0.0
 20
0.0
 30
0.0
  0
VERTEX
  5
4E1
330
4E0
100
AcDbEntity
  8
0
 62
     7
420
 16777215
370
     9
100
AcDbVertex
100
AcDb2dVertex
 10
165.6008538334693
 20
211.2556338317534
 30
0.0
  0
VERTEX
  5
4E2
330
4E0
100
AcDbEntity
  8
0
 62
     7
420
 16777215
370
     9
100
AcDbVertex
100
AcDb2dVertex
 10
144.4569108537553
 20
211.2556338317534
 30
0.0
  0
SEQEND
  5
4E3
330
4E0
100
AcDbEntity
  8
0
370
     9
  0
ENDBLK
  5
4DF
330
4DC
100
AcDbEntity
  8
0
100
AcDbBlockEnd
  0
BLOCK
  5
4E6
330
4E4
100
AcDbEntity
  8
0
100
AcDbBlockBegin
  2
block 140
 70
     0
 71
     0
 10
0.0
 20
0.0
 30
0.0
  3
block 140
  1

  0
POLYLINE
  5
4E8
330
4E4
100
AcDbEntity
  8
0
 62
     7
420
 16777215
370
     9
100
AcDb2dPolyline
 66
     1
 10
0.0
 20
0.0
 30
0.0
  0
VERTEX
  5
4E9
330
4E8
100
AcDbEntity
  8
0
 62
     7
420
 16777215
370
     9
100
AcDbVertex
100
AcDb2dVertex
 10
144.4569108537553
 20
211.2556338317534
 30
0.0
  0
VERTEX
  5
4EA
330
4E8
100
AcDbEntity
  8
0
 62
     7
420
 16777215
370
     9
100
AcDbVertex
100
AcDb2dVertex
 10
144.4569108537553
 20
201.6164225598645
 30
0.0
  0
SEQEND
  5
4EB
330
4E8
100
AcDbEntity
  8
0
370
     9
  0
ENDBLK
  5
4E7
330
4E4
100
AcDbEntity
  8
0
100
AcDbBlockEnd
  0
BLOCK
  5
4EE
330
4EC
100
AcDbEntity
  8
0
100
AcDbBlockBegin
  2
block 141
 70
     0
 71
     0
 10
0.0
 20
0.0
 30
0.0
  3
block 141
  1

  0
SPLINE
  5
4F0
330
4EC
100
AcDbEntity
  8
0
 62
     7
420
 16777215
370
     9
100
AcDbSpline
210
0.0
220
0.0
230
1.0
 70
     8
 71
     3
 72
    14
 73
    10
 74
     0
 42
0.0000000001
 43
0.0000000001
 40
0.0
 40
0.0
 40
0.0
 40
0.0
 40
1.0
 40
1.0
 40
1.0
 40
2.0
 40
2.0
 40
2.0
 40
3.0
 40
3.0
 40
3.0
 40
3.0
 10
168.1529822525673
 20
206.6977694979701
 30
0.0
 10
168.008288146733
 20
208.1071589907522
 30
0.0
 10
166.7484158966463
 20
209.1325923384095
 30
0.0
 10
165.3390264038642
 20
208.9878982325751
 30
0.0
 10
163.9299814208579
 20
208.8432041267407
 30
0.0
 10
162.9047203280885
 20
207.583504131542
 30
0.0
 10
163.0494144339229
 20
206.1742868936478
 30
0.0
 10
163.0659509031611
 20
205.8242649614389
 30
0.0
 10
163.2661110828987
 20
205.2751163788198
 30
0.0
 10
163.4779845950133
 20
204.9962357153128
 30
0.0
  0
ENDBLK
  5
4EF
330
4EC
100
AcDbEntity
  8
0
100
AcDbBlockEnd
  0
BLOCK
  5
4F3
330
4F1
100
AcDbEntity
  8
0
100
AcDbBlockBegin
  2
block 142
 70
     0
 71
     0
 10
0.0
 20
0.0
 30
0.0
  3
block 142
  1

  0
POLYLINE
  5
4F5
330
4F1
100
AcDbEntity
  8
0
 62
     7
420
 16777215
370
     9
100
AcDb2dPolyline
 66
     1
 10
0.0
 20
0.0
 30
0.0
  0
VERTEX
  5
4F6
330
4F5
100
AcDbEntity
  8
0
 62
     7
420
 16777215
370
     9
100
AcDbVertex
100
AcDb2dVertex
 10
144.4569108537553
 20
211.2556338317534
 30
0.0
  0
VERTEX
  5
4F7
330
4F5
100
AcDbEntity
  8
0
 62
     7
420
 16777215
370
     9
100
AcDbVertex
100
AcDb2dVertex
 10
144.4569108537553
 20
211.4111799955254
 30
0.0
  0
SEQEND
  5
4F8
330
4F5
100
AcDbEntity
  8
0
370
     9
  0
ENDBLK
  5
4F4
330
4F1
100
AcDbEntity
  8
0
100
AcDbBlockEnd
  0
BLOCK
  5
4FB
330
4F9
100
AcDbEntity
  8
0
100
AcDbBlockBegin
  2
block 143
 70
     0
 71
     0
 10
0.0
 20
0.0
 30
0.0
  3
block 143
  1

  0
POLYLINE
  5
4FD
330
4F9
100
AcDbEntity
  8
0
 62
     7
420
 16777215
370
     9
100
AcDb2dPolyline
 66
     1
 10
0.0
 20
0.0
 30
0.0
  0
VERTEX
  5
4FE
330
4FD
100
AcDbEntity
  8
0
 62
     7
420
 16777215
370
     9
100
AcDbVertex
100
AcDb2dVertex
 10
144.4569108537553
 20
201.4608763960925
 30
0.0
  0
VERTEX
  5
4FF
330
4FD
100
AcDbEntity
  8
0
 62
     7
420
 16777215
370
     9
100
AcDbVertex
100
AcDb2dVertex
 10
144.4569108537553
 20
201.6164225598645
 30
0.0
  0
SEQEND
  5
500
330
4FD
100
AcDbEntity
  8
0
370
     9
  0
ENDBLK
  5
4FC
330
4F9
100
AcDbEntity
  8
0
100
AcDbBlockEnd
  0
BLOCK
  5
503
330
501
100
AcDbEntity
  8
0
100
AcDbBlockBegin
  2
block 144
 70
     0
 71
     0
 10
0.0
 20
0.0
 30
0.0
  3
block 144
  1

  0
POLYLINE
  5
505
330
501
100
AcDbEntity
  8
0
 62
     7
420
 16777215
370
     9
100
AcDb2dPolyline
 66
     1
 10
0.0
 20
0.0
 30
0.0
  0
VERTEX
  5
506
330
505
100
AcDbEntity
  8
0
 62
     7
420
 16777215
370
     9
100
AcDbVertex
100
AcDb2dVertex
 10
144.4569108537553
 20
211.4111799955254
 30
0.0
  0
VERTEX
  5
507
330
505
100
AcDbEntity
  8
0
 62
     7
420
 16777215
370
     9
100
AcDbVertex
100
AcDb2dVertex
 10
165.6008538334693
 20
211.4111799955254
 30
0.0
  0
SEQEND
  5
508
330
505
100
AcDbEntity
  8
0
370
     9
  0
ENDBLK
  5
504
330
501
100
AcDbEntity
  8
0
100
AcDbBlockEnd
  0
BLOCK
  5
50B
330
509
100
AcDbEntity
  8
0
100
AcDbBlockBegin
  2
block 145
 70
     0
 71
     0
 10
0.0
 20
0.0
 30
0.0
  3
block 145
  1

  0
POLYLINE
  5
50D
330
509
100
AcDbEntity
  8
0
 62
     7
420
 16777215
370
     9
100
AcDb2dPolyline
 66
     1
 10
0.0
 20
0.0
 30
0.0
  0
VERTEX
  5
50E
330
50D
100
AcDbEntity
  8
0
 62
     7
420
 16777215
370
     9
100
AcDbVertex
100
AcDb2dVertex
 10
165.6008538334693
 20
211.4111799955254
 30
0.0
  0
VERTEX
  5
50F
330
50D
100
AcDbEntity
  8
0
 62
     7
420
 16777215
370
     9
100
AcDbVertex
100
AcDb2dVertex
 10
165.6008538334693
 20
211.2556338317534
 30
0.0
  0
SEQEND
  5
510
330
50D
100
AcDbEntity
  8
0
370
     9
  0
ENDBLK
  5
50C
330
509
100
AcDbEntity
  8
0
100
AcDbBlockEnd
  0
BLOCK
  5
513
330
511
100
AcDbEntity
  8
0
100
AcDbBlockBegin
  2
block 146
 70
     0
 71
     0
 10
0.0
 20
0.0
 30
0.0
  3
block 146
  1

  0
POLYLINE
  5
515
330
511
100
AcDbEntity
  8
0
 62
     7
420
 16777215
370
     9
100
AcDb2dPolyline
 66
     1
 10
0.0
 20
0.0
 30
0.0
  0
VERTEX
  5
516
330
515
100
AcDbEntity
  8
0
 62
     7
420
 16777215
370
     9
100
AcDbVertex
100
AcDb2dVertex
 10
164.764728607612
 20
201.4608763960925
 30
0.0
  0
VERTEX
  5
517
330
515
100
AcDbEntity
  8
0
 62
     7
420
 16777215
370
     9
100
AcDbVertex
100
AcDb2dVertex
 10
144.4569108537553
 20
201.4608763960925
 30
0.0
  0
SEQEND
  5
518
330
515
100
AcDbEntity
  8
0
370
     9
  0
ENDBLK
  5
514
330
511
100
AcDbEntity
  8
0
100
AcDbBlockEnd
  0
BLOCK
  5
51B
330
519
100
AcDbEntity
  8
0
100
AcDbBlockBegin
  2
block 147
 70
     0
 71
     0
 10
0.0
 20
0.0
 30
0.0
  3
block 147
  1

  0
SPLINE
  5
51D
330
519
100
AcDbEntity
  8
0
 62
     7
420
 16777215
370
     9
100
AcDbSpline
210
0.0
220
0.0
230
1.0
 70
     8
 71
     3
 72
    11
 73
     7
 74
     0
 42
0.0000000001
 43
0.0000000001
 40
0.0
 40
0.0
 40
0.0
 40
0.0
 40
1.0
 40
1.0
 40
1.0
 40
2.0
 40
2.0
 40
2.0
 40
2.0
 10
169.4121654831023
 20
203.2380300745371
 30
0.0
 10
171.1781225938335
 20
205.3428125497638
 30
0.0
 10
170.9038928122997
 20
208.481124352379
 30
0.0
 10
168.7989380821851
 20
210.2470814631101
 30
0.0
 10
168.0668548086183
 20
210.9392016026846
 30
0.0
 10
166.6064778690183
 20
211.470952441626
 30
0.0
 10
165.6008538334693
 20
211.4111799955254
 30
0.0
  0
ENDBLK
  5
51C
330
519
100
AcDbEntity
  8
0
100
AcDbBlockEnd
  0
BLOCK
  5
520
330
51E
100
AcDbEntity
  8
0
100
AcDbBlockBegin
  2
block 148
 70
     0
 71
     0
 10
0.0
 20
0.0
 30
0.0
  3
block 148
  1

  0
SPLINE
  5
522
330
51E
100
AcDbEntity
  8
0
 62
     7
420
 16777215
370
     9
100
AcDbSpline
210
0.0
220
0.0
230
1.0
 70
     8
 71
     3
 72
    14
 73
    10
 74
     0
 42
0.0000000001
 43
0.0000000001
 40
0.0
 40
0.0
 40
0.0
 40
0.0
 40
1.0
 40
1.0
 40
1.0
 40
2.0
 40
2.0
 40
2.0
 40
3.0
 40
3.0
 40
3.0
 40
3.0
 10
167.9386971720221
 20
207.2867089596936
 30
0.0
 10
167.4687858378362
 20
208.5777593444898
 30
0.0
 10
166.0411373269368
 20
209.243352231328
 30
0.0
 10
164.7502591970286
 20
208.7736131520299
 30
0.0
 10
163.4593810671203
 20
208.3037018178439
 30
0.0
 10
162.7937881802821
 20
206.8762255618325
 30
0.0
 10
163.2633550046923
 20
205.5851751770364
 30
0.0
 10
163.2633550046923
 20
205.5851751770364
 30
0.0
 10
163.2633550046923
 20
205.5851751770364
 30
0.0
 10
163.2633550046923
 20
205.5851751770364
 30
0.0
  0
ENDBLK
  5
521
330
51E
100
AcDbEntity
  8
0
100
AcDbBlockEnd
  0
BLOCK
  5
525
330
523
100
AcDbEntity
  8
0
100
AcDbBlockBegin
  2
block 149
 70
     0
 71
     0
 10
0.0
 20
0.0
 30
0.0
  3
block 149
  1

  0
SPLINE
  5
527
330
523
100
AcDbEntity
  8
0
 62
     7
420
 16777215
370
     9
100
AcDbSpline
210
0.0
220
0.0
230
1.0
 70
     8
 71
     3
 72
    14
 73
    10
 74
     0
 42
0.0000000001
 43
0.0000000001
 40
0.0
 40
0.0
 40
0.0
 40
0.0
 40
1.0
 40
1.0
 40
1.0
 40
2.0
 40
2.0
 40
2.0
 40
3.0
 40
3.0
 40
3.0
 40
3.0
 10
179.2158801729339
 20
161.7564692453599
 30
0.0
 10
179.6857915071199
 20
160.4654188605637
 30
0.0
 10
181.1134400180192
 20
159.7998259737255
 30
0.0
 10
182.4039736381517
 20
160.2697373079115
 30
0.0
 10
183.6951962778357
 20
160.7396486420975
 30
0.0
 10
184.3607891646739
 20
162.166952643221
 30
0.0
 10
183.8908778304879
 20
163.4580030280171
 30
0.0
 10
183.8908778304879
 20
163.4580030280171
 30
0.0
 10
183.8908778304879
 20
163.4580030280171
 30
0.0
 10
183.8908778304879
 20
163.4580030280171
 30
0.0
  0
ENDBLK
  5
526
330
523
100
AcDbEntity
  8
0
100
AcDbBlockEnd
  0
BLOCK
  5
52A
330
528
100
AcDbEntity
  8
0
100
AcDbBlockBegin
  2
block 150
 70
     0
 71
     0
 10
0.0
 20
0.0
 30
0.0
  3
block 150
  1

  0
SPLINE
  5
52C
330
528
100
AcDbEntity
  8
0
 62
     7
420
 16777215
370
     9
100
AcDbSpline
210
0.0
220
0.0
230
1.0
 70
     8
 71
     3
 72
    11
 73
     7
 74
     0
 42
0.0000000001
 43
0.0000000001
 40
0.0
 40
0.0
 40
0.0
 40
0.0
 40
1.0
 40
1.0
 40
1.0
 40
2.0
 40
2.0
 40
2.0
 40
2.0
 10
169.3504982332348
 20
203.4077011391167
 30
0.0
 10
171.0227486849494
 20
205.4783771465396
 30
0.0
 10
170.6999430250284
 20
208.5129915066401
 30
0.0
 10
168.6290947627176
 20
210.1854142132426
 30
0.0
 10
167.930428937403
 20
210.8220682789139
 30
0.0
 10
166.5448106191508
 20
211.3116166703203
 30
0.0
 10
165.6008538334693
 20
211.2556338317534
 30
0.0
  0
ENDBLK
  5
52B
330
528
100
AcDbEntity
  8
0
100
AcDbBlockEnd
  0
BLOCK
  5
52F
330
52D
100
AcDbEntity
  8
0
100
AcDbBlockBegin
  2
block 151
 70
     0
 71
     0
 10
0.0
 20
0.0
 30
0.0
  3
block 151
  1

  0
POLYLINE
  5
531
330
52D
100
AcDbEntity
  8
0
 62
     7
420
 16777215
370
     9
100
AcDb2dPolyline
 66
     1
 10
0.0
 20
0.0
 30
0.0
  0
VERTEX
  5
532
330
531
100
AcDbEntity
  8
0
 62
     7
420
 16777215
370
     9
100
AcDbVertex
100
AcDb2dVertex
 10
144.4569108537553
 20
201.6164225598645
 30
0.0
  0
VERTEX
  5
533
330
531
100
AcDbEntity
  8
0
 62
     7
420
 16777215
370
     9
100
AcDbVertex
100
AcDb2dVertex
 10
164.7078844946057
 20
201.6164225598645
 30
0.0
  0
SEQEND
  5
534
330
531
100
AcDbEntity
  8
0
370
     9
  0
ENDBLK
  5
530
330
52D
100
AcDbEntity
  8
0
100
AcDbBlockEnd
  0
BLOCK
  5
537
330
535
100
AcDbEntity
  8
0
100
AcDbBlockBegin
  2
block 152
 70
     0
 71
     0
 10
0.0
 20
0.0
 30
0.0
  3
block 152
  1

  0
POLYLINE
  5
539
330
535
100
AcDbEntity
  8
0
 62
     7
420
 16777215
370
     9
100
AcDb2dPolyline
 66
     1
 10
0.0
 20
0.0
 30
0.0
  0
VERTEX
  5
53A
330
539
100
AcDbEntity
  8
0
 62
     7
420
 16777215
370
     9
100
AcDbVertex
100
AcDb2dVertex
 10
165.4968118811789
 20
199.4491115603308
 30
0.0
  0
VERTEX
  5
53B
330
539
100
AcDbEntity
  8
0
 62
     7
420
 16777215
370
     9
100
AcDbVertex
100
AcDb2dVertex
 10
170.1718095387329
 20
201.1506453429881
 30
0.0
  0
SEQEND
  5
53C
330
539
100
AcDbEntity
  8
0
370
     9
  0
ENDBLK
  5
538
330
535
100
AcDbEntity
  8
0
100
AcDbBlockEnd
  0
BLOCK
  5
53F
330
53D
100
AcDbEntity
  8
0
100
AcDbBlockBegin
  2
block 153
 70
     0
 71
     0
 10
0.0
 20
0.0
 30
0.0
  3
block 153
  1

  0
POLYLINE
  5
541
330
53D
100
AcDbEntity
  8
0
 62
     7
420
 16777215
370
     9
100
AcDb2dPolyline
 66
     1
 10
0.0
 20
0.0
 30
0.0
  0
VERTEX
  5
542
330
541
100
AcDbEntity
  8
0
 62
     7
420
 16777215
370
     9
100
AcDbVertex
100
AcDb2dVertex
 10
176.9824232964473
 20
167.8925328620654
 30
0.0
  0
VERTEX
  5
543
330
541
100
AcDbEntity
  8
0
 62
     7
420
 16777215
370
     9
100
AcDbVertex
100
AcDb2dVertex
 10
181.6577654637772
 20
169.5940666447227
 30
0.0
  0
SEQEND
  5
544
330
541
100
AcDbEntity
  8
0
370
     9
  0
ENDBLK
  5
540
330
53D
100
AcDbEntity
  8
0
100
AcDbBlockEnd
  0
BLOCK
  5
547
330
545
100
AcDbEntity
  8
0
100
AcDbBlockBegin
  2
block 154
 70
     0
 71
     0
 10
0.0
 20
0.0
 30
0.0
  3
block 154
  1

  0
POLYLINE
  5
549
330
545
100
AcDbEntity
  8
0
 62
     7
420
 16777215
370
     9
100
AcDb2dPolyline
 66
     1
 10
0.0
 20
0.0
 30
0.0
  0
VERTEX
  5
54A
330
549
100
AcDbEntity
  8
0
 62
     7
420
 16777215
370
     9
100
AcDbVertex
100
AcDb2dVertex
 10
184.041084092735
 20
162.6072361366885
 30
0.0
  0
VERTEX
  5
54B
330
549
100
AcDbEntity
  8
0
 62
     7
420
 16777215
370
     9
100
AcDbVertex
100
AcDb2dVertex
 10
184.041084092735
 20
162.6072361366885
 30
0.0
  0
SEQEND
  5
54C
330
549
100
AcDbEntity
  8
0
370
     9
  0
ENDBLK
  5
548
330
545
100
AcDbEntity
  8
0
100
AcDbBlockEnd
  0
BLOCK
  5
54F
330
54D
100
AcDbEntity
  8
0
100
AcDbBlockBegin
  2
block 155
 70
     0
 71
     0
 10
0.0
 20
0.0
 30
0.0
  3
block 155
  1

  0
POLYLINE
  5
551
330
54D
100
AcDbEntity
  8
0
 62
     7
420
 16777215
370
     9
100
AcDb2dPolyline
 66
     1
 10
0.0
 20
0.0
 30
0.0
  0
VERTEX
  5
552
330
551
100
AcDbEntity
  8
0
 62
     7
420
 16777215
370
     9
100
AcDbVertex
100
AcDb2dVertex
 10
144.4569108537553
 20
206.435942068365
 30
0.0
  0
VERTEX
  5
553
330
551
100
AcDbEntity
  8
0
 62
     7
420
 16777215
370
     9
100
AcDbVertex
100
AcDb2dVertex
 10
144.4569108537553
 20
206.435942068365
 30
0.0
  0
SEQEND
  5
554
330
551
100
AcDbEntity
  8
0
370
     9
  0
ENDBLK
  5
550
330
54D
100
AcDbEntity
  8
0
100
AcDbBlockEnd
  0
BLOCK
  5
557
330
555
100
AcDbEntity
  8
0
100
AcDbBlockBegin
  2
block 156
 70
     0
 71
     0
 10
0.0
 20
0.0
 30
0.0
  3
block 156
  1

  0
INSERT
  5
55A
330
555
100
AcDbEntity
  8
0
100
AcDbBlockReference
  2
block 157
 10
0.0
 20
0.0
 30
0.0
  0
INSERT
  5
566
330
555
100
AcDbEntity
  8
0
100
AcDbBlockReference
  2
block 159
 10
0.0
 20
0.0
 30
0.0
  0
INSERT
  5
5A8
330
555
100
AcDbEntity
  8
0
100
AcDbBlockReference
  2
block 165
 10
0.0
 20
0.0
 30
0.0
  0
INSERT
  5
5B0
330
555
100
AcDbEntity
  8
0
100
AcDbBlockReference
  2
block 166
 10
0.0
 20
0.0
 30
0.0
  0
INSERT
  5
5B8
330
555
100
AcDbEntity
  8
0
100
AcDbBlockReference
  2
block 167
 10
0.0
 20
0.0
 30
0.0
  0
INSERT
  5
5C0
330
555
100
AcDbEntity
  8
0
100
AcDbBlockReference
  2
block 168
 10
0.0
 20
0.0
 30
0.0
  0
ENDBLK
  5
558
330
555
100
AcDbEntity
  8
0
100
AcDbBlockEnd
  0
BLOCK
  5
55B
330
559
100
AcDbEntity
  8
0
100
AcDbBlockBegin
  2
block 157
 70
     0
 71
     0
 10
0.0
 20
0.0
 30
0.0
  3
block 157
  1

  0
INSERT
  5
55E
330
559
100
AcDbEntity
  8
0
100
AcDbBlockReference
  2
block 158
 10
0.0
 20
0.0
 30
0.0
  0
ENDBLK
  5
55C
330
559
100
AcDbEntity
  8
0
100
AcDbBlockEnd
  0
BLOCK
  5
55F
330
55D
100
AcDbEntity
  8
0
100
AcDbBlockBegin
  2
block 158
 70
     0
 71
     0
 10
0.0
 20
0.0
 30
0.0
  3
block 158
  1

  0
POLYLINE
  5
561
330
55D
100
AcDbEntity
  8
0
 62
     7
420
 16777215
370
     9
100
AcDb2dPolyline
 66
     1
 10
0.0
 20
0.0
 30
0.0
  0
VERTEX
  5
562
330
561
100
AcDbEntity
  8
0
 62
     7
420
 16777215
370
     9
100
AcDbVertex
100
AcDb2dVertex
 10
144.4569108537553
 20
156.0138357926135
 30
0.0
  0
VERTEX
  5
563
330
561
100
AcDbEntity
  8
0
 62
     7
420
 16777215
370
     9
100
AcDbVertex
100
AcDb2dVertex
 10
148.1879517256278
 20
156.0138357926135
 30
0.0
  0
SEQEND
  5
564
330
561
100
AcDbEntity
  8
0
370
     9
  0
ENDBLK
  5
560
330
55D
100
AcDbEntity
  8
0
100
AcDbBlockEnd
  0
BLOCK
  5
567
330
565
100
AcDbEntity
  8
0
100
AcDbBlockBegin
  2
block 159
 70
     0
 71
     0
 10
0.0
 20
0.0
 30
0.0
  3
block 159
  1

  0
INSERT
  5
56A
330
565
100
AcDbEntity
  8
0
100
AcDbBlockReference
  2
block 160
 10
0.0
 20
0.0
 30
0.0
  0
INSERT
  5
5A0
330
565
100
AcDbEntity
  8
0
100
AcDbBlockReference
  2
block 164
 10
0.0
 20
0.0
 30
0.0
  0
ENDBLK
  5
568
330
565
100
AcDbEntity
  8
0
100
AcDbBlockEnd
  0
BLOCK
  5
56B
330
569
100
AcDbEntity
  8
0
100
AcDbBlockBegin
  2
block 160
 70
     0
 71
     0
 10
0.0
 20
0.0
 30
0.0
  3
block 160
  1

  0
INSERT
  5
56E
330
569
100
AcDbEntity
  8
0
100
AcDbBlockReference
  2
block 161
 10
0.0
 20
0.0
 30
0.0
  0
ENDBLK
  5
56C
330
569
100
AcDbEntity
  8
0
100
AcDbBlockEnd
  0
BLOCK
  5
56F
330
56D
100
AcDbEntity
  8
0
100
AcDbBlockBegin
  2
block 161
 70
     0
 71
     0
 10
0.0
 20
0.0
 30
0.0
  3
block 161
  1

  0
INSERT
  5
572
330
56D
100
AcDbEntity
  8
0
100
AcDbBlockReference
  2
block 162
 10
0.0
 20
0.0
 30
0.0
  0
INSERT
  5
584
330
56D
100
AcDbEntity
  8
0
100
AcDbBlockReference
  2
block 163
 10
0.0
 20
0.0
 30
0.0
  0
ENDBLK
  5
570
330
56D
100
AcDbEntity
  8
0
100
AcDbBlockEnd
  0
BLOCK
  5
573
330
571
100
AcDbEntity
  8
0
100
AcDbBlockBegin
  2
block 162
 70
     0
 71
     0
 10
0.0
 20
0.0
 30
0.0
  3
block 162
  1

  0
POLYLINE
  5
575
330
571
100
AcDbEntity
  8
0
370
     0
100
AcDb2dPolyline
 66
     1
 10
0.0
 20
0.0
 30
0.0
  0
VERTEX
  5
576
330
575
100
AcDbEntity
  8
0
370
     0
100
AcDbVertex
100
AcDb2dVertex
 10
184.0407395829592
 20
156.0143525572772
 30
0.0
  0
VERTEX
  5
577
330
575
100
AcDbEntity
  8
0
370
     0
100
AcDbVertex
100
AcDb2dVertex
 10
180.3083206719836
 20
155.3935459412925
 30
0.0
  0
VERTEX
  5
578
330
575
100
AcDbEntity
  8
0
370
     0
100
AcDbVertex
100
AcDb2dVertex
 10
180.3083206719836
 20
156.6353314281498
 30
0.0
  0
VERTEX
  5
579
330
575
100
AcDbEntity
  8
0
370
     0
100
AcDbVertex
100
AcDb2dVertex
 10
184.0407395829592
 20
156.0143525572772
 30
0.0
  0
SEQEND
  5
57A
330
575
100
AcDbEntity
  8
0
370
     0
  0
HATCH
  5
57B
330
571
100
AcDbEntity
  8
0
 62
     7
420
 16777215
100
AcDbHatch
 10
0.0
 20
0.0
 30
0.0
210
0.0
220
0.0
230
1.0
  2
SOLID
 70
     1
 71
     0
 91
        1
 92
        1
 93
        3
 72
     1
 10
184.0407395829592
 20
156.0143525572772
 11
180.3083206719836
 21
155.3935459412925
 72
     1
 10
180.3083206719836
 20
155.3935459412925
 11
180.3083206719836
 21
156.6353314281498
 72
     1
 10
180.3083206719836
 20
156.6353314281498
 11
184.0407395829592
 21
156.0143525572772
 97
        0
 75
     2
 76
     1
 98
        0
  0
POLYLINE
  5
57C
330
571
100
AcDbEntity
  8
0
370
     0
100
AcDb2dPolyline
 66
     1
 10
0.0
 20
0.0
 30
0.0
  0
VERTEX
  5
57D
330
57C
100
AcDbEntity
  8
0
370
     0
100
AcDbVertex
100
AcDb2dVertex
 10
148.1879517256278
 20
156.6353314281498
 30
0.0
  0
VERTEX
  5
57E
330
57C
100
AcDbEntity
  8
0
370
     0
100
AcDbVertex
100
AcDb2dVertex
 10
148.1879517256278
 20
155.3935459412925
 30
0.0
  0
VERTEX
  5
57F
330
57C
100
AcDbEntity
  8
0
370
     0
100
AcDbVertex
100
AcDb2dVertex
 10
144.4555328146521
 20
156.0143525572772
 30
0.0
  0
VERTEX
  5
580
330
57C
100
AcDbEntity
  8
0
370
     0
100
AcDbVertex
100
AcDb2dVertex
 10
148.1879517256278
 20
156.6353314281498
 30
0.0
  0
SEQEND
  5
581
330
57C
100
AcDbEntity
  8
0
370
     0
  0
HATCH
  5
582
330
571
100
AcDbEntity
  8
0
 62
     7
420
 16777215
100
AcDbHatch
 10
0.0
 20
0.0
 30
0.0
210
0.0
220
0.0
230
1.0
  2
SOLID
 70
     1
 71
     0
 91
        1
 92
        1
 93
        3
 72
     1
 10
148.1879517256278
 20
156.6353314281498
 11
148.1879517256278
 21
155.3935459412925
 72
     1
 10
148.1879517256278
 20
155.3935459412925
 11
144.4555328146521
 21
156.0143525572772
 72
     1
 10
144.4555328146521
 20
156.0143525572772
 11
148.1879517256278
 21
156.6353314281498
 97
        0
 75
     2
 76
     1
 98
        0
  0
ENDBLK
  5
574
330
571
100
AcDbEntity
  8
0
100
AcDbBlockEnd
  0
BLOCK
  5
585
330
583
100
AcDbEntity
  8
0
100
AcDbBlockBegin
  2
block 163
 70
     0
 71
     0
 10
0.0
 20
0.0
 30
0.0
  3
block 163
  1

  0
POLYLINE
  5
587
330
583
100
AcDbEntity
  8
0
 62
     7
420
 16777215
370
     9
100
AcDb2dPolyline
 66
     1
 10
0.0
 20
0.0
 30
0.0
  0
VERTEX
  5
588
330
587
100
AcDbEntity
  8
0
 62
     7
420
 16777215
370
     9
100
AcDbVertex
100
AcDb2dVertex
 10
148.1879517256278
 20
155.3935459412925
 30
0.0
  0
VERTEX
  5
589
330
587
100
AcDbEntity
  8
0
 62
     7
420
 16777215
370
     9
100
AcDbVertex
100
AcDb2dVertex
 10
144.4555328146521
 20
156.0143525572772
 30
0.0
  0
SEQEND
  5
58A
330
587
100
AcDbEntity
  8
0
370
     9
  0
POLYLINE
  5
58B
330
583
100
AcDbEntity
  8
0
 62
     7
420
 16777215
370
     9
100
AcDb2dPolyline
 66
     1
 10
0.0
 20
0.0
 30
0.0
  0
VERTEX
  5
58C
330
58B
100
AcDbEntity
  8
0
 62
     7
420
 16777215
370
     9
100
AcDbVertex
100
AcDb2dVertex
 10
144.4555328146521
 20
156.0143525572772
 30
0.0
  0
VERTEX
  5
58D
330
58B
100
AcDbEntity
  8
0
 62
     7
420
 16777215
370
     9
100
AcDbVertex
100
AcDb2dVertex
 10
148.1879517256278
 20
156.6353314281498
 30
0.0
  0
SEQEND
  5
58E
330
58B
100
AcDbEntity
  8
0
370
     9
  0
POLYLINE
  5
58F
330
583
100
AcDbEntity
  8
0
 62
     7
420
 16777215
370
     9
100
AcDb2dPolyline
 66
     1
 10
0.0
 20
0.0
 30
0.0
  0
VERTEX
  5
590
330
58F
100
AcDbEntity
  8
0
 62
     7
420
 16777215
370
     9
100
AcDbVertex
100
AcDb2dVertex
 10
148.1879517256278
 20
155.3935459412925
 30
0.0
  0
VERTEX
  5
591
330
58F
100
AcDbEntity
  8
0
 62
     7
420
 16777215
370
     9
100
AcDbVertex
100
AcDb2dVertex
 10
148.1879517256278
 20
156.6353314281498
 30
0.0
  0
SEQEND
  5
592
330
58F
100
AcDbEntity
  8
0
370
     9
  0
POLYLINE
  5
593
330
583
100
AcDbEntity
  8
0
 62
     7
420
 16777215
370
     9
100
AcDb2dPolyline
 66
     1
 10
0.0
 20
0.0
 30
0.0
  0
VERTEX
  5
594
330
593
100
AcDbEntity
  8
0
 62
     7
420
 16777215
370
     9
100
AcDbVertex
100
AcDb2dVertex
 10
180.3083206719836
 20
156.6353314281498
 30
0.0
  0
VERTEX
  5
595
330
593
100
AcDbEntity
  8
0
 62
     7
420
 16777215
370
     9
100
AcDbVertex
100
AcDb2dVertex
 10
184.0407395829592
 20
156.0143525572772
 30
0.0
  0
SEQEND
  5
596
330
593
100
AcDbEntity
  8
0
370
     9
  0
POLYLINE
  5
597
330
583
100
AcDbEntity
  8
0
 62
     7
420
 16777215
370
     9
100
AcDb2dPolyline
 66
     1
 10
0.0
 20
0.0
 30
0.0
  0
VERTEX
  5
598
330
597
100
AcDbEntity
  8
0
 62
     7
420
 16777215
370
     9
100
AcDbVertex
100
AcDb2dVertex
 10
184.0407395829592
 20
156.0143525572772
 30
0.0
  0
VERTEX
  5
599
330
597
100
AcDbEntity
  8
0
 62
     7
420
 16777215
370
     9
100
AcDbVertex
100
AcDb2dVertex
 10
180.3083206719836
 20
155.3935459412925
 30
0.0
  0
SEQEND
  5
59A
330
597
100
AcDbEntity
  8
0
370
     9
  0
POLYLINE
  5
59B
330
583
100
AcDbEntity
  8
0
 62
     7
420
 16777215
370
     9
100
AcDb2dPolyline
 66
     1
 10
0.0
 20
0.0
 30
0.0
  0
VERTEX
  5
59C
330
59B
100
AcDbEntity
  8
0
 62
     7
420
 16777215
370
     9
100
AcDbVertex
100
AcDb2dVertex
 10
180.3083206719836
 20
156.6353314281498
 30
0.0
  0
VERTEX
  5
59D
330
59B
100
AcDbEntity
  8
0
 62
     7
420
 16777215
370
     9
100
AcDbVertex
100
AcDb2dVertex
 10
180.3083206719836
 20
155.3935459412925
 30
0.0
  0
SEQEND
  5
59E
330
59B
100
AcDbEntity
  8
0
370
     9
  0
ENDBLK
  5
586
330
583
100
AcDbEntity
  8
0
100
AcDbBlockEnd
  0
BLOCK
  5
5A1
330
59F
100
AcDbEntity
  8
0
100
AcDbBlockBegin
  2
block 164
 70
     0
 71
     0
 10
0.0
 20
0.0
 30
0.0
  3
block 164
  1

  0
POLYLINE
  5
5A3
330
59F
100
AcDbEntity
  8
0
 62
     7
420
 16777215
370
     9
100
AcDb2dPolyline
 66
     1
 10
0.0
 20
0.0
 30
0.0
  0
VERTEX
  5
5A4
330
5A3
100
AcDbEntity
  8
0
 62
     7
420
 16777215
370
     9
100
AcDbVertex
100
AcDb2dVertex
 10
184.041084092735
 20
156.0138357926135
 30
0.0
  0
VERTEX
  5
5A5
330
5A3
100
AcDbEntity
  8
0
 62
     7
420
 16777215
370
     9
100
AcDbVertex
100
AcDb2dVertex
 10
180.3096987110868
 20
156.0138357926135
 30
0.0
  0
SEQEND
  5
5A6
330
5A3
100
AcDbEntity
  8
0
370
     9
  0
ENDBLK
  5
5A2
330
59F
100
AcDbEntity
  8
0
100
AcDbBlockEnd
  0
BLOCK
  5
5A9
330
5A7
100
AcDbEntity
  8
0
100
AcDbBlockBegin
  2
block 165
 70
     0
 71
     0
 10
0.0
 20
0.0
 30
0.0
  3
block 165
  1

  0
POLYLINE
  5
5AB
330
5A7
100
AcDbEntity
  8
0
 62
     7
420
 16777215
370
     9
100
AcDb2dPolyline
 66
     1
 10
0.0
 20
0.0
 30
0.0
  0
VERTEX
  5
5AC
330
5AB
100
AcDbEntity
  8
0
 62
     7
420
 16777215
370
     9
100
AcDbVertex
100
AcDb2dVertex
 10
144.4569108537553
 20
205.8141019230529
 30
0.0
  0
VERTEX
  5
5AD
330
5AB
100
AcDbEntity
  8
0
 62
     7
420
 16777215
370
     9
100
AcDbVertex
100
AcDb2dVertex
 10
144.4569108537553
 20
155.3918233924136
 30
0.0
  0
SEQEND
  5
5AE
330
5AB
100
AcDbEntity
  8
0
370
     9
  0
ENDBLK
  5
5AA
330
5A7
100
AcDbEntity
  8
0
100
AcDbBlockEnd
  0
BLOCK
  5
5B1
330
5AF
100
AcDbEntity
  8
0
100
AcDbBlockBegin
  2
block 166
 70
     0
 71
     0
 10
0.0
 20
0.0
 30
0.0
  3
block 166
  1

  0
POLYLINE
  5
5B3
330
5AF
100
AcDbEntity
  8
0
 62
     7
420
 16777215
370
     9
100
AcDb2dPolyline
 66
     1
 10
0.0
 20
0.0
 30
0.0
  0
VERTEX
  5
5B4
330
5B3
100
AcDbEntity
  8
0
 62
     7
420
 16777215
370
     9
100
AcDbVertex
100
AcDb2dVertex
 10
184.041084092735
 20
161.9853959913764
 30
0.0
  0
VERTEX
  5
5B5
330
5B3
100
AcDbEntity
  8
0
 62
     7
420
 16777215
370
     9
100
AcDbVertex
100
AcDb2dVertex
 10
184.041084092735
 20
155.3918233924136
 30
0.0
  0
SEQEND
  5
5B6
330
5B3
100
AcDbEntity
  8
0
370
     9
  0
ENDBLK
  5
5B2
330
5AF
100
AcDbEntity
  8
0
100
AcDbBlockEnd
  0
BLOCK
  5
5B9
330
5B7
100
AcDbEntity
  8
0
100
AcDbBlockBegin
  2
block 167
 70
     0
 71
     0
 10
0.0
 20
0.0
 30
0.0
  3
block 167
  1

  0
POLYLINE
  5
5BB
330
5B7
100
AcDbEntity
  8
0
 62
     7
420
 16777215
370
     9
100
AcDb2dPolyline
 66
     1
 10
0.0
 20
0.0
 30
0.0
  0
VERTEX
  5
5BC
330
5BB
100
AcDbEntity
  8
0
 62
     7
420
 16777215
370
     9
100
AcDbVertex
100
AcDb2dVertex
 10
144.4569108537553
 20
156.0138357926135
 30
0.0
  0
VERTEX
  5
5BD
330
5BB
100
AcDbEntity
  8
0
 62
     7
420
 16777215
370
     9
100
AcDbVertex
100
AcDb2dVertex
 10
184.041084092735
 20
156.0138357926135
 30
0.0
  0
SEQEND
  5
5BE
330
5BB
100
AcDbEntity
  8
0
370
     9
  0
ENDBLK
  5
5BA
330
5B7
100
AcDbEntity
  8
0
100
AcDbBlockEnd
  0
BLOCK
  5
5C1
330
5BF
100
AcDbEntity
  8
0
100
AcDbBlockBegin
  2
block 168
 70
     0
 71
     0
 10
0.0
 20
0.0
 30
0.0
  3
block 168
  1

  0
MTEXT
  5
5C3
330
5BF
100
AcDbEntity
  8
0
 62
     7
420
 16777215
100
AcDbMText
 10
162.1836613673471
 20
156.6430828981052
 30
0.0
 40
2.398890470823883
 41
0.0
 71
     7
 72
     1
  1
\fArial|b1|i0|c0|p34;\W0.75;63.65
 73
     1
 44
1.0
  0
ENDBLK
  5
5C2
330
5BF
100
AcDbEntity
  8
0
100
AcDbBlockEnd
  0
ENDSEC
  0
SECTION
  2
ENTITIES
  0
INSERT
  5
3C
330
1F
100
AcDbEntity
  8
0
100
AcDbBlockReference
  2
block 2
 10
0.0
 20
0.0
 30
0.0
  0
INSERT
  5
44
330
1F
100
AcDbEntity
  8
0
100
AcDbBlockReference
  2
block 3
 10
0.0
 20
0.0
 30
0.0
  0
INSERT
  5
4C
330
1F
100
AcDbEntity
  8
0
100
AcDbBlockReference
  2
block 4
 10
0.0
 20
0.0
 30
0.0
  0
INSERT
  5
51
330
1F
100
AcDbEntity
  8
0
100
AcDbBlockReference
  2
block 5
 10
0.0
 20
0.0
 30
0.0
  0
INSERT
  5
56
330
1F
100
AcDbEntity
  8
0
100
AcDbBlockReference
  2
block 6
 10
0.0
 20
0.0
 30
0.0
  0
INSERT
  5
5B
330
1F
100
AcDbEntity
  8
0
100
AcDbBlockReference
  2
block 7
 10
0.0
 20
0.0
 30
0.0
  0
INSERT
  5
60
330
1F
100
AcDbEntity
  8
0
100
AcDbBlockReference
  2
block 8
 10
0.0
 20
0.0
 30
0.0
  0
INSERT
  5
68
330
1F
100
AcDbEntity
  8
0
100
AcDbBlockReference
  2
block 9
 10
0.0
 20
0.0
 30
0.0
  0
INSERT
  5
70
330
1F
100
AcDbEntity
  8
0
100
AcDbBlockReference
  2
block 10
 10
0.0
 20
0.0
 30
0.0
  0
INSERT
  5
78
330
1F
100
AcDbEntity
  8
0
100
AcDbBlockReference
  2
block 11
 10
0.0
 20
0.0
 30
0.0
  0
INSERT
  5
80
330
1F
100
AcDbEntity
  8
0
100
AcDbBlockReference
  2
block 12
 10
0.0
 20
0.0
 30
0.0
  0
INSERT
  5
88
330
1F
100
AcDbEntity
  8
0
100
AcDbBlockReference
  2
block 13
 10
0.0
 20
0.0
 30
0.0
  0
INSERT
  5
90
330
1F
100
AcDbEntity
  8
0
100
AcDbBlockReference
  2
block 14
 10
0.0
 20
0.0
 30
0.0
  0
INSERT
  5
95
330
1F
100
AcDbEntity
  8
0
100
AcDbBlockReference
  2
block 15
 10
0.0
 20
0.0
 30
0.0
  0
INSERT
  5
9A
330
1F
100
AcDbEntity
  8
0
100
AcDbBlockReference
  2
block 16
 10
0.0
 20
0.0
 30
0.0
  0
INSERT
  5
A2
330
1F
100
AcDbEntity
  8
0
100
AcDbBlockReference
  2
block 17
 10
0.0
 20
0.0
 30
0.0
  0
INSERT
  5
AA
330
1F
100
AcDbEntity
  8
0
100
AcDbBlockReference
  2
block 18
 10
0.0
 20
0.0
 30
0.0
  0
INSERT
  5
B2
330
1F
100
AcDbEntity
  8
0
100
AcDbBlockReference
  2
block 19
 10
0.0
 20
0.0
 30
0.0
  0
INSERT
  5
BA
330
1F
100
AcDbEntity
  8
0
100
AcDbBlockReference
  2
block 20
 10
0.0
 20
0.0
 30
0.0
  0
INSERT
  5
C2
330
1F
100
AcDbEntity
  8
0
100
AcDbBlockReference
  2
block 21
 10
0.0
 20
0.0
 30
0.0
  0
INSERT
  5
CA
330
1F
100
AcDbEntity
  8
0
100
AcDbBlockReference
  2
block 22
 10
0.0
 20
0.0
 30
0.0
  0
INSERT
  5
D2
330
1F
100
AcDbEntity
  8
0
100
AcDbBlockReference
  2
block 23
 10
0.0
 20
0.0
 30
0.0
  0
INSERT
  5
DA
330
1F
100
AcDbEntity
  8
0
100
AcDbBlockReference
  2
block 24
 10
0.0
 20
0.0
 30
0.0
  0
INSERT
  5
E2
330
1F
100
AcDbEntity
  8
0
100
AcDbBlockReference
  2
block 25
 10
0.0
 20
0.0
 30
0.0
  0
INSERT
  5
E7
330
1F
100
AcDbEntity
  8
0
100
AcDbBlockReference
  2
block 26
 10
0.0
 20
0.0
 30
0.0
  0
INSERT
  5
EC
330
1F
100
AcDbEntity
  8
0
100
AcDbBlockReference
  2
block 27
 10
0.0
 20
0.0
 30
0.0
  0
INSERT
  5
F1
330
1F
100
AcDbEntity
  8
0
100
AcDbBlockReference
  2
block 28
 10
0.0
 20
0.0
 30
0.0
  0
INSERT
  5
F9
330
1F
100
AcDbEntity
  8
0
100
AcDbBlockReference
  2
block 29
 10
0.0
 20
0.0
 30
0.0
  0
INSERT
  5
FE
330
1F
100
AcDbEntity
  8
0
100
AcDbBlockReference
  2
block 30
 10
0.0
 20
0.0
 30
0.0
  0
INSERT
  5
106
330
1F
100
AcDbEntity
  8
0
100
AcDbBlockReference
  2
block 31
 10
0.0
 20
0.0
 30
0.0
  0
INSERT
  5
10B
330
1F
100
AcDbEntity
  8
0
100
AcDbBlockReference
  2
block 32
 10
0.0
 20
0.0
 30
0.0
  0
INSERT
  5
113
330
1F
100
AcDbEntity
  8
0
100
AcDbBlockReference
  2
block 33
 10
0.0
 20
0.0
 30
0.0
  0
INSERT
  5
118
330
1F
100
AcDbEntity
  8
0
100
AcDbBlockReference
  2
block 34
 10
0.0
 20
0.0
 30
0.0
  0
INSERT
  5
120
330
1F
100
AcDbEntity
  8
0
100
AcDbBlockReference
  2
block 35
 10
0.0
 20
0.0
 30
0.0
  0
INSERT
  5
128
330
1F
100
AcDbEntity
  8
0
100
AcDbBlockReference
  2
block 36
 10
0.0
 20
0.0
 30
0.0
  0
INSERT
  5
130
330
1F
100
AcDbEntity
  8
0
100
AcDbBlockReference
  2
block 37
 10
0.0
 20
0.0
 30
0.0
  0
INSERT
  5
135
330
1F
100
AcDbEntity
  8
0
100
AcDbBlockReference
  2
block 38
 10
0.0
 20
0.0
 30
0.0
  0
INSERT
  5
13D
330
1F
100
AcDbEntity
  8
0
100
AcDbBlockReference
  2
block 39
 10
0.0
 20
0.0
 30
0.0
  0
INSERT
  5
142
330
1F
100
AcDbEntity
  8
0
100
AcDbBlockReference
  2
block 40
 10
0.0
 20
0.0
 30
0.0
  0
INSERT
  5
15B
330
1F
100
AcDbEntity
  8
0
100
AcDbBlockReference
  2
block 41
 10
0.0
 20
0.0
 30
0.0
  0
INSERT
  5
160
330
1F
100
AcDbEntity
  8
0
100
AcDbBlockReference
  2
block 42
 10
0.0
 20
0.0
 30
0.0
  0
INSERT
  5
168
330
1F
100
AcDbEntity
  8
0
100
AcDbBlockReference
  2
block 43
 10
0.0
 20
0.0
 30
0.0
  0
INSERT
  5
170
330
1F
100
AcDbEntity
  8
0
100
AcDbBlockReference
  2
block 44
 10
0.0
 20
0.0
 30
0.0
  0
INSERT
  5
189
330
1F
100
AcDbEntity
  8
0
100
AcDbBlockReference
  2
block 45
 10
0.0
 20
0.0
 30
0.0
  0
INSERT
  5
1A2
330
1F
100
AcDbEntity
  8
0
100
AcDbBlockReference
  2
block 46
 10
0.0
 20
0.0
 30
0.0
  0
INSERT
  5
1BB
330
1F
100
AcDbEntity
  8
0
100
AcDbBlockReference
  2
block 47
 10
0.0
 20
0.0
 30
0.0
  0
INSERT
  5
1C3
330
1F
100
AcDbEntity
  8
0
100
AcDbBlockReference
  2
block 48
 10
0.0
 20
0.0
 30
0.0
  0
INSERT
  5
232
330
1F
100
AcDbEntity
  8
0
100
AcDbBlockReference
  2
block 61
 10
0.0
 20
0.0
 30
0.0
  0
INSERT
  5
23A
330
1F
100
AcDbEntity
  8
0
100
AcDbBlockReference
  2
block 62
 10
0.0
 20
0.0
 30
0.0
  0
INSERT
  5
23F
330
1F
100
AcDbEntity
  8
0
100
AcDbBlockReference
  2
block 63
 10
0.0
 20
0.0
 30
0.0
  0
INSERT
  5
244
330
1F
100
AcDbEntity
  8
0
100
AcDbBlockReference
  2
block 64
 10
0.0
 20
0.0
 30
0.0
  0
INSERT
  5
249
330
1F
100
AcDbEntity
  8
0
100
AcDbBlockReference
  2
block 65
 10
0.0
 20
0.0
 30
0.0
  0
INSERT
  5
251
330
1F
100
AcDbEntity
  8
0
100
AcDbBlockReference
  2
block 66
 10
0.0
 20
0.0
 30
0.0
  0
INSERT
  5
256
330
1F
100
AcDbEntity
  8
0
100
AcDbBlockReference
  2
block 67
 10
0.0
 20
0.0
 30
0.0
  0
INSERT
  5
25E
330
1F
100
AcDbEntity
  8
0
100
AcDbBlockReference
  2
block 68
 10
0.0
 20
0.0
 30
0.0
  0
INSERT
  5
266
330
1F
100
AcDbEntity
  8
0
100
AcDbBlockReference
  2
block 69
 10
0.0
 20
0.0
 30
0.0
  0
INSERT
  5
26E
330
1F
100
AcDbEntity
  8
0
100
AcDbBlockReference
  2
block 70
 10
0.0
 20
0.0
 30
0.0
  0
INSERT
  5
276
330
1F
100
AcDbEntity
  8
0
100
AcDbBlockReference
  2
block 71
 10
0.0
 20
0.0
 30
0.0
  0
INSERT
  5
27B
330
1F
100
AcDbEntity
  8
0
100
AcDbBlockReference
  2
block 72
 10
0.0
 20
0.0
 30
0.0
  0
INSERT
  5
280
330
1F
100
AcDbEntity
  8
0
100
AcDbBlockReference
  2
block 73
 10
0.0
 20
0.0
 30
0.0
  0
INSERT
  5
288
330
1F
100
AcDbEntity
  8
0
100
AcDbBlockReference
  2
block 74
 10
0.0
 20
0.0
 30
0.0
  0
INSERT
  5
290
330
1F
100
AcDbEntity
  8
0
100
AcDbBlockReference
  2
block 75
 10
0.0
 20
0.0
 30
0.0
  0
INSERT
  5
298
330
1F
100
AcDbEntity
  8
0
100
AcDbBlockReference
  2
block 76
 10
0.0
 20
0.0
 30
0.0
  0
INSERT
  5
2A0
330
1F
100
AcDbEntity
  8
0
100
AcDbBlockReference
  2
block 77
 10
0.0
 20
0.0
 30
0.0
  0
INSERT
  5
2A5
330
1F
100
AcDbEntity
  8
0
100
AcDbBlockReference
  2
block 78
 10
0.0
 20
0.0
 30
0.0
  0
INSERT
  5
2AA
330
1F
100
AcDbEntity
  8
0
100
AcDbBlockReference
  2
block 79
 10
0.0
 20
0.0
 30
0.0
  0
INSERT
  5
2AF
330
1F
100
AcDbEntity
  8
0
100
AcDbBlockReference
  2
block 80
 10
0.0
 20
0.0
 30
0.0
  0
INSERT
  5
2B4
330
1F
100
AcDbEntity
  8
0
100
AcDbBlockReference
  2
block 81
 10
0.0
 20
0.0
 30
0.0
  0
INSERT
  5
2BC
330
1F
100
AcDbEntity
  8
0
100
AcDbBlockReference
  2
block 82
 10
0.0
 20
0.0
 30
0.0
  0
INSERT
  5
2C4
330
1F
100
AcDbEntity
  8
0
100
AcDbBlockReference
  2
block 83
 10
0.0
 20
0.0
 30
0.0
  0
INSERT
  5
2CC
330
1F
100
AcDbEntity
  8
0
100
AcDbBlockReference
  2
block 84
 10
0.0
 20
0.0
 30
0.0
  0
INSERT
  5
2D4
330
1F
100
AcDbEntity
  8
0
100
AcDbBlockReference
  2
block 85
 10
0.0
 20
0.0
 30
0.0
  0
INSERT
  5
2DC
330
1F
100
AcDbEntity
  8
0
100
AcDbBlockReference
  2
block 86
 10
0.0
 20
0.0
 30
0.0
  0
INSERT
  5
2E4
330
1F
100
AcDbEntity
  8
0
100
AcDbBlockReference
  2
block 87
 10
0.0
 20
0.0
 30
0.0
  0
INSERT
  5
2EC
330
1F
100
AcDbEntity
  8
0
100
AcDbBlockReference
  2
block 88
 10
0.0
 20
0.0
 30
0.0
  0
INSERT
  5
2F4
330
1F
100
AcDbEntity
  8
0
100
AcDbBlockReference
  2
block 89
 10
0.0
 20
0.0
 30
0.0
  0
INSERT
  5
2FC
330
1F
100
AcDbEntity
  8
0
100
AcDbBlockReference
  2
block 90
 10
0.0
 20
0.0
 30
0.0
  0
INSERT
  5
304
330
1F
100
AcDbEntity
  8
0
100
AcDbBlockReference
  2
block 91
 10
0.0
 20
0.0
 30
0.0
  0
INSERT
  5
30C
330
1F
100
AcDbEntity
  8
0
100
AcDbBlockReference
  2
block 92
 10
0.0
 20
0.0
 30
0.0
  0
INSERT
  5
314
330
1F
100
AcDbEntity
  8
0
100
AcDbBlockReference
  2
block 93
 10
0.0
 20
0.0
 30
0.0
  0
INSERT
  5
31C
330
1F
100
AcDbEntity
  8
0
100
AcDbBlockReference
  2
block 94
 10
0.0
 20
0.0
 30
0.0
  0
INSERT
  5
324
330
1F
100
AcDbEntity
  8
0
100
AcDbBlockReference
  2
block 95
 10
0.0
 20
0.0
 30
0.0
  0
INSERT
  5
32C
330
1F
100
AcDbEntity
  8
0
100
AcDbBlockReference
  2
block 96
 10
0.0
 20
0.0
 30
0.0
  0
INSERT
  5
334
330
1F
100
AcDbEntity
  8
0
100
AcDbBlockReference
  2
block 97
 10
0.0
 20
0.0
 30
0.0
  0
INSERT
  5
33C
330
1F
100
AcDbEntity
  8
0
100
AcDbBlockReference
  2
block 98
 10
0.0
 20
0.0
 30
0.0
  0
INSERT
  5
344
330
1F
100
AcDbEntity
  8
0
100
AcDbBlockReference
  2
block 99
 10
0.0
 20
0.0
 30
0.0
  0
INSERT
  5
34C
330
1F
100
AcDbEntity
  8
0
100
AcDbBlockReference
  2
block 100
 10
0.0
 20
0.0
 30
0.0
  0
INSERT
  5
354
330
1F
100
AcDbEntity
  8
0
100
AcDbBlockReference
  2
block 101
 10
0.0
 20
0.0
 30
0.0
  0
INSERT
  5
35C
330
1F
100
AcDbEntity
  8
0
100
AcDbBlockReference
  2
block 102
 10
0.0
 20
0.0
 30
0.0
  0
INSERT
  5
364
330
1F
100
AcDbEntity
  8
0
100
AcDbBlockReference
  2
block 103
 10
0.0
 20
0.0
 30
0.0
  0
INSERT
  5
36C
330
1F
100
AcDbEntity
  8
0
100
AcDbBlockReference
  2
block 104
 10
0.0
 20
0.0
 30
0.0
  0
INSERT
  5
374
330
1F
100
AcDbEntity
  8
0
100
AcDbBlockReference
  2
block 105
 10
0.0
 20
0.0
 30
0.0
  0
INSERT
  5
37C
330
1F
100
AcDbEntity
  8
0
100
AcDbBlockReference
  2
block 106
 10
0.0
 20
0.0
 30
0.0
  0
INSERT
  5
384
330
1F
100
AcDbEntity
  8
0
100
AcDbBlockReference
  2
block 107
 10
0.0
 20
0.0
 30
0.0
  0
INSERT
  5
3AF
330
1F
100
AcDbEntity
  8
0
100
AcDbBlockReference
  2
block 108
 10
0.0
 20
0.0
 30
0.0
  0
INSERT
  5
3D8
330
1F
100
AcDbEntity
  8
0
100
AcDbBlockReference
  2
block 109
 10
0.0
 20
0.0
 30
0.0
  0
INSERT
  5
3E0
330
1F
100
AcDbEntity
  8
0
100
AcDbBlockReference
  2
block 110
 10
0.0
 20
0.0
 30
0.0
  0
INSERT
  5
3E8
330
1F
100
AcDbEntity
  8
0
100
AcDbBlockReference
  2
block 111
 10
0.0
 20
0.0
 30
0.0
  0
INSERT
  5
3F0
330
1F
100
AcDbEntity
  8
0
100
AcDbBlockReference
  2
block 112
 10
0.0
 20
0.0
 30
0.0
  0
INSERT
  5
3F8
330
1F
100
AcDbEntity
  8
0
100
AcDbBlockReference
  2
block 113
 10
0.0
 20
0.0
 30
0.0
  0
INSERT
  5
400
330
1F
100
AcDbEntity
  8
0
100
AcDbBlockReference
  2
block 114
 10
0.0
 20
0.0
 30
0.0
  0
INSERT
  5
405
330
1F
100
AcDbEntity
  8
0
100
AcDbBlockReference
  2
block 115
 10
0.0
 20
0.0
 30
0.0
  0
INSERT
  5
40A
330
1F
100
AcDbEntity
  8
0
100
AcDbBlockReference
  2
block 116
 10
0.0
 20
0.0
 30
0.0
  0
INSERT
  5
426
330
1F
100
AcDbEntity
  8
0
100
AcDbBlockReference
  2
block 117
 10
0.0
 20
0.0
 30
0.0
  0
INSERT
  5
42E
330
1F
100
AcDbEntity
  8
0
100
AcDbBlockReference
  2
block 118
 10
0.0
 20
0.0
 30
0.0
  0
INSERT
  5
436
330
1F
100
AcDbEntity
  8
0
100
AcDbBlockReference
  2
block 119
 10
0.0
 20
0.0
 30
0.0
  0
INSERT
  5
43E
330
1F
100
AcDbEntity
  8
0
100
AcDbBlockReference
  2
block 120
 10
0.0
 20
0.0
 30
0.0
  0
INSERT
  5
4AD
330
1F
100
AcDbEntity
  8
0
100
AcDbBlockReference
  2
block 133
 10
0.0
 20
0.0
 30
0.0
  0
INSERT
  5
4B5
330
1F
100
AcDbEntity
  8
0
100
AcDbBlockReference
  2
block 134
 10
0.0
 20
0.0
 30
0.0
  0
INSERT
  5
4BD
330
1F
100
AcDbEntity
  8
0
100
AcDbBlockReference
  2
block 135
 10
0.0
 20
0.0
 30
0.0
  0
INSERT
  5
4C5
330
1F
100
AcDbEntity
  8
0
100
AcDbBlockReference
  2
block 136
 10
0.0
 20
0.0
 30
0.0
  0
INSERT
  5
4CD
330
1F
100
AcDbEntity
  8
0
100
AcDbBlockReference
  2
block 137
 10
0.0
 20
0.0
 30
0.0
  0
INSERT
  5
4D5
330
1F
100
AcDbEntity
  8
0
100
AcDbBlockReference
  2
block 138
 10
0.0
 20
0.0
 30
0.0
  0
INSERT
  5
4DD
330
1F
100
AcDbEntity
  8
0
100
AcDbBlockReference
  2
block 139
 10
0.0
 20
0.0
 30
0.0
  0
INSERT
  5
4E5
330
1F
100
AcDbEntity
  8
0
100
AcDbBlockReference
  2
block 140
 10
0.0
 20
0.0
 30
0.0
  0
INSERT
  5
4ED
330
1F
100
AcDbEntity
  8
0
100
AcDbBlockReference
  2
block 141
 10
0.0
 20
0.0
 30
0.0
  0
INSERT
  5
4F2
330
1F
100
AcDbEntity
  8
0
100
AcDbBlockReference
  2
block 142
 10
0.0
 20
0.0
 30
0.0
  0
INSERT
  5
4FA
330
1F
100
AcDbEntity
  8
0
100
AcDbBlockReference
  2
block 143
 10
0.0
 20
0.0
 30
0.0
  0
INSERT
  5
502
330
1F
100
AcDbEntity
  8
0
100
AcDbBlockReference
  2
block 144
 10
0.0
 20
0.0
 30
0.0
  0
INSERT
  5
50A
330
1F
100
AcDbEntity
  8
0
100
AcDbBlockReference
  2
block 145
 10
0.0
 20
0.0
 30
0.0
  0
INSERT
  5
512
330
1F
100
AcDbEntity
  8
0
100
AcDbBlockReference
  2
block 146
 10
0.0
 20
0.0
 30
0.0
  0
INSERT
  5
51A
330
1F
100
AcDbEntity
  8
0
100
AcDbBlockReference
  2
block 147
 10
0.0
 20
0.0
 30
0.0
  0
INSERT
  5
51F
330
1F
100
AcDbEntity
  8
0
100
AcDbBlockReference
  2
block 148
 10
0.0
 20
0.0
 30
0.0
  0
INSERT
  5
524
330
1F
100
AcDbEntity
  8
0
100
AcDbBlockReference
  2
block 149
 10
0.0
 20
0.0
 30
0.0
  0
INSERT
  5
529
330
1F
100
AcDbEntity
  8
0
100
AcDbBlockReference
  2
block 150
 10
0.0
 20
0.0
 30
0.0
  0
INSERT
  5
52E
330
1F
100
AcDbEntity
  8
0
100
AcDbBlockReference
  2
block 151
 10
0.0
 20
0.0
 30
0.0
  0
INSERT
  5
536
330
1F
100
AcDbEntity
  8
0
100
AcDbBlockReference
  2
block 152
 10
0.0
 20
0.0
 30
0.0
  0
INSERT
  5
53E
330
1F
100
AcDbEntity
  8
0
100
AcDbBlockReference
  2
block 153
 10
0.0
 20
0.0
 30
0.0
  0
INSERT
  5
546
330
1F
100
AcDbEntity
  8
0
100
AcDbBlockReference
  2
block 154
 10
0.0
 20
0.0
 30
0.0
  0
INSERT
  5
54E
330
1F
100
AcDbEntity
  8
0
100
AcDbBlockReference
  2
block 155
 10
0.0
 20
0.0
 30
0.0
  0
INSERT
  5
556
330
1F
100
AcDbEntity
  8
0
100
AcDbBlockReference
  2
block 156
 10
0.0
 20
0.0
 30
0.0
  0
ENDSEC
  0
SECTION
  2
OBJECTS
  0
DICTIONARY
  5
C
330
0
100
AcDbDictionary
281
     1
  3
ACAD_GROUP
350
D
  3
ACAD_LAYOUT
350
1A
  3
ACAD_MLINESTYLE
350
17
  3
ACAD_PLOTSETTINGS
350
19
  3
ACAD_PLOTSTYLENAME
350
E
  3
ACAD_TABLESTYLE
350
5C5
  3
ACAD_VISUALSTYLE
350
2A
  0
DICTIONARY
  5
D
102
{ACAD_REACTORS
330
C
102
}
330
C
100
AcDbDictionary
281
     1
  0
DICTIONARY
  5
1A
102
{ACAD_REACTORS
330
C
102
}
330
C
100
AcDbDictionary
281
     1
  3
Layout1
350
1E
  3
Layout2
350
26
  3
Model
350
22
  0
DICTIONARY
  5
17
102
{ACAD_REACTORS
330
C
102
}
330
C
100
AcDbDictionary
281
     1
  3
Standard
350
18
  0
DICTIONARY
  5
19
102
{ACAD_REACTORS
330
C
102
}
330
C
100
AcDbDictionary
281
     1
  0
ACDBDICTIONARYWDFLT
  5
E
102
{ACAD_REACTORS
330
C
102
}
330
C
100
AcDbDictionary
281
     1
  3
Normal
350
F
100
AcDbDictionaryWithDefault
340
F
  0
DICTIONARY
  5
5C5
102
{ACAD_REACTORS
330
C
102
}
330
C
100
AcDbDictionary
281
     1
  0
DICTIONARY
  5
2A
102
{ACAD_REACTORS
330
C
102
}
330
C
100
AcDbDictionary
281
     1
  3
2dWireframe
350
2F
  3
3D Hidden
350
31
  3
3dWireframe
350
30
  3
Basic
350
32
  3
Brighten
350
36
  3
ColorChange
350
3A
  3
Conceptual
350
34
  3
Dim
350
35
  3
Facepattern
350
39
  3
Flat
350
2B
  3
FlatWithEdges
350
2C
  3
Gouraud
350
2D
  3
GouraudWithEdges
350
2E
  3
Linepattern
350
38
  3
Realistic
350
33
  3
Thicken
350
37
  0
LAYOUT
  5
1E
102
{ACAD_REACTORS
330
1A
102
}
330
1A
100
AcDbPlotSettings
  1

  2
none_device
  4

  6

 40
0.0
 41
0.0
 42
0.0
 43
0.0
 44
0.0
 45
0.0
 46
0.0
 47
0.0
 48
0.0
 49
0.0
140
0.0
141
0.0
142
1.0
143
1.0
 70
   688
 72
     0
 73
     0
 74
     5
  7

 75
    16
 76
     0
 77
     2
 78
   300
147
1.0
148
0.0
149
0.0
100
AcDbLayout
  1
Layout1
 70
     1
 71
     1
 10
0.0
 20
0.0
 11
12.0
 21
9.0
 12
0.0
 22
0.0
 32
0.0
 14
1.000000000000000E+20
 24
1.000000000000000E+20
 34
1.000000000000000E+20
 15
-1.000000000000000E+20
 25
-1.000000000000000E+20
 35
-1.000000000000000E+20
146
0.0
 13
0.0
 23
0.0
 33
0.0
 16
1.0
 26
0.0
 36
0.0
 17
0.0
 27
1.0
 37
0.0
 76
     0
330
1B
  0
LAYOUT
  5
26
102
{ACAD_REACTORS
330
1A
102
}
330
1A
100
AcDbPlotSettings
  1

  2
none_device
  4

  6

 40
0.0
 41
0.0
 42
0.0
 43
0.0
 44
0.0
 45
0.0
 46
0.0
 47
0.0
 48
0.0
 49
0.0
140
0.0
141
0.0
142
1.0
143
1.0
 70
   688
 72
     0
 73
     0
 74
     5
  7

 75
    16
 76
     0
 77
     2
 78
   300
147
1.0
148
0.0
149
0.0
100
AcDbLayout
  1
Layout2
 70
     1
 71
     2
 10
0.0
 20
0.0
 11
0.0
 21
0.0
 12
0.0
 22
0.0
 32
0.0
 14
0.0
 24
0.0
 34
0.0
 15
0.0
 25
0.0
 35
0.0
146
0.0
 13
0.0
 23
0.0
 33
0.0
 16
1.0
 26
0.0
 36
0.0
 17
0.0
 27
1.0
 37
0.0
 76
     0
330
23
  0
LAYOUT
  5
22
102
{ACAD_REACTORS
330
1A
102
}
330
1A
100
AcDbPlotSettings
  1

  2
none_device
  4

  6

 40
0.0
 41
0.0
 42
0.0
 43
0.0
 44
0.0
 45
0.0
 46
0.0
 47
0.0
 48
0.0
 49
0.0
140
0.0
141
0.0
142
1.0
143
1.0
 70
  1712
 72
     0
 73
     0
 74
     0
  7

 75
     0
 76
     0
 77
     2
 78
   300
147
1.0
148
0.0
149
0.0
100
AcDbLayout
  1
Model
 70
     1
 71
     0
 10
0.0
 20
0.0
 11
12.0
 21
9.0
 12
0.0
 22
0.0
 32
0.0
 14
1.000000000000000E+20
 24
1.000000000000000E+20
 34
1.000000000000000E+20
 15
-1.000000000000000E+20
 25
-1.000000000000000E+20
 35
-1.000000000000000E+20
146
0.0
 13
0.0
 23
0.0
 33
0.0
 16
1.0
 26
0.0
 36
0.0
 17
0.0
 27
1.0
 37
0.0
 76
     0
330
1F
331
29
  0
MLINESTYLE
  5
18
102
{ACAD_REACTORS
330
17
102
}
330
17
100
AcDbMlineStyle
  2
Standard
 70
     0
  3

 62
   256
 51
90.0
 52
90.0
 71
     2
 49
0.5
 62
   256
  6
BYLAYER
 49
-0.5
 62
   256
  6
BYLAYER
  0
ACDBPLACEHOLDER
  5
F
102
{ACAD_REACTORS
330
E
102
}
330
E
  0
VISUALSTYLE
  5
2F
102
{ACAD_REACTORS
330
2A
102
}
330
2A
100
AcDbVisualStyle
  2
2dWireframe
 70
     4
 71
     0
 72
     2
 73
     0
 90
        0
 40
-0.6
 41
-30.0
 62
     5
 63
     7
421
 16777215
 74
     1
 91
        4
 64
     7
 65
   257
 75
     1
175
     1
 42
1.0
 92
        0
 66
   257
 43
1.0
 76
     1
 77
     6
 78
     2
 67
     7
 79
     5
170
     0
171
     0
290
     0
174
     0
 93
        1
 44
0.0
173
     0
291
     0
 45
0.0
1001
ACAD
1000
AcDbSavedByObjectVersion
1070
     0
  0
VISUALSTYLE
  5
31
102
{ACAD_REACTORS
330
2A
102
}
330
2A
100
AcDbVisualStyle
  2
3D Hidden
 70
     6
 71
     1
 72
     2
 73
     2
 90
        0
 40
-0.6
 41
-30.0
 62
     5
 63
     7
421
 16777215
 74
     2
 91
        2
 64
     7
 65
   257
 75
     2
175
     1
 42
40.0
 92
        0
 66
   257
 43
1.0
 76
     1
 77
     6
 78
     2
 67
     7
 79
     3
170
     0
171
     0
290
     0
174
     0
 93
        1
 44
0.0
173
     0
291
     0
 45
0.0
1001
ACAD
1000
AcDbSavedByObjectVersion
1070
     0
  0
VISUALSTYLE
  5
30
102
{ACAD_REACTORS
330
2A
102
}
330
2A
100
AcDbVisualStyle
  2
3dWireframe
 70
     5
 71
     0
 72
     2
 73
     0
 90
        0
 40
-0.6
 41
-30.0
 62
     5
 63
     7
421
 16777215
 74
     1
 91
        4
 64
     7
 65
   257
 75
     1
175
     1
 42
1.0
 92
        0
 66
   257
 43
1.0
 76
     1
 77
     6
 78
     2
 67
     7
 79
     5
170
     0
171
     0
290
     0
174
     0
 93
        1
 44
0.0
173
     0
291
     0
 45
0.0
1001
ACAD
1000
AcDbSavedByObjectVersion
1070
     0
  0
VISUALSTYLE
  5
32
102
{ACAD_REACTORS
330
2A
102
}
330
2A
100
AcDbVisualStyle
  2
Basic
 70
     7
 71
     1
 72
     0
 73
     1
 90
        0
 40
-0.6
 41
-30.0
 62
     5
 63
     7
421
 16777215
 74
     0
 91
        4
 64
     7
 65
   257
 75
     1
175
     1
 42
1.0
 92
        8
 66
     7
 43
1.0
 76
     1
 77
     6
 78
     2
 67
     7
 79
     5
170
     0
171
     0
290
     0
174
     0
 93
        1
 44
0.0
173
     0
291
     1
 45
0.0
1001
ACAD
1000
AcDbSavedByObjectVersion
1070
     0
  0
VISUALSTYLE
  5
36
102
{ACAD_REACTORS
330
2A
102
}
330
2A
100
AcDbVisualStyle
  2
Brighten
 70
    12
 71
     2
 72
     2
 73
     0
 90
        0
 40
-0.6
 41
-30.0
 62
     5
 63
     7
421
 16777215
 74
     1
 91
        4
 64
     7
 65
   257
 75
     1
175
     1
 42
1.0
 92
        8
 66
     7
 43
1.0
 76
     1
 77
     6
 78
     2
 67
     7
 79
     5
170
     0
171
     0
290
     0
174
     0
 93
        1
 44
50.0
173
     0
291
     1
 45
0.0
1001
ACAD
1000
AcDbSavedByObjectVersion
1070
     0
  0
VISUALSTYLE
  5
3A
102
{ACAD_REACTORS
330
2A
102
}
330
2A
100
AcDbVisualStyle
  2
ColorChange
 70
    16
 71
     2
 72
     2
 73
     3
 90
        0
 40
-0.6
 41
-30.0
 62
     5
 63
     8
421
  8421504
 74
     1
 91
        4
 64
     7
 65
   257
 75
     1
175
     1
 42
1.0
 92
        8
 66
     8
424
  8421504
 43
1.0
 76
     1
 77
     6
 78
     2
 67
     7
 79
     5
170
     0
171
     0
290
     0
174
     0
 93
        1
 44
0.0
173
     0
291
     1
 45
0.0
1001
ACAD
1000
AcDbSavedByObjectVersion
1070
     0
  0
VISUALSTYLE
  5
34
102
{ACAD_REACTORS
330
2A
102
}
330
2A
100
AcDbVisualStyle
  2
Conceptual
 70
     9
 71
     3
 72
     2
 73
     0
 90
        0
 40
-0.6
 41
-30.0
 62
     5
 63
     7
421
 16777215
 74
     2
 91
        2
 64
     7
 65
   257
 75
     1
175
     1
 42
40.0
 92
        8
 66
     7
 43
1.0
 76
     1
 77
     6
 78
     2
 67
     7
 79
     3
170
     0
171
     0
290
     0
174
     0
 93
        1
 44
0.0
173
     0
291
     0
 45
0.0
1001
ACAD
1000
AcDbSavedByObjectVersion
1070
     0
  0
VISUALSTYLE
  5
35
102
{ACAD_REACTORS
330
2A
102
}
330
2A
100
AcDbVisualStyle
  2
Dim
 70
    11
 71
     2
 72
     2
 73
     0
 90
        0
 40
-0.6
 41
-30.0
 62
     5
 63
     7
421
 16777215
 74
     1
 91
        4
 64
     7
 65
   257
 75
     1
175
     1
 42
1.0
 92
        8
 66
     7
 43
1.0
 76
     1
 77
     6
 78
     2
 67
     7
 79
     5
170
     0
171
     0
290
     0
174
     0
 93
        1
 44
-50.0
173
     0
291
     1
 45
0.0
1001
ACAD
1000
AcDbSavedByObjectVersion
1070
     0
  0
VISUALSTYLE
  5
39
102
{ACAD_REACTORS
330
2A
102
}
330
2A
100
AcDbVisualStyle
  2
Facepattern
 70
    15
 71
     2
 72
     2
 73
     0
 90
        0
 40
-0.6
 41
-30.0
 62
     5
 63
     7
421
 16777215
 74
     1
 91
        4
 64
     7
 65
   257
 75
     1
175
     1
 42
1.0
 92
        8
 66
     7
 43
1.0
 76
     1
 77
     6
 78
     2
 67
     7
 79
     5
170
     0
171
     0
290
     0
174
     0
 93
        1
 44
0.0
173
     0
291
     1
 45
0.0
1001
ACAD
1000
AcDbSavedByObjectVersion
1070
     0
  0
VISUALSTYLE
  5
2B
102
{ACAD_REACTORS
330
2A
102
}
330
2A
100
AcDbVisualStyle
  2
Flat
 70
     0
 71
     2
 72
     1
 73
     1
 90
        2
 40
-0.6
 41
30.0
 62
     5
 63
     7
421
 16777215
 74
     0
 91
        4
 64
     7
 65
   257
 75
     1
175
     1
 42
1.0
 92
        8
 66
     7
 43
1.0
 76
     1
 77
     6
 78
     2
 67
     7
 79
     5
170
     0
171
     0
290
     0
174
     0
 93
       13
 44
0.0
173
     0
291
     1
 45
0.0
1001
ACAD
1000
AcDbSavedByObjectVersion
1070
     0
  0
VISUALSTYLE
  5
2C
102
{ACAD_REACTORS
330
2A
102
}
330
2A
100
AcDbVisualStyle
  2
FlatWithEdges
 70
     1
 71
     2
 72
     1
 73
     1
 90
        2
 40
-0.6
 41
30.0
 62
     5
 63
     7
421
 16777215
 74
     1
 91
        4
 64
     7
 65
   257
 75
     1
175
     1
 42
1.0
 92
        0
 66
   257
 43
1.0
 76
     1
 77
     6
 78
     2
 67
     7
 79
     5
170
     0
171
     0
290
     0
174
     0
 93
       13
 44
0.0
173
     0
291
     1
 45
0.0
1001
ACAD
1000
AcDbSavedByObjectVersion
1070
     0
  0
VISUALSTYLE
  5
2D
102
{ACAD_REACTORS
330
2A
102
}
330
2A
100
AcDbVisualStyle
  2
Gouraud
 70
     2
 71
     2
 72
     2
 73
     1
 90
        2
 40
-0.6
 41
30.0
 62
     5
 63
     7
421
 16777215
 74
     0
 91
        4
 64
     7
 65
   257
 75
     1
175
     1
 42
1.0
 92
        0
 66
     7
 43
1.0
 76
     1
 77
     6
 78
     2
 67
     7
 79
     5
170
     0
171
     0
290
     0
174
     0
 93
       13
 44
0.0
173
     0
291
     1
 45
0.0
1001
ACAD
1000
AcDbSavedByObjectVersion
1070
     0
  0
VISUALSTYLE
  5
2E
102
{ACAD_REACTORS
330
2A
102
}
330
2A
100
AcDbVisualStyle
  2
GouraudWithEdges
 70
     3
 71
     2
 72
     2
 73
     1
 90
        2
 40
-0.6
 41
30.0
 62
     5
 63
     7
421
 16777215
 74
     1
 91
        4
 64
     7
 65
   257
 75
     1
175
     1
 42
1.0
 92
        0
 66
   257
 43
1.0
 76
     1
 77
     6
 78
     2
 67
     7
 79
     5
170
     0
171
     0
290
     0
174
     0
 93
       13
 44
0.0
173
     0
291
     1
 45
0.0
1001
ACAD
1000
AcDbSavedByObjectVersion
1070
     0
  0
VISUALSTYLE
  5
38
102
{ACAD_REACTORS
330
2A
102
}
330
2A
100
AcDbVisualStyle
  2
Linepattern
 70
    14
 71
     2
 72
     2
 73
     0
 90
        0
 40
-0.6
 41
-30.0
 62
     5
 63
     7
421
 16777215
 74
     1
 91
        4
 64
     7
 65
   257
 75
     7
175
     7
 42
1.0
 92
        8
 66
     7
 43
1.0
 76
     1
 77
     6
 78
     2
 67
     7
 79
     5
170
     0
171
     0
290
     0
174
     0
 93
        1
 44
0.0
173
     0
291
     1
 45
0.0
1001
ACAD
1000
AcDbSavedByObjectVersion
1070
     0
  0
VISUALSTYLE
  5
33
102
{ACAD_REACTORS
330
2A
102
}
330
2A
100
AcDbVisualStyle
  2
Realistic
 70
     8
 71
     2
 72
     2
 73
     0
 90
        0
 40
-0.6
 41
-30.0
 62
     5
 63
     7
421
 16777215
 74
     1
 91
        0
 64
     7
 65
   257
 75
     1
175
     1
 42
1.0
 92
        8
 66
     8
424
  7895160
 43
1.0
 76
     1
 77
     6
 78
     2
 67
     7
 79
     5
170
     0
171
     0
290
     0
174
     0
 93
       13
 44
0.0
173
     0
291
     0
 45
0.0
1001
ACAD
1000
AcDbSavedByObjectVersion
1070
     0
  0
VISUALSTYLE
  5
37
102
{ACAD_REACTORS
330
2A
102
}
330
2A
100
AcDbVisualStyle
  2
Thicken
 70
    13
 71
     2
 72
     2
 73
     0
 90
        0
 40
-0.6
 41
-30.0
 62
     5
 63
     7
421
 16777215
 74
     1
 91
        4
 64
     7
 65
   257
 75
     1
175
     1
 42
1.0
 92
       12
 66
     7
 43
1.0
 76
     1
 77
     6
 78
     2
 67
     7
 79
     5
170
     0
171
     0
290
     0
174
     0
 93
        1
 44
0.0
173
     0
291
     1
 45
0.0
1001
ACAD
1000
AcDbSavedByObjectVersion
1070
     0
  0
ENDSEC
  0
EOF
