  0
SECTION
  2
HEADER
  9
$ACADVER
  1
AC1032
  9
$ACADMAINTVER
 90
      251
  9
$DWGCODEPAGE
  3
ANSI_1252
  9
$REQUIREDVERSIONS
160
                 0
  9
$INSBASE
 10
0.0
 20
0.0
 30
0.0
  9
$EXTMIN
 10
1.000000000000000E+20
 20
1.000000000000000E+20
 30
1.000000000000000E+20
  9
$EXTMAX
 10
-1.000000000000000E+20
 20
-1.000000000000000E+20
 30
-1.000000000000000E+20
  9
$LIMMIN
 10
0.0
 20
0.0
  9
$LIMMAX
 10
12.0
 20
9.0
  9
$ORTHOMODE
 70
     0
  9
$REGENMODE
 70
     1
  9
$FILLMODE
 70
     1
  9
$QTEXTMODE
 70
     0
  9
$MIRRTEXT
 70
     0
  9
$LTSCALE
 40
1.0
  9
$ATTMODE
 70
     1
  9
$TEXTSIZE
 40
0.2
  9
$TRACEWID
 40
0.05
  9
$TEXTSTYLE
  7
Standard
  9
$CLAYER
  8
0
  9
$CELTYPE
  6
ByLayer
  9
$CECOLOR
 62
   256
  9
$CELTSCALE
 40
1.0
  9
$DISPSILH
 70
     0
  9
$DIMSCALE
 40
1.0
  9
$DIMASZ
 40
0.18
  9
$DIMEXO
 40
0.0625
  9
$DIMDLI
 40
0.38
  9
$DIMRND
 40
0.0
  9
$DIMDLE
 40
0.0
  9
$DIMEXE
 40
0.18
  9
$DIMTP
 40
0.0
  9
$DIMTM
 40
0.0
  9
$DIMTXT
 40
0.18
  9
$DIMCEN
 40
0.09
  9
$DIMTSZ
 40
0.0
  9
$DIMTOL
 70
     0
  9
$DIMLIM
 70
     0
  9
$DIMTIH
 70
     1
  9
$DIMTOH
 70
     1
  9
$DIMSE1
 70
     0
  9
$DIMSE2
 70
     0
  9
$DIMTAD
 70
     0
  9
$DIMZIN
 70
     0
  9
$DIMBLK
  1

  9
$DIMASO
 70
     1
  9
$DIMSHO
 70
     1
  9
$DIMPOST
  1

  9
$DIMAPOST
  1

  9
$DIMALT
 70
     0
  9
$DIMALTD
 70
     2
  9
$DIMALTF
 40
25.4
  9
$DIMLFAC
 40
1.0
  9
$DIMTOFL
 70
     0
  9
$DIMTVP
 40
0.0
  9
$DIMTIX
 70
     0
  9
$DIMSOXD
 70
     0
  9
$DIMSAH
 70
     0
  9
$DIMBLK1
  1

  9
$DIMBLK2
  1

  9
$DIMSTYLE
  2
Standard
  9
$DIMCLRD
 70
     0
  9
$DIMCLRE
 70
     0
  9
$DIMCLRT
 70
     0
  9
$DIMTFAC
 40
1.0
  9
$DIMGAP
 40
0.09
  9
$DIMJUST
 70
     0
  9
$DIMSD1
 70
     0
  9
$DIMSD2
 70
     0
  9
$DIMTOLJ
 70
     1
  9
$DIMTZIN
 70
     0
  9
$DIMALTZ
 70
     0
  9
$DIMALTTZ
 70
     0
  9
$DIMUPT
 70
     0
  9
$DIMDEC
 70
     4
  9
$DIMTDEC
 70
     4
  9
$DIMALTU
 70
     2
  9
$DIMALTTD
 70
     2
  9
$DIMTXSTY
  7
Standard
  9
$DIMAUNIT
 70
     0
  9
$DIMADEC
 70
     0
  9
$DIMALTRND
 40
0.0
  9
$DIMAZIN
 70
     0
  9
$DIMDSEP
 70
    46
  9
$DIMATFIT
 70
     3
  9
$DIMFRAC
 70
     0
  9
$DIMLDRBLK
  1

  9
$DIMLUNIT
 70
     2
  9
$DIMLWD
 70
    -2
  9
$DIMLWE
 70
    -2
  9
$DIMTMOVE
 70
     0
  9
$DIMFXL
 40
1.0
  9
$DIMFXLON
 70
     0
  9
$DIMJOGANG
 40
0.7853981633974483
  9
$DIMTFILL
 70
     0
  9
$DIMTFILLCLR
 70
     0
  9
$DIMARCSYM
 70
     0
  9
$DIMLTYPE
  6

  9
$DIMLTEX1
  6

  9
$DIMLTEX2
  6

  9
$DIMTXTDIRECTION
 70
     0
  9
$LUNITS
 70
     2
  9
$LUPREC
 70
     4
  9
$SKETCHINC
 40
0.1
  9
$FILLETRAD
 40
0.0
  9
$AUNITS
 70
     0
  9
$AUPREC
 70
     0
  9
$MENU
  1
.
  9
$ELEVATION
 40
0.0
  9
$PELEVATION
 40
0.0
  9
$THICKNESS
 40
0.0
  9
$LIMCHECK
 70
     0
  9
$CHAMFERA
 40
0.0
  9
$CHAMFERB
 40
0.0
  9
$CHAMFERC
 40
0.0
  9
$CHAMFERD
 40
0.0
  9
$SKPOLY
 70
     0
  9
$TDCREATE
 40
2460035.627673611
  9
$TDUCREATE
 40
2460035.544340278
  9
$TDUPDATE
 40
2460035.627673611
  9
$TDUUPDATE
 40
2460035.544340278
  9
$TDINDWG
 40
0.0000000000
  9
$TDUSRTIMER
 40
0.0000000000
  9
$USRTIMER
 70
     1
  9
$ANGBASE
 50
0.0
  9
$ANGDIR
 70
     0
  9
$PDMODE
 70
     0
  9
$PDSIZE
 40
0.0
  9
$PLINEWID
 40
0.0
  9
$SPLFRAME
 70
     0
  9
$SPLINETYPE
 70
     6
  9
$SPLINESEGS
 70
     8
  9
$HANDSEED
  5
365
  9
$SURFTAB1
 70
     6
  9
$SURFTAB2
 70
     6
  9
$SURFTYPE
 70
     6
  9
$SURFU
 70
     6
  9
$SURFV
 70
     6
  9
$UCSBASE
  2

  9
$UCSNAME
  2

  9
$UCSORG
 10
0.0
 20
0.0
 30
0.0
  9
$UCSXDIR
 10
1.0
 20
0.0
 30
0.0
  9
$UCSYDIR
 10
0.0
 20
1.0
 30
0.0
  9
$UCSORTHOREF
  2

  9
$UCSORTHOVIEW
 70
     0
  9
$UCSORGTOP
 10
0.0
 20
0.0
 30
0.0
  9
$UCSORGBOTTOM
 10
0.0
 20
0.0
 30
0.0
  9
$UCSORGLEFT
 10
0.0
 20
0.0
 30
0.0
  9
$UCSORGRIGHT
 10
0.0
 20
0.0
 30
0.0
  9
$UCSORGFRONT
 10
0.0
 20
0.0
 30
0.0
  9
$UCSORGBACK
 10
0.0
 20
0.0
 30
0.0
  9
$PUCSBASE
  2

  9
$PUCSNAME
  2

  9
$PUCSORG
 10
0.0
 20
0.0
 30
0.0
  9
$PUCSXDIR
 10
1.0
 20
0.0
 30
0.0
  9
$PUCSYDIR
 10
0.0
 20
1.0
 30
0.0
  9
$PUCSORTHOREF
  2

  9
$PUCSORTHOVIEW
 70
     0
  9
$PUCSORGTOP
 10
0.0
 20
0.0
 30
0.0
  9
$PUCSORGBOTTOM
 10
0.0
 20
0.0
 30
0.0
  9
$PUCSORGLEFT
 10
0.0
 20
0.0
 30
0.0
  9
$PUCSORGRIGHT
 10
0.0
 20
0.0
 30
0.0
  9
$PUCSORGFRONT
 10
0.0
 20
0.0
 30
0.0
  9
$PUCSORGBACK
 10
0.0
 20
0.0
 30
0.0
  9
$USERI1
 70
     0
  9
$USERI2
 70
     0
  9
$USERI3
 70
     0
  9
$USERI4
 70
     0
  9
$USERI5
 70
     0
  9
$USERR1
 40
0.0
  9
$USERR2
 40
0.0
  9
$USERR3
 40
0.0
  9
$USERR4
 40
0.0
  9
$USERR5
 40
0.0
  9
$WORLDVIEW
 70
     1
  9
$SHADEDGE
 70
     3
  9
$SHADEDIF
 70
    70
  9
$TILEMODE
 70
     1
  9
$MAXACTVP
 70
    64
  9
$PINSBASE
 10
0.0
 20
0.0
 30
0.0
  9
$PLIMCHECK
 70
     0
  9
$PEXTMIN
 10
1.000000000000000E+20
 20
1.000000000000000E+20
 30
1.000000000000000E+20
  9
$PEXTMAX
 10
-1.000000000000000E+20
 20
-1.000000000000000E+20
 30
-1.000000000000000E+20
  9
$PLIMMIN
 10
0.0
 20
0.0
  9
$PLIMMAX
 10
12.0
 20
9.0
  9
$UNITMODE
 70
     0
  9
$VISRETAIN
 70
     1
  9
$PLINEGEN
 70
     0
  9
$PSLTSCALE
 70
     1
  9
$TREEDEPTH
 70
  3020
  9
$CMLSTYLE
  2
Standard
  9
$CMLJUST
 70
     0
  9
$CMLSCALE
 40
1.0
  9
$PROXYGRAPHICS
 70
     1
  9
$MEASUREMENT
 70
     0
  9
$CELWEIGHT
370
    -1
  9
$ENDCAPS
280
     0
  9
$JOINSTYLE
280
     0
  9
$LWDISPLAY
290
     1
  9
$INSUNITS
 70
     4
  9
$HYPERLINKBASE
  1

  9
$STYLESHEET
  1

  9
$XEDIT
290
     1
  9
$CEPSNTYPE
380
     0
  9
$PSTYLEMODE
290
     1
  9
$FINGERPRINTGUID
  2
{14A1F15A-4AD9-EB4B-BFDC-3DEA48901F73}
  9
$VERSIONGUID
  2
{55F9CED3-FAF2-4541-85C5-61A3910C16D7}
  9
$EXTNAMES
290
     1
  9
$PSVPSCALE
 40
0.0
  9
$OLESTARTUP
290
     0
  9
$SORTENTS
280
   127
  9
$INDEXCTL
280
     0
  9
$HIDETEXT
280
     1
  9
$XCLIPFRAME
280
     2
  9
$HALOGAP
280
     0
  9
$OBSCOLOR
 70
   257
  9
$OBSLTYPE
280
     0
  9
$INTERSECTIONDISPLAY
280
     0
  9
$INTERSECTIONCOLOR
 70
   257
  9
$DIMASSOC
280
     2
  9
$PROJECTNAME
  1

  9
$CAMERADISPLAY
290
     0
  9
$LENSLENGTH
 40
50.0
  9
$CAMERAHEIGHT
 40
0.0
  9
$STEPSPERSEC
 40
2.0
  9
$STEPSIZE
 40
6.0
  9
$3DDWFPREC
 40
2.0
  9
$PSOLWIDTH
 40
0.25
  9
$PSOLHEIGHT
 40
4.0
  9
$LOFTANG1
 40
1.570796326794896
  9
$LOFTANG2
 40
1.570796326794896
  9
$LOFTMAG1
 40
0.0
  9
$LOFTMAG2
 40
0.0
  9
$LOFTPARAM
 70
     7
  9
$LOFTNORMALS
280
     1
  9
$LATITUDE
 40
37.795
  9
$LONGITUDE
 40
-122.394
  9
$NORTHDIRECTION
 40
0.0
  9
$TIMEZONE
 70
 -8000
  9
$LIGHTGLYPHDISPLAY
280
     1
  9
$TILEMODELIGHTSYNCH
280
     1
  9
$CMATERIAL
347
11
  9
$SOLIDHIST
280
     0
  9
$SHOWHIST
280
     1
  9
$DWFFRAME
280
     2
  9
$DGNFRAME
280
     0
  9
$REALWORLDSCALE
290
     1
  9
$INTERFERECOLOR
 62
     1
  9
$INTERFEREOBJVS
345
33
  9
$INTERFEREVPVS
346
30
  9
$CSHADOW
280
     0
  9
$SHADOWPLANELOCATION
 40
0.0
  0
ENDSEC
  0
SECTION
  2
CLASSES
  0
CLASS
  1
ACDBDICTIONARYWDFLT
  2
AcDbDictionaryWithDefault
  3
ObjectDBX Classes
 90
        0
 91
        1
280
     0
281
     0
  0
CLASS
  1
MATERIAL
  2
AcDbMaterial
  3
ObjectDBX Classes
 90
     1153
 91
        3
280
     0
281
     0
  0
CLASS
  1
VISUALSTYLE
  2
AcDbVisualStyle
  3
ObjectDBX Classes
 90
     4095
 91
       24
280
     0
281
     0
  0
CLASS
  1
SCALE
  2
AcDbScale
  3
ObjectDBX Classes
 90
     1153
 91
       17
280
     0
281
     0
  0
CLASS
  1
TABLESTYLE
  2
AcDbTableStyle
  3
ObjectDBX Classes
 90
     4095
 91
        1
280
     0
281
     0
  0
CLASS
  1
MLEADERSTYLE
  2
AcDbMLeaderStyle
  3
ACDB_MLEADERSTYLE_CLASS
 90
     4095
 91
        1
280
     0
281
     0
  0
CLASS
  1
ACDBSECTIONVIEWSTYLE
  2
AcDbSectionViewStyle
  3
ObjectDBX Classes
 90
     1025
 91
        1
280
     0
281
     0
  0
CLASS
  1
ACDBDETAILVIEWSTYLE
  2
AcDbDetailViewStyle
  3
ObjectDBX Classes
 90
     1025
 91
        1
280
     0
281
     0
  0
CLASS
  1
DICTIONARYVAR
  2
AcDbDictionaryVar
  3
ObjectDBX Classes
 90
        0
 91
        5
280
     0
281
     0
  0
CLASS
  1
CELLSTYLEMAP
  2
AcDbCellStyleMap
  3
ObjectDBX Classes
 90
     1152
 91
        1
280
     0
281
     0
  0
ENDSEC
  0
SECTION
  2
TABLES
  0
TABLE
  2
VPORT
  5
8
330
0
100
AcDbSymbolTable
 70
     1
  0
VPORT
  5
57
330
8
100
AcDbSymbolTableRecord
100
AcDbViewportTableRecord
  2
*Active
 70
     0
 10
0.0
 20
0.0
 11
1.0
 21
1.0
 12
0.0
 22
0.0
 13
0.0
 23
0.0
 14
1.0
 24
1.0
 15
0.0
 25
0.0
 16
0.0
 26
0.0
 36
1.0
 17
104.9999999737499
 27
31.49999999212523
 37
0.0
 40
302.9399999242649
 41
0.7070707070707066
 42
50.0
 43
0.0
 44
0.0
 50
0.0
 51
0.0
 71
     0
 72
   100
 73
     1
 74
     1
 75
     0
 76
     0
 77
     0
 78
     0
281
     0
 65
     1
110
0.0
120
0.0
130
0.0
111
1.0
121
0.0
131
0.0
112
0.0
122
1.0
132
0.0
 79
     0
146
0.0
 60
     3
 61
     5
292
     1
282
     1
141
0.0
142
0.0
 63
   250
421
  3355443
  0
ENDTAB
  0
TABLE
  2
LTYPE
  5
5
330
0
100
AcDbSymbolTable
 70
     1
  0
LTYPE
  5
5B
330
5
100
AcDbSymbolTableRecord
100
AcDbLinetypeTableRecord
  2
ByBlock
 70
     0
  3

 72
    65
 73
     0
 40
0.0
  0
LTYPE
  5
5C
330
5
100
AcDbSymbolTableRecord
100
AcDbLinetypeTableRecord
  2
ByLayer
 70
     0
  3

 72
    65
 73
     0
 40
0.0
  0
LTYPE
  5
5D
330
5
100
AcDbSymbolTableRecord
100
AcDbLinetypeTableRecord
  2
Continuous
 70
     0
  3
Solid line
 72
    65
 73
     0
 40
0.0
  0
ENDTAB
  0
TABLE
  2
LAYER
  5
2
330
0
100
AcDbSymbolTable
 70
     2
  0
LAYER
  5
54
330
2
100
AcDbSymbolTableRecord
100
AcDbLayerTableRecord
  2
0
 70
     0
 62
     7
  6
Continuous
370
     0
390
F
347
21
348
0
  0
LAYER
  5
337
330
2
100
AcDbSymbolTableRecord
100
AcDbLayerTableRecord
  2
CAPA_BASE
 70
     0
 62
     7
  6
Continuous
370
     0
390
F
347
21
348
0
  0
ENDTAB
  0
TABLE
  2
STYLE
  5
3
330
0
100
AcDbSymbolTable
 70
     2
  0
STYLE
  5
55
330
3
100
AcDbSymbolTableRecord
100
AcDbTextStyleTableRecord
  2
Standard
 70
     0
 40
0.0
 41
1.0
 50
0.0
 71
     0
 42
0.2
  3
txt
  4

  0
STYLE
  5
5A
330
3
100
AcDbSymbolTableRecord
100
AcDbTextStyleTableRecord
  2
Annotative
 70
     0
 40
0.0
 41
1.0
 50
0.0
 71
     0
 42
0.2
  3
txt
  4

1001
AcadAnnotative
1000
AnnotativeData
1002
{
1070
     1
1070
     1
1002
}
  0
ENDTAB
  0
TABLE
  2
VIEW
  5
6
330
0
100
AcDbSymbolTable
 70
     0
  0
ENDTAB
  0
TABLE
  2
UCS
  5
7
330
0
100
AcDbSymbolTable
 70
     0
  0
ENDTAB
  0
TABLE
  2
APPID
  5
9
330
0
100
AcDbSymbolTable
 70
     2
  0
APPID
  5
56
330
9
100
AcDbSymbolTableRecord
100
AcDbRegAppTableRecord
  2
ACAD
 70
     0
  0
APPID
  5
5E
330
9
100
AcDbSymbolTableRecord
100
AcDbRegAppTableRecord
  2
AcadAnnotative
 70
     0
  0
ENDTAB
  0
TABLE
  2
DIMSTYLE
  5
A
330
0
100
AcDbSymbolTable
 70
     2
100
AcDbDimStyleTable
 71
     0
  0
DIMSTYLE
105
58
330
A
100
AcDbSymbolTableRecord
100
AcDbDimStyleTableRecord
  2
Standard
 70
     0
340
55
  0
DIMSTYLE
105
59
330
A
100
AcDbSymbolTableRecord
100
AcDbDimStyleTableRecord
  2
Annotative
 70
     0
340
55
1001
AcadAnnotative
1000
AnnotativeData
1002
{
1070
     1
1070
     1
1002
}
  0
ENDTAB
  0
TABLE
  2
BLOCK_RECORD
  5
1
330
0
100
AcDbSymbolTable
 70
     4
  0
BLOCK_RECORD
  5
70
330
1
100
AcDbSymbolTableRecord
100
AcDbBlockTableRecord
  2
*Model_Space
340
73
 70
     0
280
     1
281
     0
  0
BLOCK_RECORD
  5
6C
330
1
100
AcDbSymbolTableRecord
100
AcDbBlockTableRecord
  2
*Paper_Space
340
6F
 70
     0
280
     1
281
     0
  0
BLOCK_RECORD
  5
74
330
1
100
AcDbSymbolTableRecord
100
AcDbBlockTableRecord
  2
*Paper_Space0
340
77
 70
     0
280
     1
281
     0
  0
BLOCK_RECORD
  5
338
330
1
100
AcDbSymbolTableRecord
100
AcDbBlockTableRecord
  2
Block_0
340
0
102
{BLKREFS
331
339
102
}
 70
     0
280
     1
281
     0
  0
BLOCK_RECORD
  5
344
330
1
100
AcDbSymbolTableRecord
100
AcDbBlockTableRecord
  2
Block_1
340
0
102
{BLKREFS
331
345
102
}
 70
     0
280
     1
281
     0
  0
BLOCK_RECORD
  5
350
330
1
100
AcDbSymbolTableRecord
100
AcDbBlockTableRecord
  2
Block_2
340
0
102
{BLKREFS
331
351
102
}
 70
     0
280
     1
281
     0
  0
ENDTAB
  0
ENDSEC
  0
SECTION
  2
BLOCKS
  0
BLOCK
  5
71
330
70
100
AcDbEntity
  8
0
100
AcDbBlockBegin
  2
*Model_Space
 70
     0
 10
0.0
 20
0.0
 30
0.0
  3
*Model_Space
  1

  0
ENDBLK
  5
72
330
70
100
AcDbEntity
  8
0
100
AcDbBlockEnd
  0
BLOCK
  5
6D
330
6C
100
AcDbEntity
 67
     1
  8
0
100
AcDbBlockBegin
  2
*Paper_Space
 70
     0
 10
0.0
 20
0.0
 30
0.0
  3
*Paper_Space
  1

  0
ENDBLK
  5
6E
330
6C
100
AcDbEntity
 67
     1
  8
0
100
AcDbBlockEnd
  0
BLOCK
  5
75
330
74
100
AcDbEntity
 67
     1
  8
0
100
AcDbBlockBegin
  2
*Paper_Space0
 70
     0
 10
0.0
 20
0.0
 30
0.0
  3
*Paper_Space0
  1

  0
ENDBLK
  5
76
330
74
100
AcDbEntity
 67
     1
  8
0
100
AcDbBlockEnd
  0
BLOCK
  5
33A
330
338
100
AcDbEntity
  8
0
100
AcDbBlockBegin
  2
Block_0
 70
     0
 10
0.0
 20
0.0
 30
0.0
  3
Block_0
  1

  0
LWPOLYLINE
  5
33C
330
338
100
AcDbEntity
  8
CAPA_BASE
100
AcDbPolyline
 90
        4
 70
     1
 43
0.0
 10
43.79056819843382
 20
9.516020356963672
 10
46.29056819843358
 20
9.206020356963307
 10
46.29056819843358
 20
9.826020356963393
 10
46.29056819843358
 20
9.826020356963393
  0
HATCH
  5
33D
330
338
100
AcDbEntity
  8
CAPA_BASE
 62
    18
420
        0
440
 33554687
100
AcDbHatch
 10
0.0
 20
0.0
 30
0.0
210
0.0
220
0.0
230
1.0
  2
SOLID
 70
     1
 71
     1
 91
        1
 92
        1
 93
        3
 72
     1
 10
43.79056819843382
 20
9.516020356963672
 11
46.29056819843358
 21
9.206020356963307
 72
     1
 10
46.29056819843358
 20
9.206020356963307
 11
46.29056819843358
 21
9.826020356963393
 72
     1
 10
46.29056819843358
 20
9.826020356963393
 11
43.79056819843382
 21
9.516020356963672
 97
        1
330
33C
 75
     2
 76
     1
 98
        1
 10
0.0
 20
0.0
450
        0
451
        0
460
0.0
461
0.0
452
        0
462
0.0
453
        0
470

  0
LWPOLYLINE
  5
33E
330
338
100
AcDbEntity
  8
CAPA_BASE
100
AcDbPolyline
 90
        4
 70
     1
 43
0.0
 10
74.89056819843395
 20
9.516020356963672
 10
72.39056819843355
 20
9.826020356963393
 10
72.39056819843355
 20
9.206020356963307
 10
72.39056819843355
 20
9.206020356963307
  0
HATCH
  5
33F
330
338
100
AcDbEntity
  8
CAPA_BASE
 62
    18
420
        0
440
 33554687
100
AcDbHatch
 10
0.0
 20
0.0
 30
0.0
210
0.0
220
0.0
230
1.0
  2
SOLID
 70
     1
 71
     1
 91
        1
 92
        1
 93
        3
 72
     1
 10
74.89056819843395
 20
9.516020356963672
 11
72.39056819843355
 21
9.826020356963393
 72
     1
 10
72.39056819843355
 20
9.826020356963393
 11
72.39056819843355
 21
9.206020356963307
 72
     1
 10
72.39056819843355
 20
9.206020356963307
 11
74.89056819843395
 21
9.516020356963672
 97
        1
330
33E
 75
     2
 76
     1
 98
        1
 10
0.0
 20
0.0
450
        0
451
        0
460
0.0
461
0.0
452
        0
462
0.0
453
        0
470

  0
LINE
  5
340
330
338
100
AcDbEntity
  8
CAPA_BASE
 62
    18
420
        0
370
    25
100
AcDbLine
 10
43.79056819843382
 20
19.01602035696368
 30
0.0
 11
43.79056819843382
 21
8.516020356963636
 31
0.0
  0
LINE
  5
341
330
338
100
AcDbEntity
  8
CAPA_BASE
 62
    18
420
        0
370
    25
100
AcDbLine
 10
74.89056819843395
 20
19.01602035696368
 30
0.0
 11
74.89056819843395
 21
8.516020356963636
 31
0.0
  0
LINE
  5
342
330
338
100
AcDbEntity
  8
CAPA_BASE
 62
    18
420
        0
370
    25
100
AcDbLine
 10
43.79056819843382
 20
9.516020356963672
 30
0.0
 11
74.89056819843395
 21
9.516020356963672
 31
0.0
  0
MTEXT
  5
343
330
338
100
AcDbEntity
  8
CAPA_BASE
100
AcDbMText
 10
57.57668044452239
 20
10.30976987157145
 30
0.0
 40
0.2
 41
0.0
 46
0.0
 71
     7
 72
     1
  1
\C18;\c0;\FArial Bold|b1|i0|c1;\H2.997200;\W0.700000;62
 73
     1
 44
1.0
  0
ENDBLK
  5
33B
330
338
100
AcDbEntity
  8
0
100
AcDbBlockEnd
  0
BLOCK
  5
346
330
344
100
AcDbEntity
  8
0
100
AcDbBlockBegin
  2
Block_1
 70
     0
 10
0.0
 20
0.0
 30
0.0
  3
Block_1
  1

  0
LWPOLYLINE
  5
348
330
344
100
AcDbEntity
  8
CAPA_BASE
100
AcDbPolyline
 90
        4
 70
     1
 43
0.0
 10
128.1277536356337
 20
100.2237793443634
 10
127.817753635634
 20
97.72377934436335
 10
128.4377536356334
 20
97.72377934436335
 10
128.4377536356334
 20
97.72377934436335
  0
HATCH
  5
349
330
344
100
AcDbEntity
  8
CAPA_BASE
 62
    18
420
        0
440
 33554687
100
AcDbHatch
 10
0.0
 20
0.0
 30
0.0
210
0.0
220
0.0
230
1.0
  2
SOLID
 70
     1
 71
     1
 91
        1
 92
        1
 93
        3
 72
     1
 10
128.1277536356337
 20
100.2237793443634
 11
127.817753635634
 21
97.72377934436335
 72
     1
 10
127.817753635634
 20
97.72377934436335
 11
128.4377536356334
 21
97.72377934436335
 72
     1
 10
128.4377536356334
 20
97.72377934436335
 11
128.1277536356337
 21
100.2237793443634
 97
        1
330
348
 75
     2
 76
     1
 98
        1
 10
0.0
 20
0.0
450
        0
451
        0
460
0.0
461
0.0
452
        0
462
0.0
453
        0
470

  0
LWPOLYLINE
  5
34A
330
344
100
AcDbEntity
  8
CAPA_BASE
100
AcDbPolyline
 90
        4
 70
     1
 43
0.0
 10
128.1277536356337
 20
19.51602035696338
 10
128.4377536356334
 20
22.01602035696315
 10
127.817753635634
 20
22.01602035696315
 10
127.817753635634
 20
22.01602035696315
  0
HATCH
  5
34B
330
344
100
AcDbEntity
  8
CAPA_BASE
 62
    18
420
        0
440
 33554687
100
AcDbHatch
 10
0.0
 20
0.0
 30
0.0
210
0.0
220
0.0
230
1.0
  2
SOLID
 70
     1
 71
     1
 91
        1
 92
        1
 93
        3
 72
     1
 10
128.1277536356337
 20
19.51602035696338
 11
128.4377536356334
 21
22.01602035696315
 72
     1
 10
128.4377536356334
 20
22.01602035696315
 11
127.817753635634
 21
22.01602035696315
 72
     1
 10
127.817753635634
 20
22.01602035696315
 11
128.1277536356337
 21
19.51602035696338
 97
        1
330
34A
 75
     2
 76
     1
 98
        1
 10
0.0
 20
0.0
450
        0
451
        0
460
0.0
461
0.0
452
        0
462
0.0
453
        0
470

  0
LINE
  5
34C
330
344
100
AcDbEntity
  8
CAPA_BASE
 62
    18
420
        0
370
    25
100
AcDbLine
 10
141.1993954770339
 20
100.2237793443634
 30
0.0
 11
127.1277536356337
 21
100.2237793443634
 31
0.0
  0
LINE
  5
34D
330
344
100
AcDbEntity
  8
CAPA_BASE
 62
    18
420
        0
370
    25
100
AcDbLine
 10
139.2052719663337
 20
19.51602035696338
 30
0.0
 11
127.1277536356337
 21
19.51602035696338
 31
0.0
  0
LINE
  5
34E
330
344
100
AcDbEntity
  8
CAPA_BASE
 62
    18
420
        0
370
    25
100
AcDbLine
 10
128.1277536356337
 20
100.2237793443634
 30
0.0
 11
128.1277536356337
 21
19.51602035696338
 31
0.0
  0
MTEXT
  5
34F
330
344
100
AcDbEntity
  8
CAPA_BASE
100
AcDbMText
 10
127.3340019755456
 20
57.22406953864473
 30
0.0
 40
0.2
 41
0.0
 46
0.0
 71
     7
 72
     1
  1
\C18;\c0;\FArial Bold|b1|i0|c1;\H2.997200;\W0.700000;161
 11
0.0000000000000003
 21
1.0
 31
0.0
 73
     1
 44
1.0
  0
ENDBLK
  5
347
330
344
100
AcDbEntity
  8
0
100
AcDbBlockEnd
  0
BLOCK
  5
352
330
350
100
AcDbEntity
  8
0
100
AcDbBlockBegin
  2
Block_2
 70
     0
 10
0.0
 20
0.0
 30
0.0
  3
Block_2
  1

  0
LWPOLYLINE
  5
354
330
350
100
AcDbEntity
  8
CAPA_BASE
100
AcDbPolyline
 90
        4
 70
     1
 43
0.0
 10
85.0964617519337
 20
-14.9063903197364
 10
84.78646175193398
 20
-17.40639031973681
 10
85.40646175193343
 20
-17.40639031973681
 10
85.40646175193343
 20
-17.40639031973681
  0
HATCH
  5
355
330
350
100
AcDbEntity
  8
CAPA_BASE
 62
    18
420
        0
440
 33554687
100
AcDbHatch
 10
0.0
 20
0.0
 30
0.0
210
0.0
220
0.0
230
1.0
  2
SOLID
 70
     1
 71
     1
 91
        1
 92
        1
 93
        3
 72
     1
 10
85.0964617519337
 20
-14.9063903197364
 11
84.78646175193398
 21
-17.40639031973681
 72
     1
 10
84.78646175193398
 20
-17.40639031973681
 11
85.40646175193343
 21
-17.40639031973681
 72
     1
 10
85.40646175193343
 20
-17.40639031973681
 11
85.0964617519337
 21
-14.9063903197364
 97
        1
330
354
 75
     2
 76
     1
 98
        1
 10
0.0
 20
0.0
450
        0
451
        0
460
0.0
461
0.0
452
        0
462
0.0
453
        0
470

  0
LWPOLYLINE
  5
356
330
350
100
AcDbEntity
  8
CAPA_BASE
100
AcDbPolyline
 90
        4
 70
     1
 43
0.0
 10
85.0964617519337
 20
-55.35639031973671
 10
85.40646175193343
 20
-52.8563903197363
 10
84.78646175193398
 20
-52.8563903197363
 10
84.78646175193398
 20
-52.8563903197363
  0
HATCH
  5
357
330
350
100
AcDbEntity
  8
CAPA_BASE
 62
    18
420
        0
440
 33554687
100
AcDbHatch
 10
0.0
 20
0.0
 30
0.0
210
0.0
220
0.0
230
1.0
  2
SOLID
 70
     1
 71
     1
 91
        1
 92
        1
 93
        3
 72
     1
 10
85.0964617519337
 20
-55.35639031973671
 11
85.40646175193343
 21
-52.8563903197363
 72
     1
 10
85.40646175193343
 20
-52.8563903197363
 11
84.78646175193398
 21
-52.8563903197363
 72
     1
 10
84.78646175193398
 20
-52.8563903197363
 11
85.0964617519337
 21
-55.35639031973671
 97
        1
330
356
 75
     2
 76
     1
 98
        1
 10
0.0
 20
0.0
450
        0
451
        0
460
0.0
461
0.0
452
        0
462
0.0
453
        0
470

  0
LINE
  5
358
330
350
100
AcDbEntity
  8
CAPA_BASE
 62
    18
420
        0
370
    25
100
AcDbLine
 10
65.59056819843331
 20
-14.9063903197364
 30
0.0
 11
86.09646175193374
 21
-14.9063903197364
 31
0.0
  0
LINE
  5
359
330
350
100
AcDbEntity
  8
CAPA_BASE
 62
    18
420
        0
370
    25
100
AcDbLine
 10
63.13900208413361
 20
-55.35639031973671
 30
0.0
 11
86.09646175193374
 21
-55.35639031973671
 31
0.0
  0
LINE
  5
35A
330
350
100
AcDbEntity
  8
CAPA_BASE
 62
    18
420
        0
370
    25
100
AcDbLine
 10
85.0964617519337
 20
-14.9063903197364
 30
0.0
 11
85.0964617519337
 21
-55.35639031973671
 31
0.0
  0
MTEXT
  5
35B
330
350
100
AcDbEntity
  8
CAPA_BASE
100
AcDbMText
 10
84.30270845636909
 20
-36.89490558973525
 30
0.0
 40
0.2
 41
0.0
 46
0.0
 71
     7
 72
     1
  1
\C18;\c0;\FArial Bold|b1|i0|c1;\H2.997200;\W0.700000;81
 11
0.0000000000000003
 21
1.0
 31
0.0
 73
     1
 44
1.0
  0
ENDBLK
  5
353
330
350
100
AcDbEntity
  8
0
100
AcDbBlockEnd
  0
ENDSEC
  0
SECTION
  2
ENTITIES
  0
SPLINE
  5
78
330
70
100
AcDbEntity
  8
0
 62
    18
420
        0
370
    25
100
AcDbSpline
210
0.0
220
0.0
230
1.0
 70
     8
 71
     3
 72
     8
 73
     4
 74
     0
 42
0.0000000001
 43
0.0000000001
 40
0.0
 40
0.0
 40
0.0
 40
0.0
 40
1.0
 40
1.0
 40
1.0
 40
1.0
 10
67.49573457423345
 20
19.71602035696339
 30
0.0
 10
67.49573457423345
 20
19.77124883194616
 30
0.0
 10
67.4509630492172
 20
19.81602035696371
 30
0.0
 10
67.39573457423377
 20
19.81602035696371
 30
0.0
  0
SPLINE
  5
79
330
70
100
AcDbEntity
  8
0
 62
    18
420
        0
370
    25
100
AcDbSpline
210
0.0
220
0.0
230
1.0
 70
     8
 71
     3
 72
     8
 73
     4
 74
     0
 42
0.0000000001
 43
0.0000000001
 40
0.0
 40
0.0
 40
0.0
 40
0.0
 40
1.0
 40
1.0
 40
1.0
 40
1.0
 10
51.28540182263368
 20
19.81602035696371
 30
0.0
 10
51.23017334765059
 20
19.81602035696371
 30
0.0
 10
51.18540182263369
 20
19.77124883194616
 30
0.0
 10
51.18540182263369
 20
19.71602035696339
 30
0.0
  0
LINE
  5
7A
330
70
100
AcDbEntity
  8
0
 62
    18
420
        0
370
    25
100
AcDbLine
 10
67.49573436993381
 20
19.71601971326353
 30
0.0
 11
67.49573436993381
 21
19.61602174576342
 31
0.0
  0
SPLINE
  5
7B
330
70
100
AcDbEntity
  8
0
 62
    18
420
        0
370
    25
100
AcDbSpline
210
0.0
220
0.0
230
1.0
 70
     8
 71
     3
 72
     8
 73
     4
 74
     0
 42
0.0000000001
 43
0.0000000001
 40
0.0
 40
0.0
 40
0.0
 40
0.0
 40
1.0
 40
1.0
 40
1.0
 40
1.0
 10
67.49573457423345
 20
19.61602035696306
 30
0.0
 10
67.49573457423345
 20
19.56079188198029
 30
0.0
 10
67.540506099251
 20
19.51602035696338
 30
0.0
 10
67.59573457423378
 20
19.51602035696338
 30
0.0
  0
SPLINE
  5
7C
330
70
100
AcDbEntity
  8
0
 62
    18
420
        0
370
    25
100
AcDbSpline
210
0.0
220
0.0
230
1.0
 70
     8
 71
     3
 72
     8
 73
     4
 74
     0
 42
0.0000000001
 43
0.0000000001
 40
0.0
 40
0.0
 40
0.0
 40
0.0
 40
1.0
 40
1.0
 40
1.0
 40
1.0
 10
51.08540182263368
 20
19.51602035696338
 30
0.0
 10
51.14063029761677
 20
19.51602035696338
 30
0.0
 10
51.18540182263369
 20
19.56079188198029
 30
0.0
 10
51.18540182263369
 20
19.61602035696306
 30
0.0
  0
LINE
  5
7D
330
70
100
AcDbEntity
  8
0
 62
    18
420
        0
370
    25
100
AcDbLine
 10
51.18540202693365
 20
19.61602174576342
 30
0.0
 11
51.18540202693365
 21
19.71601971326353
 31
0.0
  0
SPLINE
  5
7E
330
70
100
AcDbEntity
  8
0
 62
    18
420
        0
370
    25
100
AcDbSpline
210
0.0
220
0.0
230
1.0
 70
     8
 71
     3
 72
     8
 73
     4
 74
     0
 42
0.0000000001
 43
0.0000000001
 40
0.0
 40
0.0
 40
0.0
 40
0.0
 40
1.0
 40
1.0
 40
1.0
 40
1.0
 10
45.35553053523375
 20
19.71602035696339
 30
0.0
 10
45.35553053523375
 20
19.77124883194616
 30
0.0
 10
45.31075901021685
 20
19.81602035696371
 30
0.0
 10
45.25553053523375
 20
19.81602035696371
 30
0.0
  0
SPLINE
  5
7F
330
70
100
AcDbEntity
  8
0
 62
    18
420
        0
370
    25
100
AcDbSpline
210
0.0
220
0.0
230
1.0
 70
     8
 71
     3
 72
     8
 73
     4
 74
     0
 42
0.0000000001
 43
0.0000000001
 40
0.0
 40
0.0
 40
0.0
 40
0.0
 40
1.0
 40
1.0
 40
1.0
 40
1.0
 10
73.42560586173381
 20
19.81602035696371
 30
0.0
 10
73.3703773867504
 20
19.81602035696371
 30
0.0
 10
73.32560586173413
 20
19.77124883194616
 30
0.0
 10
73.32560586173413
 20
19.71602035696339
 30
0.0
  0
SPLINE
  5
80
330
70
100
AcDbEntity
  8
0
 62
    18
420
        0
370
    25
100
AcDbSpline
210
0.0
220
0.0
230
1.0
 70
     8
 71
     3
 72
     8
 73
     4
 74
     0
 42
0.0000000001
 43
0.0000000001
 40
0.0
 40
0.0
 40
0.0
 40
0.0
 40
1.0
 40
1.0
 40
1.0
 40
1.0
 10
45.35553053523375
 20
19.61602035696306
 30
0.0
 10
45.35553053523375
 20
19.56079188198029
 30
0.0
 10
45.40030206025067
 20
19.51602035696338
 30
0.0
 10
45.45553053523376
 20
19.51602035696338
 30
0.0
  0
LINE
  5
81
330
70
100
AcDbEntity
  8
0
 62
    18
420
        0
370
    25
100
AcDbLine
 10
45.35553039483385
 20
19.71601971326353
 30
0.0
 11
45.35553039483385
 21
19.61602174576342
 31
0.0
  0
SPLINE
  5
82
330
70
100
AcDbEntity
  8
0
 62
    18
420
        0
370
    25
100
AcDbSpline
210
0.0
220
0.0
230
1.0
 70
     8
 71
     3
 72
     8
 73
     4
 74
     0
 42
0.0000000001
 43
0.0000000001
 40
0.0
 40
0.0
 40
0.0
 40
0.0
 40
1.0
 40
1.0
 40
1.0
 40
1.0
 10
73.22560586173381
 20
19.51602035696338
 30
0.0
 10
73.28083433671658
 20
19.51602035696338
 30
0.0
 10
73.32560586173413
 20
19.56079188198029
 30
0.0
 10
73.32560586173413
 20
19.61602035696306
 30
0.0
  0
LINE
  5
83
330
70
100
AcDbEntity
  8
0
 62
    18
420
        0
370
    25
100
AcDbLine
 10
73.32560600213404
 20
19.61602174576342
 30
0.0
 11
73.32560600213404
 21
19.71601971326353
 31
0.0
  0
LINE
  5
84
330
70
100
AcDbEntity
  8
0
 62
    18
420
        0
370
    25
100
AcDbLine
 10
54.0905682692338
 20
88.9160213702638
 30
0.0
 11
43.59056794513371
 21
88.9160213702638
 31
0.0
  0
SPLINE
  5
85
330
70
100
AcDbEntity
  8
0
 62
    18
420
        0
370
    25
100
AcDbSpline
210
0.0
220
0.0
230
1.0
 70
     8
 71
     3
 72
     8
 73
     4
 74
     0
 42
0.0000000001
 43
0.0000000001
 40
0.0
 40
0.0
 40
0.0
 40
0.0
 40
1.0
 40
1.0
 40
1.0
 40
1.0
 10
43.64056819843366
 20
88.96602035696343
 30
0.0
 10
43.61295396094226
 20
88.96602035696343
 30
0.0
 10
43.59056819843381
 20
88.94363459445528
 30
0.0
 10
43.59056819843381
 20
88.91602035696326
 30
0.0
  0
LINE
  5
86
330
70
100
AcDbEntity
  8
0
 62
    18
420
        0
370
    25
100
AcDbLine
 10
43.64056879153362
 20
88.96602221666372
 30
0.0
 11
54.0905682692338
 21
88.96602221666372
 31
0.0
  0
LINE
  5
87
330
70
100
AcDbEntity
  8
0
 62
    18
420
        0
370
    25
100
AcDbLine
 10
54.0905682692338
 20
88.9160213702638
 30
0.0
 11
54.0905682692338
 21
88.96602221666372
 31
0.0
  0
LINE
  5
88
330
70
100
AcDbEntity
  8
0
 62
    18
420
        0
370
    25
100
AcDbLine
 10
64.59056812773376
 20
88.96602221666372
 30
0.0
 11
75.04056760543395
 21
88.96602221666372
 31
0.0
  0
SPLINE
  5
89
330
70
100
AcDbEntity
  8
0
 62
    18
420
        0
370
    25
100
AcDbSpline
210
0.0
220
0.0
230
1.0
 70
     8
 71
     3
 72
     8
 73
     4
 74
     0
 42
0.0000000001
 43
0.0000000001
 40
0.0
 40
0.0
 40
0.0
 40
0.0
 40
1.0
 40
1.0
 40
1.0
 40
1.0
 10
75.09056819843333
 20
88.91602035696326
 30
0.0
 10
75.09056819843333
 20
88.94363459445528
 30
0.0
 10
75.06818243592519
 20
88.96602035696343
 30
0.0
 10
75.04056819843381
 20
88.96602035696343
 30
0.0
  0
LINE
  5
8A
330
70
100
AcDbEntity
  8
0
 62
    18
420
        0
370
    25
100
AcDbLine
 10
75.09056845183386
 20
88.9160213702638
 30
0.0
 11
64.59056812773376
 21
88.9160213702638
 31
0.0
  0
LINE
  5
8B
330
70
100
AcDbEntity
  8
0
 62
    18
420
        0
370
    25
100
AcDbLine
 10
64.59056812773376
 20
88.96602221666372
 30
0.0
 11
64.59056812773376
 21
88.9160213702638
 31
0.0
  0
LINE
  5
8C
330
70
100
AcDbEntity
  8
0
 62
    18
420
        0
370
    25
100
AcDbLine
 10
43.59056794513371
 20
88.36601951056302
 30
0.0
 11
43.59056794513371
 21
88.9160213702638
 31
0.0
  0
LINE
  5
8D
330
70
100
AcDbEntity
  8
0
 62
    18
420
        0
370
    25
100
AcDbLine
 10
54.0905682692338
 20
88.9160213702638
 30
0.0
 11
54.0905682692338
 21
88.36601951056302
 31
0.0
  0
LINE
  5
8E
330
70
100
AcDbEntity
  8
0
 62
    18
420
        0
370
    25
100
AcDbLine
 10
54.0905682692338
 20
88.36601951056302
 30
0.0
 11
43.59056794513371
 21
88.36601951056302
 31
0.0
  0
LINE
  5
8F
330
70
100
AcDbEntity
  8
0
 62
    18
420
        0
370
    25
100
AcDbLine
 10
64.59056812773376
 20
88.36601951056302
 30
0.0
 11
64.59056812773376
 21
88.9160213702638
 31
0.0
  0
LINE
  5
90
330
70
100
AcDbEntity
  8
0
 62
    18
420
        0
370
    25
100
AcDbLine
 10
75.09056845183386
 20
88.9160213702638
 30
0.0
 11
75.09056845183386
 21
88.36601951056302
 31
0.0
  0
LINE
  5
91
330
70
100
AcDbEntity
  8
0
 62
    18
420
        0
370
    25
100
AcDbLine
 10
75.09056845183386
 20
88.36601951056302
 30
0.0
 11
64.59056812773376
 21
88.36601951056302
 31
0.0
  0
LINE
  5
92
330
70
100
AcDbEntity
  8
0
 62
    18
420
        0
370
    25
100
AcDbLine
 10
64.59056812773376
 20
88.9160213702638
 30
0.0
 11
54.0905682692338
 21
88.9160213702638
 31
0.0
  0
LINE
  5
93
330
70
100
AcDbEntity
  8
0
 62
    18
420
        0
370
    25
100
AcDbLine
 10
54.0905682692338
 20
88.36601951056302
 30
0.0
 11
64.59056812773376
 21
88.36601951056302
 31
0.0
  0
LINE
  5
94
330
70
100
AcDbEntity
  8
0
 62
    18
420
        0
370
    25
100
AcDbLine
 10
54.0905682692338
 20
88.96602221666372
 30
0.0
 11
64.59056812773376
 21
88.96602221666372
 31
0.0
  0
LINE
  5
95
330
70
100
AcDbEntity
  8
0
 62
    18
420
        0
370
    25
100
AcDbLine
 10
64.59056812773376
 20
19.91601937346336
 30
0.0
 11
74.34056786323363
 21
19.91601937346336
 31
0.0
  0
SPLINE
  5
96
330
70
100
AcDbEntity
  8
0
 62
    18
420
        0
370
    25
100
AcDbSpline
210
0.0
220
0.0
230
1.0
 70
     8
 71
     3
 72
     8
 73
     4
 74
     0
 42
0.0000000001
 43
0.0000000001
 40
0.0
 40
0.0
 40
0.0
 40
0.0
 40
1.0
 40
1.0
 40
1.0
 40
1.0
 10
74.24056819843378
 20
19.81602035696371
 30
0.0
 10
74.29579667341719
 20
19.81602035696371
 30
0.0
 10
74.34056819843346
 20
19.86079188197998
 30
0.0
 10
74.34056819843346
 20
19.9160203569634
 30
0.0
  0
LINE
  5
97
330
70
100
AcDbEntity
  8
0
 62
    18
420
        0
370
    25
100
AcDbLine
 10
74.24056803303392
 20
19.81602140606335
 30
0.0
 11
64.59056812773376
 21
19.81602140606335
 31
0.0
  0
LINE
  5
98
330
70
100
AcDbEntity
  8
0
 62
    18
420
        0
370
    25
100
AcDbLine
 10
64.59056812773376
 20
19.91601937346336
 30
0.0
 11
64.59056812773376
 21
19.81602140606335
 31
0.0
  0
LINE
  5
99
330
70
100
AcDbEntity
  8
0
 62
    18
420
        0
370
    25
100
AcDbLine
 10
54.0905682692338
 20
19.91601937346336
 30
0.0
 11
64.59056812773376
 21
19.91601937346336
 31
0.0
  0
LINE
  5
9A
330
70
100
AcDbEntity
  8
0
 62
    18
420
        0
370
    25
100
AcDbLine
 10
74.34056786323363
 20
19.91601937346336
 30
0.0
 11
74.34056786323363
 21
20.01602106626383
 31
0.0
  0
LINE
  5
9B
330
70
100
AcDbEntity
  8
0
 62
    18
420
        0
370
    25
100
AcDbLine
 10
64.59056812773376
 20
19.81602140606335
 30
0.0
 11
54.0905682692338
 21
19.81602140606335
 31
0.0
  0
LINE
  5
9C
330
70
100
AcDbEntity
  8
0
 62
    18
420
        0
370
    25
100
AcDbLine
 10
54.0905682692338
 20
19.91601937346336
 30
0.0
 11
54.0905682692338
 21
19.81602140606335
 31
0.0
  0
LINE
  5
9D
330
70
100
AcDbEntity
  8
0
 62
    18
420
        0
370
    25
100
AcDbLine
 10
44.34056853373362
 20
19.91601937346336
 30
0.0
 11
54.0905682692338
 21
19.91601937346336
 31
0.0
  0
LINE
  5
9E
330
70
100
AcDbEntity
  8
0
 62
    18
420
        0
370
    25
100
AcDbLine
 10
44.34056853373362
 20
19.91601937346336
 30
0.0
 11
44.34056853373362
 21
20.01602106626383
 31
0.0
  0
LINE
  5
9F
330
70
100
AcDbEntity
  8
0
 62
    18
420
        0
370
    25
100
AcDbLine
 10
54.0905682692338
 20
19.81602140606335
 30
0.0
 11
44.44056836383386
 21
19.81602140606335
 31
0.0
  0
SPLINE
  5
A0
330
70
100
AcDbEntity
  8
0
 62
    18
420
        0
370
    25
100
AcDbSpline
210
0.0
220
0.0
230
1.0
 70
     8
 71
     3
 72
     8
 73
     4
 74
     0
 42
0.0000000001
 43
0.0000000001
 40
0.0
 40
0.0
 40
0.0
 40
0.0
 40
1.0
 40
1.0
 40
1.0
 40
1.0
 10
44.34056819843369
 20
19.9160203569634
 30
0.0
 10
44.34056819843369
 20
19.86079188197998
 30
0.0
 10
44.38533972345059
 20
19.81602035696371
 30
0.0
 10
44.44056819843368
 20
19.81602035696371
 30
0.0
  0
LWPOLYLINE
  5
A1
330
70
100
AcDbEntity
  8
0
 62
    18
420
        0
370
    25
100
AcDbPolyline
 90
        9
 70
     0
 43
0.0
 10
68.38390970103398
 20
19.81602140606335
 10
68.37620114403373
 20
19.81409915626383
 10
68.36878781633402
 20
19.8084069126631
 10
68.36195656533366
 20
19.79916819266372
 10
68.35596909243367
 20
19.78672944836298
 10
68.35105450323418
 20
19.77157869276335
 10
68.34740371873367
 20
19.75428962046352
 10
68.34515457473398
 20
19.7355290585633
 10
68.34439554683385
 20
19.71601971326353
  0
LINE
  5
A2
330
70
100
AcDbEntity
  8
0
 62
    18
420
        0
370
    25
100
AcDbLine
 10
68.22054268293384
 20
19.71601971326353
 30
0.0
 11
68.34439554683385
 21
19.71601971326353
 31
0.0
  0
SPLINE
  5
A3
330
70
100
AcDbEntity
  8
0
 62
    18
420
        0
370
    25
100
AcDbSpline
210
0.0
220
0.0
230
1.0
 70
     8
 71
     3
 72
     8
 73
     4
 74
     0
 42
0.0000000001
 43
0.0000000001
 40
0.0
 40
0.0
 40
0.0
 40
0.0
 40
1.0
 40
1.0
 40
1.0
 40
1.0
 10
68.2205426829608
 20
19.71601971321476
 30
0.0
 10
68.22448643517185
 20
19.76680216076661
 30
0.0
 10
68.18692292663588
 20
19.81134129318401
 30
0.0
 10
68.13620304192588
 20
19.81602140598699
 30
0.0
  0
SPLINE
  5
A4
330
70
100
AcDbEntity
  8
0
 62
    18
420
        0
370
    25
100
AcDbSpline
210
0.0
220
0.0
230
1.0
 70
     8
 71
     3
 72
     8
 73
     4
 74
     0
 42
0.0000000001
 43
0.0000000001
 40
0.0
 40
0.0
 40
0.0
 40
0.0
 40
1.0
 40
1.0
 40
1.0
 40
1.0
 10
50.54493335504169
 20
19.81602140598699
 30
0.0
 10
50.49421347033169
 20
19.81134129318401
 30
0.0
 10
50.45664996179571
 20
19.76680216076661
 30
0.0
 10
50.46059371400709
 20
19.71601971321476
 30
0.0
  0
LINE
  5
A5
330
70
100
AcDbEntity
  8
0
 62
    18
420
        0
370
    25
100
AcDbLine
 10
50.33674085013371
 20
19.71601971326353
 30
0.0
 11
50.46059371403373
 21
19.71601971326353
 31
0.0
  0
LWPOLYLINE
  5
A6
330
70
100
AcDbEntity
  8
0
 62
    18
420
        0
370
    25
100
AcDbPolyline
 90
        9
 70
     0
 43
0.0
 10
50.2972266959339
 20
19.81602140606335
 10
50.30493525283374
 20
19.81409915626383
 10
50.31234858053377
 20
19.8084069126631
 10
50.31917983163359
 20
19.79916819266372
 10
50.32516730453358
 20
19.78672944836298
 10
50.33008189373371
 20
19.77157869276335
 10
50.33373267823389
 20
19.75428962046352
 10
50.33598182223359
 20
19.7355290585633
 10
50.33674085013371
 20
19.71601971326353
  0
LINE
  5
A7
330
70
100
AcDbEntity
  8
0
 62
    18
420
        0
370
    25
100
AcDbLine
 10
73.31746810543378
 20
19.71601971326353
 30
0.0
 11
68.34439554683385
 21
19.71601971326353
 31
0.0
  0
SPLINE
  5
A8
330
70
100
AcDbEntity
  8
0
 62
    18
420
        0
370
    25
100
AcDbSpline
210
0.0
220
0.0
230
1.0
 70
     8
 71
     3
 72
     8
 73
     4
 74
     0
 42
0.0000000001
 43
0.0000000001
 40
0.0
 40
0.0
 40
0.0
 40
0.0
 40
1.0
 40
1.0
 40
1.0
 40
1.0
 10
73.40933003891336
 20
19.81602140605758
 30
0.0
 10
73.35639271028252
 20
19.81367837433539
 30
0.0
 10
73.3153190860105
 20
19.76896527283255
 30
0.0
 10
73.31746810544342
 20
19.71601971328599
 30
0.0
  0
LINE
  5
A9
330
70
100
AcDbEntity
  8
0
 62
    18
420
        0
370
    25
100
AcDbLine
 10
50.33674085013371
 20
19.71601971326353
 30
0.0
 11
45.36366829143367
 21
19.71601971326353
 31
0.0
  0
SPLINE
  5
AA
330
70
100
AcDbEntity
  8
0
 62
    18
420
        0
370
    25
100
AcDbSpline
210
0.0
220
0.0
230
1.0
 70
     8
 71
     3
 72
     8
 73
     4
 74
     0
 42
0.0000000001
 43
0.0000000001
 40
0.0
 40
0.0
 40
0.0
 40
0.0
 40
1.0
 40
1.0
 40
1.0
 40
1.0
 10
45.36366829152415
 20
19.71601971328599
 30
0.0
 10
45.36581731095707
 20
19.76896527283255
 30
0.0
 10
45.32474368668505
 20
19.81367837433539
 30
0.0
 10
45.27180635805421
 20
19.81602140605758
 30
0.0
  0
LINE
  5
AB
330
70
100
AcDbEntity
  8
0
 62
    18
420
        0
370
    25
100
AcDbLine
 10
68.22054268293384
 20
19.71601971326353
 30
0.0
 11
67.51139549033353
 21
19.71601971326353
 31
0.0
  0
SPLINE
  5
AC
330
70
100
AcDbEntity
  8
0
 62
    18
420
        0
370
    25
100
AcDbSpline
210
0.0
220
0.0
230
1.0
 70
     8
 71
     3
 72
     8
 73
     4
 74
     0
 42
0.0000000001
 43
0.0000000001
 40
0.0
 40
0.0
 40
0.0
 40
0.0
 40
1.0
 40
1.0
 40
1.0
 40
1.0
 10
67.51139549036754
 20
19.71601971324556
 30
0.0
 10
67.51533980745344
 20
19.76680234271716
 30
0.0
 10
67.47777600865387
 20
19.81134181930086
 30
0.0
 10
67.42705584933327
 20
19.81602140601715
 30
0.0
  0
SPLINE
  5
AD
330
70
100
AcDbEntity
  8
0
 62
    18
420
        0
370
    25
100
AcDbSpline
210
0.0
220
0.0
230
1.0
 70
     8
 71
     3
 72
     8
 73
     4
 74
     0
 42
0.0000000001
 43
0.0000000001
 40
0.0
 40
0.0
 40
0.0
 40
0.0
 40
1.0
 40
1.0
 40
1.0
 40
1.0
 10
51.25408054763462
 20
19.81602140601715
 30
0.0
 10
51.20336038831402
 20
19.81134181930086
 30
0.0
 10
51.16579658951413
 20
19.76680234271716
 30
0.0
 10
51.16974090660003
 20
19.71601971324556
 30
0.0
  0
LINE
  5
AE
330
70
100
AcDbEntity
  8
0
 62
    18
420
        0
370
    25
100
AcDbLine
 10
51.16974090653361
 20
19.71601971326353
 30
0.0
 11
50.46059371403373
 21
19.71601971326353
 31
0.0
  0
LINE
  5
AF
330
70
100
AcDbEntity
  8
0
 62
    18
420
        0
370
    25
100
AcDbLine
 10
68.22054268293384
 20
19.61602174576342
 30
0.0
 11
68.22054268293384
 21
19.71601971326353
 31
0.0
  0
LINE
  5
B0
330
70
100
AcDbEntity
  8
0
 62
    18
420
        0
370
    25
100
AcDbLine
 10
68.34439554683385
 20
19.71601971326353
 30
0.0
 11
68.34439554683385
 21
19.61602174576342
 31
0.0
  0
LINE
  5
B1
330
70
100
AcDbEntity
  8
0
 62
    18
420
        0
370
    25
100
AcDbLine
 10
68.22054268293384
 20
19.61602174576342
 30
0.0
 11
68.34439554683385
 21
19.61602174576342
 31
0.0
  0
LWPOLYLINE
  5
B2
330
70
100
AcDbEntity
  8
0
 62
    18
420
        0
370
    25
100
AcDbPolyline
 90
        9
 70
     0
 43
0.0
 10
68.30488139263372
 20
19.5160200529636
 10
68.31259088093371
 20
19.51794230276377
 10
68.32000327723358
 20
19.5236308210635
 10
68.3268345283334
 20
19.53287326626377
 10
68.33282200123339
 20
19.54530828536297
 10
68.33773659043352
 20
19.5604627662636
 10
68.34138737493403
 20
19.57775183856344
 10
68.34363651893373
 20
19.59651240046301
 10
68.34439554683385
 20
19.61602174576342
  0
SPLINE
  5
B3
330
70
100
AcDbEntity
  8
0
 62
    18
420
        0
370
    25
100
AcDbSpline
210
0.0
220
0.0
230
1.0
 70
     8
 71
     3
 72
     8
 73
     4
 74
     0
 42
0.0000000001
 43
0.0000000001
 40
0.0
 40
0.0
 40
0.0
 40
0.0
 40
1.0
 40
1.0
 40
1.0
 40
1.0
 10
68.22054268290817
 20
19.61602174574353
 30
0.0
 10
68.21659524839572
 20
19.5652384500818
 30
0.0
 10
68.25416010163322
 20
19.52069723140136
 30
0.0
 10
68.30488139262088
 20
19.51602005297129
 30
0.0
  0
SPLINE
  5
B4
330
70
100
AcDbEntity
  8
0
 62
    18
420
        0
370
    25
100
AcDbSpline
210
0.0
220
0.0
230
1.0
 70
     8
 71
     3
 72
     8
 73
     4
 74
     0
 42
0.0000000001
 43
0.0000000001
 40
0.0
 40
0.0
 40
0.0
 40
0.0
 40
1.0
 40
1.0
 40
1.0
 40
1.0
 10
50.37625500434701
 20
19.51602005297129
 30
0.0
 10
50.42697629533403
 20
19.52069723140136
 30
0.0
 10
50.46454114857184
 20
19.5652384500818
 30
0.0
 10
50.46059371405875
 20
19.61602174574353
 30
0.0
  0
LWPOLYLINE
  5
B5
330
70
100
AcDbEntity
  8
0
 62
    18
420
        0
370
    25
100
AcDbPolyline
 90
        9
 70
     0
 43
0.0
 10
50.33674085013371
 20
19.61602174576342
 10
50.33749987803384
 20
19.59651240046301
 10
50.33974902203386
 20
19.57775183856344
 10
50.34339980653372
 20
19.5604627662636
 10
50.34831439573385
 20
19.54530828536361
 10
50.35430186863384
 20
19.53287326626377
 10
50.36113311963387
 20
19.5236308210635
 10
50.36854551603386
 20
19.51794230276377
 10
50.37625500433385
 20
19.5160200529636
  0
LINE
  5
B6
330
70
100
AcDbEntity
  8
0
 62
    18
420
        0
370
    25
100
AcDbLine
 10
50.33674085013371
 20
19.61602174576342
 30
0.0
 11
50.46059371403373
 21
19.61602174576342
 31
0.0
  0
LINE
  5
B7
330
70
100
AcDbEntity
  8
0
 62
    18
420
        0
370
    25
100
AcDbLine
 10
50.33674085013371
 20
19.61602174576342
 30
0.0
 11
50.33674085013371
 21
19.71601971326353
 31
0.0
  0
LINE
  5
B8
330
70
100
AcDbEntity
  8
0
 62
    18
420
        0
370
    25
100
AcDbLine
 10
50.46059371403373
 20
19.71601971326353
 30
0.0
 11
50.46059371403373
 21
19.61602174576342
 31
0.0
  0
LINE
  5
B9
330
70
100
AcDbEntity
  8
0
 62
    18
420
        0
370
    25
100
AcDbLine
 10
68.34439554683385
 20
19.61602174576342
 30
0.0
 11
73.31746810543378
 21
19.61602174576342
 31
0.0
  0
SPLINE
  5
BA
330
70
100
AcDbEntity
  8
0
 62
    18
420
        0
370
    25
100
AcDbSpline
210
0.0
220
0.0
230
1.0
 70
     8
 71
     3
 72
     8
 73
     4
 74
     0
 42
0.0000000001
 43
0.0000000001
 40
0.0
 40
0.0
 40
0.0
 40
0.0
 40
1.0
 40
1.0
 40
1.0
 40
1.0
 10
73.22560617197733
 20
19.51602005296552
 30
0.0
 10
73.27854494548275
 20
19.51835998345122
 30
0.0
 10
73.31962033735071
 20
19.56307500917398
 30
0.0
 10
73.31746810544792
 20
19.61602174573775
 30
0.0
  0
LINE
  5
BB
330
70
100
AcDbEntity
  8
0
 62
    18
420
        0
370
    25
100
AcDbLine
 10
73.22560617203379
 20
19.5160200529636
 30
0.0
 11
68.30488139263372
 21
19.5160200529636
 31
0.0
  0
LINE
  5
BC
330
70
100
AcDbEntity
  8
0
 62
    18
420
        0
370
    25
100
AcDbLine
 10
73.31746810543378
 20
19.61602174576342
 30
0.0
 11
73.31746810543378
 21
19.71601971326353
 31
0.0
  0
LINE
  5
BD
330
70
100
AcDbEntity
  8
0
 62
    18
420
        0
370
    25
100
AcDbLine
 10
45.36366829143367
 20
19.61602174576342
 30
0.0
 11
50.33674085013371
 21
19.61602174576342
 31
0.0
  0
LINE
  5
BE
330
70
100
AcDbEntity
  8
0
 62
    18
420
        0
370
    25
100
AcDbLine
 10
50.37625500433385
 20
19.5160200529636
 30
0.0
 11
45.45553022493377
 21
19.5160200529636
 31
0.0
  0
SPLINE
  5
BF
330
70
100
AcDbEntity
  8
0
 62
    18
420
        0
370
    25
100
AcDbSpline
210
0.0
220
0.0
230
1.0
 70
     8
 71
     3
 72
     8
 73
     4
 74
     0
 42
0.0000000001
 43
0.0000000001
 40
0.0
 40
0.0
 40
0.0
 40
0.0
 40
1.0
 40
1.0
 40
1.0
 40
1.0
 10
45.36366829151997
 20
19.61602174573775
 30
0.0
 10
45.36151605961686
 20
19.56307500917398
 30
0.0
 10
45.40259145148449
 20
19.51835998345122
 30
0.0
 10
45.45553022498959
 20
19.51602005296552
 30
0.0
  0
LINE
  5
C0
330
70
100
AcDbEntity
  8
0
 62
    18
420
        0
370
    25
100
AcDbLine
 10
45.36366829143367
 20
19.71601971326353
 30
0.0
 11
45.36366829143367
 21
19.61602174576342
 31
0.0
  0
LINE
  5
C1
330
70
100
AcDbEntity
  8
0
 62
    18
420
        0
370
    25
100
AcDbLine
 10
67.51139549033353
 20
19.61602174576342
 30
0.0
 11
68.22054268293384
 21
19.61602174576342
 31
0.0
  0
LINE
  5
C2
330
70
100
AcDbEntity
  8
0
 62
    18
420
        0
370
    25
100
AcDbLine
 10
68.30488139263372
 20
19.5160200529636
 30
0.0
 11
67.5957342001335
 21
19.5160200529636
 31
0.0
  0
SPLINE
  5
C3
330
70
100
AcDbEntity
  8
0
 62
    18
420
        0
370
    25
100
AcDbSpline
210
0.0
220
0.0
230
1.0
 70
     8
 71
     3
 72
     8
 73
     4
 74
     0
 42
0.0000000001
 43
0.0000000001
 40
0.0
 40
0.0
 40
0.0
 40
0.0
 40
1.0
 40
1.0
 40
1.0
 40
1.0
 10
67.5113954904086
 20
19.61602174574353
 30
0.0
 10
67.50744805589551
 20
19.5652384500818
 30
0.0
 10
67.54501290913366
 20
19.52069723140136
 30
0.0
 10
67.59573420012067
 20
19.51602005297129
 30
0.0
  0
LINE
  5
C4
330
70
100
AcDbEntity
  8
0
 62
    18
420
        0
370
    25
100
AcDbLine
 10
67.51139549033353
 20
19.71601971326353
 30
0.0
 11
67.51139549033353
 21
19.61602174576342
 31
0.0
  0
LINE
  5
C5
330
70
100
AcDbEntity
  8
0
 62
    18
420
        0
370
    25
100
AcDbLine
 10
50.46059371403373
 20
19.61602174576342
 30
0.0
 11
51.16974090653361
 21
19.61602174576342
 31
0.0
  0
SPLINE
  5
C6
330
70
100
AcDbEntity
  8
0
 62
    18
420
        0
370
    25
100
AcDbSpline
210
0.0
220
0.0
230
1.0
 70
     8
 71
     3
 72
     8
 73
     4
 74
     0
 42
0.0000000001
 43
0.0000000001
 40
0.0
 40
0.0
 40
0.0
 40
0.0
 40
1.0
 40
1.0
 40
1.0
 40
1.0
 10
51.08540219684689
 20
19.51602005297129
 30
0.0
 10
51.13612348783391
 20
19.52069723140136
 30
0.0
 10
51.17368834107174
 20
19.5652384500818
 30
0.0
 10
51.16974090655896
 20
19.61602174574353
 30
0.0
  0
LINE
  5
C7
330
70
100
AcDbEntity
  8
0
 62
    18
420
        0
370
    25
100
AcDbLine
 10
51.08540219683374
 20
19.5160200529636
 30
0.0
 11
50.37625500433385
 21
19.5160200529636
 31
0.0
  0
LINE
  5
C8
330
70
100
AcDbEntity
  8
0
 62
    18
420
        0
370
    25
100
AcDbLine
 10
51.16974090653361
 20
19.61602174576342
 30
0.0
 11
51.16974090653361
 21
19.71601971326353
 31
0.0
  0
LINE
  5
C9
330
70
100
AcDbEntity
  8
0
 62
    18
420
        0
370
    25
100
AcDbLine
 10
51.38121352963379
 20
87.76602052986341
 30
0.0
 11
49.35495735573375
 21
87.76602052986341
 31
0.0
  0
LINE
  5
CA
330
70
100
AcDbEntity
  8
0
 62
    18
420
        0
370
    25
100
AcDbLine
 10
47.44758916513381
 20
87.76602052986341
 30
0.0
 11
49.35495735573375
 21
87.76602052986341
 31
0.0
  0
LINE
  5
CB
330
70
100
AcDbEntity
  8
0
 62
    18
420
        0
370
    25
100
AcDbLine
 10
47.44758916513381
 20
87.76602052986341
 30
0.0
 11
45.95909727233373
 21
87.76602052986341
 31
0.0
  0
LINE
  5
CC
330
70
100
AcDbEntity
  8
0
 62
    18
420
        0
370
    25
100
AcDbLine
 10
44.71912228933381
 20
87.76602052986341
 30
0.0
 11
45.95909727233373
 21
87.76602052986341
 31
0.0
  0
LINE
  5
CD
330
70
100
AcDbEntity
  8
0
 62
    18
420
        0
370
    25
100
AcDbLine
 10
44.71912228933381
 20
87.76602052986341
 30
0.0
 11
44.24538829793377
 21
87.76602052986341
 31
0.0
  0
LINE
  5
CE
330
70
100
AcDbEntity
  8
0
 62
    18
420
        0
370
    25
100
AcDbLine
 10
44.05474749823365
 20
87.76602052986341
 30
0.0
 11
43.94614131623383
 21
87.76602052986341
 31
0.0
  0
LINE
  5
CF
330
70
100
AcDbEntity
  8
0
 62
    18
420
        0
370
    25
100
AcDbLine
 10
43.59056794513371
 20
87.76602052986341
 30
0.0
 11
43.94614131623383
 21
87.76602052986341
 31
0.0
  0
LINE
  5
D0
330
70
100
AcDbEntity
  8
0
 62
    18
420
        0
370
    25
100
AcDbLine
 10
43.59056794513371
 20
87.76602052986341
 30
0.0
 11
43.59056794513371
 21
88.36601951056302
 31
0.0
  0
LINE
  5
D1
330
70
100
AcDbEntity
  8
0
 62
    18
420
        0
370
    25
100
AcDbLine
 10
54.0905682692338
 20
88.36601951056302
 30
0.0
 11
54.0905682692338
 21
87.76602052986341
 31
0.0
  0
LINE
  5
D2
330
70
100
AcDbEntity
  8
0
 62
    18
420
        0
370
    25
100
AcDbLine
 10
51.38121352963379
 20
87.76602052986341
 30
0.0
 11
54.0905682692338
 21
87.76602052986341
 31
0.0
  0
LINE
  5
D3
330
70
100
AcDbEntity
  8
0
 62
    18
420
        0
370
    25
100
AcDbLine
 10
64.59056812773376
 20
87.76602052986341
 30
0.0
 11
64.59056812773376
 21
88.36601951056302
 31
0.0
  0
LINE
  5
D4
330
70
100
AcDbEntity
  8
0
 62
    18
420
        0
370
    25
100
AcDbLine
 10
75.09056845183386
 20
88.36601951056302
 30
0.0
 11
75.09056845183386
 21
87.76602052986341
 31
0.0
  0
LINE
  5
D5
330
70
100
AcDbEntity
  8
0
 62
    18
420
        0
370
    25
100
AcDbLine
 10
67.2999228673341
 20
87.76602052986341
 30
0.0
 11
64.59056812773376
 21
87.76602052986341
 31
0.0
  0
LINE
  5
D6
330
70
100
AcDbEntity
  8
0
 62
    18
420
        0
370
    25
100
AcDbLine
 10
67.2999228673341
 20
87.76602052986341
 30
0.0
 11
69.32617904113371
 21
87.76602052986341
 31
0.0
  0
LINE
  5
D7
330
70
100
AcDbEntity
  8
0
 62
    18
420
        0
370
    25
100
AcDbLine
 10
71.23354723173365
 20
87.76602052986341
 30
0.0
 11
69.32617904113371
 21
87.76602052986341
 31
0.0
  0
LINE
  5
D8
330
70
100
AcDbEntity
  8
0
 62
    18
420
        0
370
    25
100
AcDbLine
 10
71.23354723173365
 20
87.76602052986341
 30
0.0
 11
72.72203912453341
 21
87.76602052986341
 31
0.0
  0
LINE
  5
D9
330
70
100
AcDbEntity
  8
0
 62
    18
420
        0
370
    25
100
AcDbLine
 10
73.96201410763343
 20
87.76602052986341
 30
0.0
 11
72.72203912453341
 21
87.76602052986341
 31
0.0
  0
LINE
  5
DA
330
70
100
AcDbEntity
  8
0
 62
    18
420
        0
370
    25
100
AcDbLine
 10
73.96201410763343
 20
87.76602052986341
 30
0.0
 11
74.43574809903347
 21
87.76602052986341
 31
0.0
  0
LINE
  5
DB
330
70
100
AcDbEntity
  8
0
 62
    18
420
        0
370
    25
100
AcDbLine
 10
74.43574809903347
 20
87.76602052986341
 30
0.0
 11
74.53052134683344
 21
87.76602052986341
 31
0.0
  0
LINE
  5
DC
330
70
100
AcDbEntity
  8
0
 62
    18
420
        0
370
    25
100
AcDbLine
 10
74.53052134683344
 20
87.76602052986341
 30
0.0
 11
74.73499508073373
 21
87.76602052986341
 31
0.0
  0
LINE
  5
DD
330
70
100
AcDbEntity
  8
0
 62
    18
420
        0
370
    25
100
AcDbLine
 10
75.09056845183386
 20
87.76602052986341
 30
0.0
 11
74.73499508073373
 21
87.76602052986341
 31
0.0
  0
LINE
  5
DE
330
70
100
AcDbEntity
  8
0
 62
    18
420
        0
370
    25
100
AcDbLine
 10
59.34056819843357
 20
87.76602052986341
 30
0.0
 11
64.59056812773376
 21
87.76602052986341
 31
0.0
  0
LINE
  5
DF
330
70
100
AcDbEntity
  8
0
 62
    18
420
        0
370
    25
100
AcDbLine
 10
54.0905682692338
 20
87.76602052986341
 30
0.0
 11
59.34056819843357
 21
87.76602052986341
 31
0.0
  0
LINE
  5
E0
330
70
100
AcDbEntity
  8
0
 62
    18
420
        0
370
    25
100
AcDbLine
 10
64.59056812773376
 20
87.76602052986341
 30
0.0
 11
64.59056812773376
 21
20.01602106626383
 31
0.0
  0
LINE
  5
E1
330
70
100
AcDbEntity
  8
0
 62
    18
420
        0
370
    25
100
AcDbLine
 10
69.444307996534
 20
87.76602052986341
 30
0.0
 11
69.24923689533329
 21
87.76602052986341
 31
0.0
  0
LINE
  5
E2
330
70
100
AcDbEntity
  8
0
 62
    18
420
        0
370
    25
100
AcDbLine
 10
67.40775139503376
 20
87.76602052986341
 30
0.0
 11
67.21288052813374
 21
87.76602052986341
 31
0.0
  0
LINE
  5
E3
330
70
100
AcDbEntity
  8
0
 62
    18
420
        0
370
    25
100
AcDbLine
 10
74.89056786023418
 20
87.76602052986341
 30
0.0
 11
74.89056786023418
 21
20.01602106626383
 31
0.0
  0
LINE
  5
E4
330
70
100
AcDbEntity
  8
0
 62
    18
420
        0
370
    25
100
AcDbLine
 10
74.89056786023418
 20
20.01602106626383
 30
0.0
 11
64.59056812773376
 21
20.01602106626383
 31
0.0
  0
LINE
  5
E5
330
70
100
AcDbEntity
  8
0
 62
    18
420
        0
370
    25
100
AcDbLine
 10
54.0905682692338
 20
87.76602052986341
 30
0.0
 11
54.0905682692338
 21
20.01602106626383
 31
0.0
  0
LINE
  5
E6
330
70
100
AcDbEntity
  8
0
 62
    18
420
        0
370
    25
100
AcDbLine
 10
64.59056812773376
 20
20.01602106626383
 30
0.0
 11
54.0905682692338
 21
20.01602106626383
 31
0.0
  0
LINE
  5
E7
330
70
100
AcDbEntity
  8
0
 62
    18
420
        0
370
    25
100
AcDbLine
 10
43.79056853673371
 20
87.76602052986341
 30
0.0
 11
43.79056853673371
 21
20.01602106626383
 31
0.0
  0
LINE
  5
E8
330
70
100
AcDbEntity
  8
0
 62
    18
420
        0
370
    25
100
AcDbLine
 10
51.46531940873381
 20
87.76602052986341
 30
0.0
 11
51.27207090573365
 21
87.76602052986341
 31
0.0
  0
LINE
  5
E9
330
70
100
AcDbEntity
  8
0
 62
    18
420
        0
370
    25
100
AcDbLine
 10
49.42916048193381
 20
87.76602052986341
 30
0.0
 11
49.2368889363336
 21
87.76602052986341
 31
0.0
  0
LINE
  5
EA
330
70
100
AcDbEntity
  8
0
 62
    18
420
        0
370
    25
100
AcDbLine
 10
54.0905682692338
 20
20.01602106626383
 30
0.0
 11
43.79056853673371
 21
20.01602106626383
 31
0.0
  0
SPLINE
  5
EB
330
70
100
AcDbEntity
  8
0
 62
    18
420
        0
370
    25
100
AcDbSpline
210
0.0
220
0.0
230
1.0
 70
     8
 71
     3
 72
    11
 73
     7
 74
     0
 42
0.0000000001
 43
0.0000000001
 40
0.0
 40
0.0
 40
0.0
 40
0.0
 40
1.0
 40
1.0
 40
1.0
 40
2.0
 40
2.0
 40
2.0
 40
2.0
 10
58.07912110777308
 20
99.72776749076075
 30
0.0
 10
57.16831282999653
 20
99.66355881495715
 30
0.0
 10
56.48200825123237
 20
98.87315140387933
 30
0.0
 10
56.54621692703627
 20
97.96234312610277
 30
0.0
 10
56.60725033747818
 20
97.09657639356493
 30
0.0
 10
57.32736819385537
 20
96.42539732002481
 30
0.0
 10
58.19528357552183
 20
96.42534606994846
 30
0.0
  0
LINE
  5
EC
330
70
100
AcDbEntity
  8
0
 62
    18
420
        0
370
    25
100
AcDbLine
 10
58.1952835755337
 20
96.32534810246342
 30
0.0
 11
58.1952835755337
 21
96.42534606986345
 31
0.0
  0
SPLINE
  5
ED
330
70
100
AcDbEntity
  8
0
 62
    18
420
        0
370
    25
100
AcDbSpline
210
0.0
220
0.0
230
1.0
 70
     8
 71
     3
 72
    11
 73
     7
 74
     0
 42
0.0000000001
 43
0.0000000001
 40
0.0
 40
0.0
 40
0.0
 40
0.0
 40
1.0
 40
1.0
 40
1.0
 40
2.0
 40
2.0
 40
2.0
 40
2.0
 10
58.07208345235704
 20
99.82751586371605
 30
0.0
 10
57.10618553710457
 20
99.75941130699229
 30
0.0
 10
56.37838021885729
 20
98.92118668543904
 30
0.0
 10
56.44648477558103
 20
97.95528877018689
 30
0.0
 10
56.51122052118799
 20
97.03716926788068
 30
0.0
 10
57.27488467633556
 20
96.32540799320985
 30
0.0
 10
58.19528357555681
 20
96.32534810239029
 30
0.0
  0
LWPOLYLINE
  5
EE
330
70
100
AcDbEntity
  8
0
 62
    18
420
        0
370
    25
100
AcDbPolyline
 90
        5
 70
     0
 43
0.0
 10
58.07912110783371
 20
99.72776749066351
 10
58.07644087783383
 20
99.76575800116357
 10
58.07416460903382
 20
99.79801901516333
 10
58.07263526103387
 20
99.81969647936335
 10
58.07208345233362
 20
99.82751586376352
  0
LINE
  5
EF
330
70
100
AcDbEntity
  8
0
 62
    18
420
        0
370
    25
100
AcDbLine
 10
60.48585282133376
 20
96.32534810246342
 30
0.0
 11
58.1952835755337
 21
96.32534810246342
 31
0.0
  0
LINE
  5
F0
330
70
100
AcDbEntity
  8
0
 62
    18
420
        0
370
    25
100
AcDbLine
 10
58.1952835755337
 20
96.42534606986345
 30
0.0
 11
60.48585282133376
 21
96.42534606986345
 31
0.0
  0
LINE
  5
F1
330
70
100
AcDbEntity
  8
0
 62
    18
420
        0
370
    25
100
AcDbLine
 10
60.48585282133376
 20
96.32534810246342
 30
0.0
 11
60.48585282133376
 21
96.42534606986345
 31
0.0
  0
SPLINE
  5
F2
330
70
100
AcDbEntity
  8
0
 62
    18
420
        0
370
    25
100
AcDbSpline
210
0.0
220
0.0
230
1.0
 70
     8
 71
     3
 72
    11
 73
     7
 74
     0
 42
0.0000000001
 43
0.0000000001
 40
0.0
 40
0.0
 40
0.0
 40
0.0
 40
1.0
 40
1.0
 40
1.0
 40
2.0
 40
2.0
 40
2.0
 40
2.0
 10
60.48585282137548
 20
96.42534606987563
 30
0.0
 10
61.39892170600359
 20
96.42540493793024
 30
0.0
 10
62.13906256287587
 20
97.16564123877704
 30
0.0
 10
62.13900369482158
 20
98.07871012340516
 30
0.0
 10
62.13894773837144
 20
98.94661876682809
 30
0.0
 10
61.46777496938867
 20
99.66672985895366
 30
0.0
 10
60.60201528912423
 20
99.72776749068856
 30
0.0
  0
SPLINE
  5
F3
330
70
100
AcDbEntity
  8
0
 62
    18
420
        0
370
    25
100
AcDbSpline
210
0.0
220
0.0
230
1.0
 70
     8
 71
     3
 72
     8
 73
     4
 74
     0
 42
0.0000000001
 43
0.0000000001
 40
0.0
 40
0.0
 40
0.0
 40
0.0
 40
1.0
 40
1.0
 40
1.0
 40
1.0
 10
60.60201524157047
 20
99.72776794388304
 30
0.0
 10
59.76209452507517
 20
99.78702831523683
 30
0.0
 10
58.91904187720856
 20
99.7870283153642
 30
0.0
 10
58.07912116069528
 20
99.72776794426389
 30
0.0
  0
SPLINE
  5
F4
330
70
100
AcDbEntity
  8
0
 62
    18
420
        0
370
    25
100
AcDbSpline
210
0.0
220
0.0
230
1.0
 70
     8
 71
     3
 72
     8
 73
     4
 74
     0
 42
0.0000000001
 43
0.0000000001
 40
0.0
 40
0.0
 40
0.0
 40
0.0
 40
1.0
 40
1.0
 40
1.0
 40
1.0
 10
58.15423407221265
 20
97.57234169918968
 30
0.0
 10
58.29149648640615
 20
97.26796407455594
 30
0.0
 10
58.59440015059561
 20
97.07228244130384
 30
0.0
 10
58.92829640503383
 20
97.07228244130384
 30
0.0
  0
LINE
  5
F5
330
70
100
AcDbEntity
  8
0
 62
    18
420
        0
370
    25
100
AcDbLine
 10
59.75302806203376
 20
97.0722837084634
 30
0.0
 11
58.92829640383386
 21
97.0722837084634
 31
0.0
  0
SPLINE
  5
F6
330
70
100
AcDbEntity
  8
0
 62
    18
420
        0
370
    25
100
AcDbSpline
210
0.0
220
0.0
230
1.0
 70
     8
 71
     3
 72
     8
 73
     4
 74
     0
 42
0.0000000001
 43
0.0000000001
 40
0.0
 40
0.0
 40
0.0
 40
0.0
 40
1.0
 40
1.0
 40
1.0
 40
1.0
 10
59.75302806743365
 20
97.07228244130384
 30
0.0
 10
60.08692432233003
 20
97.07228244130384
 30
0.0
 10
60.38982798684582
 20
97.26796407508665
 30
0.0
 10
60.52709040077429
 20
97.57234170034216
 30
0.0
  0
SPLINE
  5
F7
330
70
100
AcDbEntity
  8
0
 62
    18
420
        0
370
    25
100
AcDbSpline
210
0.0
220
0.0
230
1.0
 70
     8
 71
     3
 72
     8
 73
     4
 74
     0
 42
0.0000000001
 43
0.0000000001
 40
0.0
 40
0.0
 40
0.0
 40
0.0
 40
1.0
 40
1.0
 40
1.0
 40
1.0
 10
60.52709040071814
 20
97.57234170034216
 30
0.0
 10
60.67736104177077
 20
97.90556490078067
 30
0.0
 10
60.67736104177077
 20
98.28726222394619
 30
0.0
 10
60.52709040071814
 20
98.62048542438438
 30
0.0
  0
SPLINE
  5
F8
330
70
100
AcDbEntity
  8
0
 62
    18
420
        0
370
    25
100
AcDbSpline
210
0.0
220
0.0
230
1.0
 70
     8
 71
     3
 72
     8
 73
     4
 74
     0
 42
0.0000000001
 43
0.0000000001
 40
0.0
 40
0.0
 40
0.0
 40
0.0
 40
1.0
 40
1.0
 40
1.0
 40
1.0
 10
60.52709040077429
 20
98.6204854243847
 30
0.0
 10
60.38982798684582
 20
98.92486304964023
 30
0.0
 10
60.08692432233003
 20
99.12054468342303
 30
0.0
 10
59.75302806743365
 20
99.12054468342303
 30
0.0
  0
LINE
  5
F9
330
70
100
AcDbEntity
  8
0
 62
    18
420
        0
370
    25
100
AcDbLine
 10
58.92829640383386
 20
99.12054517206335
 30
0.0
 11
59.75302806203376
 21
99.12054517206335
 31
0.0
  0
SPLINE
  5
FA
330
70
100
AcDbEntity
  8
0
 62
    18
420
        0
370
    25
100
AcDbSpline
210
0.0
220
0.0
230
1.0
 70
     8
 71
     3
 72
     8
 73
     4
 74
     0
 42
0.0000000001
 43
0.0000000001
 40
0.0
 40
0.0
 40
0.0
 40
0.0
 40
1.0
 40
1.0
 40
1.0
 40
1.0
 10
58.92829640453363
 20
99.12054468342303
 30
0.0
 10
58.59440014917939
 20
99.12054468342303
 30
0.0
 10
58.2914964843373
 20
98.92486304910987
 30
0.0
 10
58.15423407067354
 20
98.62048542323222
 30
0.0
  0
SPLINE
  5
FB
330
70
100
AcDbEntity
  8
0
 62
    18
420
        0
370
    25
100
AcDbSpline
210
0.0
220
0.0
230
1.0
 70
     8
 71
     3
 72
     8
 73
     4
 74
     0
 42
0.0000000001
 43
0.0000000001
 40
0.0
 40
0.0
 40
0.0
 40
0.0
 40
1.0
 40
1.0
 40
1.0
 40
1.0
 10
58.15423407066904
 20
98.62048542325435
 30
0.0
 10
58.00396343011277
 20
98.28726222259254
 30
0.0
 10
58.00396343068099
 20
97.9055648994267
 30
0.0
 10
58.15423407222965
 20
97.57234169921213
 30
0.0
  0
SPLINE
  5
FC
330
70
100
AcDbEntity
  8
0
 62
    18
420
        0
370
    25
100
AcDbSpline
210
0.0
220
0.0
230
1.0
 70
     8
 71
     3
 72
     8
 73
     4
 74
     0
 42
0.0000000001
 43
0.0000000001
 40
0.0
 40
0.0
 40
0.0
 40
0.0
 40
1.0
 40
1.0
 40
1.0
 40
1.0
 10
60.60905299112697
 20
99.82751675602905
 30
0.0
 10
59.76444626424328
 20
99.88710774753595
 30
0.0
 10
58.91669013259274
 20
99.88710774753531
 30
0.0
 10
58.07208340570905
 20
99.82751675602679
 30
0.0
  0
LWPOLYLINE
  5
FD
330
70
100
AcDbEntity
  8
0
 62
    18
420
        0
370
    25
100
AcDbPolyline
 90
        5
 70
     0
 43
0.0
 10
60.60201528913385
 20
99.72776749066351
 10
60.60469551903363
 20
99.76575800116357
 10
60.60697178783364
 20
99.79801901516333
 10
60.6085011359337
 20
99.81969647936335
 10
60.60905294453384
 20
99.82751586376352
  0
SPLINE
  5
FE
330
70
100
AcDbEntity
  8
0
 62
    18
420
        0
370
    25
100
AcDbSpline
210
0.0
220
0.0
230
1.0
 70
     8
 71
     3
 72
    11
 73
     7
 74
     0
 42
0.0000000001
 43
0.0000000001
 40
0.0
 40
0.0
 40
0.0
 40
0.0
 40
1.0
 40
1.0
 40
1.0
 40
2.0
 40
2.0
 40
2.0
 40
2.0
 10
60.48585282140146
 20
96.32534810245509
 30
0.0
 10
61.45414831805737
 20
96.3253987721881
 30
0.0
 10
62.2390658357752
 20
97.11039844177534
 30
0.0
 10
62.23901516604216
 20
98.07869393843125
 30
0.0
 10
62.23896700180154
 20
98.99910962680724
 30
0.0
 10
61.52719001858143
 20
99.7627906359988
 30
0.0
 10
60.60905294460122
 20
99.82751586378086
 30
0.0
  0
SPLINE
  5
FF
330
70
100
AcDbEntity
  8
0
 62
    18
420
        0
370
    25
100
AcDbSpline
210
0.0
220
0.0
230
1.0
 70
     8
 71
     3
 72
    11
 73
     7
 74
     0
 42
0.0000000001
 43
0.0000000001
 40
0.0
 40
0.0
 40
0.0
 40
0.0
 40
1.0
 40
1.0
 40
1.0
 40
2.0
 40
2.0
 40
2.0
 40
2.0
 10
60.48585899141119
 20
96.22517504632483
 30
0.0
 10
61.50955163695965
 20
96.22523496871083
 30
0.0
 10
62.33936991615829
 20
97.0551504012926
 30
0.0
 10
62.33930999377227
 20
98.07884304684106
 30
0.0
 10
62.33925303513615
 20
99.05190404751005
 30
0.0
 10
61.58676841662053
 20
99.85926539046506
 30
0.0
 10
60.61611714274103
 20
99.92770382106312
 30
0.0
  0
LINE
  5
100
330
70
100
AcDbEntity
  8
0
 62
    18
420
        0
370
    25
100
AcDbLine
 10
60.48585899143366
 20
96.22517504626353
 30
0.0
 11
60.48585282133376
 21
96.32534810246342
 31
0.0
  0
LINE
  5
101
330
70
100
AcDbEntity
  8
0
 62
    18
420
        0
370
    25
100
AcDbLine
 10
60.60905294453384
 20
99.82751586376352
 30
0.0
 11
60.61611714273365
 21
99.92770382106344
 31
0.0
  0
SPLINE
  5
102
330
70
100
AcDbEntity
  8
0
 62
    18
420
        0
370
    25
100
AcDbSpline
210
0.0
220
0.0
230
1.0
 70
     8
 71
     3
 72
    11
 73
     7
 74
     0
 42
0.0000000001
 43
0.0000000001
 40
0.0
 40
0.0
 40
0.0
 40
0.0
 40
1.0
 40
1.0
 40
1.0
 40
2.0
 40
2.0
 40
2.0
 40
2.0
 10
58.06501925418707
 20
99.9277038210012
 30
0.0
 10
57.04386171449213
 20
99.85570451120334
 30
0.0
 10
56.27441694079779
 20
98.96952579181141
 30
0.0
 10
56.34641625059597
 20
97.9483682521168
 30
0.0
 10
56.41485450804823
 20
96.97771668896612
 30
0.0
 10
57.22221612845979
 20
96.22523181185284
 30
0.0
 10
58.19527740551659
 20
96.22517504626289
 30
0.0
  0
LINE
  5
103
330
70
100
AcDbEntity
  8
0
 62
    18
420
        0
370
    25
100
AcDbLine
 10
58.06501925423359
 20
99.92770382106344
 30
0.0
 11
58.07208345233362
 21
99.82751586376352
 31
0.0
  0
LINE
  5
104
330
70
100
AcDbEntity
  8
0
 62
    18
420
        0
370
    25
100
AcDbLine
 10
58.1952835755337
 20
96.32534810246342
 30
0.0
 11
58.19527740553358
 21
96.22517504626353
 31
0.0
  0
SPLINE
  5
105
330
70
100
AcDbEntity
  8
0
 62
    18
420
        0
370
    25
100
AcDbSpline
210
0.0
220
0.0
230
1.0
 70
     8
 71
     3
 72
     8
 73
     4
 74
     0
 42
0.0000000001
 43
0.0000000001
 40
0.0
 40
0.0
 40
0.0
 40
0.0
 40
1.0
 40
1.0
 40
1.0
 40
1.0
 10
60.43593453088593
 20
97.61344943527014
 30
0.0
 10
60.57441807530612
 20
97.9205349015765
 30
0.0
 10
60.57441807530612
 20
98.27229222315004
 30
0.0
 10
60.43593453088593
 20
98.57937768945674
 30
0.0
  0
LWPOLYLINE
  5
106
330
70
100
AcDbEntity
  8
0
 62
    18
420
        0
370
    25
100
AcDbPolyline
 90
        9
 70
     0
 43
0.0
 10
60.43593451343365
 20
98.57937597566341
 10
60.43782102373363
 20
98.58022906716353
 10
60.44310022573374
 20
98.58260952766345
 10
60.45157153593383
 20
98.58642795026336
 10
60.46291283293365
 20
98.59154277376354
 10
60.47669326383372
 20
98.59775655806348
 10
60.49238907603385
 20
98.60483833486346
 10
60.5094036410336
 20
98.61250870756334
 10
60.52709038803367
 20
98.62048455416349
  0
LWPOLYLINE
  5
107
330
70
100
AcDbEntity
  8
0
 62
    18
420
        0
370
    25
100
AcDbPolyline
 90
        9
 70
     0
 43
0.0
 10
60.43593451343365
 20
97.61344917946354
 10
60.43782102373363
 20
97.61259981326347
 10
60.44310022573374
 20
97.61021935276353
 10
60.45157153593383
 20
97.60639720496339
 10
60.46291283293365
 20
97.60128238136344
 10
60.47669326383372
 20
97.5950685971636
 10
60.49238907603385
 20
97.58799054556353
 10
60.5094036410336
 20
97.58031644756329
 10
60.52709038803367
 20
97.57234060106359
  0
LWPOLYLINE
  5
108
330
70
100
AcDbEntity
  8
0
 62
    18
420
        0
370
    25
100
AcDbPolyline
 90
        9
 70
     0
 43
0.0
 10
58.15423401973387
 20
97.57234060106359
 10
58.17192088313365
 20
97.58031644756329
 10
58.18893544803361
 20
97.58799054556353
 10
58.20463114383371
 20
97.5950685971636
 10
58.21841157473378
 20
97.60128238136344
 10
58.22975298823373
 20
97.60639720496339
 10
58.23822418193369
 20
97.61021935276353
 10
58.2435033839338
 20
97.61259981326347
 10
58.24538989423378
 20
97.61344917946354
  0
SPLINE
  5
109
330
70
100
AcDbEntity
  8
0
 62
    18
420
        0
370
    25
100
AcDbSpline
210
0.0
220
0.0
230
1.0
 70
     8
 71
     3
 72
     8
 73
     4
 74
     0
 42
0.0000000001
 43
0.0000000001
 40
0.0
 40
0.0
 40
0.0
 40
0.0
 40
1.0
 40
1.0
 40
1.0
 40
1.0
 10
58.24538994198388
 20
97.61344943425305
 30
0.0
 10
58.36648792829859
 20
97.34491621895948
 30
0.0
 10
58.63372076108924
 20
97.17227863361031
 30
0.0
 10
58.92829640503383
 20
97.17227863361031
 30
0.0
  0
LINE
  5
10A
330
70
100
AcDbEntity
  8
0
 62
    18
420
        0
370
    25
100
AcDbLine
 10
58.92829640383386
 20
97.0722837084634
 30
0.0
 11
58.92829640383386
 21
97.17227795056338
 31
0.0
  0
LINE
  5
10B
330
70
100
AcDbEntity
  8
0
 62
    18
420
        0
370
    25
100
AcDbLine
 10
59.75302806203376
 20
99.02054720456357
 30
0.0
 11
58.92829640383386
 21
99.02054720456357
 31
0.0
  0
LINE
  5
10C
330
70
100
AcDbEntity
  8
0
 62
    18
420
        0
370
    25
100
AcDbLine
 10
58.92829640383386
 20
99.02054720456357
 30
0.0
 11
58.92829640383386
 21
99.12054517206335
 31
0.0
  0
LINE
  5
10D
330
70
100
AcDbEntity
  8
0
 62
    18
420
        0
370
    25
100
AcDbLine
 10
59.75302806203376
 20
99.02054720456357
 30
0.0
 11
59.75302806203376
 21
99.12054517206335
 31
0.0
  0
SPLINE
  5
10E
330
70
100
AcDbEntity
  8
0
 62
    18
420
        0
370
    25
100
AcDbSpline
210
0.0
220
0.0
230
1.0
 70
     8
 71
     3
 72
     8
 73
     4
 74
     0
 42
0.0000000001
 43
0.0000000001
 40
0.0
 40
0.0
 40
0.0
 40
0.0
 40
1.0
 40
1.0
 40
1.0
 40
1.0
 10
59.75302806743365
 20
97.17227863361031
 30
0.0
 10
60.04760371178251
 20
97.17227863361031
 30
0.0
 10
60.31483654486128
 20
97.34491621942758
 30
0.0
 10
60.43593453094209
 20
97.61344943526982
 30
0.0
  0
LINE
  5
10F
330
70
100
AcDbEntity
  8
0
 62
    18
420
        0
370
    25
100
AcDbLine
 10
59.75302806203376
 20
97.0722837084634
 30
0.0
 11
59.75302806203376
 21
97.17227795056338
 31
0.0
  0
SPLINE
  5
110
330
70
100
AcDbEntity
  8
0
 62
    18
420
        0
370
    25
100
AcDbSpline
210
0.0
220
0.0
230
1.0
 70
     8
 71
     3
 72
     8
 73
     4
 74
     0
 42
0.0000000001
 43
0.0000000001
 40
0.0
 40
0.0
 40
0.0
 40
0.0
 40
1.0
 40
1.0
 40
1.0
 40
1.0
 10
58.92829640453363
 20
99.02054849111657
 30
0.0
 10
58.63372075978081
 20
99.02054849111657
 30
0.0
 10
58.36648792641425
 20
98.84791090483115
 30
0.0
 10
58.24538994056702
 20
98.57937768844028
 30
0.0
  0
LWPOLYLINE
  5
111
330
70
100
AcDbEntity
  8
0
 62
    18
420
        0
370
    25
100
AcDbPolyline
 90
        9
 70
     0
 43
0.0
 10
58.15423401973387
 20
98.62048455416349
 10
58.17192088313365
 20
98.61250870756334
 10
58.18893544803361
 20
98.60483460956343
 10
58.20463114383371
 20
98.59775655806348
 10
58.21841157473378
 20
98.59154277376354
 10
58.22975298823373
 20
98.58642795026336
 10
58.23822418193369
 20
98.58260952766345
 10
58.2435033839338
 20
98.58022906716353
 10
58.24538989423378
 20
98.57937597566341
  0
LINE
  5
112
330
70
100
AcDbEntity
  8
0
 62
    18
420
        0
370
    25
100
AcDbLine
 10
58.92829640383386
 20
97.17227795056338
 30
0.0
 11
59.75302806203376
 21
97.17227795056338
 31
0.0
  0
SPLINE
  5
113
330
70
100
AcDbEntity
  8
0
 62
    18
420
        0
370
    25
100
AcDbSpline
210
0.0
220
0.0
230
1.0
 70
     8
 71
     3
 72
     8
 73
     4
 74
     0
 42
0.0000000001
 43
0.0000000001
 40
0.0
 40
0.0
 40
0.0
 40
0.0
 40
1.0
 40
1.0
 40
1.0
 40
1.0
 10
58.24538994056252
 20
98.57937768846241
 30
0.0
 10
58.10690639659956
 20
98.27229222194974
 30
0.0
 10
58.10690639712318
 20
97.92053490037622
 30
0.0
 10
58.24538994200057
 20
97.61344943427582
 30
0.0
  0
SPLINE
  5
114
330
70
100
AcDbEntity
  8
0
 62
    18
420
        0
370
    25
100
AcDbSpline
210
0.0
220
0.0
230
1.0
 70
     8
 71
     3
 72
     8
 73
     4
 74
     0
 42
0.0000000001
 43
0.0000000001
 40
0.0
 40
0.0
 40
0.0
 40
0.0
 40
1.0
 40
1.0
 40
1.0
 40
1.0
 10
60.43593453094209
 20
98.57937768945705
 30
0.0
 10
60.31483654486128
 20
98.84791090529928
 30
0.0
 10
60.04760371178251
 20
99.02054849111657
 30
0.0
 10
59.75302806743365
 20
99.02054849111657
 30
0.0
  0
SPLINE
  5
115
330
70
100
AcDbEntity
  8
0
 62
    18
420
        0
370
    25
100
AcDbSpline
210
0.0
220
0.0
230
1.0
 70
     8
 71
     3
 72
     8
 73
     4
 74
     0
 42
0.0000000001
 43
0.0000000001
 40
0.0
 40
0.0
 40
0.0
 40
0.0
 40
1.0
 40
1.0
 40
1.0
 40
1.0
 10
60.61611749201173
 20
99.92770382100891
 30
0.0
 10
59.7668072339264
 20
99.98763159440335
 30
0.0
 10
58.91432951234105
 20
99.98763159440335
 30
0.0
 10
58.06501925425573
 20
99.92770382100891
 30
0.0
  0
LINE
  5
116
330
70
100
AcDbEntity
  8
0
 62
    18
420
        0
370
    25
100
AcDbLine
 10
60.48585899143366
 20
96.22517504626353
 30
0.0
 11
58.19527612493364
 21
96.22517504626353
 31
0.0
  0
SPLINE
  5
117
330
70
100
AcDbEntity
  8
0
 62
    18
420
        0
370
    25
100
AcDbSpline
210
0.0
220
0.0
230
1.0
 70
     8
 71
     3
 72
     8
 73
     4
 74
     0
 42
0.0000000001
 43
0.0000000001
 40
0.0
 40
0.0
 40
0.0
 40
0.0
 40
1.0
 40
1.0
 40
1.0
 40
1.0
 10
58.9282964039131
 20
97.37595447238128
 30
0.0
 10
59.20320646550578
 20
97.3752183240618
 30
0.0
 10
59.47811800718373
 20
97.37521956582964
 30
0.0
 10
59.75302806211493
 20
97.375958197672
 30
0.0
  0
LINE
  5
118
330
70
100
AcDbEntity
  8
0
 62
    18
420
        0
370
    25
100
AcDbLine
 10
59.75302806203376
 20
97.37595819766333
 30
0.0
 11
59.75302806203376
 21
97.17227795056338
 31
0.0
  0
LINE
  5
119
330
70
100
AcDbEntity
  8
0
 62
    18
420
        0
370
    25
100
AcDbLine
 10
58.92829640383386
 20
97.3759544723633
 30
0.0
 11
58.92829640383386
 21
97.17227795056338
 31
0.0
  0
SPLINE
  5
11A
330
70
100
AcDbEntity
  8
0
 62
    18
420
        0
370
    25
100
AcDbSpline
210
0.0
220
0.0
230
1.0
 70
     8
 71
     3
 72
     8
 73
     4
 74
     0
 42
0.0000000001
 43
0.0000000001
 40
0.0
 40
0.0
 40
0.0
 40
0.0
 40
1.0
 40
1.0
 40
1.0
 40
1.0
 10
58.43327712232485
 20
98.49464797316823
 30
0.0
 10
58.32001247720947
 20
98.24123937525415
 30
0.0
 10
58.32001247720947
 20
97.95158950527294
 30
0.0
 10
58.43327712232485
 20
97.69818090735855
 30
0.0
  0
LINE
  5
11B
330
70
100
AcDbEntity
  8
0
 62
    18
420
        0
370
    25
100
AcDbLine
 10
58.43327712233384
 20
97.69818090736336
 30
0.0
 11
58.24538989423378
 21
97.61344917946354
 31
0.0
  0
LINE
  5
11C
330
70
100
AcDbEntity
  8
0
 62
    18
420
        0
370
    25
100
AcDbLine
 10
58.43327712233384
 20
98.49464797316342
 30
0.0
 11
58.24538989423378
 21
98.57937597566341
 31
0.0
  0
SPLINE
  5
11D
330
70
100
AcDbEntity
  8
0
 62
    18
420
        0
370
    25
100
AcDbSpline
210
0.0
220
0.0
230
1.0
 70
     8
 71
     3
 72
     8
 73
     4
 74
     0
 42
0.0000000001
 43
0.0000000001
 40
0.0
 40
0.0
 40
0.0
 40
0.0
 40
1.0
 40
1.0
 40
1.0
 40
1.0
 10
58.43327712234346
 20
97.69818090730401
 30
0.0
 10
58.52054321404501
 20
97.50275748201318
 30
0.0
 10
58.71427490564709
 20
97.37665032891442
 30
0.0
 10
58.9282964038592
 20
97.37595447235817
 30
0.0
  0
SPLINE
  5
11E
330
70
100
AcDbEntity
  8
0
 62
    18
420
        0
370
    25
100
AcDbSpline
210
0.0
220
0.0
230
1.0
 70
     8
 71
     3
 72
     8
 73
     4
 74
     0
 42
0.0000000001
 43
0.0000000001
 40
0.0
 40
0.0
 40
0.0
 40
0.0
 40
1.0
 40
1.0
 40
1.0
 40
1.0
 10
59.75302806202413
 20
98.81687068281468
 30
0.0
 10
59.47811800754083
 20
98.81761087786092
 30
0.0
 10
59.20320645832678
 20
98.81761087786092
 30
0.0
 10
58.92829640384348
 20
98.81687068281468
 30
0.0
  0
LINE
  5
11F
330
70
100
AcDbEntity
  8
0
 62
    18
420
        0
370
    25
100
AcDbLine
 10
58.92829640383386
 20
98.81687068276335
 30
0.0
 11
58.92829640383386
 21
99.02054720456357
 31
0.0
  0
LINE
  5
120
330
70
100
AcDbEntity
  8
0
 62
    18
420
        0
370
    25
100
AcDbLine
 10
59.75302806203376
 20
98.81687068276335
 30
0.0
 11
59.75302806203376
 21
99.02054720456357
 31
0.0
  0
SPLINE
  5
121
330
70
100
AcDbEntity
  8
0
 62
    18
420
        0
370
    25
100
AcDbSpline
210
0.0
220
0.0
230
1.0
 70
     8
 71
     3
 72
     8
 73
     4
 74
     0
 42
0.0000000001
 43
0.0000000001
 40
0.0
 40
0.0
 40
0.0
 40
0.0
 40
1.0
 40
1.0
 40
1.0
 40
1.0
 10
60.24804606302687
 20
97.69818090735727
 30
0.0
 10
60.36131045744583
 20
97.95158955874924
 30
0.0
 10
60.36131045744583
 20
98.24123932177785
 30
0.0
 10
60.24804606302687
 20
98.49464797316951
 30
0.0
  0
LINE
  5
122
330
70
100
AcDbEntity
  8
0
 62
    18
420
        0
370
    25
100
AcDbLine
 10
60.2480460630336
 20
98.49464797316342
 30
0.0
 11
60.43593451343365
 21
98.57937597566341
 31
0.0
  0
LINE
  5
123
330
70
100
AcDbEntity
  8
0
 62
    18
420
        0
370
    25
100
AcDbLine
 10
60.2480460630336
 20
97.69818090736336
 30
0.0
 11
60.43593451343365
 21
97.61344917946354
 31
0.0
  0
SPLINE
  5
124
330
70
100
AcDbEntity
  8
0
 62
    18
420
        0
370
    25
100
AcDbSpline
210
0.0
220
0.0
230
1.0
 70
     8
 71
     3
 72
     8
 73
     4
 74
     0
 42
0.0000000001
 43
0.0000000001
 40
0.0
 40
0.0
 40
0.0
 40
0.0
 40
1.0
 40
1.0
 40
1.0
 40
1.0
 10
59.75302806209761
 20
97.37595819771115
 30
0.0
 10
59.96706233809114
 20
97.37660660629572
 30
0.0
 10
60.16081658260189
 20
97.50272730807623
 30
0.0
 10
60.24804606304451
 20
97.69818090736656
 30
0.0
  0
SPLINE
  5
125
330
70
100
AcDbEntity
  8
0
 62
    18
420
        0
370
    25
100
AcDbSpline
210
0.0
220
0.0
230
1.0
 70
     8
 71
     3
 72
     8
 73
     4
 74
     0
 42
0.0000000001
 43
0.0000000001
 40
0.0
 40
0.0
 40
0.0
 40
0.0
 40
1.0
 40
1.0
 40
1.0
 40
1.0
 10
60.24804606299253
 20
98.49464797310117
 30
0.0
 10
60.16077639297244
 20
98.69006724951091
 30
0.0
 10
59.96704722059096
 20
98.81617163105795
 30
0.0
 10
59.7530280620453
 20
98.81687068275693
 30
0.0
  0
SPLINE
  5
126
330
70
100
AcDbEntity
  8
0
 62
    18
420
        0
370
    25
100
AcDbSpline
210
0.0
220
0.0
230
1.0
 70
     8
 71
     3
 72
     8
 73
     4
 74
     0
 42
0.0000000001
 43
0.0000000001
 40
0.0
 40
0.0
 40
0.0
 40
0.0
 40
1.0
 40
1.0
 40
1.0
 40
1.0
 10
58.92829640383899
 20
98.81687068277939
 30
0.0
 10
58.71426754403303
 20
98.81620307399517
 30
0.0
 10
58.52052242966595
 20
98.6900886415578
 30
0.0
 10
58.43327712232325
 20
98.49464797312331
 30
0.0
  0
SPLINE
  5
127
330
70
100
AcDbEntity
  8
0
 62
    18
420
        0
370
    25
100
AcDbSpline
210
0.0
220
0.0
230
1.0
 70
     8
 71
     3
 72
     8
 73
     4
 74
     0
 42
0.0000000001
 43
0.0000000001
 40
0.0
 40
0.0
 40
0.0
 40
0.0
 40
1.0
 40
1.0
 40
1.0
 40
1.0
 10
71.48355891434674
 20
99.7358662717877
 30
0.0
 10
68.98402261572723
 20
99.83541195771232
 30
0.0
 10
66.48332469004603
 20
99.9032636392152
 30
0.0
 10
63.98206803452461
 20
99.93940495782752
 30
0.0
  0
LWPOLYLINE
  5
128
330
70
100
AcDbEntity
  8
0
 62
    18
420
        0
370
    25
100
AcDbPolyline
 90
        9
 70
     0
 43
0.0
 10
63.98206803443382
 20
99.93940495786345
 10
63.98283171893371
 20
99.98785980876341
 10
63.98356699813376
 20
100.0343924098635
 10
63.98424500103389
 20
100.0772295230633
 10
63.98484011613368
 20
100.1147469216634
 10
63.9853299918338
 20
100.1455178194635
 10
63.98569600153368
 20
100.1683724754633
 10
63.98592417563385
 20
100.1824428969636
 10
63.98600566633377
 20
100.1871926420633
  0
SPLINE
  5
129
330
70
100
AcDbEntity
  8
0
 62
    18
420
        0
370
    25
100
AcDbSpline
210
0.0
220
0.0
230
1.0
 70
     8
 71
     3
 72
     8
 73
     4
 74
     0
 42
0.0000000001
 43
0.0000000001
 40
0.0
 40
0.0
 40
0.0
 40
0.0
 40
1.0
 40
1.0
 40
1.0
 40
1.0
 10
71.24365766959245
 20
99.98348259263082
 30
0.0
 10
68.82536740407845
 20
100.0811501728457
 30
0.0
 10
66.40596693972343
 20
100.1490586627912
 30
0.0
 10
63.98600566645121
 20
100.1871926420184
 30
0.0
  0
SPLINE
  5
12A
330
70
100
AcDbEntity
  8
0
 62
    18
420
        0
370
    25
100
AcDbSpline
210
0.0
220
0.0
230
1.0
 70
     8
 71
     3
 72
     8
 73
     4
 74
     0
 42
0.0000000001
 43
0.0000000001
 40
0.0
 40
0.0
 40
0.0
 40
0.0
 40
1.0
 40
1.0
 40
1.0
 40
1.0
 10
71.48355858040014
 20
99.73586702593808
 30
0.0
 10
71.48239531734344
 20
99.86916376933358
 30
0.0
 10
71.37685111581108
 20
99.97810174228568
 30
0.0
 10
71.24365790641791
 20
99.98348170068101
 30
0.0
  0
SPLINE
  5
12B
330
70
100
AcDbEntity
  8
0
 62
    18
420
        0
370
    25
100
AcDbSpline
210
0.0
220
0.0
230
1.0
 70
     8
 71
     3
 72
     8
 73
     4
 74
     0
 42
0.0000000001
 43
0.0000000001
 40
0.0
 40
0.0
 40
0.0
 40
0.0
 40
1.0
 40
1.0
 40
1.0
 40
1.0
 10
54.69513073046535
 20
100.1871926420447
 30
0.0
 10
52.2751691738275
 20
100.1490715943375
 30
0.0
 10
49.8557685503295
 20
100.0811630999255
 30
0.0
 10
47.43747872725544
 20
99.98348259265519
 30
0.0
  0
LINE
  5
12C
330
70
100
AcDbEntity
  8
0
 62
    18
420
        0
370
    25
100
AcDbLine
 10
54.69906836243364
 20
99.93940495786345
 30
0.0
 11
54.69513073063379
 21
100.1871926420633
 31
0.0
  0
SPLINE
  5
12D
330
70
100
AcDbEntity
  8
0
 62
    18
420
        0
370
    25
100
AcDbSpline
210
0.0
220
0.0
230
1.0
 70
     8
 71
     3
 72
     8
 73
     4
 74
     0
 42
0.0000000001
 43
0.0000000001
 40
0.0
 40
0.0
 40
0.0
 40
0.0
 40
1.0
 40
1.0
 40
1.0
 40
1.0
 10
54.69906836262584
 20
99.93940495787114
 30
0.0
 10
52.19780886284338
 20
99.90340053703624
 30
0.0
 10
49.69710919809104
 20
99.83554880834891
 30
0.0
 10
47.19757748285183
 20
99.73586627183935
 30
0.0
  0
SPLINE
  5
12E
330
70
100
AcDbEntity
  8
0
 62
    18
420
        0
370
    25
100
AcDbSpline
210
0.0
220
0.0
230
1.0
 70
     8
 71
     3
 72
     8
 73
     4
 74
     0
 42
0.0000000001
 43
0.0000000001
 40
0.0
 40
0.0
 40
0.0
 40
0.0
 40
1.0
 40
1.0
 40
1.0
 40
1.0
 10
47.43747849054966
 20
99.98348170068101
 30
0.0
 10
47.30428528115617
 20
99.97810174228568
 30
0.0
 10
47.19874107962412
 20
99.86916376933358
 30
0.0
 10
47.19757781656774
 20
99.73586702593808
 30
0.0
  0
LINE
  5
12F
330
70
100
AcDbEntity
  8
0
 62
    18
420
        0
370
    25
100
AcDbLine
 10
47.10359120243384
 20
88.96602221666372
 30
0.0
 11
47.19757748263365
 21
99.73586627186342
 31
0.0
  0
LINE
  5
130
330
70
100
AcDbEntity
  8
0
 62
    18
420
        0
370
    25
100
AcDbLine
 10
71.48355891423381
 20
99.73586627186342
 30
0.0
 11
71.57754519453373
 21
88.96602221666372
 31
0.0
  0
LINE
  5
131
330
70
100
AcDbEntity
  8
0
 62
    18
420
        0
370
    25
100
AcDbLine
 10
60.14237930963386
 20
99.97486972146331
 30
0.0
 11
59.34056819843357
 21
99.97377821146351
 31
0.0
  0
LINE
  5
132
330
70
100
AcDbEntity
  8
0
 62
    18
420
        0
370
    25
100
AcDbLine
 10
63.98206803443382
 20
99.93940495786345
 30
0.0
 11
60.14237930963386
 21
99.97486972146331
 31
0.0
  0
LINE
  5
133
330
70
100
AcDbEntity
  8
0
 62
    18
420
        0
370
    25
100
AcDbLine
 10
58.5387570873337
 20
99.97486972146331
 30
0.0
 11
54.69906836243364
 21
99.93940495786345
 31
0.0
  0
LINE
  5
134
330
70
100
AcDbEntity
  8
0
 62
    18
420
        0
370
    25
100
AcDbLine
 10
59.34056819843357
 20
99.97377821146351
 30
0.0
 11
58.5387570873337
 21
99.97486972146331
 31
0.0
  0
LWPOLYLINE
  5
135
330
70
100
AcDbEntity
  8
0
 62
    18
420
        0
370
    25
100
AcDbPolyline
 90
        5
 70
     0
 43
0.0
 10
58.53807978293389
 20
100.2226872080634
 10
58.53813176243369
 20
100.2038670414634
 10
58.53827844573385
 20
100.1502340369634
 10
58.53849783043385
 20
100.0698683493634
 10
58.5387570873337
 20
99.97486972146331
  0
LINE
  5
136
330
70
100
AcDbEntity
  8
0
 62
    18
420
        0
370
    25
100
AcDbLine
 10
54.69513073063379
 20
100.1871926420633
 30
0.0
 11
58.53807978293389
 21
100.2226872080634
 31
0.0
  0
LWPOLYLINE
  5
137
330
70
100
AcDbEntity
  8
0
 62
    18
420
        0
370
    25
100
AcDbPolyline
 90
        5
 70
     0
 43
0.0
 10
60.14305661393358
 20
100.2226872080634
 10
60.14300463453388
 20
100.2038670414634
 10
60.14285795123371
 20
100.1502340369634
 10
60.14263856653372
 20
100.0698683493634
 10
60.14237930963386
 20
99.97486972146331
  0
LINE
  5
138
330
70
100
AcDbEntity
  8
0
 62
    18
420
        0
370
    25
100
AcDbLine
 10
60.14305661393358
 20
100.2226872080634
 30
0.0
 11
63.98600566633377
 21
100.1871926420633
 31
0.0
  0
SPLINE
  5
139
330
70
100
AcDbEntity
  8
0
 62
    18
420
        0
370
    25
100
AcDbSpline
210
0.0
220
0.0
230
1.0
 70
     8
 71
     3
 72
     8
 73
     4
 74
     0
 42
0.0000000001
 43
0.0000000001
 40
0.0
 40
0.0
 40
0.0
 40
0.0
 40
1.0
 40
1.0
 40
1.0
 40
1.0
 10
60.14305659845259
 20
100.2226875735479
 30
0.0
 10
59.60806532216865
 20
100.2241432679298
 30
0.0
 10
59.07307107521345
 20
100.2241432679302
 30
0.0
 10
58.53807979892952
 20
100.2226875735495
 30
0.0
  0
LINE
  5
13A
330
70
100
AcDbEntity
  8
0
 62
     8
420
  8421504
370
    25
100
AcDbLine
 10
64.59056812773376
 20
19.91601937346336
 30
0.0
 11
64.59056812773376
 21
20.01602106626383
 31
0.0
  0
LINE
  5
13B
330
70
100
AcDbEntity
  8
0
 62
     8
420
  8421504
370
    25
100
AcDbLine
 10
54.0905682692338
 20
19.91601937346336
 30
0.0
 11
54.0905682692338
 21
20.01602106626383
 31
0.0
  0
LINE
  5
13C
330
70
100
AcDbEntity
  8
0
 62
     8
420
  8421504
370
    25
100
AcDbLine
 10
67.49573436993381
 20
19.71601971326353
 30
0.0
 11
67.51139549033353
 21
19.71601971326353
 31
0.0
  0
LINE
  5
13D
330
70
100
AcDbEntity
  8
0
 62
     8
420
  8421504
370
    25
100
AcDbLine
 10
51.16974090653361
 20
19.71601971326353
 30
0.0
 11
51.18540202693365
 21
19.71601971326353
 31
0.0
  0
LINE
  5
13E
330
70
100
AcDbEntity
  8
0
 62
     8
420
  8421504
370
    25
100
AcDbLine
 10
67.49573436993381
 20
19.61602174576342
 30
0.0
 11
67.51139549033353
 21
19.61602174576342
 31
0.0
  0
LINE
  5
13F
330
70
100
AcDbEntity
  8
0
 62
     8
420
  8421504
370
    25
100
AcDbLine
 10
51.16974090653361
 20
19.61602174576342
 30
0.0
 11
51.18540202693365
 21
19.61602174576342
 31
0.0
  0
LINE
  5
140
330
70
100
AcDbEntity
  8
0
 62
     8
420
  8421504
370
    25
100
AcDbLine
 10
45.35553039483385
 20
19.71601971326353
 30
0.0
 11
45.36366829143367
 21
19.71601971326353
 31
0.0
  0
LINE
  5
141
330
70
100
AcDbEntity
  8
0
 62
     8
420
  8421504
370
    25
100
AcDbLine
 10
73.31746810543378
 20
19.71601971326353
 30
0.0
 11
73.32560600213404
 21
19.71601971326353
 31
0.0
  0
LINE
  5
142
330
70
100
AcDbEntity
  8
0
 62
     8
420
  8421504
370
    25
100
AcDbLine
 10
45.35553039483385
 20
19.61602174576342
 30
0.0
 11
45.36366829143367
 21
19.61602174576342
 31
0.0
  0
LINE
  5
143
330
70
100
AcDbEntity
  8
0
 62
     8
420
  8421504
370
    25
100
AcDbLine
 10
73.31746810543378
 20
19.61602174576342
 30
0.0
 11
73.32560600213404
 21
19.61602174576342
 31
0.0
  0
LINE
  5
144
330
70
100
AcDbEntity
  8
0
 62
     8
420
  8421504
370
    25
100
AcDbLine
 10
54.69906836243364
 20
99.93940495786345
 30
0.0
 11
54.60330511873383
 21
88.96602221666372
 31
0.0
  0
LINE
  5
145
330
70
100
AcDbEntity
  8
0
 62
     8
420
  8421504
370
    25
100
AcDbLine
 10
64.07783127823373
 20
88.96602221666372
 30
0.0
 11
63.98206803443382
 21
99.93940495786345
 31
0.0
  0
SPLINE
  5
146
330
70
100
AcDbEntity
  8
0
 62
    18
420
        0
370
    25
100
AcDbSpline
210
0.0
220
0.0
230
1.0
 70
     8
 71
     3
 72
     8
 73
     4
 74
     0
 42
0.0000000001
 43
0.0000000001
 40
0.0
 40
0.0
 40
0.0
 40
0.0
 40
1.0
 40
1.0
 40
1.0
 40
1.0
 10
146.0351432538337
 20
19.81602035696371
 30
0.0
 10
145.9799147788503
 20
19.81602035696371
 30
0.0
 10
145.9351432538334
 20
19.77124883194616
 30
0.0
 10
145.9351432538334
 20
19.71602035696339
 30
0.0
  0
SPLINE
  5
147
330
70
100
AcDbEntity
  8
0
 62
    18
420
        0
370
    25
100
AcDbSpline
210
0.0
220
0.0
230
1.0
 70
     8
 71
     3
 72
     8
 73
     4
 74
     0
 42
0.0000000001
 43
0.0000000001
 40
0.0
 40
0.0
 40
0.0
 40
0.0
 40
1.0
 40
1.0
 40
1.0
 40
1.0
 10
162.2454760054339
 20
19.71602035696339
 30
0.0
 10
162.2454760054339
 20
19.77124883194616
 30
0.0
 10
162.2007044804169
 20
19.81602035696371
 30
0.0
 10
162.1454760054335
 20
19.81602035696371
 30
0.0
  0
LINE
  5
148
330
70
100
AcDbEntity
  8
0
 62
    18
420
        0
370
    25
100
AcDbLine
 10
145.9351434581337
 20
19.61602174576342
 30
0.0
 11
145.9351434581337
 21
19.71601971326353
 31
0.0
  0
SPLINE
  5
149
330
70
100
AcDbEntity
  8
0
 62
    18
420
        0
370
    25
100
AcDbSpline
210
0.0
220
0.0
230
1.0
 70
     8
 71
     3
 72
     8
 73
     4
 74
     0
 42
0.0000000001
 43
0.0000000001
 40
0.0
 40
0.0
 40
0.0
 40
0.0
 40
1.0
 40
1.0
 40
1.0
 40
1.0
 10
145.8351432538337
 20
19.51602035696338
 30
0.0
 10
145.8903717288165
 20
19.51602035696338
 30
0.0
 10
145.9351432538334
 20
19.56079188198029
 30
0.0
 10
145.9351432538334
 20
19.61602035696306
 30
0.0
  0
SPLINE
  5
14A
330
70
100
AcDbEntity
  8
0
 62
    18
420
        0
370
    25
100
AcDbSpline
210
0.0
220
0.0
230
1.0
 70
     8
 71
     3
 72
     8
 73
     4
 74
     0
 42
0.0000000001
 43
0.0000000001
 40
0.0
 40
0.0
 40
0.0
 40
0.0
 40
1.0
 40
1.0
 40
1.0
 40
1.0
 10
162.2454760054339
 20
19.61602035696306
 30
0.0
 10
162.2454760054339
 20
19.56079188198029
 30
0.0
 10
162.2902475304508
 20
19.51602035696338
 30
0.0
 10
162.3454760054335
 20
19.51602035696338
 30
0.0
  0
LINE
  5
14B
330
70
100
AcDbEntity
  8
0
 62
    18
420
        0
370
    25
100
AcDbLine
 10
162.2454758011335
 20
19.71601971326353
 30
0.0
 11
162.2454758011335
 21
19.61602174576342
 31
0.0
  0
SPLINE
  5
14C
330
70
100
AcDbEntity
  8
0
 62
    18
420
        0
370
    25
100
AcDbSpline
210
0.0
220
0.0
230
1.0
 70
     8
 71
     3
 72
     8
 73
     4
 74
     0
 42
0.0000000001
 43
0.0000000001
 40
0.0
 40
0.0
 40
0.0
 40
0.0
 40
1.0
 40
1.0
 40
1.0
 40
1.0
 10
140.1052719663334
 20
19.71602035696339
 30
0.0
 10
140.1052719663334
 20
19.77124883194616
 30
0.0
 10
140.0605004413165
 20
19.81602035696371
 30
0.0
 10
140.0052719663337
 20
19.81602035696371
 30
0.0
  0
SPLINE
  5
14D
330
70
100
AcDbEntity
  8
0
 62
    18
420
        0
370
    25
100
AcDbSpline
210
0.0
220
0.0
230
1.0
 70
     8
 71
     3
 72
     8
 73
     4
 74
     0
 42
0.0000000001
 43
0.0000000001
 40
0.0
 40
0.0
 40
0.0
 40
0.0
 40
1.0
 40
1.0
 40
1.0
 40
1.0
 10
168.1753472928335
 20
19.81602035696371
 30
0.0
 10
168.1201188178507
 20
19.81602035696371
 30
0.0
 10
168.0753472928338
 20
19.77124883194616
 30
0.0
 10
168.0753472928338
 20
19.71602035696339
 30
0.0
  0
LINE
  5
14E
330
70
100
AcDbEntity
  8
0
 62
    18
420
        0
370
    25
100
AcDbLine
 10
140.1052718259335
 20
19.71601971326353
 30
0.0
 11
140.1052718259335
 21
19.61602174576342
 31
0.0
  0
SPLINE
  5
14F
330
70
100
AcDbEntity
  8
0
 62
    18
420
        0
370
    25
100
AcDbSpline
210
0.0
220
0.0
230
1.0
 70
     8
 71
     3
 72
     8
 73
     4
 74
     0
 42
0.0000000001
 43
0.0000000001
 40
0.0
 40
0.0
 40
0.0
 40
0.0
 40
1.0
 40
1.0
 40
1.0
 40
1.0
 10
140.1052719663334
 20
19.61602035696306
 30
0.0
 10
140.1052719663334
 20
19.56079188198029
 30
0.0
 10
140.150043491351
 20
19.51602035696338
 30
0.0
 10
140.2052719663337
 20
19.51602035696338
 30
0.0
  0
LINE
  5
150
330
70
100
AcDbEntity
  8
0
 62
    18
420
        0
370
    25
100
AcDbLine
 10
168.0753474332337
 20
19.61602174576342
 30
0.0
 11
168.0753474332337
 21
19.71601971326353
 31
0.0
  0
SPLINE
  5
151
330
70
100
AcDbEntity
  8
0
 62
    18
420
        0
370
    25
100
AcDbSpline
210
0.0
220
0.0
230
1.0
 70
     8
 71
     3
 72
     8
 73
     4
 74
     0
 42
0.0000000001
 43
0.0000000001
 40
0.0
 40
0.0
 40
0.0
 40
0.0
 40
1.0
 40
1.0
 40
1.0
 40
1.0
 10
167.9753472928334
 20
19.51602035696338
 30
0.0
 10
168.0305757678168
 20
19.51602035696338
 30
0.0
 10
168.0753472928338
 20
19.56079188198029
 30
0.0
 10
168.0753472928338
 20
19.61602035696306
 30
0.0
  0
LINE
  5
152
330
70
100
AcDbEntity
  8
0
 62
    18
420
        0
370
    25
100
AcDbLine
 10
165.9812239207339
 20
100.2237787180635
 30
0.0
 11
142.1993953384339
 21
100.2237787180635
 31
0.0
  0
LINE
  5
153
330
70
100
AcDbEntity
  8
0
 62
    18
420
        0
370
    25
100
AcDbLine
 10
178.7411124654334
 20
99.87220817146331
 30
0.0
 11
166.2312337406339
 21
99.97264944846337
 31
0.0
  0
SPLINE
  5
154
330
70
100
AcDbEntity
  8
0
 62
    18
420
        0
370
    25
100
AcDbSpline
210
0.0
220
0.0
230
1.0
 70
     8
 71
     3
 72
     8
 73
     4
 74
     0
 42
0.0000000001
 43
0.0000000001
 40
0.0
 40
0.0
 40
0.0
 40
0.0
 40
1.0
 40
1.0
 40
1.0
 40
1.0
 10
178.8403096296334
 20
99.7722132224635
 30
0.0
 10
178.8403096296334
 20
99.82712842447837
 30
0.0
 10
178.7960259046531
 20
99.87176911686596
 30
0.0
 10
178.7411124724645
 20
99.87220999962858
 30
0.0
  0
SPLINE
  5
155
330
70
100
AcDbEntity
  8
0
 62
    18
420
        0
370
    25
100
AcDbSpline
210
0.0
220
0.0
230
1.0
 70
     8
 71
     3
 72
     8
 73
     4
 74
     0
 42
0.0000000001
 43
0.0000000001
 40
0.0
 40
0.0
 40
0.0
 40
0.0
 40
1.0
 40
1.0
 40
1.0
 40
1.0
 10
142.1993954770339
 20
100.2237793443634
 30
0.0
 10
142.0613242895763
 20
100.2237793443634
 30
0.0
 10
141.9493954770337
 20
100.1118505318211
 30
0.0
 10
141.9493954770337
 20
99.97377934436357
 30
0.0
  0
SPLINE
  5
156
330
70
100
AcDbEntity
  8
0
 62
    18
420
        0
370
    25
100
AcDbSpline
210
0.0
220
0.0
230
1.0
 70
     8
 71
     3
 72
     8
 73
     4
 74
     0
 42
0.0000000001
 43
0.0000000001
 40
0.0
 40
0.0
 40
0.0
 40
0.0
 40
1.0
 40
1.0
 40
1.0
 40
1.0
 10
166.2312237822336
 20
99.97377934436357
 30
0.0
 10
166.2312237822336
 20
100.1118505318211
 30
0.0
 10
166.1192949696916
 20
100.2237793443634
 30
0.0
 10
165.9812237822334
 20
100.2237793443634
 30
0.0
  0
LINE
  5
157
330
70
100
AcDbEntity
  8
0
 62
    18
420
        0
370
    25
100
AcDbLine
 10
148.8403097004336
 20
88.9160213702638
 30
0.0
 11
138.3403093763338
 21
88.9160213702638
 31
0.0
  0
SPLINE
  5
158
330
70
100
AcDbEntity
  8
0
 62
    18
420
        0
370
    25
100
AcDbSpline
210
0.0
220
0.0
230
1.0
 70
     8
 71
     3
 72
     8
 73
     4
 74
     0
 42
0.0000000001
 43
0.0000000001
 40
0.0
 40
0.0
 40
0.0
 40
0.0
 40
1.0
 40
1.0
 40
1.0
 40
1.0
 10
138.3903096296337
 20
88.96602035696343
 30
0.0
 10
138.3626953921423
 20
88.96602035696343
 30
0.0
 10
138.3403096296336
 20
88.94363459445528
 30
0.0
 10
138.3403096296336
 20
88.91602035696326
 30
0.0
  0
LINE
  5
159
330
70
100
AcDbEntity
  8
0
 62
    18
420
        0
370
    25
100
AcDbLine
 10
138.3903102226336
 20
88.96602221666372
 30
0.0
 11
148.8403097004336
 21
88.96602221666372
 31
0.0
  0
LINE
  5
15A
330
70
100
AcDbEntity
  8
0
 62
    18
420
        0
370
    25
100
AcDbLine
 10
148.8403097004336
 20
88.9160213702638
 30
0.0
 11
148.8403097004336
 21
88.96602221666372
 31
0.0
  0
LINE
  5
15B
330
70
100
AcDbEntity
  8
0
 62
    18
420
        0
370
    25
100
AcDbLine
 10
138.3403093763338
 20
88.36601951056302
 30
0.0
 11
138.3403093763338
 21
88.9160213702638
 31
0.0
  0
LINE
  5
15C
330
70
100
AcDbEntity
  8
0
 62
    18
420
        0
370
    25
100
AcDbLine
 10
148.8403097004336
 20
88.9160213702638
 30
0.0
 11
148.8403097004336
 21
88.36601951056302
 31
0.0
  0
LINE
  5
15D
330
70
100
AcDbEntity
  8
0
 62
    18
420
        0
370
    25
100
AcDbLine
 10
148.8403097004336
 20
88.36601951056302
 30
0.0
 11
138.3403093763338
 21
88.36601951056302
 31
0.0
  0
LINE
  5
15E
330
70
100
AcDbEntity
  8
0
 62
    18
420
        0
370
    25
100
AcDbLine
 10
159.3403095588337
 20
88.9160213702638
 30
0.0
 11
148.8403097004336
 21
88.9160213702638
 31
0.0
  0
LINE
  5
15F
330
70
100
AcDbEntity
  8
0
 62
    18
420
        0
370
    25
100
AcDbLine
 10
148.8403097004336
 20
88.96602221666372
 30
0.0
 11
159.3403095588337
 21
88.96602221666372
 31
0.0
  0
LINE
  5
160
330
70
100
AcDbEntity
  8
0
 62
    18
420
        0
370
    25
100
AcDbLine
 10
159.3403095588337
 20
88.9160213702638
 30
0.0
 11
159.3403095588337
 21
88.96602221666372
 31
0.0
  0
LINE
  5
161
330
70
100
AcDbEntity
  8
0
 62
    18
420
        0
370
    25
100
AcDbLine
 10
159.3403095588337
 20
88.36601951056302
 30
0.0
 11
159.3403095588337
 21
88.9160213702638
 31
0.0
  0
LINE
  5
162
330
70
100
AcDbEntity
  8
0
 62
    18
420
        0
370
    25
100
AcDbLine
 10
148.8403097004336
 20
88.36601951056302
 30
0.0
 11
159.3403095588337
 21
88.36601951056302
 31
0.0
  0
LINE
  5
163
330
70
100
AcDbEntity
  8
0
 62
    18
420
        0
370
    25
100
AcDbLine
 10
169.8403098829335
 20
88.9160213702638
 30
0.0
 11
159.3403095588337
 21
88.9160213702638
 31
0.0
  0
LINE
  5
164
330
70
100
AcDbEntity
  8
0
 62
    18
420
        0
370
    25
100
AcDbLine
 10
169.8403098829335
 20
88.9160213702638
 30
0.0
 11
169.8403098829335
 21
88.36601951056302
 31
0.0
  0
LINE
  5
165
330
70
100
AcDbEntity
  8
0
 62
    18
420
        0
370
    25
100
AcDbLine
 10
169.8403098829335
 20
88.36601951056302
 30
0.0
 11
159.3403095588337
 21
88.36601951056302
 31
0.0
  0
LINE
  5
166
330
70
100
AcDbEntity
  8
0
 62
    18
420
        0
370
    25
100
AcDbLine
 10
159.3403095588337
 20
88.96602221666372
 30
0.0
 11
169.7903090365336
 21
88.96602221666372
 31
0.0
  0
SPLINE
  5
167
330
70
100
AcDbEntity
  8
0
 62
    18
420
        0
370
    25
100
AcDbSpline
210
0.0
220
0.0
230
1.0
 70
     8
 71
     3
 72
     8
 73
     4
 74
     0
 42
0.0000000001
 43
0.0000000001
 40
0.0
 40
0.0
 40
0.0
 40
0.0
 40
1.0
 40
1.0
 40
1.0
 40
1.0
 10
169.8403096296337
 20
88.91602035696326
 30
0.0
 10
169.8403096296337
 20
88.94363459445528
 30
0.0
 10
169.8179238671256
 20
88.96602035696343
 30
0.0
 10
169.7903096296336
 20
88.96602035696343
 30
0.0
  0
LINE
  5
168
330
70
100
AcDbEntity
  8
0
 62
    18
420
        0
370
    25
100
AcDbLine
 10
139.0903099648339
 20
19.91601937346336
 30
0.0
 11
148.8403097004336
 21
19.91601937346336
 31
0.0
  0
LINE
  5
169
330
70
100
AcDbEntity
  8
0
 62
    18
420
        0
370
    25
100
AcDbLine
 10
148.8403097004336
 20
19.91601937346336
 30
0.0
 11
148.8403097004336
 21
19.81602140606335
 31
0.0
  0
LINE
  5
16A
330
70
100
AcDbEntity
  8
0
 62
    18
420
        0
370
    25
100
AcDbLine
 10
148.8403097004336
 20
19.81602140606335
 30
0.0
 11
139.1903097950336
 21
19.81602140606335
 31
0.0
  0
SPLINE
  5
16B
330
70
100
AcDbEntity
  8
0
 62
    18
420
        0
370
    25
100
AcDbSpline
210
0.0
220
0.0
230
1.0
 70
     8
 71
     3
 72
     8
 73
     4
 74
     0
 42
0.0000000001
 43
0.0000000001
 40
0.0
 40
0.0
 40
0.0
 40
0.0
 40
1.0
 40
1.0
 40
1.0
 40
1.0
 10
139.0903096296334
 20
19.9160203569634
 30
0.0
 10
139.0903096296334
 20
19.86079188197998
 30
0.0
 10
139.1350811546504
 20
19.81602035696371
 30
0.0
 10
139.1903096296338
 20
19.81602035696371
 30
0.0
  0
LINE
  5
16C
330
70
100
AcDbEntity
  8
0
 62
    18
420
        0
370
    25
100
AcDbLine
 10
139.0903099648339
 20
19.91601937346336
 30
0.0
 11
139.0903099648339
 21
20.01602106626383
 31
0.0
  0
LINE
  5
16D
330
70
100
AcDbEntity
  8
0
 62
    18
420
        0
370
    25
100
AcDbLine
 10
148.8403097004336
 20
19.91601937346336
 30
0.0
 11
159.3403095588337
 21
19.91601937346336
 31
0.0
  0
LINE
  5
16E
330
70
100
AcDbEntity
  8
0
 62
    18
420
        0
370
    25
100
AcDbLine
 10
159.3403095588337
 20
19.91601937346336
 30
0.0
 11
159.3403095588337
 21
19.81602140606335
 31
0.0
  0
LINE
  5
16F
330
70
100
AcDbEntity
  8
0
 62
    18
420
        0
370
    25
100
AcDbLine
 10
159.3403095588337
 20
19.81602140606335
 30
0.0
 11
148.8403097004336
 21
19.81602140606335
 31
0.0
  0
LINE
  5
170
330
70
100
AcDbEntity
  8
0
 62
    18
420
        0
370
    25
100
AcDbLine
 10
159.3403095588337
 20
19.91601937346336
 30
0.0
 11
169.0903092943339
 21
19.91601937346336
 31
0.0
  0
SPLINE
  5
171
330
70
100
AcDbEntity
  8
0
 62
    18
420
        0
370
    25
100
AcDbSpline
210
0.0
220
0.0
230
1.0
 70
     8
 71
     3
 72
     8
 73
     4
 74
     0
 42
0.0000000001
 43
0.0000000001
 40
0.0
 40
0.0
 40
0.0
 40
0.0
 40
1.0
 40
1.0
 40
1.0
 40
1.0
 10
168.9903096296335
 20
19.81602035696371
 30
0.0
 10
169.0455381046169
 20
19.81602035696371
 30
0.0
 10
169.0903096296338
 20
19.86079188197998
 30
0.0
 10
169.0903096296338
 20
19.9160203569634
 30
0.0
  0
LINE
  5
172
330
70
100
AcDbEntity
  8
0
 62
    18
420
        0
370
    25
100
AcDbLine
 10
168.9903094642337
 20
19.81602140606335
 30
0.0
 11
159.3403095588337
 21
19.81602140606335
 31
0.0
  0
LINE
  5
173
330
70
100
AcDbEntity
  8
0
 62
    18
420
        0
370
    25
100
AcDbLine
 10
169.0903092943339
 20
19.91601937346336
 30
0.0
 11
169.0903092943339
 21
20.01602106626383
 31
0.0
  0
SPLINE
  5
174
330
70
100
AcDbEntity
  8
0
 62
    18
420
        0
370
    25
100
AcDbSpline
210
0.0
220
0.0
230
1.0
 70
     8
 71
     3
 72
     8
 73
     4
 74
     0
 42
0.0000000001
 43
0.0000000001
 40
0.0
 40
0.0
 40
0.0
 40
0.0
 40
1.0
 40
1.0
 40
1.0
 40
1.0
 10
145.2946747862418
 20
19.81602140598699
 30
0.0
 10
145.2439549015318
 20
19.81134129318401
 30
0.0
 10
145.2063913929958
 20
19.76680216076661
 30
0.0
 10
145.2103351452068
 20
19.71601971321476
 30
0.0
  0
LINE
  5
175
330
70
100
AcDbEntity
  8
0
 62
    18
420
        0
370
    25
100
AcDbLine
 10
145.0864822812337
 20
19.71601971326353
 30
0.0
 11
145.2103351451337
 21
19.71601971326353
 31
0.0
  0
LWPOLYLINE
  5
176
330
70
100
AcDbEntity
  8
0
 62
    18
420
        0
370
    25
100
AcDbPolyline
 90
        9
 70
     0
 43
0.0
 10
145.0469681270336
 20
19.81602140606335
 10
145.0546766840338
 20
19.81409915626383
 10
145.0620900117335
 20
19.8084069126631
 10
145.068921262834
 20
19.79916819266372
 10
145.0749087356339
 20
19.78672944836298
 10
145.079823324834
 20
19.77157869276335
 10
145.0834741093339
 20
19.75428962046352
 10
145.0857232533335
 20
19.7355290585633
 10
145.0864822812337
 20
19.71601971326353
  0
LINE
  5
177
330
70
100
AcDbEntity
  8
0
 62
    18
420
        0
370
    25
100
AcDbLine
 10
162.9702841140335
 20
19.71601971326353
 30
0.0
 11
163.0941369779335
 21
19.71601971326353
 31
0.0
  0
SPLINE
  5
178
330
70
100
AcDbEntity
  8
0
 62
    18
420
        0
370
    25
100
AcDbSpline
210
0.0
220
0.0
230
1.0
 70
     8
 71
     3
 72
     8
 73
     4
 74
     0
 42
0.0000000001
 43
0.0000000001
 40
0.0
 40
0.0
 40
0.0
 40
0.0
 40
1.0
 40
1.0
 40
1.0
 40
1.0
 10
162.9702841140604
 20
19.71601971321476
 30
0.0
 10
162.9742278662715
 20
19.76680216076661
 30
0.0
 10
162.9366643577355
 20
19.81134129318401
 30
0.0
 10
162.8859444730255
 20
19.81602140598699
 30
0.0
  0
LWPOLYLINE
  5
179
330
70
100
AcDbEntity
  8
0
 62
    18
420
        0
370
    25
100
AcDbPolyline
 90
        9
 70
     0
 43
0.0
 10
163.0941369779335
 20
19.71601971326353
 10
163.0948960058336
 20
19.7355290585633
 10
163.0971451498339
 20
19.75428962046352
 10
163.1007959343338
 20
19.77157869276335
 10
163.1057105236334
 20
19.78672944836298
 10
163.1116979964339
 20
19.79916819266372
 10
163.1185292475338
 20
19.8084069126631
 10
163.1259425752335
 20
19.81409915626383
 10
163.1336511321336
 20
19.81602140606335
  0
LINE
  5
17A
330
70
100
AcDbEntity
  8
0
 62
    18
420
        0
370
    25
100
AcDbLine
 10
145.0864822812337
 20
19.71601971326353
 30
0.0
 11
140.1134097226337
 21
19.71601971326353
 31
0.0
  0
SPLINE
  5
17B
330
70
100
AcDbEntity
  8
0
 62
    18
420
        0
370
    25
100
AcDbSpline
210
0.0
220
0.0
230
1.0
 70
     8
 71
     3
 72
     8
 73
     4
 74
     0
 42
0.0000000001
 43
0.0000000001
 40
0.0
 40
0.0
 40
0.0
 40
0.0
 40
1.0
 40
1.0
 40
1.0
 40
1.0
 10
140.1134097226241
 20
19.71601971328599
 30
0.0
 10
140.115558742057
 20
19.76896527283255
 30
0.0
 10
140.074485117785
 20
19.81367837433539
 30
0.0
 10
140.0215477891542
 20
19.81602140605758
 30
0.0
  0
LINE
  5
17C
330
70
100
AcDbEntity
  8
0
 62
    18
420
        0
370
    25
100
AcDbLine
 10
168.0672095366335
 20
19.71601971326353
 30
0.0
 11
163.0941369779335
 21
19.71601971326353
 31
0.0
  0
SPLINE
  5
17D
330
70
100
AcDbEntity
  8
0
 62
    18
420
        0
370
    25
100
AcDbSpline
210
0.0
220
0.0
230
1.0
 70
     8
 71
     3
 72
     8
 73
     4
 74
     0
 42
0.0000000001
 43
0.0000000001
 40
0.0
 40
0.0
 40
0.0
 40
0.0
 40
1.0
 40
1.0
 40
1.0
 40
1.0
 10
168.1590714701131
 20
19.81602140605758
 30
0.0
 10
168.1061341414823
 20
19.81367837433539
 30
0.0
 10
168.0650605172102
 20
19.76896527283255
 30
0.0
 10
168.0672095366432
 20
19.71601971328599
 30
0.0
  0
SPLINE
  5
17E
330
70
100
AcDbEntity
  8
0
 62
    18
420
        0
370
    25
100
AcDbSpline
210
0.0
220
0.0
230
1.0
 70
     8
 71
     3
 72
     8
 73
     4
 74
     0
 42
0.0000000001
 43
0.0000000001
 40
0.0
 40
0.0
 40
0.0
 40
0.0
 40
1.0
 40
1.0
 40
1.0
 40
1.0
 10
146.0038219787349
 20
19.81602140601715
 30
0.0
 10
145.9531018194143
 20
19.81134181930086
 30
0.0
 10
145.9155380206141
 20
19.76680234271716
 30
0.0
 10
145.9194823377
 20
19.71601971324556
 30
0.0
  0
LINE
  5
17F
330
70
100
AcDbEntity
  8
0
 62
    18
420
        0
370
    25
100
AcDbLine
 10
145.919482337734
 20
19.71601971326353
 30
0.0
 11
145.2103351451337
 21
19.71601971326353
 31
0.0
  0
LINE
  5
180
330
70
100
AcDbEntity
  8
0
 62
    18
420
        0
370
    25
100
AcDbLine
 10
162.9702841140335
 20
19.71601971326353
 30
0.0
 11
162.2611369215339
 21
19.71601971326353
 31
0.0
  0
SPLINE
  5
181
330
70
100
AcDbEntity
  8
0
 62
    18
420
        0
370
    25
100
AcDbSpline
210
0.0
220
0.0
230
1.0
 70
     8
 71
     3
 72
     8
 73
     4
 74
     0
 42
0.0000000001
 43
0.0000000001
 40
0.0
 40
0.0
 40
0.0
 40
0.0
 40
1.0
 40
1.0
 40
1.0
 40
1.0
 10
162.2611369214672
 20
19.71601971324556
 30
0.0
 10
162.2650812385537
 20
19.76680234271716
 30
0.0
 10
162.2275174397535
 20
19.81134181930086
 30
0.0
 10
162.1767972804329
 20
19.81602140601715
 30
0.0
  0
LINE
  5
182
330
70
100
AcDbEntity
  8
0
 62
    18
420
        0
370
    25
100
AcDbLine
 10
145.0864822812337
 20
19.61602174576342
 30
0.0
 11
145.0864822812337
 21
19.71601971326353
 31
0.0
  0
LINE
  5
183
330
70
100
AcDbEntity
  8
0
 62
    18
420
        0
370
    25
100
AcDbLine
 10
145.2103351451337
 20
19.71601971326353
 30
0.0
 11
145.2103351451337
 21
19.61602174576342
 31
0.0
  0
LINE
  5
184
330
70
100
AcDbEntity
  8
0
 62
    18
420
        0
370
    25
100
AcDbLine
 10
145.0864822812337
 20
19.61602174576342
 30
0.0
 11
145.2103351451337
 21
19.61602174576342
 31
0.0
  0
SPLINE
  5
185
330
70
100
AcDbEntity
  8
0
 62
    18
420
        0
370
    25
100
AcDbSpline
210
0.0
220
0.0
230
1.0
 70
     8
 71
     3
 72
     8
 73
     4
 74
     0
 42
0.0000000001
 43
0.0000000001
 40
0.0
 40
0.0
 40
0.0
 40
0.0
 40
1.0
 40
1.0
 40
1.0
 40
1.0
 10
145.1259964354466
 20
19.51602005297129
 30
0.0
 10
145.1767177264337
 20
19.52069723140136
 30
0.0
 10
145.2142825796718
 20
19.5652384500818
 30
0.0
 10
145.2103351451587
 20
19.61602174574353
 30
0.0
  0
LWPOLYLINE
  5
186
330
70
100
AcDbEntity
  8
0
 62
    18
420
        0
370
    25
100
AcDbPolyline
 90
        9
 70
     0
 43
0.0
 10
145.0864822812337
 20
19.61602174576342
 10
145.0872413091338
 20
19.59651240046301
 10
145.0894904531335
 20
19.57775183856344
 10
145.093141237634
 20
19.5604627662636
 10
145.0980558269336
 20
19.54530828536361
 10
145.1040432997335
 20
19.53287326626377
 10
145.110874550834
 20
19.5236308210635
 10
145.1182869471338
 20
19.51794230276377
 10
145.1259964354338
 20
19.5160200529636
  0
LINE
  5
187
330
70
100
AcDbEntity
  8
0
 62
    18
420
        0
370
    25
100
AcDbLine
 10
162.9702841140335
 20
19.61602174576342
 30
0.0
 11
162.9702841140335
 21
19.71601971326353
 31
0.0
  0
LINE
  5
188
330
70
100
AcDbEntity
  8
0
 62
    18
420
        0
370
    25
100
AcDbLine
 10
163.0941369779335
 20
19.71601971326353
 30
0.0
 11
163.0941369779335
 21
19.61602174576342
 31
0.0
  0
LINE
  5
189
330
70
100
AcDbEntity
  8
0
 62
    18
420
        0
370
    25
100
AcDbLine
 10
162.9702841140335
 20
19.61602174576342
 30
0.0
 11
163.0941369779335
 21
19.61602174576342
 31
0.0
  0
LWPOLYLINE
  5
18A
330
70
100
AcDbEntity
  8
0
 62
    18
420
        0
370
    25
100
AcDbPolyline
 90
        9
 70
     0
 43
0.0
 10
163.054622823734
 20
19.5160200529636
 10
163.062332312034
 20
19.51794230276377
 10
163.069744708434
 20
19.5236308210635
 10
163.0765759595338
 20
19.53287326626377
 10
163.0825634323337
 20
19.54530828536297
 10
163.0874780215338
 20
19.5604627662636
 10
163.0911288060337
 20
19.57775183856344
 10
163.0933779500334
 20
19.59651240046301
 10
163.0941369779335
 20
19.61602174576342
  0
SPLINE
  5
18B
330
70
100
AcDbEntity
  8
0
 62
    18
420
        0
370
    25
100
AcDbSpline
210
0.0
220
0.0
230
1.0
 70
     8
 71
     3
 72
     8
 73
     4
 74
     0
 42
0.0000000001
 43
0.0000000001
 40
0.0
 40
0.0
 40
0.0
 40
0.0
 40
1.0
 40
1.0
 40
1.0
 40
1.0
 10
162.9702841140085
 20
19.61602174574353
 30
0.0
 10
162.966336679496
 20
19.5652384500818
 30
0.0
 10
163.0039015327335
 20
19.52069723140136
 30
0.0
 10
163.0546228237205
 20
19.51602005297129
 30
0.0
  0
LINE
  5
18C
330
70
100
AcDbEntity
  8
0
 62
    18
420
        0
370
    25
100
AcDbLine
 10
140.1134097226337
 20
19.61602174576342
 30
0.0
 11
145.0864822812337
 21
19.61602174576342
 31
0.0
  0
LINE
  5
18D
330
70
100
AcDbEntity
  8
0
 62
    18
420
        0
370
    25
100
AcDbLine
 10
140.1134097226337
 20
19.71601971326353
 30
0.0
 11
140.1134097226337
 21
19.61602174576342
 31
0.0
  0
LINE
  5
18E
330
70
100
AcDbEntity
  8
0
 62
    18
420
        0
370
    25
100
AcDbLine
 10
145.1259964354338
 20
19.5160200529636
 30
0.0
 11
140.2052716560338
 21
19.5160200529636
 31
0.0
  0
SPLINE
  5
18F
330
70
100
AcDbEntity
  8
0
 62
    18
420
        0
370
    25
100
AcDbSpline
210
0.0
220
0.0
230
1.0
 70
     8
 71
     3
 72
     8
 73
     4
 74
     0
 42
0.0000000001
 43
0.0000000001
 40
0.0
 40
0.0
 40
0.0
 40
0.0
 40
1.0
 40
1.0
 40
1.0
 40
1.0
 10
140.1134097226203
 20
19.61602174573775
 30
0.0
 10
140.1112574907168
 20
19.56307500917398
 30
0.0
 10
140.1523328825842
 20
19.51835998345122
 30
0.0
 10
140.2052716560896
 20
19.51602005296552
 30
0.0
  0
LINE
  5
190
330
70
100
AcDbEntity
  8
0
 62
    18
420
        0
370
    25
100
AcDbLine
 10
163.0941369779335
 20
19.61602174576342
 30
0.0
 11
168.0672095366335
 21
19.61602174576342
 31
0.0
  0
SPLINE
  5
191
330
70
100
AcDbEntity
  8
0
 62
    18
420
        0
370
    25
100
AcDbSpline
210
0.0
220
0.0
230
1.0
 70
     8
 71
     3
 72
     8
 73
     4
 74
     0
 42
0.0000000001
 43
0.0000000001
 40
0.0
 40
0.0
 40
0.0
 40
0.0
 40
1.0
 40
1.0
 40
1.0
 40
1.0
 10
167.9753476030776
 20
19.51602005296552
 30
0.0
 10
168.028286376583
 20
19.51835998345122
 30
0.0
 10
168.0693617684504
 20
19.56307500917398
 30
0.0
 10
168.0672095365476
 20
19.61602174573775
 30
0.0
  0
LINE
  5
192
330
70
100
AcDbEntity
  8
0
 62
    18
420
        0
370
    25
100
AcDbLine
 10
167.9753476031334
 20
19.5160200529636
 30
0.0
 11
163.054622823734
 21
19.5160200529636
 31
0.0
  0
LINE
  5
193
330
70
100
AcDbEntity
  8
0
 62
    18
420
        0
370
    25
100
AcDbLine
 10
168.0672095366335
 20
19.61602174576342
 30
0.0
 11
168.0672095366335
 21
19.71601971326353
 31
0.0
  0
LINE
  5
194
330
70
100
AcDbEntity
  8
0
 62
    18
420
        0
370
    25
100
AcDbLine
 10
145.2103351451337
 20
19.61602174576342
 30
0.0
 11
145.919482337734
 21
19.61602174576342
 31
0.0
  0
SPLINE
  5
195
330
70
100
AcDbEntity
  8
0
 62
    18
420
        0
370
    25
100
AcDbSpline
210
0.0
220
0.0
230
1.0
 70
     8
 71
     3
 72
     8
 73
     4
 74
     0
 42
0.0000000001
 43
0.0000000001
 40
0.0
 40
0.0
 40
0.0
 40
0.0
 40
1.0
 40
1.0
 40
1.0
 40
1.0
 10
145.8351436279468
 20
19.51602005297129
 30
0.0
 10
145.8858649189339
 20
19.52069723140136
 30
0.0
 10
145.923429772172
 20
19.5652384500818
 30
0.0
 10
145.9194823376589
 20
19.61602174574353
 30
0.0
  0
LINE
  5
196
330
70
100
AcDbEntity
  8
0
 62
    18
420
        0
370
    25
100
AcDbLine
 10
145.8351436280335
 20
19.5160200529636
 30
0.0
 11
145.1259964354338
 21
19.5160200529636
 31
0.0
  0
LINE
  5
197
330
70
100
AcDbEntity
  8
0
 62
    18
420
        0
370
    25
100
AcDbLine
 10
145.919482337734
 20
19.61602174576342
 30
0.0
 11
145.919482337734
 21
19.71601971326353
 31
0.0
  0
LINE
  5
198
330
70
100
AcDbEntity
  8
0
 62
    18
420
        0
370
    25
100
AcDbLine
 10
162.2611369215339
 20
19.61602174576342
 30
0.0
 11
162.9702841140335
 21
19.61602174576342
 31
0.0
  0
LINE
  5
199
330
70
100
AcDbEntity
  8
0
 62
    18
420
        0
370
    25
100
AcDbLine
 10
162.2611369215339
 20
19.71601971326353
 30
0.0
 11
162.2611369215339
 21
19.61602174576342
 31
0.0
  0
LINE
  5
19A
330
70
100
AcDbEntity
  8
0
 62
    18
420
        0
370
    25
100
AcDbLine
 10
163.054622823734
 20
19.5160200529636
 30
0.0
 11
162.3454756312338
 21
19.5160200529636
 31
0.0
  0
SPLINE
  5
19B
330
70
100
AcDbEntity
  8
0
 62
    18
420
        0
370
    25
100
AcDbSpline
210
0.0
220
0.0
230
1.0
 70
     8
 71
     3
 72
     8
 73
     4
 74
     0
 42
0.0000000001
 43
0.0000000001
 40
0.0
 40
0.0
 40
0.0
 40
0.0
 40
1.0
 40
1.0
 40
1.0
 40
1.0
 10
162.2611369215082
 20
19.61602174574353
 30
0.0
 10
162.2571894869958
 20
19.5652384500818
 30
0.0
 10
162.2947543402333
 20
19.52069723140136
 30
0.0
 10
162.345475631221
 20
19.51602005297129
 30
0.0
  0
LINE
  5
19C
330
70
100
AcDbEntity
  8
0
 62
    18
420
        0
370
    25
100
AcDbLine
 10
145.456929805134
 20
87.76602052986341
 30
0.0
 11
146.1309549607334
 21
87.76602052986341
 31
0.0
  0
LINE
  5
19D
330
70
100
AcDbEntity
  8
0
 62
    18
420
        0
370
    25
100
AcDbLine
 10
145.1903172977334
 20
87.76602052986341
 30
0.0
 11
145.456929805134
 21
87.76602052986341
 31
0.0
  0
LINE
  5
19E
330
70
100
AcDbEntity
  8
0
 62
    18
420
        0
370
    25
100
AcDbLine
 10
144.1046987869338
 20
87.76602052986341
 30
0.0
 11
145.1903172977334
 21
87.76602052986341
 31
0.0
  0
LINE
  5
19F
330
70
100
AcDbEntity
  8
0
 62
    18
420
        0
370
    25
100
AcDbLine
 10
142.1973305963339
 20
87.76602052986341
 30
0.0
 11
144.1046987869338
 21
87.76602052986341
 31
0.0
  0
LINE
  5
1A0
330
70
100
AcDbEntity
  8
0
 62
    18
420
        0
370
    25
100
AcDbLine
 10
140.7088387035335
 20
87.76602052986341
 30
0.0
 11
142.1973305963339
 21
87.76602052986341
 31
0.0
  0
LINE
  5
1A1
330
70
100
AcDbEntity
  8
0
 62
    18
420
        0
370
    25
100
AcDbLine
 10
139.4688637204335
 20
87.76602052986341
 30
0.0
 11
140.7088387035335
 21
87.76602052986341
 31
0.0
  0
LINE
  5
1A2
330
70
100
AcDbEntity
  8
0
 62
    18
420
        0
370
    25
100
AcDbLine
 10
138.6958827473338
 20
87.76602052986341
 30
0.0
 11
139.4688637204335
 21
87.76602052986341
 31
0.0
  0
LINE
  5
1A3
330
70
100
AcDbEntity
  8
0
 62
    18
420
        0
370
    25
100
AcDbLine
 10
138.3403093763338
 20
87.76602052986341
 30
0.0
 11
138.6958827473338
 21
87.76602052986341
 31
0.0
  0
LINE
  5
1A4
330
70
100
AcDbEntity
  8
0
 62
    18
420
        0
370
    25
100
AcDbLine
 10
138.3403093763338
 20
87.76602052986341
 30
0.0
 11
138.3403093763338
 21
88.36601951056302
 31
0.0
  0
LINE
  5
1A5
330
70
100
AcDbEntity
  8
0
 62
    18
420
        0
370
    25
100
AcDbLine
 10
148.8403097004336
 20
88.36601951056302
 30
0.0
 11
148.8403097004336
 21
87.76602052986341
 31
0.0
  0
LINE
  5
1A6
330
70
100
AcDbEntity
  8
0
 62
    18
420
        0
370
    25
100
AcDbLine
 10
148.8403097004336
 20
87.76602052986341
 30
0.0
 11
146.1309549607334
 21
87.76602052986341
 31
0.0
  0
LINE
  5
1A7
330
70
100
AcDbEntity
  8
0
 62
    18
420
        0
370
    25
100
AcDbLine
 10
159.3403095588337
 20
87.76602052986341
 30
0.0
 11
159.3403095588337
 21
88.36601951056302
 31
0.0
  0
LINE
  5
1A8
330
70
100
AcDbEntity
  8
0
 62
    18
420
        0
370
    25
100
AcDbLine
 10
159.3403095588337
 20
87.76602052986341
 30
0.0
 11
148.8403097004336
 21
87.76602052986341
 31
0.0
  0
LINE
  5
1A9
330
70
100
AcDbEntity
  8
0
 62
    18
420
        0
370
    25
100
AcDbLine
 10
169.8403098829335
 20
88.36601951056302
 30
0.0
 11
169.8403098829335
 21
87.76602052986341
 31
0.0
  0
LINE
  5
1AA
330
70
100
AcDbEntity
  8
0
 62
    18
420
        0
370
    25
100
AcDbLine
 10
159.3403095588337
 20
87.76602052986341
 30
0.0
 11
162.0496642984338
 21
87.76602052986341
 31
0.0
  0
LINE
  5
1AB
330
70
100
AcDbEntity
  8
0
 62
    18
420
        0
370
    25
100
AcDbLine
 10
162.7237006299336
 20
87.76602052986341
 30
0.0
 11
162.0496642984338
 21
87.76602052986341
 31
0.0
  0
LINE
  5
1AC
330
70
100
AcDbEntity
  8
0
 62
    18
420
        0
370
    25
100
AcDbLine
 10
162.990301030134
 20
87.76602052986341
 30
0.0
 11
162.7237006299336
 21
87.76602052986341
 31
0.0
  0
LINE
  5
1AD
330
70
100
AcDbEntity
  8
0
 62
    18
420
        0
370
    25
100
AcDbLine
 10
164.0759204723335
 20
87.76602052986341
 30
0.0
 11
162.990301030134
 21
87.76602052986341
 31
0.0
  0
LINE
  5
1AE
330
70
100
AcDbEntity
  8
0
 62
    18
420
        0
370
    25
100
AcDbLine
 10
164.0759204723335
 20
87.76602052986341
 30
0.0
 11
165.9832886629334
 21
87.76602052986341
 31
0.0
  0
LINE
  5
1AF
330
70
100
AcDbEntity
  8
0
 62
    18
420
        0
370
    25
100
AcDbLine
 10
167.4717805557338
 20
87.76602052986341
 30
0.0
 11
165.9832886629334
 21
87.76602052986341
 31
0.0
  0
LINE
  5
1B0
330
70
100
AcDbEntity
  8
0
 62
    18
420
        0
370
    25
100
AcDbLine
 10
167.4717805557338
 20
87.76602052986341
 30
0.0
 11
168.7117555387337
 21
87.76602052986341
 31
0.0
  0
LINE
  5
1B1
330
70
100
AcDbEntity
  8
0
 62
    18
420
        0
370
    25
100
AcDbLine
 10
169.4847365118334
 20
87.76602052986341
 30
0.0
 11
168.7117555387337
 21
87.76602052986341
 31
0.0
  0
LINE
  5
1B2
330
70
100
AcDbEntity
  8
0
 62
    18
420
        0
370
    25
100
AcDbLine
 10
169.4847365118334
 20
87.76602052986341
 30
0.0
 11
169.8403098829335
 21
87.76602052986341
 31
0.0
  0
LINE
  5
1B3
330
70
100
AcDbEntity
  8
0
 62
    18
420
        0
370
    25
100
AcDbLine
 10
138.540309967834
 20
87.76602052986341
 30
0.0
 11
138.540309967834
 21
20.01602106626383
 31
0.0
  0
LINE
  5
1B4
330
70
100
AcDbEntity
  8
0
 62
    18
420
        0
370
    25
100
AcDbLine
 10
148.8403097004336
 20
87.76602052986341
 30
0.0
 11
148.6734069161336
 21
87.76602052986341
 31
0.0
  0
LINE
  5
1B5
330
70
100
AcDbEntity
  8
0
 62
    18
420
        0
370
    25
100
AcDbLine
 10
146.2150654964339
 20
87.76602052986341
 30
0.0
 11
143.9866257109336
 21
87.76602052986341
 31
0.0
  0
LINE
  5
1B6
330
70
100
AcDbEntity
  8
0
 62
    18
420
        0
370
    25
100
AcDbLine
 10
148.8403097004336
 20
87.76602052986341
 30
0.0
 11
148.8403097004336
 21
20.01602106626383
 31
0.0
  0
LINE
  5
1B7
330
70
100
AcDbEntity
  8
0
 62
    18
420
        0
370
    25
100
AcDbLine
 10
148.8403097004336
 20
20.01602106626383
 30
0.0
 11
138.540309967834
 21
20.01602106626383
 31
0.0
  0
LINE
  5
1B8
330
70
100
AcDbEntity
  8
0
 62
    18
420
        0
370
    25
100
AcDbLine
 10
159.3403095588337
 20
87.76602052986341
 30
0.0
 11
159.3403095588337
 21
20.01602106626383
 31
0.0
  0
LINE
  5
1B9
330
70
100
AcDbEntity
  8
0
 62
    18
420
        0
370
    25
100
AcDbLine
 10
159.3403095588337
 20
20.01602106626383
 30
0.0
 11
148.8403097004336
 21
20.01602106626383
 31
0.0
  0
LINE
  5
1BA
330
70
100
AcDbEntity
  8
0
 62
    18
420
        0
370
    25
100
AcDbLine
 10
164.1940550156336
 20
87.76602052986341
 30
0.0
 11
161.9626163713336
 21
87.76602052986341
 31
0.0
  0
LINE
  5
1BB
330
70
100
AcDbEntity
  8
0
 62
    18
420
        0
370
    25
100
AcDbLine
 10
169.6403092913338
 20
87.76602052986341
 30
0.0
 11
169.6403092913338
 21
20.01602106626383
 31
0.0
  0
LINE
  5
1BC
330
70
100
AcDbEntity
  8
0
 62
    18
420
        0
370
    25
100
AcDbLine
 10
169.6403092913338
 20
20.01602106626383
 30
0.0
 11
159.3403095588337
 21
20.01602106626383
 31
0.0
  0
LINE
  5
1BD
330
70
100
AcDbEntity
  8
0
 62
    18
420
        0
370
    25
100
AcDbLine
 10
141.8533326335338
 20
88.96602221666372
 30
0.0
 11
141.9490958772339
 21
99.93940495786345
 31
0.0
  0
SPLINE
  5
1BE
330
70
100
AcDbEntity
  8
0
 62
    18
420
        0
370
    25
100
AcDbSpline
210
0.0
220
0.0
230
1.0
 70
     8
 71
     3
 72
     8
 73
     4
 74
     0
 42
0.0000000001
 43
0.0000000001
 40
0.0
 40
0.0
 40
0.0
 40
0.0
 40
1.0
 40
1.0
 40
1.0
 40
1.0
 10
141.9490958772378
 20
99.93940495788045
 30
0.0
 10
144.4442381942079
 20
99.76212237489542
 30
0.0
 10
146.945948169168
 20
99.69421106794442
 30
0.0
 10
149.447033761497
 20
99.73586627184063
 30
0.0
  0
SPLINE
  5
1BF
330
70
100
AcDbEntity
  8
0
 62
    18
420
        0
370
    25
100
AcDbSpline
210
0.0
220
0.0
230
1.0
 70
     8
 71
     3
 72
     8
 73
     4
 74
     0
 42
0.0000000001
 43
0.0000000001
 40
0.0
 40
0.0
 40
0.0
 40
0.0
 40
1.0
 40
1.0
 40
1.0
 40
1.0
 10
142.1990861394031
 20
100.1871926420931
 30
0.0
 10
144.6109728331107
 20
100.0142434036073
 30
0.0
 10
147.0292404454082
 20
99.9462758298295
 30
0.0
 10
149.4470337614655
 20
99.98348259270269
 30
0.0
  0
LINE
  5
1C0
330
70
100
AcDbEntity
  8
0
 62
    18
420
        0
370
    25
100
AcDbLine
 10
149.4470337614335
 20
99.98348259266354
 30
0.0
 11
149.4470337614335
 21
99.73586627186342
 31
0.0
  0
SPLINE
  5
1C1
330
70
100
AcDbEntity
  8
0
 62
    18
420
        0
370
    25
100
AcDbSpline
210
0.0
220
0.0
230
1.0
 70
     8
 71
     3
 72
     8
 73
     4
 74
     0
 42
0.0000000001
 43
0.0000000001
 40
0.0
 40
0.0
 40
0.0
 40
0.0
 40
1.0
 40
1.0
 40
1.0
 40
1.0
 10
142.1990861394146
 20
100.1871926420225
 30
0.0
 10
142.0618746164048
 20
100.1872011743032
 30
0.0
 10
141.9503015942277
 20
100.0766111835036
 30
0.0
 10
141.9490958773238
 20
99.93940495782013
 30
0.0
  0
SPLINE
  5
1C2
330
70
100
AcDbEntity
  8
0
 62
    18
420
        0
370
    25
100
AcDbSpline
210
0.0
220
0.0
230
1.0
 70
     8
 71
     3
 72
     8
 73
     4
 74
     0
 42
0.0000000001
 43
0.0000000001
 40
0.0
 40
0.0
 40
0.0
 40
0.0
 40
1.0
 40
1.0
 40
1.0
 40
1.0
 10
158.7335854976785
 20
99.73586627186726
 30
0.0
 10
161.2346378487961
 20
99.69992818892581
 30
0.0
 10
163.7361040923692
 20
99.76783287955512
 30
0.0
 10
166.2315233819403
 20
99.93940495790708
 30
0.0
  0
LINE
  5
1C3
330
70
100
AcDbEntity
  8
0
 62
    18
420
        0
370
    25
100
AcDbLine
 10
166.2315233819339
 20
99.93940495786345
 30
0.0
 11
166.3272866256334
 21
88.96602221666372
 31
0.0
  0
SPLINE
  5
1C4
330
70
100
AcDbEntity
  8
0
 62
    18
420
        0
370
    25
100
AcDbSpline
210
0.0
220
0.0
230
1.0
 70
     8
 71
     3
 72
     8
 73
     4
 74
     0
 42
0.0000000001
 43
0.0000000001
 40
0.0
 40
0.0
 40
0.0
 40
0.0
 40
1.0
 40
1.0
 40
1.0
 40
1.0
 10
158.733585497674
 20
99.9834825926921
 30
0.0
 10
161.1422727386173
 20
99.94247695600979
 30
0.0
 10
163.5515902953845
 20
100.0089425988039
 30
0.0
 10
165.9543534017334
 20
100.1826813155271
 30
0.0
  0
SPLINE
  5
1C5
330
70
100
AcDbEntity
  8
0
 62
    18
420
        0
370
    25
100
AcDbSpline
210
0.0
220
0.0
230
1.0
 70
     8
 71
     3
 72
     8
 73
     4
 74
     0
 42
0.0000000001
 43
0.0000000001
 40
0.0
 40
0.0
 40
0.0
 40
0.0
 40
1.0
 40
1.0
 40
1.0
 40
1.0
 10
166.2315233819435
 20
99.93940495782013
 30
0.0
 10
166.2303176650396
 20
100.0766111835036
 30
0.0
 10
166.1187446428625
 20
100.1872011743032
 30
0.0
 10
165.9815331198527
 20
100.1871926420225
 30
0.0
  0
LINE
  5
1C6
330
70
100
AcDbEntity
  8
0
 62
    18
420
        0
370
    25
100
AcDbLine
 10
158.7335854977337
 20
99.98348259266354
 30
0.0
 11
158.7335854977337
 21
99.73586627186342
 31
0.0
  0
LINE
  5
1C7
330
70
100
AcDbEntity
  8
0
 62
    18
420
        0
370
    25
100
AcDbLine
 10
165.9815331198334
 20
100.1871926420633
 30
0.0
 11
165.9812239207339
 21
100.2226872080634
 31
0.0
  0
LINE
  5
1C8
330
70
100
AcDbEntity
  8
0
 62
    18
420
        0
370
    25
100
AcDbLine
 10
149.4470337614335
 20
99.98348259266354
 30
0.0
 11
158.7335854977337
 21
99.98348259266354
 31
0.0
  0
LINE
  5
1C9
330
70
100
AcDbEntity
  8
0
 62
    18
420
        0
370
    25
100
AcDbLine
 10
142.1993953384339
 20
100.2226872080634
 30
0.0
 11
142.1990861393338
 21
100.1871926420633
 31
0.0
  0
LINE
  5
1CA
330
70
100
AcDbEntity
  8
0
 62
    18
420
        0
370
    25
100
AcDbLine
 10
158.7335854977337
 20
99.73586627186342
 30
0.0
 11
149.4470337614335
 21
99.73586627186342
 31
0.0
  0
LINE
  5
1CB
330
70
100
AcDbEntity
  8
0
 62
    18
420
        0
370
    25
100
AcDbLine
 10
166.2316258274337
 20
99.92770382106344
 30
0.0
 11
178.7411124654334
 21
99.82751586376352
 31
0.0
  0
LINE
  5
1CC
330
70
100
AcDbEntity
  8
0
 62
    18
420
        0
370
    25
100
AcDbLine
 10
178.7411124654334
 20
99.82751586376352
 30
0.0
 11
178.7411124654334
 21
96.32534810246342
 31
0.0
  0
LINE
  5
1CD
330
70
100
AcDbEntity
  8
0
 62
    18
420
        0
370
    25
100
AcDbLine
 10
178.7411124654334
 20
96.32534810246342
 30
0.0
 11
166.2639371328336
 21
96.22517504626353
 31
0.0
  0
SPLINE
  5
1CE
330
70
100
AcDbEntity
  8
0
 62
    18
420
        0
370
    25
100
AcDbSpline
210
0.0
220
0.0
230
1.0
 70
     8
 71
     3
 72
     8
 73
     4
 74
     0
 42
0.0000000001
 43
0.0000000001
 40
0.0
 40
0.0
 40
0.0
 40
0.0
 40
1.0
 40
1.0
 40
1.0
 40
1.0
 10
142.1993953384333
 20
100.2226872080416
 30
0.0
 10
142.0621753587574
 20
100.2226881643073
 30
0.0
 10
141.950601942124
 20
100.1120844814206
 30
0.0
 10
141.9494050763425
 20
99.97486972151689
 30
0.0
  0
LINE
  5
1CF
330
70
100
AcDbEntity
  8
0
 62
    18
420
        0
370
    25
100
AcDbLine
 10
141.9490958772339
 20
99.93940495786345
 30
0.0
 11
141.9494050763335
 21
99.97486972146331
 31
0.0
  0
SPLINE
  5
1D0
330
70
100
AcDbEntity
  8
0
 62
    18
420
        0
370
    25
100
AcDbSpline
210
0.0
220
0.0
230
1.0
 70
     8
 71
     3
 72
     8
 73
     4
 74
     0
 42
0.0000000001
 43
0.0000000001
 40
0.0
 40
0.0
 40
0.0
 40
0.0
 40
1.0
 40
1.0
 40
1.0
 40
1.0
 10
166.2312141828254
 20
99.97486972151689
 30
0.0
 10
166.2300173170438
 20
100.1120844814206
 30
0.0
 10
166.1184439004098
 20
100.2226881643076
 30
0.0
 10
165.9812239207339
 20
100.2226872080416
 30
0.0
  0
LINE
  5
1D1
330
70
100
AcDbEntity
  8
0
 62
    18
420
        0
370
    25
100
AcDbLine
 10
166.2312141828337
 20
99.97486972146331
 30
0.0
 11
166.2315233819339
 21
99.93940495786345
 31
0.0
  0
LINE
  5
1D2
330
70
100
AcDbEntity
  8
0
 62
    18
420
        0
370
    25
100
AcDbLine
 10
178.8403094955337
 20
99.72776749066351
 30
0.0
 11
178.8403094955337
 21
96.42534606986345
 31
0.0
  0
SPLINE
  5
1D3
330
70
100
AcDbEntity
  8
0
 62
    18
420
        0
370
    25
100
AcDbSpline
210
0.0
220
0.0
230
1.0
 70
     8
 71
     3
 72
     8
 73
     4
 74
     0
 42
0.0000000001
 43
0.0000000001
 40
0.0
 40
0.0
 40
0.0
 40
0.0
 40
1.0
 40
1.0
 40
1.0
 40
1.0
 10
178.7411124654289
 20
96.32534810238771
 30
0.0
 10
178.7960262737514
 20
96.32578914898539
 30
0.0
 10
178.8403100587125
 20
96.37043049041949
 30
0.0
 10
178.8403094954958
 20
96.4253460698692
 30
0.0
  0
SPLINE
  5
1D4
330
70
100
AcDbEntity
  8
0
 62
    18
420
        0
370
    25
100
AcDbSpline
210
0.0
220
0.0
230
1.0
 70
     8
 71
     3
 72
     8
 73
     4
 74
     0
 42
0.0000000001
 43
0.0000000001
 40
0.0
 40
0.0
 40
0.0
 40
0.0
 40
1.0
 40
1.0
 40
1.0
 40
1.0
 10
178.8403094955228
 20
99.72776749075945
 30
0.0
 10
178.8402443730904
 20
99.78261516208746
 30
0.0
 10
178.795958933353
 20
99.82714674292031
 30
0.0
 10
178.7411124654552
 20
99.82751586379112
 30
0.0
  0
LINE
  5
1D5
330
70
100
AcDbEntity
  8
0
 62
    18
420
        0
370
    25
100
AcDbLine
 10
178.8403094955337
 20
99.77221392926356
 30
0.0
 11
178.8403094955337
 21
99.72776749066351
 31
0.0
  0
LINE
  5
1D6
330
70
100
AcDbEntity
  8
0
 62
     8
420
  8421504
370
    25
100
AcDbLine
 10
148.8403097004336
 20
19.91601937346336
 30
0.0
 11
148.8403097004336
 21
20.01602106626383
 31
0.0
  0
LINE
  5
1D7
330
70
100
AcDbEntity
  8
0
 62
     8
420
  8421504
370
    25
100
AcDbLine
 10
159.3403095588337
 20
19.91601937346336
 30
0.0
 11
159.3403095588337
 21
20.01602106626383
 31
0.0
  0
LINE
  5
1D8
330
70
100
AcDbEntity
  8
0
 62
     8
420
  8421504
370
    25
100
AcDbLine
 10
145.919482337734
 20
19.71601971326353
 30
0.0
 11
145.9351434581337
 21
19.71601971326353
 31
0.0
  0
LINE
  5
1D9
330
70
100
AcDbEntity
  8
0
 62
     8
420
  8421504
370
    25
100
AcDbLine
 10
162.2454758011335
 20
19.71601971326353
 30
0.0
 11
162.2611369215339
 21
19.71601971326353
 31
0.0
  0
LINE
  5
1DA
330
70
100
AcDbEntity
  8
0
 62
     8
420
  8421504
370
    25
100
AcDbLine
 10
145.919482337734
 20
19.61602174576342
 30
0.0
 11
145.9351434581337
 21
19.61602174576342
 31
0.0
  0
LINE
  5
1DB
330
70
100
AcDbEntity
  8
0
 62
     8
420
  8421504
370
    25
100
AcDbLine
 10
162.2454758011335
 20
19.61602174576342
 30
0.0
 11
162.2611369215339
 21
19.61602174576342
 31
0.0
  0
LINE
  5
1DC
330
70
100
AcDbEntity
  8
0
 62
     8
420
  8421504
370
    25
100
AcDbLine
 10
140.1052718259335
 20
19.71601971326353
 30
0.0
 11
140.1134097226337
 21
19.71601971326353
 31
0.0
  0
LINE
  5
1DD
330
70
100
AcDbEntity
  8
0
 62
     8
420
  8421504
370
    25
100
AcDbLine
 10
168.0672095366335
 20
19.71601971326353
 30
0.0
 11
168.0753474332337
 21
19.71601971326353
 31
0.0
  0
LINE
  5
1DE
330
70
100
AcDbEntity
  8
0
 62
     8
420
  8421504
370
    25
100
AcDbLine
 10
140.1052718259335
 20
19.61602174576342
 30
0.0
 11
140.1134097226337
 21
19.61602174576342
 31
0.0
  0
LINE
  5
1DF
330
70
100
AcDbEntity
  8
0
 62
     8
420
  8421504
370
    25
100
AcDbLine
 10
168.0672095366335
 20
19.61602174576342
 30
0.0
 11
168.0753474332337
 21
19.61602174576342
 31
0.0
  0
LINE
  5
1E0
330
70
100
AcDbEntity
  8
0
 62
     8
420
  8421504
370
    25
100
AcDbLine
 10
149.4470337614335
 20
99.73586627186342
 30
0.0
 11
149.3530465498338
 21
88.96602221666372
 31
0.0
  0
LINE
  5
1E1
330
70
100
AcDbEntity
  8
0
 62
     8
420
  8421504
370
    25
100
AcDbLine
 10
158.827572709334
 20
88.96602221666372
 30
0.0
 11
158.7335854977337
 21
99.73586627186342
 31
0.0
  0
LINE
  5
1E2
330
70
100
AcDbEntity
  8
0
 62
     8
420
  8421504
370
    25
100
AcDbLine
 10
165.9543534018335
 20
100.1826813154636
 30
0.0
 11
165.9815331198334
 21
100.1871926420633
 31
0.0
  0
LINE
  5
1E3
330
70
100
AcDbEntity
  8
0
 62
     8
420
  8421504
370
    25
100
AcDbLine
 10
165.9812239207339
 20
100.2226872080634
 30
0.0
 11
165.9812239207339
 21
100.2237787180635
 31
0.0
  0
LINE
  5
1E4
330
70
100
AcDbEntity
  8
0
 62
     8
420
  8421504
370
    25
100
AcDbLine
 10
142.1993953384339
 20
100.2237787180635
 30
0.0
 11
142.1993953384339
 21
100.2226872080634
 31
0.0
  0
LINE
  5
1E5
330
70
100
AcDbEntity
  8
0
 62
     8
420
  8421504
370
    25
100
AcDbLine
 10
178.7411124654334
 20
99.82751586376352
 30
0.0
 11
178.7411124654334
 21
99.87220817146331
 31
0.0
  0
SPLINE
  5
1E6
330
70
100
AcDbEntity
  8
0
 62
    18
420
        0
370
    25
100
AcDbSpline
210
0.0
220
0.0
230
1.0
 70
     8
 71
     3
 72
    11
 73
     7
 74
     0
 42
0.0000000001
 43
0.0000000001
 40
0.0
 40
0.0
 40
0.0
 40
0.0
 40
1.0
 40
1.0
 40
1.0
 40
2.0
 40
2.0
 40
2.0
 40
2.0
 10
62.1390009155239
 20
-55.35639018564214
 30
0.0
 10
62.1942297671131
 20
-55.3563902234241
 30
0.0
 10
62.23900162805786
 20
-55.31161842373562
 30
0.0
 10
62.23900166583948
 20
-55.2563895721461
 30
0.0
 10
62.23900166651777
 20
-55.25539812073646
 30
0.0
 10
62.23898692265807
 20
-55.25440672413884
 30
0.0
 10
62.23895743915111
 20
-55.25341571121242
 30
0.0
  0
SPLINE
  5
1E7
330
70
100
AcDbEntity
  8
0
 62
    18
420
        0
370
    25
100
AcDbSpline
210
0.0
220
0.0
230
1.0
 70
     8
 71
     3
 72
     8
 73
     4
 74
     0
 42
0.0000000001
 43
0.0000000001
 40
0.0
 40
0.0
 40
0.0
 40
0.0
 40
1.0
 40
1.0
 40
1.0
 40
1.0
 10
56.44225718884857
 20
-55.26134499158703
 30
0.0
 10
56.4448985639347
 20
-55.31458193811804
 30
0.0
 10
56.48883211729548
 20
-55.35638994198517
 30
0.0
 10
56.54213455005698
 20
-55.35639018561647
 30
0.0
  0
LINE
  5
1E8
330
70
100
AcDbEntity
  8
0
 62
    18
420
        0
370
    25
100
AcDbLine
 10
62.23899655473359
 20
-55.2573719694364
 30
0.0
 11
62.33930232433358
 21
-42.76393667603672
 31
0.0
  0
LINE
  5
1E9
330
70
100
AcDbEntity
  8
0
 62
    18
420
        0
370
    25
100
AcDbLine
 10
56.34183407263367
 20
-42.76393481333649
 30
0.0
 11
56.44214007503372
 21
-55.25739059593623
 31
0.0
  0
SPLINE
  5
1EA
330
70
100
AcDbEntity
  8
0
 62
    18
420
        0
370
    25
100
AcDbSpline
210
0.0
220
0.0
230
1.0
 70
     8
 71
     3
 72
     8
 73
     4
 74
     0
 42
0.0000000001
 43
0.0000000001
 40
0.0
 40
0.0
 40
0.0
 40
0.0
 40
1.0
 40
1.0
 40
1.0
 40
1.0
 10
54.49056819843388
 20
-17.95682475920694
 30
0.0
 10
50.1829870840476
 20
-17.95682475920694
 30
0.0
 10
46.69100263790387
 20
-21.44880920535067
 30
0.0
 10
46.69100263790387
 20
-25.75639031973631
 30
0.0
  0
LINE
  5
1EB
330
70
100
AcDbEntity
  8
0
 62
    18
420
        0
370
    25
100
AcDbLine
 10
46.69100226333386
 20
-35.4563904627364
 30
0.0
 11
46.69100226333386
 21
-25.75639017663678
 31
0.0
  0
SPLINE
  5
1EC
330
70
100
AcDbEntity
  8
0
 62
    18
420
        0
370
    25
100
AcDbSpline
210
0.0
220
0.0
230
1.0
 70
     8
 71
     3
 72
     8
 73
     4
 74
     0
 42
0.0000000001
 43
0.0000000001
 40
0.0
 40
0.0
 40
0.0
 40
0.0
 40
1.0
 40
1.0
 40
1.0
 40
1.0
 10
46.69100263790387
 20
-35.45639031973633
 30
0.0
 10
46.69100263790387
 20
-39.76397143412262
 30
0.0
 10
50.1829870840476
 20
-43.25595588026634
 30
0.0
 10
54.49056819843388
 20
-43.25595588026634
 30
0.0
  0
SPLINE
  5
1ED
330
70
100
AcDbEntity
  8
0
 62
    18
420
        0
370
    25
100
AcDbSpline
210
0.0
220
0.0
230
1.0
 70
     8
 71
     3
 72
     8
 73
     4
 74
     0
 42
0.0000000001
 43
0.0000000001
 40
0.0
 40
0.0
 40
0.0
 40
0.0
 40
1.0
 40
1.0
 40
1.0
 40
1.0
 10
64.19056819843358
 20
-43.25595588026634
 30
0.0
 10
68.49814931282018
 20
-43.25595588026634
 30
0.0
 10
71.99013375896392
 20
-39.76397143412262
 30
0.0
 10
71.99013375896392
 20
-35.45639031973633
 30
0.0
  0
LINE
  5
1EE
330
70
100
AcDbEntity
  8
0
 62
    18
420
        0
370
    25
100
AcDbLine
 10
71.99013413363402
 20
-25.75639017663678
 30
0.0
 11
71.99013413363402
 21
-35.4563904627364
 31
0.0
  0
SPLINE
  5
1EF
330
70
100
AcDbEntity
  8
0
 62
    18
420
        0
370
    25
100
AcDbSpline
210
0.0
220
0.0
230
1.0
 70
     8
 71
     3
 72
     8
 73
     4
 74
     0
 42
0.0000000001
 43
0.0000000001
 40
0.0
 40
0.0
 40
0.0
 40
0.0
 40
1.0
 40
1.0
 40
1.0
 40
1.0
 10
71.99013375896392
 20
-25.75639031973631
 30
0.0
 10
71.99013375896392
 20
-21.44880920535067
 30
0.0
 10
68.49814931282018
 20
-17.95682475920694
 30
0.0
 10
64.19056819843358
 20
-17.95682475920694
 30
0.0
  0
LINE
  5
1F0
330
70
100
AcDbEntity
  8
0
 62
    18
420
        0
370
    25
100
AcDbLine
 10
54.49056805543381
 20
-17.95682438453684
 30
0.0
 11
64.19056834153375
 21
-17.95682438453684
 31
0.0
  0
LINE
  5
1F1
330
70
100
AcDbEntity
  8
0
 62
    18
420
        0
370
    25
100
AcDbLine
 10
75.04056760543395
 20
-35.85639024893641
 30
0.0
 11
75.04056760543395
 21
-25.35639039053624
 31
0.0
  0
SPLINE
  5
1F2
330
70
100
AcDbEntity
  8
0
 62
    18
420
        0
370
    25
100
AcDbSpline
210
0.0
220
0.0
230
1.0
 70
     8
 71
     3
 72
     8
 73
     4
 74
     0
 42
0.0000000001
 43
0.0000000001
 40
0.0
 40
0.0
 40
0.0
 40
0.0
 40
1.0
 40
1.0
 40
1.0
 40
1.0
 10
64.5905681984336
 20
-46.30639031973623
 30
0.0
 10
70.36194383416532
 20
-46.30639031973623
 30
0.0
 10
75.04056819843381
 20
-41.62776595546838
 30
0.0
 10
75.04056819843381
 20
-35.85639031973634
 30
0.0
  0
SPLINE
  5
1F3
330
70
100
AcDbEntity
  8
0
 62
    18
420
        0
370
    25
100
AcDbSpline
210
0.0
220
0.0
230
1.0
 70
     8
 71
     3
 72
     8
 73
     4
 74
     0
 42
0.0000000001
 43
0.0000000001
 40
0.0
 40
0.0
 40
0.0
 40
0.0
 40
1.0
 40
1.0
 40
1.0
 40
1.0
 10
43.64056819843366
 20
-35.85639031973634
 30
0.0
 10
43.64056819843366
 20
-41.62776595546838
 30
0.0
 10
48.31919256270182
 20
-46.30639031973623
 30
0.0
 10
54.09056819843386
 20
-46.30639031973623
 30
0.0
  0
LINE
  5
1F4
330
70
100
AcDbEntity
  8
0
 62
    18
420
        0
370
    25
100
AcDbLine
 10
43.64056879153362
 20
-25.35639039053624
 30
0.0
 11
43.64056879153362
 21
-35.85639024893641
 31
0.0
  0
SPLINE
  5
1F5
330
70
100
AcDbEntity
  8
0
 62
    18
420
        0
370
    25
100
AcDbSpline
210
0.0
220
0.0
230
1.0
 70
     8
 71
     3
 72
     8
 73
     4
 74
     0
 42
0.0000000001
 43
0.0000000001
 40
0.0
 40
0.0
 40
0.0
 40
0.0
 40
1.0
 40
1.0
 40
1.0
 40
1.0
 10
54.09056819843386
 20
-14.9063903197364
 30
0.0
 10
48.31919256270182
 20
-14.9063903197364
 30
0.0
 10
43.64056819843366
 20
-19.58501468400489
 30
0.0
 10
43.64056819843366
 20
-25.3563903197363
 30
0.0
  0
LINE
  5
1F6
330
70
100
AcDbEntity
  8
0
 62
    18
420
        0
370
    25
100
AcDbLine
 10
64.59056812773376
 20
-14.90639091273626
 30
0.0
 11
54.0905682692338
 21
-14.90639091273626
 31
0.0
  0
SPLINE
  5
1F7
330
70
100
AcDbEntity
  8
0
 62
    18
420
        0
370
    25
100
AcDbSpline
210
0.0
220
0.0
230
1.0
 70
     8
 71
     3
 72
     8
 73
     4
 74
     0
 42
0.0000000001
 43
0.0000000001
 40
0.0
 40
0.0
 40
0.0
 40
0.0
 40
1.0
 40
1.0
 40
1.0
 40
1.0
 10
75.04056819843381
 20
-25.3563903197363
 30
0.0
 10
75.04056819843381
 20
-19.58501468400489
 30
0.0
 10
70.36194383416532
 20
-14.9063903197364
 30
0.0
 10
64.5905681984336
 20
-14.9063903197364
 30
0.0
  0
LINE
  5
1F8
330
70
100
AcDbEntity
  8
0
 62
    18
420
        0
370
    25
100
AcDbLine
 10
54.0905682692338
 20
-14.85639006643646
 30
0.0
 11
54.0905682692338
 21
-14.90639091273626
 31
0.0
  0
LINE
  5
1F9
330
70
100
AcDbEntity
  8
0
 62
    18
420
        0
370
    25
100
AcDbLine
 10
54.0905682692338
 20
-14.85639006643646
 30
0.0
 11
64.59056812773376
 21
-14.85639006643646
 31
0.0
  0
LINE
  5
1FA
330
70
100
AcDbEntity
  8
0
 62
    18
420
        0
370
    25
100
AcDbLine
 10
64.59056812773376
 20
-14.90639091273626
 30
0.0
 11
64.59056812773376
 21
-14.85639006643646
 31
0.0
  0
SPLINE
  5
1FB
330
70
100
AcDbEntity
  8
0
 62
    18
420
        0
370
    25
100
AcDbSpline
210
0.0
220
0.0
230
1.0
 70
     8
 71
     3
 72
     8
 73
     4
 74
     0
 42
0.0000000001
 43
0.0000000001
 40
0.0
 40
0.0
 40
0.0
 40
0.0
 40
1.0
 40
1.0
 40
1.0
 40
1.0
 10
75.09056819843333
 20
-25.3563903197363
 30
0.0
 10
75.09056819843333
 20
-19.55740044651351
 30
0.0
 10
70.38955807165734
 20
-14.85639031973624
 30
0.0
 10
64.5905681984336
 20
-14.85639031973624
 30
0.0
  0
LINE
  5
1FC
330
70
100
AcDbEntity
  8
0
 62
    18
420
        0
370
    25
100
AcDbLine
 10
75.04056760543395
 20
-25.35639039053624
 30
0.0
 11
75.09056845183386
 21
-25.35639039053624
 31
0.0
  0
SPLINE
  5
1FD
330
70
100
AcDbEntity
  8
0
 62
    18
420
        0
370
    25
100
AcDbSpline
210
0.0
220
0.0
230
1.0
 70
     8
 71
     3
 72
     8
 73
     4
 74
     0
 42
0.0000000001
 43
0.0000000001
 40
0.0
 40
0.0
 40
0.0
 40
0.0
 40
1.0
 40
1.0
 40
1.0
 40
1.0
 10
54.09056819843386
 20
-14.85639031973624
 30
0.0
 10
48.29157832521044
 20
-14.85639031973624
 30
0.0
 10
43.59056819843381
 20
-19.55740044651351
 30
0.0
 10
43.59056819843381
 20
-25.3563903197363
 30
0.0
  0
LINE
  5
1FE
330
70
100
AcDbEntity
  8
0
 62
    18
420
        0
370
    25
100
AcDbLine
 10
43.59056794513371
 20
-25.35639039053624
 30
0.0
 11
43.64056879153362
 21
-25.35639039053624
 31
0.0
  0
LINE
  5
1FF
330
70
100
AcDbEntity
  8
0
 62
    18
420
        0
370
    25
100
AcDbLine
 10
64.19056834153375
 20
-17.95682438453684
 30
0.0
 11
64.19056834153375
 21
-18.00682243703624
 31
0.0
  0
LINE
  5
200
330
70
100
AcDbEntity
  8
0
 62
    18
420
        0
370
    25
100
AcDbLine
 10
64.19056834153375
 20
-18.00682243703624
 30
0.0
 11
54.49056805543381
 21
-18.00682243703624
 31
0.0
  0
LINE
  5
201
330
70
100
AcDbEntity
  8
0
 62
    18
420
        0
370
    25
100
AcDbLine
 10
54.49056805543381
 20
-17.95682438453684
 30
0.0
 11
54.49056805543381
 21
-18.00682243703624
 31
0.0
  0
SPLINE
  5
202
330
70
100
AcDbEntity
  8
0
 62
    18
420
        0
370
    25
100
AcDbSpline
210
0.0
220
0.0
230
1.0
 70
     8
 71
     3
 72
     8
 73
     4
 74
     0
 42
0.0000000001
 43
0.0000000001
 40
0.0
 40
0.0
 40
0.0
 40
0.0
 40
1.0
 40
1.0
 40
1.0
 40
1.0
 10
54.49056819843388
 20
-18.00682285535985
 30
0.0
 10
50.21060027007372
 20
-18.00682285535985
 30
0.0
 10
46.7410007340571
 20
-21.47642239137647
 30
0.0
 10
46.7410007340571
 20
-25.75639031973631
 30
0.0
  0
LINE
  5
203
330
70
100
AcDbEntity
  8
0
 62
    18
420
        0
370
    25
100
AcDbLine
 10
46.69100226333386
 20
-25.75639017663678
 30
0.0
 11
46.74100031573381
 21
-25.75639017663678
 31
0.0
  0
SPLINE
  5
204
330
70
100
AcDbEntity
  8
0
 62
    18
420
        0
370
    25
100
AcDbSpline
210
0.0
220
0.0
230
1.0
 70
     8
 71
     3
 72
     8
 73
     4
 74
     0
 42
0.0000000001
 43
0.0000000001
 40
0.0
 40
0.0
 40
0.0
 40
0.0
 40
1.0
 40
1.0
 40
1.0
 40
1.0
 10
71.94013566281036
 20
-25.75639031973631
 30
0.0
 10
71.94013566281036
 20
-21.47642239137647
 30
0.0
 10
68.47053612679374
 20
-18.00682285535985
 30
0.0
 10
64.19056819843358
 20
-18.00682285535985
 30
0.0
  0
LINE
  5
205
330
70
100
AcDbEntity
  8
0
 62
    18
420
        0
370
    25
100
AcDbLine
 10
71.94013608123407
 20
-25.75639017663678
 30
0.0
 11
71.99013413363402
 21
-25.75639017663678
 31
0.0
  0
LINE
  5
206
330
70
100
AcDbEntity
  8
0
 62
    18
420
        0
370
    25
100
AcDbLine
 10
75.09056845183386
 20
-25.35639039053624
 30
0.0
 11
75.09056845183386
 21
-35.85639024893641
 31
0.0
  0
LINE
  5
207
330
70
100
AcDbEntity
  8
0
 62
    18
420
        0
370
    25
100
AcDbLine
 10
75.04056760543395
 20
-35.85639024893641
 30
0.0
 11
75.09056845183386
 21
-35.85639024893641
 31
0.0
  0
LINE
  5
208
330
70
100
AcDbEntity
  8
0
 62
    18
420
        0
370
    25
100
AcDbLine
 10
43.59056794513371
 20
-35.85639024893641
 30
0.0
 11
43.59056794513371
 21
-25.35639039053624
 31
0.0
  0
LINE
  5
209
330
70
100
AcDbEntity
  8
0
 62
    18
420
        0
370
    25
100
AcDbLine
 10
43.59056794513371
 20
-35.85639024893641
 30
0.0
 11
43.64056879153362
 21
-35.85639024893641
 31
0.0
  0
LINE
  5
20A
330
70
100
AcDbEntity
  8
0
 62
    18
420
        0
370
    25
100
AcDbLine
 10
46.74100031573381
 20
-25.75639017663678
 30
0.0
 11
46.74100031573381
 21
-35.4563904627364
 31
0.0
  0
LINE
  5
20B
330
70
100
AcDbEntity
  8
0
 62
    18
420
        0
370
    25
100
AcDbLine
 10
46.69100226333386
 20
-35.4563904627364
 30
0.0
 11
46.74100031573381
 21
-35.4563904627364
 31
0.0
  0
LINE
  5
20C
330
70
100
AcDbEntity
  8
0
 62
    18
420
        0
370
    25
100
AcDbLine
 10
71.94013608123407
 20
-35.4563904627364
 30
0.0
 11
71.94013608123407
 21
-25.75639017663678
 31
0.0
  0
LINE
  5
20D
330
70
100
AcDbEntity
  8
0
 62
    18
420
        0
370
    25
100
AcDbLine
 10
71.94013608123407
 20
-35.4563904627364
 30
0.0
 11
71.99013413363402
 21
-35.4563904627364
 31
0.0
  0
SPLINE
  5
20E
330
70
100
AcDbEntity
  8
0
 62
    18
420
        0
370
    25
100
AcDbSpline
210
0.0
220
0.0
230
1.0
 70
     8
 71
     3
 72
     8
 73
     4
 74
     0
 42
0.0000000001
 43
0.0000000001
 40
0.0
 40
0.0
 40
0.0
 40
0.0
 40
1.0
 40
1.0
 40
1.0
 40
1.0
 10
64.19056819843358
 20
-43.20595778411279
 30
0.0
 10
68.47053612679374
 20
-43.20595778411279
 30
0.0
 10
71.94013566281036
 20
-39.73635824809682
 30
0.0
 10
71.94013566281036
 20
-35.45639031973633
 30
0.0
  0
LINE
  5
20F
330
70
100
AcDbEntity
  8
0
 62
    18
420
        0
370
    25
100
AcDbLine
 10
64.19056834153375
 20
-43.2059582024364
 30
0.0
 11
64.19056834153375
 21
-43.25595625483634
 31
0.0
  0
SPLINE
  5
210
330
70
100
AcDbEntity
  8
0
 62
    18
420
        0
370
    25
100
AcDbSpline
210
0.0
220
0.0
230
1.0
 70
     8
 71
     3
 72
     8
 73
     4
 74
     0
 42
0.0000000001
 43
0.0000000001
 40
0.0
 40
0.0
 40
0.0
 40
0.0
 40
1.0
 40
1.0
 40
1.0
 40
1.0
 10
46.7410007340571
 20
-35.45639031973633
 30
0.0
 10
46.7410007340571
 20
-39.73635824809682
 30
0.0
 10
50.21060027007372
 20
-43.20595778411279
 30
0.0
 10
54.49056819843388
 20
-43.20595778411279
 30
0.0
  0
LINE
  5
211
330
70
100
AcDbEntity
  8
0
 62
    18
420
        0
370
    25
100
AcDbLine
 10
54.49056805543381
 20
-43.2059582024364
 30
0.0
 11
54.49056805543381
 21
-43.25595625483634
 31
0.0
  0
SPLINE
  5
212
330
70
100
AcDbEntity
  8
0
 62
    18
420
        0
370
    25
100
AcDbSpline
210
0.0
220
0.0
230
1.0
 70
     8
 71
     3
 72
     8
 73
     4
 74
     0
 42
0.0000000001
 43
0.0000000001
 40
0.0
 40
0.0
 40
0.0
 40
0.0
 40
1.0
 40
1.0
 40
1.0
 40
1.0
 10
64.5905681984336
 20
-46.35639031973639
 30
0.0
 10
70.38955807165734
 20
-46.35639031973639
 30
0.0
 10
75.09056819843333
 20
-41.65538019295977
 30
0.0
 10
75.09056819843333
 20
-35.85639031973634
 30
0.0
  0
LINE
  5
213
330
70
100
AcDbEntity
  8
0
 62
    18
420
        0
370
    25
100
AcDbLine
 10
64.59056812773376
 20
-46.30638972663627
 30
0.0
 11
64.59056812773376
 21
-46.35639057303682
 31
0.0
  0
SPLINE
  5
214
330
70
100
AcDbEntity
  8
0
 62
    18
420
        0
370
    25
100
AcDbSpline
210
0.0
220
0.0
230
1.0
 70
     8
 71
     3
 72
     8
 73
     4
 74
     0
 42
0.0000000001
 43
0.0000000001
 40
0.0
 40
0.0
 40
0.0
 40
0.0
 40
1.0
 40
1.0
 40
1.0
 40
1.0
 10
43.59056819843381
 20
-35.85639031973634
 30
0.0
 10
43.59056819843381
 20
-41.65538019295977
 30
0.0
 10
48.29157832521044
 20
-46.35639031973639
 30
0.0
 10
54.09056819843386
 20
-46.35639031973639
 30
0.0
  0
LINE
  5
215
330
70
100
AcDbEntity
  8
0
 62
    18
420
        0
370
    25
100
AcDbLine
 10
54.0905682692338
 20
-46.35639057303682
 30
0.0
 11
54.0905682692338
 21
-46.30638972663627
 31
0.0
  0
LINE
  5
216
330
70
100
AcDbEntity
  8
0
 62
    18
420
        0
370
    25
100
AcDbLine
 10
64.59056812773376
 20
-46.35639057303682
 30
0.0
 11
62.31045972983365
 21
-46.35639057303682
 31
0.0
  0
LINE
  5
217
330
70
100
AcDbEntity
  8
0
 62
    18
420
        0
370
    25
100
AcDbLine
 10
56.37067666703381
 20
-46.35639057303682
 30
0.0
 11
54.0905682692338
 21
-46.35639057303682
 31
0.0
  0
LINE
  5
218
330
70
100
AcDbEntity
  8
0
 62
    18
420
        0
370
    25
100
AcDbLine
 10
54.49056805543381
 20
-18.06969788663644
 30
0.0
 11
54.49056805543381
 21
-18.00682243703624
 31
0.0
  0
SPLINE
  5
219
330
70
100
AcDbEntity
  8
0
 62
    18
420
        0
370
    25
100
AcDbSpline
210
0.0
220
0.0
230
1.0
 70
     8
 71
     3
 72
     8
 73
     4
 74
     0
 42
0.0000000001
 43
0.0000000001
 40
0.0
 40
0.0
 40
0.0
 40
0.0
 40
1.0
 40
1.0
 40
1.0
 40
1.0
 10
54.49056819843388
 20
-18.06969818888054
 30
0.0
 10
50.24532535791748
 20
-18.06969818888054
 30
0.0
 10
46.80387606757747
 20
-21.51114747922055
 30
0.0
 10
46.80387606757747
 20
-25.75639031973631
 30
0.0
  0
LINE
  5
21A
330
70
100
AcDbEntity
  8
0
 62
    18
420
        0
370
    25
100
AcDbLine
 10
46.8038757654338
 20
-25.75639017663678
 30
0.0
 11
46.74100031573381
 21
-25.75639017663678
 31
0.0
  0
LINE
  5
21B
330
70
100
AcDbEntity
  8
0
 62
    18
420
        0
370
    25
100
AcDbLine
 10
64.19056834153375
 20
-18.06969788663644
 30
0.0
 11
64.19056834153375
 21
-18.00682243703624
 31
0.0
  0
LINE
  5
21C
330
70
100
AcDbEntity
  8
0
 62
    18
420
        0
370
    25
100
AcDbLine
 10
54.49056805543381
 20
-18.06969788663644
 30
0.0
 11
64.19056834153375
 21
-18.06969788663644
 31
0.0
  0
LINE
  5
21D
330
70
100
AcDbEntity
  8
0
 62
    18
420
        0
370
    25
100
AcDbLine
 10
71.87726063153377
 20
-25.75639017663678
 30
0.0
 11
71.94013608123407
 21
-25.75639017663678
 31
0.0
  0
SPLINE
  5
21E
330
70
100
AcDbEntity
  8
0
 62
    18
420
        0
370
    25
100
AcDbSpline
210
0.0
220
0.0
230
1.0
 70
     8
 71
     3
 72
     8
 73
     4
 74
     0
 42
0.0000000001
 43
0.0000000001
 40
0.0
 40
0.0
 40
0.0
 40
0.0
 40
1.0
 40
1.0
 40
1.0
 40
1.0
 10
71.87726032929031
 20
-25.75639031973631
 30
0.0
 10
71.87726032929031
 20
-21.51114747922055
 30
0.0
 10
68.4358110389503
 20
-18.06969818888054
 30
0.0
 10
64.19056819843358
 20
-18.06969818888054
 30
0.0
  0
LINE
  5
21F
330
70
100
AcDbEntity
  8
0
 62
    18
420
        0
370
    25
100
AcDbLine
 10
71.87726063153377
 20
-35.4563904627364
 30
0.0
 11
71.94013608123407
 21
-35.4563904627364
 31
0.0
  0
LINE
  5
220
330
70
100
AcDbEntity
  8
0
 62
    18
420
        0
370
    25
100
AcDbLine
 10
71.87726063153377
 20
-25.75639017663678
 30
0.0
 11
71.87726063153377
 21
-35.4563904627364
 31
0.0
  0
LINE
  5
221
330
70
100
AcDbEntity
  8
0
 62
    18
420
        0
370
    25
100
AcDbLine
 10
46.8038757654338
 20
-35.4563904627364
 30
0.0
 11
46.8038757654338
 21
-25.75639017663678
 31
0.0
  0
LINE
  5
222
330
70
100
AcDbEntity
  8
0
 62
    18
420
        0
370
    25
100
AcDbLine
 10
46.8038757654338
 20
-35.4563904627364
 30
0.0
 11
46.74100031573381
 21
-35.4563904627364
 31
0.0
  0
LINE
  5
223
330
70
100
AcDbEntity
  8
0
 62
    18
420
        0
370
    25
100
AcDbLine
 10
64.19056834153375
 20
-43.14308275273673
 30
0.0
 11
64.19056834153375
 21
-43.2059582024364
 31
0.0
  0
SPLINE
  5
224
330
70
100
AcDbEntity
  8
0
 62
    18
420
        0
370
    25
100
AcDbSpline
210
0.0
220
0.0
230
1.0
 70
     8
 71
     3
 72
     8
 73
     4
 74
     0
 42
0.0000000001
 43
0.0000000001
 40
0.0
 40
0.0
 40
0.0
 40
0.0
 40
1.0
 40
1.0
 40
1.0
 40
1.0
 10
64.19056819843358
 20
-43.14308245059273
 30
0.0
 10
68.4358110389503
 20
-43.14308245059273
 30
0.0
 10
71.87726032929031
 20
-39.70163316025273
 30
0.0
 10
71.87726032929031
 20
-35.45639031973633
 30
0.0
  0
SPLINE
  5
225
330
70
100
AcDbEntity
  8
0
 62
    18
420
        0
370
    25
100
AcDbSpline
210
0.0
220
0.0
230
1.0
 70
     8
 71
     3
 72
     8
 73
     4
 74
     0
 42
0.0000000001
 43
0.0000000001
 40
0.0
 40
0.0
 40
0.0
 40
0.0
 40
1.0
 40
1.0
 40
1.0
 40
1.0
 10
46.80387606757747
 20
-35.45639031973633
 30
0.0
 10
46.80387606757747
 20
-39.70163316025273
 30
0.0
 10
50.24532535791748
 20
-43.14308245059273
 30
0.0
 10
54.49056819843388
 20
-43.14308245059273
 30
0.0
  0
LINE
  5
226
330
70
100
AcDbEntity
  8
0
 62
    18
420
        0
370
    25
100
AcDbLine
 10
54.49056805543381
 20
-43.14308275273673
 30
0.0
 11
54.49056805543381
 21
-43.2059582024364
 31
0.0
  0
SPLINE
  5
227
330
70
100
AcDbEntity
  8
0
 62
    18
420
        0
370
    25
100
AcDbSpline
210
0.0
220
0.0
230
1.0
 70
     8
 71
     3
 72
    11
 73
     7
 74
     0
 42
0.0000000001
 43
0.0000000001
 40
0.0
 40
0.0
 40
0.0
 40
0.0
 40
1.0
 40
1.0
 40
1.0
 40
2.0
 40
2.0
 40
2.0
 40
2.0
 10
71.48355891423509
 20
-25.96311445155924
 30
0.0
 10
71.48258471250226
 20
-21.8211434979327
 30
0.0
 10
68.12406408118376
 20
-18.46420235970207
 30
0.0
 10
63.98209312755658
 20
-18.46517656143491
 30
0.0
 10
63.98208476305548
 20
-18.46517656340236
 30
0.0
 10
63.98207639892978
 20
-18.46517656538393
 30
0.0
 10
63.98206803442836
 20
-18.46517656737897
 30
0.0
  0
LINE
  5
228
330
70
100
AcDbEntity
  8
0
 62
    18
420
        0
370
    25
100
AcDbLine
 10
71.48355891423381
 20
-25.96311445153678
 30
0.0
 11
71.24365766963352
 21
-25.96311445153678
 31
0.0
  0
SPLINE
  5
229
330
70
100
AcDbEntity
  8
0
 62
    18
420
        0
370
    25
100
AcDbSpline
210
0.0
220
0.0
230
1.0
 70
     8
 71
     3
 72
     8
 73
     4
 74
     0
 42
0.0000000001
 43
0.0000000001
 40
0.0
 40
0.0
 40
0.0
 40
0.0
 40
1.0
 40
1.0
 40
1.0
 40
1.0
 10
71.24365766965791
 20
-25.96311445160608
 30
0.0
 10
71.24061900387193
 20
-21.95765266311703
 30
0.0
 10
67.99146793514963
 20
-18.7128461125115
 30
0.0
 10
63.98600566634565
 20
-18.71516682951664
 30
0.0
  0
SPLINE
  5
22A
330
70
100
AcDbEntity
  8
0
 62
    18
420
        0
370
    25
100
AcDbSpline
210
0.0
220
0.0
230
1.0
 70
     8
 71
     3
 72
     8
 73
     4
 74
     0
 42
0.0000000001
 43
0.0000000001
 40
0.0
 40
0.0
 40
0.0
 40
0.0
 40
1.0
 40
1.0
 40
1.0
 40
1.0
 10
63.98600566627025
 20
-18.71516682952306
 30
0.0
 10
63.9872641385423
 20
-18.63181607696658
 30
0.0
 10
63.98595097001916
 20
-18.54844633694492
 30
0.0
 10
63.98206803442484
 20
-18.46517656742838
 30
0.0
  0
SPLINE
  5
22B
330
70
100
AcDbEntity
  8
0
 62
    18
420
        0
370
    25
100
AcDbSpline
210
0.0
220
0.0
230
1.0
 70
     8
 71
     3
 72
    11
 73
     7
 74
     0
 42
0.0000000001
 43
0.0000000001
 40
0.0
 40
0.0
 40
0.0
 40
0.0
 40
1.0
 40
1.0
 40
1.0
 40
2.0
 40
2.0
 40
2.0
 40
2.0
 10
71.59056787811019
 20
-25.85610455639466
 30
0.0
 10
71.59062022396753
 20
-21.7141792781665
 30
0.0
 10
68.23296880112064
 20
-18.35644298591671
 30
0.0
 10
64.09104352289185
 20
-18.35639064006002
 30
0.0
 10
64.09098033584142
 20
-18.35639063926174
 30
0.0
 10
64.09091714882598
 20
-18.35639063926174
 30
0.0
 10
64.09085396177555
 20
-18.35639064006002
 30
0.0
  0
LINE
  5
22C
330
70
100
AcDbEntity
  8
0
 62
    18
420
        0
370
    25
100
AcDbLine
 10
71.5905678781333
 20
-25.85610455643637
 30
0.0
 11
71.48355891423381
 21
-25.96311445153678
 31
0.0
  0
LINE
  5
22D
330
70
100
AcDbEntity
  8
0
 62
    18
420
        0
370
    25
100
AcDbLine
 10
63.98206803443382
 20
-18.46517656733662
 30
0.0
 11
64.09085396173384
 21
-18.35639064003627
 31
0.0
  0
SPLINE
  5
22E
330
70
100
AcDbEntity
  8
0
 62
    18
420
        0
370
    25
100
AcDbSpline
210
0.0
220
0.0
230
1.0
 70
     8
 71
     3
 72
    11
 73
     7
 74
     0
 42
0.0000000001
 43
0.0000000001
 40
0.0
 40
0.0
 40
0.0
 40
0.0
 40
1.0
 40
1.0
 40
1.0
 40
2.0
 40
2.0
 40
2.0
 40
2.0
 10
54.69513073059368
 20
-18.71516682949932
 30
0.0
 10
50.68968274467558
 20
-18.71232451201748
 30
0.0
 10
47.44032143877801
 20
-21.95707751075843
 30
0.0
 10
47.43747912129618
 20
-25.96252549667654
 30
0.0
 10
47.43747898198621
 20
-25.9627218149819
 30
0.0
 10
47.43747885064742
 20
-25.96291813327506
 30
0.0
 10
47.43747872727982
 20
-25.96311445159068
 30
0.0
  0
LINE
  5
22F
330
70
100
AcDbEntity
  8
0
 62
    18
420
        0
370
    25
100
AcDbLine
 10
47.43747872733372
 20
-25.96311445153678
 30
0.0
 11
47.19757748263365
 21
-25.96311445153678
 31
0.0
  0
SPLINE
  5
230
330
70
100
AcDbEntity
  8
0
 62
    18
420
        0
370
    25
100
AcDbSpline
210
0.0
220
0.0
230
1.0
 70
     8
 71
     3
 72
     8
 73
     4
 74
     0
 42
0.0000000001
 43
0.0000000001
 40
0.0
 40
0.0
 40
0.0
 40
0.0
 40
1.0
 40
1.0
 40
1.0
 40
1.0
 10
54.69906836252413
 20
-18.46517656739565
 30
0.0
 10
50.55725239353865
 20
-18.4645865614773
 30
0.0
 10
47.19894966534616
 20
-21.82129866787238
 30
0.0
 10
47.19757748271386
 20
-25.96311445157978
 30
0.0
  0
SPLINE
  5
231
330
70
100
AcDbEntity
  8
0
 62
    18
420
        0
370
    25
100
AcDbSpline
210
0.0
220
0.0
230
1.0
 70
     8
 71
     3
 72
     8
 73
     4
 74
     0
 42
0.0000000001
 43
0.0000000001
 40
0.0
 40
0.0
 40
0.0
 40
0.0
 40
1.0
 40
1.0
 40
1.0
 40
1.0
 10
54.69906836244263
 20
-18.46517656742838
 30
0.0
 10
54.6951854268483
 20
-18.54844633694492
 30
0.0
 10
54.69387225832516
 20
-18.63181607696658
 30
0.0
 10
54.69513073059721
 20
-18.71516682952306
 30
0.0
  0
SPLINE
  5
232
330
70
100
AcDbEntity
  8
0
 62
    18
420
        0
370
    25
100
AcDbSpline
210
0.0
220
0.0
230
1.0
 70
     8
 71
     3
 72
    11
 73
     7
 74
     0
 42
0.0000000001
 43
0.0000000001
 40
0.0
 40
0.0
 40
0.0
 40
0.0
 40
1.0
 40
1.0
 40
1.0
 40
2.0
 40
2.0
 40
2.0
 40
2.0
 10
54.59028243519202
 20
-18.35639064006002
 30
0.0
 10
50.44835715696354
 20
-18.35633829420332
 30
0.0
 10
47.09062086471407
 20
-21.71398971704957
 30
0.0
 10
47.09056851885737
 20
-25.85591499527837
 30
0.0
 10
47.09056851805878
 20
-25.85597818232911
 30
0.0
 10
47.09056851805878
 20
-25.85604136934456
 30
0.0
 10
47.09056851885737
 20
-25.85610455639466
 30
0.0
  0
LINE
  5
233
330
70
100
AcDbEntity
  8
0
 62
    18
420
        0
370
    25
100
AcDbLine
 10
54.59028243513362
 20
-18.35639064003627
 30
0.0
 11
54.69906836243364
 21
-18.46517656733662
 31
0.0
  0
LINE
  5
234
330
70
100
AcDbEntity
  8
0
 62
    18
420
        0
370
    25
100
AcDbLine
 10
47.19757748263365
 20
-25.96311445153678
 30
0.0
 11
47.09056851883363
 21
-25.85610455643637
 31
0.0
  0
SPLINE
  5
235
330
70
100
AcDbEntity
  8
0
 62
    18
420
        0
370
    25
100
AcDbSpline
210
0.0
220
0.0
230
1.0
 70
     8
 71
     3
 72
    11
 73
     7
 74
     0
 42
0.0000000001
 43
0.0000000001
 40
0.0
 40
0.0
 40
0.0
 40
0.0
 40
1.0
 40
1.0
 40
1.0
 40
2.0
 40
2.0
 40
2.0
 40
2.0
 10
47.09056851885737
 20
-35.35667608297852
 30
0.0
 10
47.09051617300036
 20
-39.49860136120668
 30
0.0
 10
50.44816759584692
 20
-42.85633765345582
 30
0.0
 10
54.5900928740754
 20
-42.85638999931316
 30
0.0
 10
54.59015606112615
 20
-42.85639000011143
 30
0.0
 10
54.59021924814127
 20
-42.85639000011143
 30
0.0
 10
54.59028243519202
 20
-42.85638999931316
 30
0.0
  0
LINE
  5
236
330
70
100
AcDbEntity
  8
0
 62
    18
420
        0
370
    25
100
AcDbLine
 10
47.09056851883363
 20
-35.35667608303627
 30
0.0
 11
47.19757748263365
 21
-35.2496661878364
 31
0.0
  0
SPLINE
  5
237
330
70
100
AcDbEntity
  8
0
 62
    18
420
        0
370
    25
100
AcDbSpline
210
0.0
220
0.0
230
1.0
 70
     8
 71
     3
 72
    11
 73
     7
 74
     0
 42
0.0000000001
 43
0.0000000001
 40
0.0
 40
0.0
 40
0.0
 40
0.0
 40
1.0
 40
1.0
 40
1.0
 40
2.0
 40
2.0
 40
2.0
 40
2.0
 10
47.19757748263237
 20
-35.24966618781394
 30
0.0
 10
47.19855168436521
 20
-39.39163714144048
 30
0.0
 10
50.55707231568369
 20
-42.74857827967109
 30
0.0
 10
54.69904326931088
 20
-42.74760407793762
 30
0.0
 10
54.69905163381198
 20
-42.74760407597081
 30
0.0
 10
54.69905999793768
 20
-42.74760407398924
 30
0.0
 10
54.6990683624391
 20
-42.7476040719942
 30
0.0
  0
LINE
  5
238
330
70
100
AcDbEntity
  8
0
 62
    18
420
        0
370
    25
100
AcDbLine
 10
54.69906836243364
 20
-42.74760407203656
 30
0.0
 11
54.59028243513362
 21
-42.85638999933626
 31
0.0
  0
SPLINE
  5
239
330
70
100
AcDbEntity
  8
0
 62
    18
420
        0
370
    25
100
AcDbSpline
210
0.0
220
0.0
230
1.0
 70
     8
 71
     3
 72
     8
 73
     4
 74
     0
 42
0.0000000001
 43
0.0000000001
 40
0.0
 40
0.0
 40
0.0
 40
0.0
 40
1.0
 40
1.0
 40
1.0
 40
1.0
 10
47.43747872730998
 20
-35.24966618786656
 30
0.0
 10
47.44051739309532
 20
-39.25512797636074
 30
0.0
 10
50.68966846182595
 20
-42.49993452696819
 30
0.0
 10
54.69513073063443
 20
-42.49761380995663
 30
0.0
  0
SPLINE
  5
23A
330
70
100
AcDbEntity
  8
0
 62
    18
420
        0
370
    25
100
AcDbSpline
210
0.0
220
0.0
230
1.0
 70
     8
 71
     3
 72
     8
 73
     4
 74
     0
 42
0.0000000001
 43
0.0000000001
 40
0.0
 40
0.0
 40
0.0
 40
0.0
 40
1.0
 40
1.0
 40
1.0
 40
1.0
 10
54.69513073059721
 20
-42.49761380994957
 30
0.0
 10
54.69387225832516
 20
-42.58096456250606
 30
0.0
 10
54.6951854268483
 20
-42.66433430252771
 30
0.0
 10
54.69906836244263
 20
-42.7476040720449
 30
0.0
  0
LINE
  5
23B
330
70
100
AcDbEntity
  8
0
 62
    18
420
        0
370
    25
100
AcDbLine
 10
47.43747872733372
 20
-35.2496661878364
 30
0.0
 11
47.19757748263365
 21
-35.2496661878364
 31
0.0
  0
SPLINE
  5
23C
330
70
100
AcDbEntity
  8
0
 62
    18
420
        0
370
    25
100
AcDbSpline
210
0.0
220
0.0
230
1.0
 70
     8
 71
     3
 72
     8
 73
     4
 74
     0
 42
0.0000000001
 43
0.0000000001
 40
0.0
 40
0.0
 40
0.0
 40
0.0
 40
1.0
 40
1.0
 40
1.0
 40
1.0
 10
63.9820680344566
 20
-42.74760407207763
 30
0.0
 10
68.12388400343663
 20
-42.74819407798891
 30
0.0
 10
71.48218673162173
 20
-39.39148197159513
 30
0.0
 10
71.48355891425371
 20
-35.24966618789351
 30
0.0
  0
SPLINE
  5
23D
330
70
100
AcDbEntity
  8
0
 62
    18
420
        0
370
    25
100
AcDbSpline
210
0.0
220
0.0
230
1.0
 70
     8
 71
     3
 72
     8
 73
     4
 74
     0
 42
0.0000000001
 43
0.0000000001
 40
0.0
 40
0.0
 40
0.0
 40
0.0
 40
1.0
 40
1.0
 40
1.0
 40
1.0
 10
63.98206803442484
 20
-42.7476040720449
 30
0.0
 10
63.98595097001916
 20
-42.66433430252771
 30
0.0
 10
63.9872641385423
 20
-42.58096456250606
 30
0.0
 10
63.98600566627025
 20
-42.49761380994957
 30
0.0
  0
SPLINE
  5
23E
330
70
100
AcDbEntity
  8
0
 62
    18
420
        0
370
    25
100
AcDbSpline
210
0.0
220
0.0
230
1.0
 70
     8
 71
     3
 72
    11
 73
     7
 74
     0
 42
0.0000000001
 43
0.0000000001
 40
0.0
 40
0.0
 40
0.0
 40
0.0
 40
1.0
 40
1.0
 40
1.0
 40
2.0
 40
2.0
 40
2.0
 40
2.0
 10
63.98600566627377
 20
-42.49761380997396
 30
0.0
 10
67.99145365219188
 20
-42.50045612745579
 30
0.0
 10
71.24081495808944
 20
-39.2557031287142
 30
0.0
 10
71.24365727557128
 20
-35.25025514279675
 30
0.0
 10
71.24365741488157
 20
-35.25005882449139
 30
0.0
 10
71.24365754622004
 20
-35.24986250619822
 30
0.0
 10
71.24365766958732
 20
-35.2496661878826
 30
0.0
  0
LINE
  5
23F
330
70
100
AcDbEntity
  8
0
 62
    18
420
        0
370
    25
100
AcDbLine
 10
71.48355891423381
 20
-35.2496661878364
 30
0.0
 11
71.24365766963352
 21
-35.2496661878364
 31
0.0
  0
SPLINE
  5
240
330
70
100
AcDbEntity
  8
0
 62
    18
420
        0
370
    25
100
AcDbSpline
210
0.0
220
0.0
230
1.0
 70
     8
 71
     3
 72
    11
 73
     7
 74
     0
 42
0.0000000001
 43
0.0000000001
 40
0.0
 40
0.0
 40
0.0
 40
0.0
 40
1.0
 40
1.0
 40
1.0
 40
2.0
 40
2.0
 40
2.0
 40
2.0
 10
64.09085396177555
 20
-42.85638999931316
 30
0.0
 10
68.23277924000435
 20
-42.85644234516985
 30
0.0
 10
71.59051553225286
 20
-39.49879092232296
 30
0.0
 10
71.59056787811019
 20
-35.35686564409481
 30
0.0
 10
71.59056787890847
 20
-35.35680245704407
 30
0.0
 10
71.59056787890847
 20
-35.35673927002862
 30
0.0
 10
71.59056787811019
 20
-35.35667608297852
 30
0.0
  0
LINE
  5
241
330
70
100
AcDbEntity
  8
0
 62
    18
420
        0
370
    25
100
AcDbLine
 10
64.09085396173384
 20
-42.85638999933626
 30
0.0
 11
63.98206803443382
 21
-42.74760407203656
 31
0.0
  0
LINE
  5
242
330
70
100
AcDbEntity
  8
0
 62
    18
420
        0
370
    25
100
AcDbLine
 10
71.48355891423381
 20
-35.2496661878364
 30
0.0
 11
71.5905678781333
 21
-35.35667608303627
 31
0.0
  0
LINE
  5
243
330
70
100
AcDbEntity
  8
0
 62
    18
420
        0
370
    25
100
AcDbLine
 10
58.53807978293389
 20
-18.71547602853661
 30
0.0
 11
54.69513073063379
 21
-18.71516682943643
 31
0.0
  0
LINE
  5
244
330
70
100
AcDbEntity
  8
0
 62
    18
420
        0
370
    25
100
AcDbLine
 10
54.69906836243364
 20
-18.46517656733662
 30
0.0
 11
58.5387570873337
 21
-18.4654857664368
 31
0.0
  0
SPLINE
  5
245
330
70
100
AcDbEntity
  8
0
 62
    18
420
        0
370
    25
100
AcDbSpline
210
0.0
220
0.0
230
1.0
 70
     8
 71
     3
 72
     8
 73
     4
 74
     0
 42
0.0000000001
 43
0.0000000001
 40
0.0
 40
0.0
 40
0.0
 40
0.0
 40
1.0
 40
1.0
 40
1.0
 40
1.0
 10
58.53875708728268
 20
-18.4654857664445
 30
0.0
 10
58.53808787782289
 20
-18.54881406242738
 30
0.0
 10
58.53786210651214
 20
-18.63214532968344
 30
0.0
 10
58.53807978294031
 20
-18.71547602852635
 30
0.0
  0
LINE
  5
246
330
70
100
AcDbEntity
  8
0
 62
    18
420
        0
370
    25
100
AcDbLine
 10
60.14305661393358
 20
-18.71547602853661
 30
0.0
 11
58.53807978293389
 21
-18.71547602853661
 31
0.0
  0
LINE
  5
247
330
70
100
AcDbEntity
  8
0
 62
    18
420
        0
370
    25
100
AcDbLine
 10
58.5387570873337
 20
-18.4654857664368
 30
0.0
 11
59.34056819843357
 21
-18.46547645323661
 31
0.0
  0
LINE
  5
248
330
70
100
AcDbEntity
  8
0
 62
    18
420
        0
370
    25
100
AcDbLine
 10
59.34056819843357
 20
-18.46547645323661
 30
0.0
 11
60.14237930963386
 21
-18.4654857664368
 31
0.0
  0
SPLINE
  5
249
330
70
100
AcDbEntity
  8
0
 62
    18
420
        0
370
    25
100
AcDbSpline
210
0.0
220
0.0
230
1.0
 70
     8
 71
     3
 72
     8
 73
     4
 74
     0
 42
0.0000000001
 43
0.0000000001
 40
0.0
 40
0.0
 40
0.0
 40
0.0
 40
1.0
 40
1.0
 40
1.0
 40
1.0
 10
60.14305661394064
 20
-18.71547602861169
 30
0.0
 10
60.14327610101215
 20
-18.63214532968537
 30
0.0
 10
60.14305032967509
 20
-18.54881405276788
 30
0.0
 10
60.14237930959794
 20
-18.46548576651316
 30
0.0
  0
LINE
  5
24A
330
70
100
AcDbEntity
  8
0
 62
    18
420
        0
370
    25
100
AcDbLine
 10
63.98600566633377
 20
-18.71516682943643
 30
0.0
 11
60.14305661393358
 21
-18.71547602853661
 31
0.0
  0
LINE
  5
24B
330
70
100
AcDbEntity
  8
0
 62
    18
420
        0
370
    25
100
AcDbLine
 10
71.24365766963352
 20
-35.2496661878364
 30
0.0
 11
71.24365766963352
 21
-25.96311445153678
 31
0.0
  0
LINE
  5
24C
330
70
100
AcDbEntity
  8
0
 62
    18
420
        0
370
    25
100
AcDbLine
 10
60.14305661393358
 20
-42.49730461083656
 30
0.0
 11
63.98600566633377
 21
-42.49761380993674
 31
0.0
  0
LINE
  5
24D
330
70
100
AcDbEntity
  8
0
 62
    18
420
        0
370
    25
100
AcDbLine
 10
58.53807978293389
 20
-42.49730461083656
 30
0.0
 11
60.14305661393358
 21
-42.49730461083656
 31
0.0
  0
LINE
  5
24E
330
70
100
AcDbEntity
  8
0
 62
    18
420
        0
370
    25
100
AcDbLine
 10
54.69513073063379
 20
-42.49761380993674
 30
0.0
 11
58.53807978293389
 21
-42.49730461083656
 31
0.0
  0
LINE
  5
24F
330
70
100
AcDbEntity
  8
0
 62
    18
420
        0
370
    25
100
AcDbLine
 10
47.43747872733372
 20
-25.96311445153678
 30
0.0
 11
47.43747872733372
 21
-35.2496661878364
 31
0.0
  0
SPLINE
  5
250
330
70
100
AcDbEntity
  8
0
 62
    18
420
        0
370
    25
100
AcDbSpline
210
0.0
220
0.0
230
1.0
 70
     8
 71
     3
 72
     8
 73
     4
 74
     0
 42
0.0000000001
 43
0.0000000001
 40
0.0
 40
0.0
 40
0.0
 40
0.0
 40
1.0
 40
1.0
 40
1.0
 40
1.0
 10
60.14237930959826
 20
-42.74729487296012
 30
0.0
 10
60.14305032967509
 20
-42.66396658670539
 30
0.0
 10
60.14327610101215
 20
-42.5806353097879
 30
0.0
 10
60.14305661394064
 20
-42.49730461086158
 30
0.0
  0
LINE
  5
251
330
70
100
AcDbEntity
  8
0
 62
    18
420
        0
370
    25
100
AcDbLine
 10
60.14237930963386
 20
-42.74729487293637
 30
0.0
 11
59.34056819843357
 21
-42.74730418613656
 31
0.0
  0
LINE
  5
252
330
70
100
AcDbEntity
  8
0
 62
    18
420
        0
370
    25
100
AcDbLine
 10
59.34056819843357
 20
-42.74730418613656
 30
0.0
 11
58.5387570873337
 21
-42.74729487293637
 31
0.0
  0
SPLINE
  5
253
330
70
100
AcDbEntity
  8
0
 62
    18
420
        0
370
    25
100
AcDbSpline
210
0.0
220
0.0
230
1.0
 70
     8
 71
     3
 72
     8
 73
     4
 74
     0
 42
0.0000000001
 43
0.0000000001
 40
0.0
 40
0.0
 40
0.0
 40
0.0
 40
1.0
 40
1.0
 40
1.0
 40
1.0
 10
58.53807978292715
 20
-42.49730461086158
 30
0.0
 10
58.53786029585531
 20
-42.5806353097879
 30
0.0
 10
58.53808606719237
 20
-42.66396658670475
 30
0.0
 10
58.53875708726953
 20
-42.74729487296012
 30
0.0
  0
LINE
  5
254
330
70
100
AcDbEntity
  8
0
 62
    18
420
        0
370
    25
100
AcDbLine
 10
63.98206803443382
 20
-42.74760407203656
 30
0.0
 11
60.14237930963386
 21
-42.74729487293637
 31
0.0
  0
LINE
  5
255
330
70
100
AcDbEntity
  8
0
 62
    18
420
        0
370
    25
100
AcDbLine
 10
58.5387570873337
 20
-42.74729487293637
 30
0.0
 11
54.69906836243364
 21
-42.74760407203656
 31
0.0
  0
LINE
  5
256
330
70
100
AcDbEntity
  8
0
 62
    18
420
        0
370
    25
100
AcDbLine
 10
60.14237930963386
 20
-18.4654857664368
 30
0.0
 11
63.98206803443382
 21
-18.46517656733662
 31
0.0
  0
LINE
  5
257
330
70
100
AcDbEntity
  8
0
 62
    18
420
        0
370
    25
100
AcDbLine
 10
71.48355891423381
 20
-25.96311445153678
 30
0.0
 11
71.48355891423381
 21
-35.2496661878364
 31
0.0
  0
LINE
  5
258
330
70
100
AcDbEntity
  8
0
 62
    18
420
        0
370
    25
100
AcDbLine
 10
47.19757748263365
 20
-35.2496661878364
 30
0.0
 11
47.19757748263365
 21
-25.96311445153678
 31
0.0
  0
LWPOLYLINE
  5
259
330
70
100
AcDbEntity
  8
0
 62
    18
420
        0
370
    25
100
AcDbPolyline
 90
        4
 70
     0
 43
0.0
 10
58.06501925423359
 20
-42.74770651753637
 10
58.91507258373361
 20
-42.74735820283638
 10
59.76606413333366
 20
-42.74735820283638
 10
60.61611749193375
 20
-42.74770651753637
  0
LINE
  5
25A
330
70
100
AcDbEntity
  8
0
 62
    18
420
        0
370
    25
100
AcDbLine
 10
60.60905294453384
 20
-55.25719315553669
 30
0.0
 11
60.61611714273365
 21
-42.74770651753637
 31
0.0
  0
LINE
  5
25B
330
70
100
AcDbEntity
  8
0
 62
    18
420
        0
370
    25
100
AcDbLine
 10
58.07208345233362
 20
-55.25719315553669
 30
0.0
 11
60.60905294453384
 21
-55.25719315553669
 31
0.0
  0
LINE
  5
25C
330
70
100
AcDbEntity
  8
0
 62
    18
420
        0
370
    25
100
AcDbLine
 10
58.06501925423359
 20
-42.74770651753637
 30
0.0
 11
58.07208345233362
 21
-55.25719315553669
 31
0.0
  0
LINE
  5
25D
330
70
100
AcDbEntity
  8
0
 62
    18
420
        0
370
    25
100
AcDbLine
 10
54.59028243513362
 20
-42.85638999933626
 30
0.0
 11
56.34257633673386
 21
-42.85638999933626
 31
0.0
  0
LINE
  5
25E
330
70
100
AcDbEntity
  8
0
 62
    18
420
        0
370
    25
100
AcDbLine
 10
62.33856006023371
 20
-42.85638999933626
 30
0.0
 11
64.09085396173384
 21
-42.85638999933626
 31
0.0
  0
SPLINE
  5
25F
330
70
100
AcDbEntity
  8
0
 62
    18
420
        0
370
    25
100
AcDbSpline
210
0.0
220
0.0
230
1.0
 70
     8
 71
     3
 72
     8
 73
     4
 74
     0
 42
0.0000000001
 43
0.0000000001
 40
0.0
 40
0.0
 40
0.0
 40
0.0
 40
1.0
 40
1.0
 40
1.0
 40
1.0
 10
62.32779490265876
 20
-42.7638435438186
 30
0.0
 10
61.75738946157427
 20
-42.74761815771228
 30
0.0
 10
61.18672710377904
 20
-42.74223817693321
 30
0.0
 10
60.61611714275162
 20
-42.74770651756717
 30
0.0
  0
SPLINE
  5
260
330
70
100
AcDbEntity
  8
0
 62
    18
420
        0
370
    25
100
AcDbSpline
210
0.0
220
0.0
230
1.0
 70
     8
 71
     3
 72
     8
 73
     4
 74
     0
 42
0.0000000001
 43
0.0000000001
 40
0.0
 40
0.0
 40
0.0
 40
0.0
 40
1.0
 40
1.0
 40
1.0
 40
1.0
 10
58.06501925419702
 20
-42.74770651752674
 30
0.0
 10
57.49435132220543
 20
-42.74225666536123
 30
0.0
 10
56.92363135117336
 20
-42.74763664263278
 30
0.0
 10
56.35316756980989
 20
-42.76384354377881
 30
0.0
  0
LINE
  5
261
330
70
100
AcDbEntity
  8
0
 62
    18
420
        0
370
    25
100
AcDbLine
 10
64.09085396173384
 20
-18.35639064003627
 30
0.0
 11
54.59028243513362
 21
-18.35639064003627
 31
0.0
  0
LINE
  5
262
330
70
100
AcDbEntity
  8
0
 62
    18
420
        0
370
    25
100
AcDbLine
 10
60.60201528913385
 20
-55.35639018563637
 30
0.0
 11
62.12788627913377
 21
-55.35639018563637
 31
0.0
  0
SPLINE
  5
263
330
70
100
AcDbEntity
  8
0
 62
    18
420
        0
370
    25
100
AcDbSpline
210
0.0
220
0.0
230
1.0
 70
     8
 71
     3
 72
     8
 73
     4
 74
     0
 42
0.0000000001
 43
0.0000000001
 40
0.0
 40
0.0
 40
0.0
 40
0.0
 40
1.0
 40
1.0
 40
1.0
 40
1.0
 10
60.60201528910369
 20
-55.35639018556963
 30
0.0
 10
60.60897085957762
 20
-55.32381381985096
 30
0.0
 10
60.61133965447027
 20
-55.29042522618485
 30
0.0
 10
60.60905294455405
 20
-55.25719315550204
 30
0.0
  0
LINE
  5
264
330
70
100
AcDbEntity
  8
0
 62
    18
420
        0
370
    25
100
AcDbLine
 10
58.07912110783371
 20
-55.35639018563637
 30
0.0
 11
56.56091862793388
 21
-55.35639018563637
 31
0.0
  0
SPLINE
  5
265
330
70
100
AcDbEntity
  8
0
 62
    18
420
        0
370
    25
100
AcDbSpline
210
0.0
220
0.0
230
1.0
 70
     8
 71
     3
 72
     8
 73
     4
 74
     0
 42
0.0000000001
 43
0.0000000001
 40
0.0
 40
0.0
 40
0.0
 40
0.0
 40
1.0
 40
1.0
 40
1.0
 40
1.0
 10
58.07208345241319
 20
-55.25719315550204
 30
0.0
 10
58.06979674249697
 20
-55.29042522618485
 30
0.0
 10
58.07216553738963
 20
-55.32381381985096
 30
0.0
 10
58.07912110786388
 20
-55.35639018556963
 30
0.0
  0
LINE
  5
266
330
70
100
AcDbEntity
  8
0
 62
    18
420
        0
370
    25
100
AcDbLine
 10
60.60201528913385
 20
-55.35639018563637
 30
0.0
 11
58.07912110783371
 21
-55.35639018563637
 31
0.0
  0
LINE
  5
267
330
70
100
AcDbEntity
  8
0
 62
    18
420
        0
370
    25
100
AcDbLine
 10
47.09056851883363
 20
-25.85610455643637
 30
0.0
 11
47.09056851883363
 21
-35.35667608303627
 31
0.0
  0
LINE
  5
268
330
70
100
AcDbEntity
  8
0
 62
    18
420
        0
370
    25
100
AcDbLine
 10
71.5905678781333
 20
-35.35667608303627
 30
0.0
 11
71.5905678781333
 21
-25.85610455643637
 31
0.0
  0
LINE
  5
269
330
70
100
AcDbEntity
  8
0
 62
     8
420
  8421504
370
    25
100
AcDbLine
 10
64.19056834153375
 20
-43.25595625483634
 30
0.0
 11
62.33535211963364
 21
-43.25595625483634
 31
0.0
  0
LINE
  5
26A
330
70
100
AcDbEntity
  8
0
 62
     8
420
  8421504
370
    25
100
AcDbLine
 10
56.3457842773336
 20
-43.25595625483634
 30
0.0
 11
54.49056805543381
 21
-43.25595625483634
 31
0.0
  0
LINE
  5
26B
330
70
100
AcDbEntity
  8
0
 62
     8
420
  8421504
370
    25
100
AcDbLine
 10
54.0905682692338
 20
-46.30638972663627
 30
0.0
 11
56.37027526703386
 21
-46.30638972663627
 31
0.0
  0
LINE
  5
26C
330
70
100
AcDbEntity
  8
0
 62
     8
420
  8421504
370
    25
100
AcDbLine
 10
62.31086112993371
 20
-46.30638972663627
 30
0.0
 11
64.59056812773376
 21
-46.30638972663627
 31
0.0
  0
LINE
  5
26D
330
70
100
AcDbEntity
  8
0
 62
     8
420
  8421504
370
    25
100
AcDbLine
 10
54.49056805543381
 20
-43.2059582024364
 30
0.0
 11
56.34538287723386
 21
-43.2059582024364
 31
0.0
  0
LINE
  5
26E
330
70
100
AcDbEntity
  8
0
 62
     8
420
  8421504
370
    25
100
AcDbLine
 10
62.33575351963359
 20
-43.2059582024364
 30
0.0
 11
64.19056834153375
 21
-43.2059582024364
 31
0.0
  0
LINE
  5
26F
330
70
100
AcDbEntity
  8
0
 62
     8
420
  8421504
370
    25
100
AcDbLine
 10
64.19056834153375
 20
-43.14308275273673
 30
0.0
 11
62.33625829653385
 21
-43.14308275273673
 31
0.0
  0
LINE
  5
270
330
70
100
AcDbEntity
  8
0
 62
     8
420
  8421504
370
    25
100
AcDbLine
 10
56.34487810043371
 20
-43.14308275273673
 30
0.0
 11
54.49056805543381
 21
-43.14308275273673
 31
0.0
  0
LINE
  5
271
330
70
100
AcDbEntity
  8
0
 62
     8
420
  8421504
370
    25
100
AcDbLine
 10
64.19056834153375
 20
-18.35705281043653
 30
0.0
 11
64.19056834153375
 21
-18.06969788663644
 31
0.0
  0
LINE
  5
272
330
70
100
AcDbEntity
  8
0
 62
     8
420
  8421504
370
    25
100
AcDbLine
 10
71.58990570773368
 20
-25.75639017663678
 30
0.0
 11
71.87726063153377
 21
-25.75639017663678
 31
0.0
  0
LINE
  5
273
330
70
100
AcDbEntity
  8
0
 62
     8
420
  8421504
370
    25
100
AcDbLine
 10
54.49056805543381
 20
-18.35705281043653
 30
0.0
 11
54.49056805543381
 21
-18.06969788663644
 31
0.0
  0
LINE
  5
274
330
70
100
AcDbEntity
  8
0
 62
     8
420
  8421504
370
    25
100
AcDbLine
 10
46.8038757654338
 20
-25.75639017663678
 30
0.0
 11
47.09123068923388
 21
-25.75639017663678
 31
0.0
  0
LINE
  5
275
330
70
100
AcDbEntity
  8
0
 62
     8
420
  8421504
370
    25
100
AcDbLine
 10
46.8038757654338
 20
-35.4563904627364
 30
0.0
 11
47.09123068923388
 21
-35.4563904627364
 31
0.0
  0
LINE
  5
276
330
70
100
AcDbEntity
  8
0
 62
     8
420
  8421504
370
    25
100
AcDbLine
 10
71.58990570773368
 20
-35.4563904627364
 30
0.0
 11
71.87726063153377
 21
-35.4563904627364
 31
0.0
  0
LINE
  5
277
330
70
100
AcDbEntity
  8
0
 62
     8
420
  8421504
370
    25
100
AcDbLine
 10
54.49056805543381
 20
-43.14308275273673
 30
0.0
 11
54.49056805543381
 21
-42.85572782893664
 31
0.0
  0
LINE
  5
278
330
70
100
AcDbEntity
  8
0
 62
     8
420
  8421504
370
    25
100
AcDbLine
 10
64.19056834153375
 20
-43.14308275273673
 30
0.0
 11
64.19056834153375
 21
-42.85572782893664
 31
0.0
  0
LINE
  5
279
330
70
100
AcDbEntity
  8
0
 62
     8
420
  8421504
370
    25
100
AcDbLine
 10
60.60905294453384
 20
-55.25719315553669
 30
0.0
 11
62.22721090043363
 21
-55.25719315553669
 31
0.0
  0
LINE
  5
27A
330
70
100
AcDbEntity
  8
0
 62
     8
420
  8421504
370
    25
100
AcDbLine
 10
58.07208345233362
 20
-55.25719315553669
 30
0.0
 11
56.46205803813376
 21
-55.25719315553669
 31
0.0
  0
LINE
  5
27B
330
70
100
AcDbEntity
  8
0
 62
    18
420
        0
370
    25
100
AcDbLine
 10
166.7200198994336
 20
-15.41270597723656
 30
0.0
 11
159.8610839196336
 21
-19.37228543643682
 31
0.0
  0
LINE
  5
27C
330
70
100
AcDbEntity
  8
0
 62
    18
420
        0
370
    25
100
AcDbLine
 10
148.8808288948335
 20
-19.37228543643682
 30
0.0
 11
142.0218929150335
 21
-15.41270597723656
 31
0.0
  0
LINE
  5
27D
330
70
100
AcDbEntity
  8
0
 62
    18
420
        0
370
    25
100
AcDbLine
 10
172.2955777566338
 20
-12.7212920048366
 30
0.0
 11
172.2955777566338
 21
-12.27219303983688
 31
0.0
  0
LINE
  5
27E
330
70
100
AcDbEntity
  8
0
 62
    18
420
        0
370
    25
100
AcDbLine
 10
169.2098413532337
 20
-7.963159415536709
 30
0.0
 11
168.4997993232335
 21
-7.553260876536668
 31
0.0
  0
LINE
  5
27F
330
70
100
AcDbEntity
  8
0
 62
    18
420
        0
370
    25
100
AcDbLine
 10
140.2421134912335
 20
-7.553260876536668
 30
0.0
 11
139.532071461234
 21
-7.963159415536709
 31
0.0
  0
LINE
  5
280
330
70
100
AcDbEntity
  8
0
 62
    18
420
        0
370
    25
100
AcDbLine
 10
172.2955777566338
 20
-13.21763092463663
 30
0.0
 11
172.2955777566338
 21
-12.7212920048366
 31
0.0
  0
LINE
  5
281
330
70
100
AcDbEntity
  8
0
 62
    18
420
        0
370
    25
100
AcDbLine
 10
172.0955777895337
 20
-68.53185522693657
 30
0.0
 11
172.0955777895337
 21
-14.3634827208363
 31
0.0
  0
LINE
  5
282
330
70
100
AcDbEntity
  8
0
 62
    18
420
        0
370
    25
100
AcDbLine
 10
136.6463350249334
 20
-16.14824501963648
 30
0.0
 11
136.6463350249334
 21
-68.53185522693657
 31
0.0
  0
LINE
  5
283
330
70
100
AcDbEntity
  8
0
 62
    18
420
        0
370
    25
100
AcDbLine
 10
138.6184150427336
 20
-16.84365268803661
 30
0.0
 11
147.4941439075337
 21
-11.83551494053636
 31
0.0
  0
SPLINE
  5
284
330
70
100
AcDbEntity
  8
0
 62
    18
420
        0
370
    25
100
AcDbSpline
210
0.0
220
0.0
230
1.0
 70
     8
 71
     3
 72
     8
 73
     4
 74
     0
 42
0.0000000001
 43
0.0000000001
 40
0.0
 40
0.0
 40
0.0
 40
0.0
 40
1.0
 40
1.0
 40
1.0
 40
1.0
 10
137.684493810201
 20
-14.9250380258687
 30
0.0
 10
137.6024977027823
 20
-14.6494377236657
 30
0.0
 10
137.4243541523805
 20
-14.41239681608129
 30
0.0
 10
137.18243201024
 20
-14.25698585974794
 30
0.0
  0
LWPOLYLINE
  5
285
330
70
100
AcDbEntity
  8
0
 62
    18
420
        0
370
    25
100
AcDbPolyline
 90
        3
 70
     0
 43
0.0
 10
137.7479681988337
 20
-15.46103631233674
 10
137.7370357014339
 20
-15.57509198273668
 10
137.690479979834
 20
-15.70550745583677
  0
SPLINE
  5
286
330
70
100
AcDbEntity
  8
0
 62
    18
420
        0
370
    25
100
AcDbSpline
210
0.0
220
0.0
230
1.0
 70
     8
 71
     3
 72
     8
 73
     4
 74
     0
 42
0.0000000001
 43
0.0000000001
 40
0.0
 40
0.0
 40
0.0
 40
0.0
 40
1.0
 40
1.0
 40
1.0
 40
1.0
 10
137.7479681988369
 20
-15.46103631236562
 30
0.0
 10
137.769114087366
 20
-15.27986474298849
 30
0.0
 10
137.7473710323928
 20
-15.09625934778684
 30
0.0
 10
137.6844938102087
 20
-14.92503802585907
 30
0.0
  0
LINE
  5
287
330
70
100
AcDbEntity
  8
0
 62
    18
420
        0
370
    25
100
AcDbLine
 10
136.5992586620339
 20
-13.92032705183634
 30
0.0
 11
137.1824320102336
 21
-14.25698585973639
 31
0.0
  0
LINE
  5
288
330
70
100
AcDbEntity
  8
0
 62
    18
420
        0
370
    25
100
AcDbLine
 10
144.0412248184337
 20
-7.678590377836597
 30
0.0
 11
135.2495720016337
 21
-12.86982281793649
 31
0.0
  0
LWPOLYLINE
  5
289
330
70
100
AcDbEntity
  8
0
 62
    18
420
        0
370
    25
100
AcDbPolyline
 90
        4
 70
     0
 43
0.0
 10
136.2850949214335
 20
-13.88148538203625
 10
136.3194325022338
 20
-13.85973884913638
 10
136.4435595808336
 20
-13.85849654143671
 10
136.5992586620339
 20
-13.92032705183634
  0
LINE
  5
28A
330
70
100
AcDbEntity
  8
0
 62
    18
420
        0
370
    25
100
AcDbLine
 10
136.0455850415335
 20
-15.80143813723625
 30
0.0
 11
137.7359726460338
 21
-16.77727812993662
 31
0.0
  0
LINE
  5
28B
330
70
100
AcDbEntity
  8
0
 62
    18
420
        0
370
    25
100
AcDbLine
 10
168.5883528154339
 20
-13.41206917463667
 30
0.0
 11
168.436017641334
 21
-3.333386414336608
 31
0.0
  0
SPLINE
  5
28C
330
70
100
AcDbEntity
  8
0
 62
    18
420
        0
370
    25
100
AcDbSpline
210
0.0
220
0.0
230
1.0
 70
     8
 71
     3
 72
     8
 73
     4
 74
     0
 42
0.0000000001
 43
0.0000000001
 40
0.0
 40
0.0
 40
0.0
 40
0.0
 40
1.0
 40
1.0
 40
1.0
 40
1.0
 10
168.0266907412459
 20
-1.894725913300957
 30
0.0
 10
167.5948307676726
 20
-1.135232549010273
 30
0.0
 10
166.9573625946989
 20
-0.5130619038396502
 30
0.0
 10
166.1876054332092
 20
-0.0997737241010852
 30
0.0
  0
LINE
  5
28D
330
70
100
AcDbEntity
  8
0
 62
    18
420
        0
370
    25
100
AcDbLine
 10
140.3058596118337
 20
-3.335740807436545
 30
0.0
 11
140.2059906786337
 21
-9.94319336153654
 31
0.0
  0
SPLINE
  5
28E
330
70
100
AcDbEntity
  8
0
 62
    18
420
        0
370
    25
100
AcDbSpline
210
0.0
220
0.0
230
1.0
 70
     8
 71
     3
 72
     8
 73
     4
 74
     0
 42
0.0000000001
 43
0.0000000001
 40
0.0
 40
0.0
 40
0.0
 40
0.0
 40
1.0
 40
1.0
 40
1.0
 40
1.0
 10
142.5583491981632
 20
-0.2661994483771952
 30
0.0
 10
141.7651526512245
 20
-0.6687541424285549
 30
0.0
 10
141.1068023595851
 20
-1.294216559665815
 30
0.0
 10
140.6641631418749
 20
-2.065761481703628
 30
0.0
  0
LWPOLYLINE
  5
28F
330
70
100
AcDbEntity
  8
0
 62
    18
420
        0
370
    25
100
AcDbPolyline
 90
        3
 70
     0
 43
0.0
 10
166.1892409285337
 20
-0.0987508623365052
 10
165.5098306024335
 20
0.3044493091635683
 10
163.4715609347334
 20
1.498863641163477
  0
LINE
  5
290
330
70
100
AcDbEntity
  8
0
 62
    18
420
        0
370
    25
100
AcDbLine
 10
149.1196372190337
 20
3.527559690863469
 30
0.0
 11
142.5530535125338
 21
-0.2632483932368005
 31
0.0
  0
SPLINE
  5
291
330
70
100
AcDbEntity
  8
0
 62
    18
420
        0
370
    25
100
AcDbSpline
210
0.0
220
0.0
230
1.0
 70
     8
 71
     3
 72
     8
 73
     4
 74
     0
 42
0.0000000001
 43
0.0000000001
 40
0.0
 40
0.0
 40
0.0
 40
0.0
 40
1.0
 40
1.0
 40
1.0
 40
1.0
 10
159.6163134626926
 20
3.692096724351077
 30
0.0
 10
156.2984728204073
 20
5.335482719733585
 30
0.0
 10
152.3906472756257
 20
5.272549173015036
 30
0.0
 10
149.1274452520105
 20
3.523178826150777
 30
0.0
  0
LINE
  5
292
330
70
100
AcDbEntity
  8
0
 62
    18
420
        0
370
    25
100
AcDbLine
 10
163.4715652152337
 20
1.498862690763564
 30
0.0
 11
162.3298075418337
 21
2.157964897463242
 31
0.0
  0
LWPOLYLINE
  5
293
330
70
100
AcDbEntity
  8
0
 62
    18
420
        0
370
    25
100
AcDbPolyline
 90
        3
 70
     0
 43
0.0
 10
162.3529269404336
 20
2.144688313863541
 10
161.6694713400338
 20
2.535889028363399
 10
159.6193124744336
 20
3.693987709463266
  0
SPLINE
  5
294
330
70
100
AcDbEntity
  8
0
 62
    18
420
        0
370
    25
100
AcDbSpline
210
0.0
220
0.0
230
1.0
 70
     8
 71
     3
 72
     8
 73
     4
 74
     0
 42
0.0000000001
 43
0.0000000001
 40
0.0
 40
0.0
 40
0.0
 40
0.0
 40
1.0
 40
1.0
 40
1.0
 40
1.0
 10
146.9816909131491
 20
-20.78324000843634
 30
0.0
 10
151.6153413845848
 20
-23.18410438304947
 30
0.0
 10
157.1265714298823
 20
-23.18410438304947
 30
0.0
 10
161.7602219013179
 20
-20.78324000843634
 30
0.0
  0
SPLINE
  5
295
330
70
100
AcDbEntity
  8
0
 62
    18
420
        0
370
    25
100
AcDbSpline
210
0.0
220
0.0
230
1.0
 70
     8
 71
     3
 72
     8
 73
     4
 74
     0
 42
0.0000000001
 43
0.0000000001
 40
0.0
 40
0.0
 40
0.0
 40
0.0
 40
1.0
 40
1.0
 40
1.0
 40
1.0
 10
161.7955778388617
 20
-20.84447828849357
 30
0.0
 10
161.7944420289335
 20
-20.81953355845464
 30
0.0
 10
161.7812567662916
 20
-20.79669601371458
 30
0.0
 10
161.7602219013173
 20
-20.78324000849666
 30
0.0
  0
SPLINE
  5
296
330
70
100
AcDbEntity
  8
0
 62
    18
420
        0
370
    25
100
AcDbSpline
210
0.0
220
0.0
230
1.0
 70
     8
 71
     3
 72
     8
 73
     4
 74
     0
 42
0.0000000001
 43
0.0000000001
 40
0.0
 40
0.0
 40
0.0
 40
0.0
 40
1.0
 40
1.0
 40
1.0
 40
1.0
 10
146.946334975608
 20
-20.84447828845251
 30
0.0
 10
151.602156481981
 20
-23.25682991047215
 30
0.0
 10
157.1397563324867
 20
-23.25682991047215
 30
0.0
 10
161.7955778388598
 20
-20.84447828845251
 30
0.0
  0
SPLINE
  5
297
330
70
100
AcDbEntity
  8
0
 62
    18
420
        0
370
    25
100
AcDbSpline
210
0.0
220
0.0
230
1.0
 70
     8
 71
     3
 72
     8
 73
     4
 74
     0
 42
0.0000000001
 43
0.0000000001
 40
0.0
 40
0.0
 40
0.0
 40
0.0
 40
1.0
 40
1.0
 40
1.0
 40
1.0
 10
146.9816909131498
 20
-20.78324000849666
 30
0.0
 10
146.9606560481755
 20
-20.79669601371458
 30
0.0
 10
146.9474707855342
 20
-20.81953355845464
 30
0.0
 10
146.9463349756054
 20
-20.84447828849357
 30
0.0
  0
SPLINE
  5
298
330
70
100
AcDbEntity
  8
0
 62
    18
420
        0
370
    25
100
AcDbSpline
210
0.0
220
0.0
230
1.0
 70
     8
 71
     3
 72
     8
 73
     4
 74
     0
 42
0.0000000001
 43
0.0000000001
 40
0.0
 40
0.0
 40
0.0
 40
0.0
 40
1.0
 40
1.0
 40
1.0
 40
1.0
 10
146.946334975608
 20
-21.29357725345223
 30
0.0
 10
151.602156481981
 20
-23.70592887547252
 30
0.0
 10
157.1397563324867
 20
-23.70592887547252
 30
0.0
 10
161.7955778388598
 20
-21.29357725345223
 30
0.0
  0
LINE
  5
299
330
70
100
AcDbEntity
  8
0
 62
    18
420
        0
370
    25
100
AcDbLine
 10
146.9463349756336
 20
-21.29357725343683
 30
0.0
 11
146.9463349756336
 21
-20.84447828843646
 31
0.0
  0
LINE
  5
29A
330
70
100
AcDbEntity
  8
0
 62
    18
420
        0
370
    25
100
AcDbLine
 10
161.7955778389336
 20
-20.84447828843646
 30
0.0
 11
161.7955778389336
 21
-21.29357725343683
 31
0.0
  0
LINE
  5
29B
330
70
100
AcDbEntity
  8
0
 62
    18
420
        0
370
    25
100
AcDbLine
 10
141.9968945655334
 20
-15.41517969873654
 30
0.0
 11
141.5918956200336
 21
-15.16279000883639
 31
0.0
  0
LINE
  5
29C
330
70
100
AcDbEntity
  8
0
 62
    18
420
        0
370
    25
100
AcDbLine
 10
148.8558305453334
 20
-19.3747591579368
 30
0.0
 11
141.9968945655334
 21
-15.41517969873654
 31
0.0
  0
SPLINE
  5
29D
330
70
100
AcDbEntity
  8
0
 62
    18
420
        0
370
    25
100
AcDbSpline
210
0.0
220
0.0
230
1.0
 70
     8
 71
     3
 72
     8
 73
     4
 74
     0
 42
0.0000000001
 43
0.0000000001
 40
0.0
 40
0.0
 40
0.0
 40
0.0
 40
1.0
 40
1.0
 40
1.0
 40
1.0
 10
148.8558305453392
 20
-19.37475915786043
 30
0.0
 10
152.3117215926172
 20
-21.17703038492133
 30
0.0
 10
156.4301912218506
 20
-21.17703038492133
 30
0.0
 10
159.8860822691285
 20
-19.37475915786043
 30
0.0
  0
LINE
  5
29E
330
70
100
AcDbEntity
  8
0
 62
    18
420
        0
370
    25
100
AcDbLine
 10
166.7450182489337
 20
-15.41517969873654
 30
0.0
 11
159.8860822691337
 21
-19.3747591579368
 31
0.0
  0
LWPOLYLINE
  5
29F
330
70
100
AcDbEntity
  8
0
 62
    18
420
        0
370
    25
100
AcDbPolyline
 90
       12
 70
     0
 43
0.0
 10
168.5469422196334
 20
-10.67225991073672
 10
168.5917726370339
 20
-10.74425301793648
 10
168.8339062817334
 20
-11.22944377633641
 10
168.9804153126339
 20
-11.72723487773656
 10
169.0294577806336
 20
-12.23136530813636
 10
168.9804153126339
 20
-12.73549573843669
 10
168.8339062817334
 20
-13.23328683983683
 10
168.5917726370339
 20
-13.71847759823677
 10
168.2570578420338
 20
-14.18496724123625
 10
167.8339732886337
 20
-14.62688937083671
 10
167.3278380410337
 20
-15.03868628693686
 10
166.7450182489337
 20
-15.41517969873654
  0
LINE
  5
2A0
330
70
100
AcDbEntity
  8
0
 62
    18
420
        0
370
    25
100
AcDbLine
 10
161.760221901334
 20
-20.78324000843634
 30
0.0
 11
169.1848430037337
 21
-16.49709747913656
 31
0.0
  0
LINE
  5
2A1
330
70
100
AcDbEntity
  8
0
 62
    18
420
        0
370
    25
100
AcDbLine
 10
139.5570698108335
 20
-16.49709747913656
 30
0.0
 11
146.9816909131337
 21
-20.78324000843634
 31
0.0
  0
LWPOLYLINE
  5
2A2
330
70
100
AcDbEntity
  8
0
 62
    18
420
        0
370
    25
100
AcDbPolyline
 90
        9
 70
     0
 43
0.0
 10
139.5570698108335
 20
-7.965633137036685
 10
138.8683761474337
 20
-8.404288658936302
 10
138.2574776638338
 20
-8.879800868236362
 10
137.7302584553338
 20
-9.387590621536592
 10
137.2917942535335
 20
-9.922767606536739
 10
136.9463086337337
 20
-10.48017767313655
 10
136.6971292213337
 20
-11.05445244573671
 10
136.5466550940338
 20
-11.64006159633647
 10
136.4977667253337
 20
-12.13151336873633
  0
LINE
  5
2A3
330
70
100
AcDbEntity
  8
0
 62
    18
420
        0
370
    25
100
AcDbLine
 10
139.3984356584337
 20
-16.40351111583675
 30
0.0
 11
139.5570698108335
 21
-16.49709747913656
 31
0.0
  0
LWPOLYLINE
  5
2A4
330
70
100
AcDbEntity
  8
0
 62
    18
420
        0
370
    25
100
AcDbPolyline
 90
       17
 70
     0
 43
0.0
 10
169.1848430037337
 20
-16.49709747913656
 10
169.873536667034
 20
-16.0584419572363
 10
170.484435150634
 20
-15.58292974793625
 10
171.011654359234
 20
-15.07513999463666
 10
171.4501185609335
 20
-14.53996300963651
 10
171.7956041807334
 20
-13.9825529430367
 10
172.0447835931334
 20
-13.40827817043654
 10
172.1952577204339
 20
-12.82266901983678
 10
172.2455771063339
 20
-12.23136530813636
 10
172.1952577204339
 20
-11.64006159633647
 10
172.0447835931334
 20
-11.05445244573671
 10
171.7956041807334
 20
-10.48017767313655
 10
171.4501185609335
 20
-9.922767606536739
 10
171.011654359234
 20
-9.387590621536592
 10
170.484435150634
 20
-8.879800868236362
 10
169.873536667034
 20
-8.404288658936302
 10
169.1848430037337
 20
-7.965633137036685
  0
LINE
  5
2A5
330
70
100
AcDbEntity
  8
0
 62
    18
420
        0
370
    25
100
AcDbLine
 10
148.8911845072334
 20
-19.39482158513637
 30
0.0
 11
148.9271229274339
 21
-19.41543305313669
 31
0.0
  0
LINE
  5
2A6
330
70
100
AcDbEntity
  8
0
 62
    18
420
        0
370
    25
100
AcDbLine
 10
159.8147898870338
 20
-19.41543305313669
 30
0.0
 11
159.8507283072337
 21
-19.39482158513637
 31
0.0
  0
SPLINE
  5
2A7
330
70
100
AcDbEntity
  8
0
 62
    18
420
        0
370
    25
100
AcDbSpline
210
0.0
220
0.0
230
1.0
 70
     8
 71
     3
 72
     8
 73
     4
 74
     0
 42
0.0000000001
 43
0.0000000001
 40
0.0
 40
0.0
 40
0.0
 40
0.0
 40
1.0
 40
1.0
 40
1.0
 40
1.0
 10
159.8610839196188
 20
-19.37228543634634
 30
0.0
 10
159.8538794222822
 20
-19.37742919058333
 30
0.0
 10
159.8499389431385
 20
-19.38600456217382
 30
0.0
 10
159.8507283072305
 20
-19.39482158513188
 30
0.0
  0
SPLINE
  5
2A8
330
70
100
AcDbEntity
  8
0
 62
    18
420
        0
370
    25
100
AcDbSpline
210
0.0
220
0.0
230
1.0
 70
     8
 71
     3
 72
     8
 73
     4
 74
     0
 42
0.0000000001
 43
0.0000000001
 40
0.0
 40
0.0
 40
0.0
 40
0.0
 40
1.0
 40
1.0
 40
1.0
 40
1.0
 10
148.8911845072373
 20
-19.39482158513188
 30
0.0
 10
148.8919738713292
 20
-19.38600456217382
 30
0.0
 10
148.8880333921849
 20
-19.37742919058269
 30
0.0
 10
148.8808288948489
 20
-19.37228543634634
 30
0.0
  0
SPLINE
  5
2A9
330
70
100
AcDbEntity
  8
0
 62
    18
420
        0
370
    25
100
AcDbSpline
210
0.0
220
0.0
230
1.0
 70
     8
 71
     3
 72
     8
 73
     4
 74
     0
 42
0.0000000001
 43
0.0000000001
 40
0.0
 40
0.0
 40
0.0
 40
0.0
 40
1.0
 40
1.0
 40
1.0
 40
1.0
 10
169.220198941262
 20
-16.55833575919315
 30
0.0
 10
169.2190631313331
 20
-16.53339102915422
 30
0.0
 10
169.2058778686912
 20
-16.5105534844148
 30
0.0
 10
169.1848430037176
 20
-16.49709747919624
 30
0.0
  0
LINE
  5
2AA
330
70
100
AcDbEntity
  8
0
 62
    18
420
        0
370
    25
100
AcDbLine
 10
169.2201989412337
 20
-16.55833575913668
 30
0.0
 11
161.7955778389336
 21
-20.84447828843646
 31
0.0
  0
LINE
  5
2AB
330
70
100
AcDbEntity
  8
0
 62
    18
420
        0
370
    25
100
AcDbLine
 10
146.9463349756336
 20
-20.84447828843646
 30
0.0
 11
139.521713873234
 21
-16.55833575913668
 31
0.0
  0
SPLINE
  5
2AC
330
70
100
AcDbEntity
  8
0
 62
    18
420
        0
370
    25
100
AcDbSpline
210
0.0
220
0.0
230
1.0
 70
     8
 71
     3
 72
     8
 73
     4
 74
     0
 42
0.0000000001
 43
0.0000000001
 40
0.0
 40
0.0
 40
0.0
 40
0.0
 40
1.0
 40
1.0
 40
1.0
 40
1.0
 10
139.5570698108502
 20
-16.49709747919688
 30
0.0
 10
139.536034945876
 20
-16.5105534844148
 30
0.0
 10
139.522849683234
 20
-16.53339102915422
 30
0.0
 10
139.5217138733052
 20
-16.55833575919315
 30
0.0
  0
LINE
  5
2AD
330
70
100
AcDbEntity
  8
0
 62
    18
420
        0
370
    25
100
AcDbLine
 10
169.2201989412337
 20
-17.00743472423651
 30
0.0
 11
169.2201989412337
 21
-16.55833575913668
 31
0.0
  0
LINE
  5
2AE
330
70
100
AcDbEntity
  8
0
 62
    18
420
        0
370
    25
100
AcDbLine
 10
161.7955778389336
 20
-21.29357725343683
 30
0.0
 11
169.2201989412337
 21
-17.00743472423651
 31
0.0
  0
LINE
  5
2AF
330
70
100
AcDbEntity
  8
0
 62
    18
420
        0
370
    25
100
AcDbLine
 10
139.521713873234
 20
-16.55833575913668
 30
0.0
 11
139.521713873234
 21
-17.00743472423651
 31
0.0
  0
LINE
  5
2B0
330
70
100
AcDbEntity
  8
0
 62
    18
420
        0
370
    25
100
AcDbLine
 10
139.521713873234
 20
-17.00743472423651
 30
0.0
 11
146.9463349756336
 21
-21.29357725343683
 31
0.0
  0
SPLINE
  5
2B1
330
70
100
AcDbEntity
  8
0
 62
    18
420
        0
370
    25
100
AcDbSpline
210
0.0
220
0.0
230
1.0
 70
     8
 71
     3
 72
     8
 73
     4
 74
     0
 42
0.0000000001
 43
0.0000000001
 40
0.0
 40
0.0
 40
0.0
 40
0.0
 40
1.0
 40
1.0
 40
1.0
 40
1.0
 10
169.2098439874109
 20
-7.963160936718933
 30
0.0
 10
169.2016663650931
 20
-7.959463943673378
 30
0.0
 10
169.1921381840612
 20
-7.960406129490794
 30
0.0
 10
169.1848430037099
 20
-7.965633137046311
 30
0.0
  0
LWPOLYLINE
  5
2B2
330
70
100
AcDbEntity
  8
0
 62
    18
420
        0
370
    25
100
AcDbPolyline
 90
       17
 70
     0
 43
0.0
 10
169.2201989412337
 20
-7.986050320436329
 10
169.9121866442336
 20
-8.426805139136773
 10
170.526008406834
 20
-8.904592663836675
 10
171.0557511580336
 20
-9.414811701236363
 10
171.496312824034
 20
-9.952549128836404
 10
171.843451390534
 20
-10.51262646573652
 10
172.0938227684334
 20
-11.08964910453668
 10
172.2450173435334
 20
-11.67806010543666
 10
172.2955777566338
 20
-12.27219303983688
 10
172.2450173435334
 20
-12.86632597413635
 10
172.0938227684334
 20
-13.45473697503633
 10
171.843451390534
 20
-14.03175961383649
 10
171.496312824034
 20
-14.59183695073661
 10
171.0557511580336
 20
-15.12957437833665
 10
170.5260084068334
 20
-15.63979341573634
 10
169.9121866442336
 20
-16.11758094043624
 10
169.2201989412337
 20
-16.55833575913668
  0
LINE
  5
2B3
330
70
100
AcDbEntity
  8
0
 62
    18
420
        0
370
    25
100
AcDbLine
 10
139.521713873234
 20
-16.55833575913668
 30
0.0
 11
139.326826845734
 21
-16.44279611913665
 31
0.0
  0
LWPOLYLINE
  5
2B4
330
70
100
AcDbEntity
  8
0
 62
    18
420
        0
370
    25
100
AcDbPolyline
 90
        9
 70
     0
 43
0.0
 10
136.4487980143339
 20
-12.14091969853682
 10
136.4968954710338
 20
-11.67806010543666
 10
136.6480900460336
 20
-11.08964910453668
 10
136.8984614240339
 20
-10.51262646573652
 10
137.2455999904337
 20
-9.952549128836404
 10
137.6861616565336
 20
-9.414811701236363
 10
138.2159044076337
 20
-8.904592663836675
 10
138.8297261702335
 20
-8.426805139136773
 10
139.521713873234
 20
-7.986050320436329
  0
SPLINE
  5
2B5
330
70
100
AcDbEntity
  8
0
 62
    18
420
        0
370
    25
100
AcDbSpline
210
0.0
220
0.0
230
1.0
 70
     8
 71
     3
 72
     8
 73
     4
 74
     0
 42
0.0000000001
 43
0.0000000001
 40
0.0
 40
0.0
 40
0.0
 40
0.0
 40
1.0
 40
1.0
 40
1.0
 40
1.0
 10
139.5570698107578
 20
-7.965633137046311
 30
0.0
 10
139.5497746304066
 20
-7.960406129490794
 30
0.0
 10
139.540246449374
 20
-7.959463943673378
 30
0.0
 10
139.5320688270569
 20
-7.963160936718933
 30
0.0
  0
LWPOLYLINE
  5
2B6
330
70
100
AcDbEntity
  8
0
 62
    18
420
        0
370
    25
100
AcDbPolyline
 90
        9
 70
     0
 43
0.0
 10
172.2955777566338
 20
-12.7212920048366
 10
172.2450173435334
 20
-13.31542493913671
 10
172.0938227684334
 20
-13.9038359400367
 10
171.843451390534
 20
-14.48085857883686
 10
171.496312824034
 20
-15.04093591573633
 10
171.0557511580336
 20
-15.57867334333637
 10
170.5260084068334
 20
-16.0888923807367
 10
169.9121866442336
 20
-16.56667990543661
 10
169.2201989412337
 20
-17.00743472423651
  0
LINE
  5
2B7
330
70
100
AcDbEntity
  8
0
 62
    18
420
        0
370
    25
100
AcDbLine
 10
139.521713873234
 20
-17.00743472423651
 30
0.0
 11
138.9530807762339
 21
-16.65184931273647
 31
0.0
  0
LWPOLYLINE
  5
2B8
330
70
100
AcDbEntity
  8
0
 62
    18
420
        0
370
    25
100
AcDbPolyline
 90
       11
 70
     0
 43
0.0
 10
166.7096642870337
 20
-15.43524212603686
 10
167.2887481561339
 20
-15.06116241143681
 10
167.7916387549337
 20
-14.65200501313659
 10
168.212011422034
 20
-14.21291590783686
 10
168.5445793620335
 20
-13.74941667933658
 10
168.7851614758335
 20
-13.26733570863674
 10
168.9307320807339
 20
-12.77273613143654
 10
168.9794597645339
 20
-12.27183714313677
 10
168.9307320807339
 20
-11.77093815483634
 10
168.7851614758335
 20
-11.27633857773625
 10
168.548893487034
 20
-10.80139377153644
  0
LINE
  5
2B9
330
70
100
AcDbEntity
  8
0
 62
    18
420
        0
370
    25
100
AcDbLine
 10
141.5949545592335
 20
-15.16082160473655
 30
0.0
 11
142.0322485274334
 21
-15.43524212603686
 31
0.0
  0
LINE
  5
2BA
330
70
100
AcDbEntity
  8
0
 62
    18
420
        0
370
    25
100
AcDbLine
 10
146.9463349756336
 20
-21.78350090833668
 30
0.0
 11
146.9463349756336
 21
-21.29357725343683
 31
0.0
  0
LINE
  5
2BB
330
70
100
AcDbEntity
  8
0
 62
    18
420
        0
370
    25
100
AcDbLine
 10
161.7955778389336
 20
-21.29357725343683
 30
0.0
 11
161.7955778389336
 21
-21.78350090833668
 31
0.0
  0
LWPOLYLINE
  5
2BC
330
70
100
AcDbEntity
  8
0
 62
    18
420
        0
370
    25
100
AcDbPolyline
 90
        3
 70
     0
 43
0.0
 10
161.7955778389336
 20
-21.78350090833668
 10
160.7663369810335
 20
-22.30478592403654
 10
159.6283463879336
 20
-22.74432400973628
  0
LINE
  5
2BD
330
70
100
AcDbEntity
  8
0
 62
    18
420
        0
370
    25
100
AcDbLine
 10
159.0071459634335
 20
-22.93600136653632
 30
0.0
 11
159.6283463879336
 21
-22.74432400973628
 31
0.0
  0
LINE
  5
2BE
330
70
100
AcDbEntity
  8
0
 62
    18
420
        0
370
    25
100
AcDbLine
 10
158.7516162063336
 20
-23.00614190713639
 30
0.0
 11
159.0071459634335
 21
-22.93600136653632
 31
0.0
  0
LINE
  5
2BF
330
70
100
AcDbEntity
  8
0
 62
    18
420
        0
370
    25
100
AcDbLine
 10
157.6489868192337
 20
-23.25591602983637
 30
0.0
 11
158.7516162063336
 21
-23.00614190713639
 31
0.0
  0
LWPOLYLINE
  5
2C0
330
70
100
AcDbEntity
  8
0
 62
    18
420
        0
370
    25
100
AcDbPolyline
 90
        3
 70
     0
 43
0.0
 10
157.6489868192337
 20
-23.25591602983637
 10
156.549051537634
 20
-23.42703039033622
 10
155.4234791184335
 20
-23.52834864403644
  0
LWPOLYLINE
  5
2C1
330
70
100
AcDbEntity
  8
0
 62
    18
420
        0
370
    25
100
AcDbPolyline
 90
        3
 70
     0
 43
0.0
 10
153.3184336961337
 20
-23.52834864403644
 10
154.3709564072339
 20
-23.55887930853654
 10
155.4234791184335
 20
-23.52834864403644
  0
LWPOLYLINE
  5
2C2
330
70
100
AcDbEntity
  8
0
 62
    18
420
        0
370
    25
100
AcDbPolyline
 90
        3
 70
     0
 43
0.0
 10
153.3184336961337
 20
-23.52834864403644
 10
152.1928612768337
 20
-23.42703039033622
 10
151.0929259953335
 20
-23.25591602983637
  0
LWPOLYLINE
  5
2C3
330
70
100
AcDbEntity
  8
0
 62
    18
420
        0
370
    25
100
AcDbPolyline
 90
        3
 70
     0
 43
0.0
 10
149.1135664265335
 20
-22.74432400973628
 10
150.0803051544337
 20
-23.02969949973633
 10
151.0929259953335
 20
-23.25591602983637
  0
LWPOLYLINE
  5
2C4
330
70
100
AcDbEntity
  8
0
 62
    18
420
        0
370
    25
100
AcDbPolyline
 90
        3
 70
     0
 43
0.0
 10
149.1135664265335
 20
-22.74432400973628
 10
147.9755758335337
 20
-22.30478592403654
 10
146.9463349756336
 20
-21.78350090833668
  0
LWPOLYLINE
  5
2C5
330
70
100
AcDbEntity
  8
0
 62
    18
420
        0
370
    25
100
AcDbPolyline
 90
        9
 70
     0
 43
0.0
 10
169.2201989412337
 20
-17.00743472423651
 10
169.9121866442336
 20
-16.56667990543661
 10
170.526008406834
 20
-16.0888923807367
 10
171.0557511580336
 20
-15.57867334333637
 10
171.496312824034
 20
-15.04093591573633
 10
171.843451390534
 20
-14.48085857883686
 10
172.0938227684334
 20
-13.9038359400367
 10
172.2450173435334
 20
-13.31542493913671
 10
172.2955777566338
 20
-12.7212920048366
  0
LINE
  5
2C6
330
70
100
AcDbEntity
  8
0
 62
    18
420
        0
370
    25
100
AcDbLine
 10
138.9533428769335
 20
-16.65202647173671
 30
0.0
 11
139.521713873234
 21
-17.00743472423651
 31
0.0
  0
LINE
  5
2C7
330
70
100
AcDbEntity
  8
0
 62
    18
420
        0
370
    25
100
AcDbLine
 10
169.2201989412337
 20
-17.49735837903626
 30
0.0
 11
169.2201989412337
 21
-17.00743472423651
 31
0.0
  0
LINE
  5
2C8
330
70
100
AcDbEntity
  8
0
 62
    18
420
        0
370
    25
100
AcDbLine
 10
161.7955778389336
 20
-21.78350090833668
 30
0.0
 11
169.2201989412337
 21
-17.49735837903626
 31
0.0
  0
LINE
  5
2C9
330
70
100
AcDbEntity
  8
0
 62
    18
420
        0
370
    25
100
AcDbLine
 10
139.521713873234
 20
-17.00743472423651
 30
0.0
 11
139.521713873234
 21
-17.49735837903626
 31
0.0
  0
LINE
  5
2CA
330
70
100
AcDbEntity
  8
0
 62
    18
420
        0
370
    25
100
AcDbLine
 10
143.2340244244338
 20
-19.64042964373652
 30
0.0
 11
146.9463349756336
 21
-21.78350090833668
 31
0.0
  0
LINE
  5
2CB
330
70
100
AcDbEntity
  8
0
 62
    18
420
        0
370
    25
100
AcDbLine
 10
139.521713873234
 20
-17.49735837903626
 30
0.0
 11
143.2340244244338
 21
-19.64042964373652
 31
0.0
  0
LWPOLYLINE
  5
2CC
330
70
100
AcDbEntity
  8
0
 62
    18
420
        0
370
    25
100
AcDbPolyline
 90
        3
 70
     0
 43
0.0
 10
138.6142217605339
 20
-16.89930627573678
 10
138.6187239001335
 20
-16.9031902790365
 10
139.521713873234
 20
-17.49735837903626
  0
LWPOLYLINE
  5
2CD
330
70
100
AcDbEntity
  8
0
 62
    18
420
        0
370
    25
100
AcDbPolyline
 90
        3
 70
     0
 43
0.0
 10
169.2201989412337
 20
-17.49735837903626
 10
170.1231889144336
 20
-16.9031902790365
 10
170.8845737084338
 20
-16.24624229323648
  0
LINE
  5
2CE
330
70
100
AcDbEntity
  8
0
 62
    18
420
        0
370
    25
100
AcDbLine
 10
171.2165993369334
 20
-15.88763700403653
 30
0.0
 11
170.8845737084338
 21
-16.24624229323648
 31
0.0
  0
LINE
  5
2CF
330
70
100
AcDbEntity
  8
0
 62
    18
420
        0
370
    25
100
AcDbLine
 10
171.3381047499334
 20
-15.74011597223678
 30
0.0
 11
171.2165993369334
 21
-15.88763700403653
 31
0.0
  0
LINE
  5
2D0
330
70
100
AcDbEntity
  8
0
 62
    18
420
        0
370
    25
100
AcDbLine
 10
171.7707731015339
 20
-15.10358233633666
 30
0.0
 11
171.3381047499334
 21
-15.74011597223678
 31
0.0
  0
LWPOLYLINE
  5
2D1
330
70
100
AcDbEntity
  8
0
 62
    18
420
        0
370
    25
100
AcDbPolyline
 90
        3
 70
     0
 43
0.0
 10
172.2426913643337
 20
-13.81882408753624
 10
172.0671839845334
 20
-14.4686032142368
 10
171.7707731015339
 20
-15.10358233633666
  0
LINE
  5
2D2
330
70
100
AcDbEntity
  8
0
 62
    18
420
        0
370
    25
100
AcDbLine
 10
172.2955777566338
 20
-13.21121565973645
 30
0.0
 11
172.2426913643337
 21
-13.81882408753624
 31
0.0
  0
SPLINE
  5
2D3
330
70
100
AcDbEntity
  8
0
 62
    18
420
        0
370
    25
100
AcDbSpline
210
0.0
220
0.0
230
1.0
 70
     8
 71
     3
 72
     8
 73
     4
 74
     0
 42
0.0000000001
 43
0.0000000001
 40
0.0
 40
0.0
 40
0.0
 40
0.0
 40
1.0
 40
1.0
 40
1.0
 40
1.0
 10
147.0877567501442
 20
-77.02249942293214
 30
0.0
 10
151.6548955565052
 20
-79.3889018729645
 30
0.0
 10
157.0870172579626
 20
-79.3889018729645
 30
0.0
 10
161.6541560643234
 20
-77.02249942293214
 30
0.0
  0
LINE
  5
2D4
330
70
100
AcDbEntity
  8
0
 62
    18
420
        0
370
    25
100
AcDbLine
 10
169.078777166734
 20
-72.73635689363622
 30
0.0
 11
161.6541560643337
 21
-77.02249942293665
 31
0.0
  0
LINE
  5
2D5
330
70
100
AcDbEntity
  8
0
 62
    18
420
        0
370
    25
100
AcDbLine
 10
147.087756750134
 20
-77.02249942293665
 30
0.0
 11
139.6631356478338
 21
-72.73635689363622
 31
0.0
  0
LWPOLYLINE
  5
2D6
330
70
100
AcDbEntity
  8
0
 62
    18
420
        0
370
    25
100
AcDbPolyline
 90
        9
 70
     0
 43
0.0
 10
172.0955777895337
 20
-68.53185522693657
 10
172.0459801685339
 20
-69.11467127103685
 10
171.8976660671338
 20
-69.69187487063646
 10
171.6520632099336
 20
-70.25790642463668
 10
171.3115370888337
 20
-70.80731506053651
 10
170.8793665969335
 20
-71.33480995733645
 10
170.3597143940335
 20
-71.83531090803656
 10
169.7575854184339
 20
-72.30399812173658
 10
169.078777166734
 20
-72.73635689363622
  0
LWPOLYLINE
  5
2D7
330
70
100
AcDbEntity
  8
0
 62
    18
420
        0
370
    25
100
AcDbPolyline
 90
        9
 70
     0
 43
0.0
 10
139.6631356478338
 20
-72.73635689363622
 10
138.9843273960338
 20
-72.30399812173658
 10
138.3821984204335
 20
-71.83531090803656
 10
137.8625462175335
 20
-71.33480995733645
 10
137.4303757256334
 20
-70.80731506053651
 10
137.0898496045334
 20
-70.25790642463668
 10
136.8442467473339
 20
-69.69187487063646
 10
136.6959326460339
 20
-69.11467127103685
 10
136.6463350249334
 20
-68.53185522693657
  0
LWPOLYLINE
  5
2D8
330
70
100
AcDbEntity
  8
0
 62
    18
420
        0
370
    25
100
AcDbPolyline
 90
        7
 70
     0
 43
0.0
 10
147.4924372894339
 20
-11.83311375223663
 10
147.7765977628338
 20
-11.53063178553638
 10
147.8935371575339
 20
-11.03075357243654
 10
147.8199616016338
 20
-10.41307511153636
 10
147.5665469248338
 20
-9.767306045136294
 10
147.1699684587339
 20
-9.187280718436728
 10
146.6876986994336
 20
-8.75752367983663
  0
LWPOLYLINE
  5
2D9
330
70
100
AcDbEntity
  8
0
 62
    18
420
        0
370
    25
100
AcDbPolyline
 90
       12
 70
     0
 43
0.0
 10
137.8371607261338
 20
-13.94287078443674
 10
137.837181881934
 20
-13.94288299743638
 10
138.2809872912337
 20
-14.33354232963642
 10
138.6218793161339
 20
-14.80627058773622
 10
138.8644536917334
 20
-15.3369768742368
 10
138.9813711897339
 20
-15.86581128493681
 10
138.959466682334
 20
-16.33316417513676
 10
138.8012186017339
 20
-16.68637002523681
 10
138.5244608270335
 20
-16.88561265183639
 10
138.1603837549335
 20
-16.90842909423679
 10
138.0366959254339
 20
-16.87892713553656
 10
137.750045083634
 20
-16.75224290173668
  0
LINE
  5
2DA
330
70
100
AcDbEntity
  8
0
 62
    18
420
        0
370
    25
100
AcDbLine
 10
137.8371607261338
 20
-13.94287078443674
 30
0.0
 11
146.6876986994336
 21
-8.75752367983663
 31
0.0
  0
LWPOLYLINE
  5
2DB
330
70
100
AcDbEntity
  8
0
 62
    18
420
        0
370
    25
100
AcDbPolyline
 90
       10
 70
     0
 43
0.0
 10
137.6799021909336
 20
-16.71108311013626
 10
138.0668361904337
 20
-16.85836343653678
 10
138.410146555434
 20
-16.83684847873623
 10
138.6711181950335
 20
-16.64896741323653
 10
138.8203401000338
 20
-16.31591077933671
 10
138.840995183834
 20
-15.87521023443665
 10
138.7307459429337
 20
-15.37653734273655
 10
138.502005611734
 20
-14.87609884283635
 10
138.1805549732336
 20
-14.43032935633646
 10
137.7620414596337
 20
-14.06193923243652
  0
SPLINE
  5
2DC
330
70
100
AcDbEntity
  8
0
 62
    18
420
        0
370
    25
100
AcDbSpline
210
0.0
220
0.0
230
1.0
 70
     8
 71
     3
 72
     8
 73
     4
 74
     0
 42
0.0000000001
 43
0.0000000001
 40
0.0
 40
0.0
 40
0.0
 40
0.0
 40
1.0
 40
1.0
 40
1.0
 40
1.0
 10
137.837160726178
 20
-13.94287078448551
 30
0.0
 10
137.7955132058594
 20
-13.96926799675608
 30
0.0
 10
137.7679331644578
 20
-14.01298398171583
 30
0.0
 10
137.762041459651
 20
-14.06193923249428
 30
0.0
  0
LWPOLYLINE
  5
2DD
330
70
100
AcDbEntity
  8
0
 62
    18
420
        0
370
    25
100
AcDbPolyline
 90
        3
 70
     0
 43
0.0
 10
137.750045083634
 20
-16.75224290173668
 10
137.7231606626338
 20
-16.76135985003677
 10
137.700647660034
 20
-16.75679572063641
  0
LINE
  5
2DE
330
70
100
AcDbEntity
  8
0
 62
    18
420
        0
370
    25
100
AcDbLine
 10
136.0602251444335
 20
-15.77606345363649
 30
0.0
 11
137.6799021909336
 21
-16.71108311013626
 31
0.0
  0
LWPOLYLINE
  5
2DF
330
70
100
AcDbEntity
  8
0
 62
    18
420
        0
370
    25
100
AcDbPolyline
 90
       10
 70
     0
 43
0.0
 10
135.9780858758335
 20
-13.03208359503678
 10
135.5967141078335
 20
-12.91928755243657
 10
135.2676156272335
 20
-12.97638352063685
 10
135.0278825419334
 20
-13.19694529203625
 10
134.9045546070338
 20
-13.55611075003645
 10
134.9115440691338
 20
-14.01337852193637
 10
135.0480554066337
 20
-14.51716800543654
 10
135.2986819705334
 20
-15.01067901123639
 10
135.6351577136338
 20
-15.43827188213648
 10
136.0602251444335
 20
-15.77606345363649
  0
SPLINE
  5
2E0
330
70
100
AcDbEntity
  8
0
 62
    18
420
        0
370
    25
100
AcDbSpline
210
0.0
220
0.0
230
1.0
 70
     8
 71
     3
 72
     8
 73
     4
 74
     0
 42
0.0000000001
 43
0.0000000001
 40
0.0
 40
0.0
 40
0.0
 40
0.0
 40
1.0
 40
1.0
 40
1.0
 40
1.0
 10
137.7620414596247
 20
-14.06193923248529
 30
0.0
 10
137.188901958179
 20
-13.68266923225414
 30
0.0
 10
136.5931418608233
 20
-13.33874424869996
 30
0.0
 10
135.9780858758162
 20
-13.03208359504577
 30
0.0
  0
SPLINE
  5
2E1
330
70
100
AcDbEntity
  8
0
 62
    18
420
        0
370
    25
100
AcDbSpline
210
0.0
220
0.0
230
1.0
 70
     8
 71
     3
 72
     8
 73
     4
 74
     0
 42
0.0000000001
 43
0.0000000001
 40
0.0
 40
0.0
 40
0.0
 40
0.0
 40
1.0
 40
1.0
 40
1.0
 40
1.0
 10
136.0311987251627
 20
-14.82273901270589
 30
0.0
 10
136.1222756370964
 20
-15.12128906150052
 30
0.0
 10
136.3162003514908
 20
-15.37790642742075
 30
0.0
 10
136.5785434860582
 20
-15.54703127854534
 30
0.0
  0
LINE
  5
2E2
330
70
100
AcDbEntity
  8
0
 62
    18
420
        0
370
    25
100
AcDbLine
 10
137.1617168342336
 20
-15.88369008653651
 30
0.0
 11
136.5785434860339
 21
-15.54703127863646
 31
0.0
  0
SPLINE
  5
2E3
330
70
100
AcDbEntity
  8
0
 62
    18
420
        0
370
    25
100
AcDbSpline
210
0.0
220
0.0
230
1.0
 70
     8
 71
     3
 72
    11
 73
     7
 74
     0
 42
0.0000000001
 43
0.0000000001
 40
0.0
 40
0.0
 40
0.0
 40
0.0
 40
1.0
 40
1.0
 40
1.0
 40
2.0
 40
2.0
 40
2.0
 40
2.0
 10
137.1617168342188
 20
-15.88369008652046
 30
0.0
 10
137.3147663272174
 20
-16.01331642451184
 30
0.0
 10
137.5439203649263
 20
-15.99432820565028
 30
0.0
 10
137.6735467029177
 20
-15.84127871265175
 30
0.0
 10
137.6867703988678
 20
-15.82566552792299
 30
0.0
 10
137.698650957835
 20
-15.80896272461036
 30
0.0
 10
137.7090615539559
 20
-15.79134860639995
 30
0.0
  0
SPLINE
  5
2E4
330
70
100
AcDbEntity
  8
0
 62
    18
420
        0
370
    25
100
AcDbSpline
210
0.0
220
0.0
230
1.0
 70
     8
 71
     3
 72
     8
 73
     4
 74
     0
 42
0.0000000001
 43
0.0000000001
 40
0.0
 40
0.0
 40
0.0
 40
0.0
 40
1.0
 40
1.0
 40
1.0
 40
1.0
 10
137.7090615539244
 20
-15.7913486063499
 30
0.0
 10
137.8165189817326
 20
-15.51618344840484
 30
0.0
 10
137.8165189817326
 20
-15.21066144986777
 30
0.0
 10
137.7090615539244
 20
-14.93549629192336
 30
0.0
  0
SPLINE
  5
2E5
330
70
100
AcDbEntity
  8
0
 62
    18
420
        0
370
    25
100
AcDbSpline
210
0.0
220
0.0
230
1.0
 70
     8
 71
     3
 72
     8
 73
     4
 74
     0
 42
0.0000000001
 43
0.0000000001
 40
0.0
 40
0.0
 40
0.0
 40
0.0
 40
1.0
 40
1.0
 40
1.0
 40
1.0
 10
137.7090615540047
 20
-14.93549629201705
 30
0.0
 10
137.6179848031078
 20
-14.63694538032972
 30
0.0
 10
137.424060152714
 20
-14.38032701049317
 30
0.0
 10
137.1617168342682
 20
-14.2112010080867
 30
0.0
  0
LINE
  5
2E6
330
70
100
AcDbEntity
  8
0
 62
    18
420
        0
370
    25
100
AcDbLine
 10
136.5785434860339
 20
-13.8745422001366
 30
0.0
 11
137.1617168342336
 21
-14.21120100803665
 31
0.0
  0
SPLINE
  5
2E7
330
70
100
AcDbEntity
  8
0
 62
    18
420
        0
370
    25
100
AcDbSpline
210
0.0
220
0.0
230
1.0
 70
     8
 71
     3
 72
    11
 73
     7
 74
     0
 42
0.0000000001
 43
0.0000000001
 40
0.0
 40
0.0
 40
0.0
 40
0.0
 40
1.0
 40
1.0
 40
1.0
 40
2.0
 40
2.0
 40
2.0
 40
2.0
 10
136.5785434860659
 20
-13.87454220011543
 30
0.0
 10
136.4254933559861
 20
-13.74491651933295
 30
0.0
 10
136.1963393345949
 20
-13.76390578742442
 30
0.0
 10
136.0667136538124
 20
-13.91695591750432
 30
0.0
 10
136.0534899001685
 20
-13.93256931450391
 30
0.0
 10
136.041609314443
 20
-13.94927234459812
 30
0.0
 10
136.0311987251697
 20
-13.96688669832748
 30
0.0
  0
SPLINE
  5
2E8
330
70
100
AcDbEntity
  8
0
 62
    18
420
        0
370
    25
100
AcDbSpline
210
0.0
220
0.0
230
1.0
 70
     8
 71
     3
 72
     8
 73
     4
 74
     0
 42
0.0000000001
 43
0.0000000001
 40
0.0
 40
0.0
 40
0.0
 40
0.0
 40
1.0
 40
1.0
 40
1.0
 40
1.0
 10
136.0311987251665
 20
-13.96688669832299
 30
0.0
 10
135.9237411369529
 20
-14.24205182605813
 30
0.0
 10
135.9237411369529
 20
-14.54757388501502
 30
0.0
 10
136.0311987251665
 20
-14.82273901275017
 30
0.0
  0
SPLINE
  5
2E9
330
70
100
AcDbEntity
  8
0
 62
    18
420
        0
370
    25
100
AcDbSpline
210
0.0
220
0.0
230
1.0
 70
     8
 71
     3
 72
     8
 73
     4
 74
     0
 42
0.0000000001
 43
0.0000000001
 40
0.0
 40
0.0
 40
0.0
 40
0.0
 40
1.0
 40
1.0
 40
1.0
 40
1.0
 10
146.6876989464299
 20
-8.757523822336169
 30
0.0
 10
146.1083483890109
 20
-8.373696837101979
 30
0.0
 10
145.5059083517463
 20
-8.025915606320792
 30
0.0
 10
144.8838000830662
 20
-7.716155174670676
 30
0.0
  0
SPLINE
  5
2EA
330
70
100
AcDbEntity
  8
0
 62
    18
420
        0
370
    25
100
AcDbSpline
210
0.0
220
0.0
230
1.0
 70
     8
 71
     3
 72
     8
 73
     4
 74
     0
 42
0.0000000001
 43
0.0000000001
 40
0.0
 40
0.0
 40
0.0
 40
0.0
 40
1.0
 40
1.0
 40
1.0
 40
1.0
 10
137.8371607261793
 20
-13.94287078449385
 30
0.0
 10
137.2608234528312
 20
-13.56148515960821
 30
0.0
 10
136.6617396108357
 20
-13.21564141911606
 30
0.0
 10
136.0432523945892
 20
-12.90726954805929
 30
0.0
  0
LINE
  5
2EB
330
70
100
AcDbEntity
  8
0
 62
    18
420
        0
370
    25
100
AcDbLine
 10
144.8838000830335
 20
-7.716155174736771
 30
0.0
 11
136.0432523945334
 21
-12.90726954803683
 31
0.0
  0
SPLINE
  5
2EC
330
70
100
AcDbEntity
  8
0
 62
    18
420
        0
370
    25
100
AcDbSpline
210
0.0
220
0.0
230
1.0
 70
     8
 71
     3
 72
     8
 73
     4
 74
     0
 42
0.0000000001
 43
0.0000000001
 40
0.0
 40
0.0
 40
0.0
 40
0.0
 40
1.0
 40
1.0
 40
1.0
 40
1.0
 10
136.0432523945674
 20
-12.90726954804132
 30
0.0
 10
136.0014669724809
 20
-12.93485909822074
 30
0.0
 10
135.9768401424402
 20
-12.9820270977035
 30
0.0
 10
135.9780858758258
 20
-13.03208359504769
 30
0.0
  0
SPLINE
  5
2ED
330
70
100
AcDbEntity
  8
0
 62
    18
420
        0
370
    25
100
AcDbSpline
210
0.0
220
0.0
230
1.0
 70
     8
 71
     3
 72
     8
 73
     4
 74
     0
 42
0.0000000001
 43
0.0000000001
 40
0.0
 40
0.0
 40
0.0
 40
0.0
 40
1.0
 40
1.0
 40
1.0
 40
1.0
 10
149.0678578400638
 20
-10.12192221144463
 30
0.0
 10
152.3584528620176
 20
-11.92658593441359
 30
0.0
 10
156.3280675359959
 20
-11.98933207009907
 30
0.0
 10
159.6740556330098
 20
-10.28957020261653
 30
0.0
  0
SPLINE
  5
2EE
330
70
100
AcDbEntity
  8
0
 62
    18
420
        0
370
    25
100
AcDbSpline
210
0.0
220
0.0
230
1.0
 70
     8
 71
     3
 72
     8
 73
     4
 74
     0
 42
0.0000000001
 43
0.0000000001
 40
0.0
 40
0.0
 40
0.0
 40
0.0
 40
1.0
 40
1.0
 40
1.0
 40
1.0
 10
149.2474119757735
 20
-9.819153772964746
 30
0.0
 10
149.1428361838631
 20
-9.885797692959155
 30
0.0
 10
149.0761795615074
 20
-9.998195669099297
 30
0.0
 10
149.0678578400388
 20
-10.12192221143244
 30
0.0
  0
SPLINE
  5
2EF
330
70
100
AcDbEntity
  8
0
 62
    18
420
        0
370
    25
100
AcDbSpline
210
0.0
220
0.0
230
1.0
 70
     8
 71
     3
 72
     8
 73
     4
 74
     0
 42
0.0000000001
 43
0.0000000001
 40
0.0
 40
0.0
 40
0.0
 40
0.0
 40
1.0
 40
1.0
 40
1.0
 40
1.0
 10
149.2474119757671
 20
-9.819153772891592
 30
0.0
 10
152.4268168569385
 20
-11.57261201455117
 30
0.0
 10
156.2685574611895
 20
-11.63639712124472
 30
0.0
 10
159.5044198360779
 20
-9.989452709785997
 30
0.0
  0
SPLINE
  5
2F0
330
70
100
AcDbEntity
  8
0
 62
    18
420
        0
370
    25
100
AcDbSpline
210
0.0
220
0.0
230
1.0
 70
     8
 71
     3
 72
     8
 73
     4
 74
     0
 42
0.0000000001
 43
0.0000000001
 40
0.0
 40
0.0
 40
0.0
 40
0.0
 40
1.0
 40
1.0
 40
1.0
 40
1.0
 10
159.6740556329822
 20
-10.28957020260947
 30
0.0
 10
159.6676614517655
 20
-10.16847652170773
 30
0.0
 10
159.6048684244849
 20
-10.05738389707601
 30
0.0
 10
159.5044198360818
 20
-9.989452709866851
 30
0.0
  0
LINE
  5
2F1
330
70
100
AcDbEntity
  8
0
 62
    18
420
        0
370
    25
100
AcDbLine
 10
166.0641415089338
 20
-0.1110624560362837
 30
0.0
 11
163.3465475374335
 21
1.486501479163395
 31
0.0
  0
LWPOLYLINE
  5
2F2
330
70
100
AcDbEntity
  8
0
 62
    18
420
        0
370
    25
100
AcDbPolyline
 90
       10
 70
     0
 43
0.0
 10
166.0710035426337
 20
-6.198644625636316
 10
166.8575233341336
 20
-5.656643610936273
 10
167.4774402554336
 20
-5.040085153136854
 10
167.9107546392336
 20
-4.365938419936699
 10
168.1478589795336
 20
-3.654920211236714
 10
168.1793156750335
 20
-2.927234115636506
 10
168.0070022361334
 20
-2.205103991536411
 10
167.6325492190336
 20
-1.50939534033648
 10
167.069452176434
 20
-0.8609314371367005
 10
166.0641415089338
 20
-0.1110624560362837
  0
LINE
  5
2F3
330
70
100
AcDbEntity
  8
0
 62
    18
420
        0
370
    25
100
AcDbLine
 10
159.5044198361338
 20
-9.989452709836692
 30
0.0
 11
166.0710035426337
 21
-6.198644625636316
 31
0.0
  0
LINE
  5
2F4
330
70
100
AcDbEntity
  8
0
 62
    18
420
        0
370
    25
100
AcDbLine
 10
146.5302552779338
 20
-8.221337405036747
 30
0.0
 11
149.2474119758339
 21
-9.819153772936513
 31
0.0
  0
SPLINE
  5
2F5
330
70
100
AcDbEntity
  8
0
 62
    18
420
        0
370
    25
100
AcDbSpline
210
0.0
220
0.0
230
1.0
 70
     8
 71
     3
 72
     8
 73
     4
 74
     0
 42
0.0000000001
 43
0.0000000001
 40
0.0
 40
0.0
 40
0.0
 40
0.0
 40
1.0
 40
1.0
 40
1.0
 40
1.0
 10
146.53025527815
 20
-8.221337405186263
 30
0.0
 10
146.1524740701529
 20
-8.002059704350262
 30
0.0
 10
145.7741763515948
 20
-7.783673079916092
 30
0.0
 10
145.3953652773018
 20
-7.566179353126373
 30
0.0
  0
LINE
  5
2F6
330
70
100
AcDbEntity
  8
0
 62
    18
420
        0
370
    25
100
AcDbLine
 10
142.677771305634
 20
-6.026580941236689
 30
0.0
 11
145.3953652770335
 21
-7.566179353036535
 31
0.0
  0
LWPOLYLINE
  5
2F7
330
70
100
AcDbEntity
  8
0
 62
    18
420
        0
370
    25
100
AcDbPolyline
 90
       10
 70
     0
 43
0.0
 10
142.670909271834
 20
-0.2716739098362577
 10
141.8843894803335
 20
-0.8068490095368193
 10
141.2644725590334
 20
-1.403757106336771
 10
140.8311581753336
 20
-2.046724861036435
 10
140.5940538350336
 20
-2.717681884636393
 10
140.5625971395337
 20
-3.39929001263681
 10
140.7349105783337
 20
-4.072780930236841
 10
141.1093635954334
 20
-4.720616921536562
 10
141.6724606380337
 20
-5.324961809636475
 10
142.677771305634
 20
-6.026580941236689
  0
LINE
  5
2F8
330
70
100
AcDbEntity
  8
0
 62
    18
420
        0
370
    25
100
AcDbLine
 10
149.2374929784334
 20
3.519134174363475
 30
0.0
 11
142.670909271834
 21
-0.2716739098362577
 31
0.0
  0
SPLINE
  5
2F9
330
70
100
AcDbEntity
  8
0
 62
    18
420
        0
370
    25
100
AcDbSpline
210
0.0
220
0.0
230
1.0
 70
     8
 71
     3
 72
     8
 73
     4
 74
     0
 42
0.0000000001
 43
0.0000000001
 40
0.0
 40
0.0
 40
0.0
 40
0.0
 40
1.0
 40
1.0
 40
1.0
 40
1.0
 10
159.4945008386749
 20
3.68151037568664
 30
0.0
 10
156.2471067405038
 20
5.274550336790281
 30
0.0
 10
152.4328343863207
 20
5.214167517143466
 30
0.0
 10
149.2374929783769
 20
3.519134174347432
 30
0.0
  0
LINE
  5
2FA
330
70
100
AcDbEntity
  8
0
 62
    18
420
        0
370
    25
100
AcDbLine
 10
162.2116575366335
 20
2.141659531263712
 30
0.0
 11
159.4945008387339
 21
3.681510375663538
 31
0.0
  0
SPLINE
  5
2FB
330
70
100
AcDbEntity
  8
0
 62
    18
420
        0
370
    25
100
AcDbSpline
210
0.0
220
0.0
230
1.0
 70
     8
 71
     3
 72
     8
 73
     4
 74
     0
 42
0.0000000001
 43
0.0000000001
 40
0.0
 40
0.0
 40
0.0
 40
0.0
 40
1.0
 40
1.0
 40
1.0
 40
1.0
 10
163.3465475376075
 20
1.486501479062648
 30
0.0
 10
162.9687663296129
 20
1.705779179898008
 30
0.0
 10
162.5904686110567
 20
1.924165804330252
 30
0.0
 10
162.2116575367663
 20
2.141659531118688
 30
0.0
  0
SPLINE
  5
2FC
330
70
100
AcDbEntity
  8
0
 62
    18
420
        0
370
    25
100
AcDbSpline
210
0.0
220
0.0
230
1.0
 70
     8
 71
     3
 72
    11
 73
     7
 74
     0
 42
0.0000000001
 43
0.0000000001
 40
0.0
 40
0.0
 40
0.0
 40
0.0
 40
1.0
 40
1.0
 40
1.0
 40
2.0
 40
2.0
 40
2.0
 40
2.0
 10
137.7146987772838
 20
-15.68010707918371
 30
0.0
 10
137.6828084596784
 20
-15.7016743467794
 30
0.0
 10
137.6744399741843
 20
-15.7450102819813
 30
0.0
 10
137.6960072417807
 20
-15.7769005995867
 30
0.0
 10
137.6996612897084
 20
-15.78230363677974
 30
0.0
 10
137.7040555888268
 20
-15.78716707672825
 30
0.0
 10
137.7090615539771
 20
-15.79134860636337
 30
0.0
  0
LWPOLYLINE
  5
2FD
330
70
100
AcDbEntity
  8
0
 62
    18
420
        0
370
    25
100
AcDbPolyline
 90
        3
 70
     0
 43
0.0
 10
136.5992586620339
 20
-13.92032705183634
 10
136.5990360740335
 20
-13.92019699173665
 10
136.5980364034339
 20
-13.91958472533637
  0
SPLINE
  5
2FE
330
70
100
AcDbEntity
  8
0
 62
    18
420
        0
370
    25
100
AcDbSpline
210
0.0
220
0.0
230
1.0
 70
     8
 71
     3
 72
    11
 73
     7
 74
     0
 42
0.0000000001
 43
0.0000000001
 40
0.0
 40
0.0
 40
0.0
 40
0.0
 40
1.0
 40
1.0
 40
1.0
 40
2.0
 40
2.0
 40
2.0
 40
2.0
 10
136.0432523945064
 20
-12.90726954797972
 30
0.0
 10
135.7110469344033
 20
-12.68068890122662
 30
0.0
 10
135.2580612930308
 20
-12.76631473056074
 30
0.0
 10
135.031480646277
 20
-13.0985201906639
 30
0.0
 10
134.9407812120623
 20
-13.23150086534321
 30
0.0
 10
134.896705477943
 20
-13.39078889150735
 30
0.0
 10
134.9061449919798
 20
-13.5514784766701
 30
0.0
  0
LWPOLYLINE
  5
2FF
330
70
100
AcDbEntity
  8
0
 62
    18
420
        0
370
    25
100
AcDbPolyline
 90
        3
 70
     0
 43
0.0
 10
144.8838000830335
 20
-7.716155174736771
 10
144.4003999321339
 20
-7.587798729036531
 10
144.0476019987339
 20
-7.691821754236287
  0
SPLINE
  5
300
330
70
100
AcDbEntity
  8
0
 62
    18
420
        0
370
    25
100
AcDbSpline
210
0.0
220
0.0
230
1.0
 70
     8
 71
     3
 72
     8
 73
     4
 74
     0
 42
0.0000000001
 43
0.0000000001
 40
0.0
 40
0.0
 40
0.0
 40
0.0
 40
1.0
 40
1.0
 40
1.0
 40
1.0
 10
137.5990372059547
 20
-15.80272275373024
 30
0.0
 10
137.6495020176702
 20
-15.77499974979111
 30
0.0
 10
137.6899660763531
 20
-15.73210280664977
 30
0.0
 10
137.7146987772992
 20
-15.68010707920232
 30
0.0
  0
SPLINE
  5
301
330
70
100
AcDbEntity
  8
0
 62
    18
420
        0
370
    25
100
AcDbSpline
210
0.0
220
0.0
230
1.0
 70
     8
 71
     3
 72
     8
 73
     4
 74
     0
 42
0.0000000001
 43
0.0000000001
 40
0.0
 40
0.0
 40
0.0
 40
0.0
 40
1.0
 40
1.0
 40
1.0
 40
1.0
 10
137.2318109945366
 20
-15.76157620933656
 30
0.0
 10
137.1901016570676
 20
-15.78857719659716
 30
0.0
 10
137.1639964298578
 20
-15.83405617078239
 30
0.0
 10
137.1617168341958
 20
-15.88369008649287
 30
0.0
  0
SPLINE
  5
302
330
70
100
AcDbEntity
  8
0
 62
    18
420
        0
370
    25
100
AcDbSpline
210
0.0
220
0.0
230
1.0
 70
     8
 71
     3
 72
     8
 73
     4
 74
     0
 42
0.0000000001
 43
0.0000000001
 40
0.0
 40
0.0
 40
0.0
 40
0.0
 40
1.0
 40
1.0
 40
1.0
 40
1.0
 10
136.0311987251293
 20
-13.96688669833454
 30
0.0
 10
136.0644202920548
 20
-14.00561799527805
 30
0.0
 10
136.1191292895927
 20
-14.0179431883522
 30
0.0
 10
136.1657498225043
 20
-13.99719923060765
 30
0.0
  0
LINE
  5
303
330
70
100
AcDbEntity
  8
0
 62
    18
420
        0
370
    25
100
AcDbLine
 10
136.6486376463337
 20
-15.42491740143651
 30
0.0
 11
137.2318109945334
 21
-15.76157620933656
 31
0.0
  0
SPLINE
  5
304
330
70
100
AcDbEntity
  8
0
 62
    18
420
        0
370
    25
100
AcDbSpline
210
0.0
220
0.0
230
1.0
 70
     8
 71
     3
 72
     8
 73
     4
 74
     0
 42
0.0000000001
 43
0.0000000001
 40
0.0
 40
0.0
 40
0.0
 40
0.0
 40
1.0
 40
1.0
 40
1.0
 40
1.0
 10
136.1657498224959
 20
-13.99719923064294
 30
0.0
 10
136.0667210855356
 20
-14.25078017276198
 30
0.0
 10
136.0667210855356
 20
-14.5323369389133
 30
0.0
 10
136.1657498224966
 20
-14.78591788103234
 30
0.0
  0
SPLINE
  5
305
330
70
100
AcDbEntity
  8
0
 62
    18
420
        0
370
    25
100
AcDbSpline
210
0.0
220
0.0
230
1.0
 70
     8
 71
     3
 72
     8
 73
     4
 74
     0
 42
0.0000000001
 43
0.0000000001
 40
0.0
 40
0.0
 40
0.0
 40
0.0
 40
1.0
 40
1.0
 40
1.0
 40
1.0
 10
136.6486376463369
 20
-15.42491740143651
 30
0.0
 10
136.6069283088679
 20
-15.45191838869711
 30
0.0
 10
136.5808230816574
 20
-15.49739736288234
 30
0.0
 10
136.578543485996
 20
-15.54703127859282
 30
0.0
  0
SPLINE
  5
306
330
70
100
AcDbEntity
  8
0
 62
    18
420
        0
370
    25
100
AcDbSpline
210
0.0
220
0.0
230
1.0
 70
     8
 71
     3
 72
     8
 73
     4
 74
     0
 42
0.0000000001
 43
0.0000000001
 40
0.0
 40
0.0
 40
0.0
 40
0.0
 40
1.0
 40
1.0
 40
1.0
 40
1.0
 10
136.031198725155
 20
-14.82273901271231
 30
0.0
 10
136.0784132735624
 20
-14.82184563463292
 30
0.0
 10
136.1246594089411
 20
-14.80918995900066
 30
0.0
 10
136.1657498225299
 20
-14.78591788094956
 30
0.0
  0
SPLINE
  5
307
330
70
100
AcDbEntity
  8
0
 62
    18
420
        0
370
    25
100
AcDbSpline
210
0.0
220
0.0
230
1.0
 70
     8
 71
     3
 72
     8
 73
     4
 74
     0
 42
0.0000000001
 43
0.0000000001
 40
0.0
 40
0.0
 40
0.0
 40
0.0
 40
1.0
 40
1.0
 40
1.0
 40
1.0
 10
136.1657498225145
 20
-14.78591788096689
 30
0.0
 10
136.2461017273162
 20
-15.04931008805515
 30
0.0
 10
136.4171891234453
 20
-15.27570793591643
 30
0.0
 10
136.6486376463754
 20
-15.42491740141277
 30
0.0
  0
LINE
  5
308
330
70
100
AcDbEntity
  8
0
 62
    18
420
        0
370
    25
100
AcDbLine
 10
149.0678578400337
 20
-10.12192221143629
 30
0.0
 11
146.353006541834
 21
-8.525461057236316
 31
0.0
  0
SPLINE
  5
309
330
70
100
AcDbEntity
  8
0
 62
    18
420
        0
370
    25
100
AcDbSpline
210
0.0
220
0.0
230
1.0
 70
     8
 71
     3
 72
     8
 73
     4
 74
     0
 42
0.0000000001
 43
0.0000000001
 40
0.0
 40
0.0
 40
0.0
 40
0.0
 40
1.0
 40
1.0
 40
1.0
 40
1.0
 10
146.5302552778882
 20
-8.221337405061772
 30
0.0
 10
146.4256503624495
 20
-8.288258733859757
 30
0.0
 10
146.3596744615975
 20
-8.401460285367967
 30
0.0
 10
146.3530065418391
 20
-8.525461057253
 30
0.0
  0
LINE
  5
30A
330
70
100
AcDbEntity
  8
0
 62
    18
420
        0
370
    25
100
AcDbLine
 10
146.353006541834
 20
-8.525461057236316
 30
0.0
 11
145.7860338824334
 21
-8.199053573836263
 31
0.0
  0
LINE
  5
30B
330
70
100
AcDbEntity
  8
0
 62
    18
420
        0
370
    25
100
AcDbLine
 10
145.2190743940334
 20
-7.870855961936577
 30
0.0
 11
142.5037858222335
 21
-6.332564094236403
 31
0.0
  0
LINE
  5
30C
330
70
100
AcDbEntity
  8
0
 62
    18
420
        0
370
    25
100
AcDbLine
 10
145.7860338824334
 20
-8.199053573836263
 30
0.0
 11
145.2190743940334
 21
-7.870855961936577
 31
0.0
  0
SPLINE
  5
30D
330
70
100
AcDbEntity
  8
0
 62
    18
420
        0
370
    25
100
AcDbSpline
210
0.0
220
0.0
230
1.0
 70
     8
 71
     3
 72
     8
 73
     4
 74
     0
 42
0.0000000001
 43
0.0000000001
 40
0.0
 40
0.0
 40
0.0
 40
0.0
 40
1.0
 40
1.0
 40
1.0
 40
1.0
 10
166.2406393395822
 20
-6.498762118408458
 30
0.0
 10
166.2342451583649
 20
-6.37766843750736
 30
0.0
 10
166.1714521310843
 20
-6.266575812875641
 30
0.0
 10
166.0710035426818
 20
-6.198644625666476
 30
0.0
  0
LINE
  5
30E
330
70
100
AcDbEntity
  8
0
 62
    18
420
        0
370
    25
100
AcDbLine
 10
166.2406393395334
 20
-6.498762118436692
 30
0.0
 11
159.6740556330335
 21
-10.28957020253632
 31
0.0
  0
SPLINE
  5
30F
330
70
100
AcDbEntity
  8
0
 62
    18
420
        0
370
    25
100
AcDbSpline
210
0.0
220
0.0
230
1.0
 70
     8
 71
     3
 72
     8
 73
     4
 74
     0
 42
0.0000000001
 43
0.0000000001
 40
0.0
 40
0.0
 40
0.0
 40
0.0
 40
1.0
 40
1.0
 40
1.0
 40
1.0
 10
145.3953652770323
 20
-7.566179352986482
 30
0.0
 10
145.290745942518
 20
-7.633212709521274
 30
0.0
 10
145.2250529045353
 20
-7.746747406815708
 30
0.0
 10
145.2190743939705
 20
-7.870855961935935
 30
0.0
  0
SPLINE
  5
310
330
70
100
AcDbEntity
  8
0
 62
    18
420
        0
370
    25
100
AcDbSpline
210
0.0
220
0.0
230
1.0
 70
     8
 71
     3
 72
     8
 73
     4
 74
     0
 42
0.0000000001
 43
0.0000000001
 40
0.0
 40
0.0
 40
0.0
 40
0.0
 40
1.0
 40
1.0
 40
1.0
 40
1.0
 10
142.677771305564
 20
-6.026580941227705
 30
0.0
 10
142.5731288352499
 20
-6.093892418508056
 30
0.0
 10
142.5081223024743
 20
-6.208217495987646
 30
0.0
 10
142.503785822188
 20
-6.332564094275546
 30
0.0
  0
SPLINE
  5
311
330
70
100
AcDbEntity
  8
0
 62
    18
420
        0
370
    25
100
AcDbSpline
210
0.0
220
0.0
230
1.0
 70
     8
 71
     3
 72
     8
 73
     4
 74
     0
 42
0.0000000001
 43
0.0000000001
 40
0.0
 40
0.0
 40
0.0
 40
0.0
 40
1.0
 40
1.0
 40
1.0
 40
1.0
 10
168.1172142693573
 20
-4.644591203326752
 30
0.0
 10
168.605335329236
 20
-3.810905786506716
 30
0.0
 10
168.5712424787972
 20
-2.770979618125771
 30
0.0
 10
168.0295652880658
 20
-1.971055018955793
 30
0.0
  0
LINE
  5
312
330
70
100
AcDbEntity
  8
0
 62
    18
420
        0
370
    25
100
AcDbLine
 10
168.5883528154339
 20
-13.41206917463667
 30
0.0
 11
168.5765470880334
 21
-13.69558107303664
 31
0.0
  0
SPLINE
  5
313
330
70
100
AcDbEntity
  8
0
 62
    18
420
        0
370
    25
100
AcDbSpline
210
0.0
220
0.0
230
1.0
 70
     8
 71
     3
 72
     8
 73
     4
 74
     0
 42
0.0000000001
 43
0.0000000001
 40
0.0
 40
0.0
 40
0.0
 40
0.0
 40
1.0
 40
1.0
 40
1.0
 40
1.0
 10
140.6470620581187
 20
-2.139824948261001
 30
0.0
 10
140.1699012461951
 20
-2.857583528933357
 30
0.0
 10
140.1580631864875
 20
-3.788463930772222
 30
0.0
 10
140.6168170845018
 20
-4.518124592738302
 30
0.0
  0
LINE
  5
314
330
70
100
AcDbEntity
  8
0
 62
    18
420
        0
370
    25
100
AcDbLine
 10
142.5560624023338
 20
-0.2615937239366499
 30
0.0
 11
142.5530535125338
 21
-0.2632483932368005
 31
0.0
  0
LINE
  5
315
330
70
100
AcDbEntity
  8
0
 62
    18
420
        0
370
    25
100
AcDbLine
 10
149.124156810034
 20
3.529984850963411
 30
0.0
 11
149.1196372190337
 21
3.527559690863469
 31
0.0
  0
SPLINE
  5
316
330
70
100
AcDbEntity
  8
0
 62
    18
420
        0
370
    25
100
AcDbSpline
210
0.0
220
0.0
230
1.0
 70
     8
 71
     3
 72
     8
 73
     4
 74
     0
 42
0.0000000001
 43
0.0000000001
 40
0.0
 40
0.0
 40
0.0
 40
0.0
 40
1.0
 40
1.0
 40
1.0
 40
1.0
 10
159.6175650265717
 20
3.69493825691178
 30
0.0
 10
159.5769755213312
 20
3.712002586122184
 30
0.0
 10
159.5304551686731
 20
3.706926619000415
 30
0.0
 10
159.494500838732
 20
3.681510375659688
 30
0.0
  0
LINE
  5
317
330
70
100
AcDbEntity
  8
0
 62
     8
420
  8421504
370
    25
100
AcDbLine
 10
140.2418560003337
 20
-7.570314484436523
 30
0.0
 11
139.5570698108335
 21
-7.965633137036685
 31
0.0
  0
LINE
  5
318
330
70
100
AcDbEntity
  8
0
 62
     8
420
  8421504
370
    25
100
AcDbLine
 10
169.1848430037337
 20
-7.965633137036685
 30
0.0
 11
168.500056814134
 21
-7.570314484436523
 31
0.0
  0
SPLINE
  5
319
330
70
100
AcDbEntity
  8
0
 62
     8
420
  8421504
370
    25
100
AcDbSpline
210
0.0
220
0.0
230
1.0
 70
     8
 71
     3
 72
     8
 73
     4
 74
     0
 42
0.0000000001
 43
0.0000000001
 40
0.0
 40
0.0
 40
0.0
 40
0.0
 40
1.0
 40
1.0
 40
1.0
 40
1.0
 10
159.8860822691311
 20
-19.37475915793808
 30
0.0
 10
159.8788318515699
 20
-19.3694173380101
 30
0.0
 10
159.8692406713311
 20
-19.36846823900081
 30
0.0
 10
159.8610839196079
 20
-19.37228543643682
 30
0.0
  0
SPLINE
  5
31A
330
70
100
AcDbEntity
  8
0
 62
     8
420
  8421504
370
    25
100
AcDbSpline
210
0.0
220
0.0
230
1.0
 70
     8
 71
     3
 72
     8
 73
     4
 74
     0
 42
0.0000000001
 43
0.0000000001
 40
0.0
 40
0.0
 40
0.0
 40
0.0
 40
1.0
 40
1.0
 40
1.0
 40
1.0
 10
148.8808288948592
 20
-19.37228543643554
 30
0.0
 10
148.872672143136
 20
-19.36846823899952
 30
0.0
 10
148.8630809628972
 20
-19.36941733800882
 30
0.0
 10
148.855830545336
 20
-19.37475915793616
 30
0.0
  0
SPLINE
  5
31B
330
70
100
AcDbEntity
  8
0
 62
     8
420
  8421504
370
    25
100
AcDbSpline
210
0.0
220
0.0
230
1.0
 70
     8
 71
     3
 72
     8
 73
     4
 74
     0
 42
0.0000000001
 43
0.0000000001
 40
0.0
 40
0.0
 40
0.0
 40
0.0
 40
1.0
 40
1.0
 40
1.0
 40
1.0
 10
166.7450182489311
 20
-15.41517969873782
 30
0.0
 10
166.7377678313699
 20
-15.40983787880984
 30
0.0
 10
166.7281766511311
 20
-15.40888877980055
 30
0.0
 10
166.7200198994079
 20
-15.41270597723721
 30
0.0
  0
SPLINE
  5
31C
330
70
100
AcDbEntity
  8
0
 62
     8
420
  8421504
370
    25
100
AcDbSpline
210
0.0
220
0.0
230
1.0
 70
     8
 71
     3
 72
     8
 73
     4
 74
     0
 42
0.0000000001
 43
0.0000000001
 40
0.0
 40
0.0
 40
0.0
 40
0.0
 40
1.0
 40
1.0
 40
1.0
 40
1.0
 10
142.0218929150592
 20
-15.41270597723721
 30
0.0
 10
142.013736163336
 20
-15.40888877980055
 30
0.0
 10
142.0041449830972
 20
-15.40983787881049
 30
0.0
 10
141.9968945655366
 20
-15.41517969873782
 30
0.0
  0
LINE
  5
31D
330
70
100
AcDbEntity
  8
0
 62
     8
420
  8421504
370
    25
100
AcDbLine
 10
147.087756750134
 20
-21.85512658863654
 30
0.0
 11
147.087756750134
 21
-77.02249942293665
 31
0.0
  0
LINE
  5
31E
330
70
100
AcDbEntity
  8
0
 62
     8
420
  8421504
370
    25
100
AcDbLine
 10
161.6541560643337
 20
-21.85512658863654
 30
0.0
 11
161.6541560643337
 21
-77.02249942293665
 31
0.0
  0
LINE
  5
31F
330
70
100
AcDbEntity
  8
0
 62
     8
420
  8421504
370
    25
100
AcDbLine
 10
169.078777166734
 20
-17.57899935563679
 30
0.0
 11
169.078777166734
 21
-72.73635689363622
 31
0.0
  0
LINE
  5
320
330
70
100
AcDbEntity
  8
0
 62
     8
420
  8421504
370
    25
100
AcDbLine
 10
139.6631356478338
 20
-17.57899935563679
 30
0.0
 11
139.6631356478338
 21
-72.73635689363622
 31
0.0
  0
LWPOLYLINE
  5
321
330
70
100
AcDbEntity
  8
0
 62
     8
420
  8421504
370
    25
100
AcDbPolyline
 90
        4
 70
     0
 43
0.0
 10
137.700647660034
 20
-16.75679572063641
 10
137.700411901134
 20
-16.75674931033668
 10
137.6852298160335
 20
-16.73910438623642
 10
137.6799021909336
 20
-16.71108311013626
  0
LINE
  5
322
330
70
100
AcDbEntity
  8
0
 62
     8
420
  8421504
370
    25
100
AcDbLine
 10
149.0678575107336
 20
-19.49262613033672
 30
0.0
 11
149.0678578400337
 21
-10.12192221143629
 31
0.0
  0
LINE
  5
323
330
70
100
AcDbEntity
  8
0
 62
     8
420
  8421504
370
    25
100
AcDbLine
 10
159.6740556330335
 20
-10.28957020253632
 30
0.0
 11
159.6740553037334
 21
-19.49262613033672
 31
0.0
  0
SPLINE
  5
324
330
70
100
AcDbEntity
  8
0
 62
     8
420
  8421504
370
    25
100
AcDbSpline
210
0.0
220
0.0
230
1.0
 70
     8
 71
     3
 72
     8
 73
     4
 74
     0
 42
0.0000000001
 43
0.0000000001
 40
0.0
 40
0.0
 40
0.0
 40
0.0
 40
1.0
 40
1.0
 40
1.0
 40
1.0
 10
137.1617168341874
 20
-14.21120100799622
 30
0.0
 10
137.1597727518704
 20
-14.22906253937833
 30
0.0
 10
137.1676713880017
 20
-14.24657286159674
 30
0.0
 10
137.1823477165335
 20
-14.256937182133
 30
0.0
  0
SPLINE
  5
325
330
70
100
AcDbEntity
  8
0
 62
     8
420
  8421504
370
    25
100
AcDbSpline
210
0.0
220
0.0
230
1.0
 70
     8
 71
     3
 72
     8
 73
     4
 74
     0
 42
0.0000000001
 43
0.0000000001
 40
0.0
 40
0.0
 40
0.0
 40
0.0
 40
1.0
 40
1.0
 40
1.0
 40
1.0
 10
136.5785434860063
 20
-13.87454220008013
 30
0.0
 10
136.5768986809281
 20
-13.89190385680448
 30
0.0
 10
136.5842538437981
 20
-13.90889952254027
 30
0.0
 10
136.5980364034423
 20
-13.91958472528183
 30
0.0
  0
LWPOLYLINE
  5
326
330
70
100
AcDbEntity
  8
0
 62
     8
420
  8421504
370
    25
100
AcDbPolyline
 90
        4
 70
     0
 43
0.0
 10
136.0809706135339
 20
-15.82177606423674
 10
136.0807348546339
 20
-15.82172965383627
 10
136.0655527695334
 20
-15.80408472973665
 10
136.0602251444335
 20
-15.77606345363649
  0
SPLINE
  5
327
330
70
100
AcDbEntity
  8
0
 62
     8
420
  8421504
370
    25
100
AcDbSpline
210
0.0
220
0.0
230
1.0
 70
     8
 71
     3
 72
     8
 73
     4
 74
     0
 42
0.0000000001
 43
0.0000000001
 40
0.0
 40
0.0
 40
0.0
 40
0.0
 40
1.0
 40
1.0
 40
1.0
 40
1.0
 10
137.2318109945167
 20
-15.76157620940907
 30
0.0
 10
137.338592171763
 20
-15.83859097922426
 30
0.0
 10
137.4778594128563
 20
-15.85419543647582
 30
0.0
 10
137.5990372058758
 20
-15.80272275379313
 30
0.0
  0
LINE
  5
328
330
70
100
AcDbEntity
  8
0
 62
     8
420
  8421504
370
    25
100
AcDbLine
 10
137.7482350122339
 20
-15.45824636163677
 30
0.0
 11
137.2318109945334
 21
-15.76157620933656
 31
0.0
  0
SPLINE
  5
329
330
70
100
AcDbEntity
  8
0
 62
     8
420
  8421504
370
    25
100
AcDbSpline
210
0.0
220
0.0
230
1.0
 70
     8
 71
     3
 72
     8
 73
     4
 74
     0
 42
0.0000000001
 43
0.0000000001
 40
0.0
 40
0.0
 40
0.0
 40
0.0
 40
1.0
 40
1.0
 40
1.0
 40
1.0
 10
136.2835949216921
 20
-13.87343189157723
 30
0.0
 10
136.2321228989295
 20
-13.90106913930656
 30
0.0
 10
136.1908321016397
 20
-13.94443498264982
 30
0.0
 10
136.1657498225543
 20
-13.99719923063267
 30
0.0
  0
LINE
  5
32A
330
70
100
AcDbEntity
  8
0
 62
     8
420
  8421504
370
    25
100
AcDbLine
 10
136.4110709872338
 20
-13.85882077723626
 30
0.0
 11
136.1657498225338
 21
-13.99719923063652
 31
0.0
  0
LINE
  5
32B
330
70
100
AcDbEntity
  8
0
 62
     8
420
  8421504
370
    25
100
AcDbLine
 10
137.6467988255338
 20
-14.8386318149368
 30
0.0
 11
136.6486376463337
 21
-15.42491740143651
 31
0.0
  0
LINE
  5
32C
330
70
100
AcDbEntity
  8
0
 62
     8
420
  8421504
370
    25
100
AcDbLine
 10
137.1364137226337
 20
-14.23041994193665
 30
0.0
 11
136.1657498225338
 21
-14.78591788103683
 31
0.0
  0
LINE
  5
32D
330
70
100
AcDbEntity
  8
0
 62
     8
420
  8421504
370
    25
100
AcDbLine
 10
142.5037858222335
 20
-6.332564094236403
 30
0.0
 11
142.4694127623336
 21
-8.606704225736359
 31
0.0
  0
LINE
  5
32E
330
70
100
AcDbEntity
  8
0
 62
     8
420
  8421504
370
    25
100
AcDbLine
 10
142.3769699063338
 20
-14.72288501443632
 30
0.0
 11
142.3635622694338
 21
-15.60994691593652
 31
0.0
  0
LINE
  5
32F
330
70
100
AcDbEntity
  8
0
 62
     8
420
  8421504
370
    25
100
AcDbLine
 10
166.3783505450339
 20
-15.60994691593652
 30
0.0
 11
166.2406393395334
 21
-6.498762118436692
 31
0.0
  0
SPLINE
  5
330
330
70
100
AcDbEntity
  8
0
 62
     8
420
  8421504
370
    25
100
AcDbSpline
210
0.0
220
0.0
230
1.0
 70
     8
 71
     3
 72
     8
 73
     4
 74
     0
 42
0.0000000001
 43
0.0000000001
 40
0.0
 40
0.0
 40
0.0
 40
0.0
 40
1.0
 40
1.0
 40
1.0
 40
1.0
 10
166.2406393396008
 20
-6.498762118348779
 30
0.0
 10
167.0360473425883
 20
-6.080271800584812
 30
0.0
 10
167.6892012510844
 20
-5.43491575273168
 30
0.0
 10
168.117214269388
 20
-4.644591203294667
 30
0.0
  0
SPLINE
  5
331
330
70
100
AcDbEntity
  8
0
 62
     8
420
  8421504
370
    25
100
AcDbSpline
210
0.0
220
0.0
230
1.0
 70
     8
 71
     3
 72
     8
 73
     4
 74
     0
 42
0.0000000001
 43
0.0000000001
 40
0.0
 40
0.0
 40
0.0
 40
0.0
 40
1.0
 40
1.0
 40
1.0
 40
1.0
 10
166.1885995061711
 20
-0.098372850132888
 30
0.0
 10
166.1479159108278
 20
-0.0795164004690362
 30
0.0
 10
166.1001823384173
 20
-0.0843832650774043
 30
0.0
 10
166.0641415088793
 20
-0.111062456035642
 30
0.0
  0
SPLINE
  5
332
330
70
100
AcDbEntity
  8
0
 62
     8
420
  8421504
370
    25
100
AcDbSpline
210
0.0
220
0.0
230
1.0
 70
     8
 71
     3
 72
     8
 73
     4
 74
     0
 42
0.0000000001
 43
0.0000000001
 40
0.0
 40
0.0
 40
0.0
 40
0.0
 40
1.0
 40
1.0
 40
1.0
 40
1.0
 10
140.6168170845256
 20
-4.518124592776803
 30
0.0
 10
141.0315689614737
 20
-5.312186702603142
 30
0.0
 10
141.6940853441708
 20
-5.949238006702143
 30
0.0
 10
142.5037858222804
 20
-6.332564094313406
 30
0.0
  0
SPLINE
  5
333
330
70
100
AcDbEntity
  8
0
 62
     8
420
  8421504
370
    25
100
AcDbSpline
210
0.0
220
0.0
230
1.0
 70
     8
 71
     3
 72
     8
 73
     4
 74
     0
 42
0.0000000001
 43
0.0000000001
 40
0.0
 40
0.0
 40
0.0
 40
0.0
 40
1.0
 40
1.0
 40
1.0
 40
1.0
 10
142.6709092718058
 20
-0.2716739098702678
 30
0.0
 10
142.636688884682
 20
-0.2494139166359647
 30
0.0
 10
142.5936372500133
 20
-0.2456352461108279
 30
0.0
 10
142.5560624023364
 20
-0.2615937239745101
 30
0.0
  0
LWPOLYLINE
  5
334
330
70
100
AcDbEntity
  8
0
 62
     8
420
  8421504
370
    25
100
AcDbPolyline
 90
        4
 70
     0
 43
0.0
 10
163.4714051889337
 20
1.498650156163278
 10
163.4708601199336
 20
1.499266824263462
 10
163.4138034944337
 20
1.510002519063139
 10
163.3465475374335
 20
1.486501479163395
  0
SPLINE
  5
335
330
70
100
AcDbEntity
  8
0
 62
     8
420
  8421504
370
    25
100
AcDbSpline
210
0.0
220
0.0
230
1.0
 70
     8
 71
     3
 72
     8
 73
     4
 74
     0
 42
0.0000000001
 43
0.0000000001
 40
0.0
 40
0.0
 40
0.0
 40
0.0
 40
1.0
 40
1.0
 40
1.0
 40
1.0
 10
149.2374929783846
 20
3.519134174337807
 30
0.0
 10
149.20374463913
 20
3.541018118491413
 30
0.0
 10
149.1614443276261
 20
3.545067902466351
 30
0.0
 10
149.124156810016
 20
3.529984850895392
 30
0.0
  0
LWPOLYLINE
  5
336
330
70
100
AcDbEntity
  8
0
 62
     8
420
  8421504
370
    25
100
AcDbPolyline
 90
        4
 70
     0
 43
0.0
 10
162.3365454811339
 20
2.153931453863443
 10
162.336251893734
 20
2.154262211263167
 10
162.2789875387338
 20
2.165117825763522
 10
162.2116575366335
 20
2.141659531263712
  0
INSERT
  5
339
330
70
100
AcDbEntity
  8
CAPA_BASE
100
AcDbBlockReference
  2
Block_0
 10
0.0
 20
0.0
 30
0.0
  0
INSERT
  5
345
330
70
100
AcDbEntity
  8
CAPA_BASE
100
AcDbBlockReference
  2
Block_1
 10
0.0
 20
0.0
 30
0.0
  0
INSERT
  5
351
330
70
100
AcDbEntity
  8
CAPA_BASE
100
AcDbBlockReference
  2
Block_2
 10
0.0
 20
0.0
 30
0.0
  0
ENDSEC
  0
SECTION
  2
OBJECTS
  0
DICTIONARY
  5
C
330
0
100
AcDbDictionary
281
     1
  3
ACAD_COLOR
350
63
  3
ACAD_DETAILVIEWSTYLE
350
6A
  3
ACAD_GROUP
350
D
  3
ACAD_LAYOUT
350
62
  3
ACAD_MATERIAL
350
10
  3
ACAD_MLEADERSTYLE
350
66
  3
ACAD_MLINESTYLE
350
5F
  3
ACAD_PLOTSETTINGS
350
61
  3
ACAD_PLOTSTYLENAME
350
E
  3
ACAD_SCALELIST
350
42
  3
ACAD_SECTIONVIEWSTYLE
350
68
  3
ACAD_TABLESTYLE
350
64
  3
ACAD_VISUALSTYLE
350
29
  3
ACDB_RECOMPOSE_DATA
350
364
  3
AcDbVariableDictionary
350
35C
  0
DICTIONARY
  5
63
102
{ACAD_REACTORS
330
C
102
}
330
C
100
AcDbDictionary
281
     1
  0
DICTIONARY
  5
6A
102
{ACAD_REACTORS
330
C
102
}
330
C
100
AcDbDictionary
281
     1
  3
Imperial24
350
6B
  0
DICTIONARY
  5
D
102
{ACAD_REACTORS
330
C
102
}
330
C
100
AcDbDictionary
281
     1
  0
DICTIONARY
  5
62
102
{ACAD_REACTORS
330
C
102
}
330
C
100
AcDbDictionary
281
     1
  3
Layout1
350
6F
  3
Layout2
350
77
  3
Model
350
73
  0
DICTIONARY
  5
10
102
{ACAD_REACTORS
330
C
102
}
330
C
100
AcDbDictionary
281
     1
  3
ByBlock
350
19
  3
ByLayer
350
11
  3
Global
350
21
  0
DICTIONARY
  5
66
102
{ACAD_REACTORS
330
C
102
}
330
C
100
AcDbDictionary
281
     1
  3
Standard
350
67
  0
DICTIONARY
  5
5F
102
{ACAD_REACTORS
330
C
102
}
330
C
100
AcDbDictionary
281
     1
  3
Standard
350
60
  0
DICTIONARY
  5
61
102
{ACAD_REACTORS
330
C
102
}
330
C
100
AcDbDictionary
281
     1
  0
ACDBDICTIONARYWDFLT
  5
E
102
{ACAD_REACTORS
330
C
102
}
330
C
100
AcDbDictionary
281
     1
  3
Normal
350
F
100
AcDbDictionaryWithDefault
340
F
  0
DICTIONARY
  5
42
102
{ACAD_REACTORS
330
C
102
}
330
C
100
AcDbDictionary
281
     1
  3
A0
350
43
  3
A1
350
44
  3
A2
350
45
  3
A3
350
46
  3
A4
350
47
  3
A5
350
48
  3
A6
350
49
  3
A7
350
4A
  3
A8
350
4B
  3
A9
350
4C
  3
B0
350
4D
  3
B1
350
4E
  3
B2
350
4F
  3
B3
350
50
  3
B4
350
51
  3
B5
350
52
  3
B6
350
53
  0
DICTIONARY
  5
68
102
{ACAD_REACTORS
330
C
102
}
330
C
100
AcDbDictionary
281
     1
  3
Imperial24
350
69
  0
DICTIONARY
  5
64
102
{ACAD_REACTORS
330
C
102
}
330
C
100
AcDbDictionary
281
     1
  3
Standard
350
65
  0
DICTIONARY
  5
29
102
{ACAD_REACTORS
330
C
102
}
330
C
100
AcDbDictionary
281
     1
  3
2dWireframe
350
2F
  3
Basic
350
2E
  3
Brighten
350
35
  3
ColorChange
350
39
  3
Conceptual
350
32
  3
Dim
350
34
  3
EdgeColorOff
350
41
  3
Facepattern
350
38
  3
Flat
350
2A
  3
FlatWithEdges
350
2B
  3
Gouraud
350
2C
  3
GouraudWithEdges
350
2D
  3
Hidden
350
31
  3
JitterOff
350
3F
  3
Linepattern
350
37
  3
OverhangOff
350
40
  3
Realistic
350
33
  3
Shaded
350
3E
  3
Shaded with edges
350
3D
  3
Shades of Gray
350
3A
  3
Sketchy
350
3B
  3
Thicken
350
36
  3
Wireframe
350
30
  3
X-Ray
350
3C
  0
XRECORD
  5
364
102
{ACAD_REACTORS
330
C
102
}
330
C
100
AcDbXrecord
280
     1
 90
        1
330
65
  0
DICTIONARY
  5
35C
102
{ACAD_REACTORS
330
C
102
}
330
C
100
AcDbDictionary
281
     1
  3
CANNOSCALE
350
361
  3
CMLEADERSTYLE
350
35E
  3
CTABLESTYLE
350
35D
  3
CVIEWDETAILSTYLE
350
35F
  3
CVIEWSECTIONSTYLE
350
360
  0
ACDBDETAILVIEWSTYLE
  5
6B
102
{ACAD_REACTORS
330
6A
102
}
330
6A
100
AcDbModelDocViewStyle
 70
     0
  3
Imperial24
290
     1
300
Imperial24
 90
        0
100
AcDbDetailViewStyle
 70
     0
 71
     0
 90
        3
 71
     1
340
55
 62
   256
 40
0.24
340
0
 62
   256
 40
0.24
300

 40
0.36
280
     3
 71
     2
340
5D
 90
       25
 62
   256
 71
     3
340
55
 62
   256
 40
0.24
 90
        1
 40
0.75
 90
        1
300
%<\AcVar ViewType \f "%tc1">% %<\AcVar ViewDetailId>%\PSCALE %<\AcVar ViewScale \f "%sn">%
 71
     4
340
5D
 90
       25
 62
   256
340
5D
 90
       25
 62
   256
280
     0
  0
LAYOUT
  5
6F
102
{ACAD_REACTORS
330
62
102
}
330
62
100
AcDbPlotSettings
  1

  2

  4

  6

 40
0.0
 41
0.0
 42
0.0
 43
0.0
 44
0.0
 45
0.0
 46
0.0
 47
0.0
 48
0.0
 49
0.0
140
0.0
141
0.0
142
1.0
143
1.0
 70
   688
 72
     0
 73
     0
 74
     5
  7

 75
    16
147
1.0
 76
     0
 77
     2
 78
   300
148
0.0
149
0.0
100
AcDbLayout
  1
Layout1
 70
     1
 71
     1
 10
0.0
 20
0.0
 11
12.0
 21
9.0
 12
0.0
 22
0.0
 32
0.0
 14
0.0
 24
0.0
 34
0.0
 15
0.0
 25
0.0
 35
0.0
146
0.0
 13
0.0
 23
0.0
 33
0.0
 16
1.0
 26
0.0
 36
0.0
 17
0.0
 27
1.0
 37
0.0
 76
     0
330
6C
  0
LAYOUT
  5
77
102
{ACAD_REACTORS
330
62
102
}
330
62
100
AcDbPlotSettings
  1

  2

  4

  6

 40
0.0
 41
0.0
 42
0.0
 43
0.0
 44
0.0
 45
0.0
 46
0.0
 47
0.0
 48
0.0
 49
0.0
140
0.0
141
0.0
142
1.0
143
1.0
 70
   688
 72
     0
 73
     0
 74
     5
  7

 75
    16
147
1.0
 76
     0
 77
     2
 78
   300
148
0.0
149
0.0
100
AcDbLayout
  1
Layout2
 70
     1
 71
     2
 10
0.0
 20
0.0
 11
12.0
 21
9.0
 12
0.0
 22
0.0
 32
0.0
 14
0.0
 24
0.0
 34
0.0
 15
0.0
 25
0.0
 35
0.0
146
0.0
 13
0.0
 23
0.0
 33
0.0
 16
1.0
 26
0.0
 36
0.0
 17
0.0
 27
1.0
 37
0.0
 76
     0
330
74
  0
LAYOUT
  5
73
102
{ACAD_REACTORS
330
62
102
}
330
62
100
AcDbPlotSettings
  1

  2

  4

  6

 40
0.0
 41
0.0
 42
0.0
 43
0.0
 44
0.0
 45
0.0
 46
0.0
 47
0.0
 48
0.0
 49
0.0
140
0.0
141
0.0
142
1.0
143
1.0
 70
  1712
 72
     0
 73
     0
 74
     0
  7

 75
     0
147
1.0
 76
     0
 77
     2
 78
   300
148
0.0
149
0.0
100
AcDbLayout
  1
Model
 70
     1
 71
     0
 10
0.0
 20
0.0
 11
12.0
 21
9.0
 12
0.0
 22
0.0
 32
0.0
 14
0.0
 24
0.0
 34
0.0
 15
0.0
 25
0.0
 35
0.0
146
0.0
 13
0.0
 23
0.0
 33
0.0
 16
1.0
 26
0.0
 36
0.0
 17
0.0
 27
1.0
 37
0.0
 76
     0
330
70
  0
MATERIAL
  5
19
102
{ACAD_XDICTIONARY
360
1A
102
}
102
{ACAD_REACTORS
330
10
102
}
330
10
100
AcDbMaterial
  1
ByBlock
 72
     0
 43
0.0208333333333333
 43
0.0
 43
0.0
 43
0.0
 43
0.0
 43
0.0208333333333333
 43
0.0
 43
0.0
 43
0.0
 43
0.0
 43
1.0
 43
0.0
 43
0.0
 43
0.0
 43
0.0
 43
1.0
 77
     0
 47
0.0208333333333333
 47
0.0
 47
0.0
 47
0.0
 47
0.0
 47
0.0208333333333333
 47
0.0
 47
0.0
 47
0.0
 47
0.0
 47
1.0
 47
0.0
 47
0.0
 47
0.0
 47
0.0
 47
1.0
171
     0
 49
0.0208333333333333
 49
0.0
 49
0.0
 49
0.0
 49
0.0
 49
0.0208333333333333
 49
0.0
 49
0.0
 49
0.0
 49
0.0
 49
1.0
 49
0.0
 49
0.0
 49
0.0
 49
0.0
 49
1.0
175
     0
142
0.0208333333333333
142
0.0
142
0.0
142
0.0
142
0.0
142
0.0208333333333333
142
0.0
142
0.0
142
0.0
142
0.0
142
1.0
142
0.0
142
0.0
142
0.0
142
0.0
142
1.0
179
     0
144
0.0208333333333333
144
0.0
144
0.0
144
0.0
144
0.0
144
0.0208333333333333
144
0.0
144
0.0
144
0.0
144
0.0
144
1.0
144
0.0
144
0.0
144
0.0
144
0.0
144
1.0
147
0.0208333333333333
147
0.0
147
0.0
147
0.0
147
0.0
147
0.0208333333333333
147
0.0
147
0.0
147
0.0
147
0.0
147
1.0
147
0.0
147
0.0
147
0.0
147
0.0
147
1.0
  0
MATERIAL
  5
11
102
{ACAD_XDICTIONARY
360
12
102
}
102
{ACAD_REACTORS
330
10
102
}
330
10
100
AcDbMaterial
  1
ByLayer
 72
     0
 43
0.0208333333333333
 43
0.0
 43
0.0
 43
0.0
 43
0.0
 43
0.0208333333333333
 43
0.0
 43
0.0
 43
0.0
 43
0.0
 43
1.0
 43
0.0
 43
0.0
 43
0.0
 43
0.0
 43
1.0
 77
     0
 47
0.0208333333333333
 47
0.0
 47
0.0
 47
0.0
 47
0.0
 47
0.0208333333333333
 47
0.0
 47
0.0
 47
0.0
 47
0.0
 47
1.0
 47
0.0
 47
0.0
 47
0.0
 47
0.0
 47
1.0
171
     0
 49
0.0208333333333333
 49
0.0
 49
0.0
 49
0.0
 49
0.0
 49
0.0208333333333333
 49
0.0
 49
0.0
 49
0.0
 49
0.0
 49
1.0
 49
0.0
 49
0.0
 49
0.0
 49
0.0
 49
1.0
175
     0
142
0.0208333333333333
142
0.0
142
0.0
142
0.0
142
0.0
142
0.0208333333333333
142
0.0
142
0.0
142
0.0
142
0.0
142
1.0
142
0.0
142
0.0
142
0.0
142
0.0
142
1.0
179
     0
144
0.0208333333333333
144
0.0
144
0.0
144
0.0
144
0.0
144
0.0208333333333333
144
0.0
144
0.0
144
0.0
144
0.0
144
1.0
144
0.0
144
0.0
144
0.0
144
0.0
144
1.0
147
0.0208333333333333
147
0.0
147
0.0
147
0.0
147
0.0
147
0.0208333333333333
147
0.0
147
0.0
147
0.0
147
0.0
147
1.0
147
0.0
147
0.0
147
0.0
147
0.0
147
1.0
  0
MATERIAL
  5
21
102
{ACAD_XDICTIONARY
360
22
102
}
102
{ACAD_REACTORS
330
10
102
}
330
10
100
AcDbMaterial
  1
Global
 72
     0
 43
0.0208333333333333
 43
0.0
 43
0.0
 43
0.0
 43
0.0
 43
0.0208333333333333
 43
0.0
 43
0.0
 43
0.0
 43
0.0
 43
1.0
 43
0.0
 43
0.0
 43
0.0
 43
0.0
 43
1.0
 77
     0
 47
0.0208333333333333
 47
0.0
 47
0.0
 47
0.0
 47
0.0
 47
0.0208333333333333
 47
0.0
 47
0.0
 47
0.0
 47
0.0
 47
1.0
 47
0.0
 47
0.0
 47
0.0
 47
0.0
 47
1.0
171
     0
 49
0.0208333333333333
 49
0.0
 49
0.0
 49
0.0
 49
0.0
 49
0.0208333333333333
 49
0.0
 49
0.0
 49
0.0
 49
0.0
 49
1.0
 49
0.0
 49
0.0
 49
0.0
 49
0.0
 49
1.0
175
     0
142
0.0208333333333333
142
0.0
142
0.0
142
0.0
142
0.0
142
0.0208333333333333
142
0.0
142
0.0
142
0.0
142
0.0
142
1.0
142
0.0
142
0.0
142
0.0
142
0.0
142
1.0
179
     0
144
0.0208333333333333
144
0.0
144
0.0
144
0.0
144
0.0
144
0.0208333333333333
144
0.0
144
0.0
144
0.0
144
0.0
144
1.0
144
0.0
144
0.0
144
0.0
144
0.0
144
1.0
147
0.0208333333333333
147
0.0
147
0.0
147
0.0
147
0.0
147
0.0208333333333333
147
0.0
147
0.0
147
0.0
147
0.0
147
1.0
147
0.0
147
0.0
147
0.0
147
0.0
147
1.0
  0
MLEADERSTYLE
  5
67
102
{ACAD_REACTORS
330
66
102
}
330
66
100
AcDbMLeaderStyle
179
     2
170
     2
171
     1
172
     0
 90
        2
 40
0.0
 41
0.0
173
     1
 91
-1056964608
340
5B
 92
       -2
290
     1
 42
0.09
291
     1
 43
0.36
  3
Standard
 44
0.18
300

342
55
174
     1
178
     6
175
     1
176
     0
 93
-1056964608
 45
0.18
292
     0
297
     0
 46
0.18
 94
-1056964608
 47
1.0
 49
1.0
140
1.0
293
     1
141
0.0
294
     1
177
     0
142
1.0
295
     1
296
     0
143
0.125
271
     0
272
     9
273
     9
298
     1
  0
MLINESTYLE
  5
60
102
{ACAD_REACTORS
330
5F
102
}
330
5F
100
AcDbMlineStyle
  2
STANDARD
 70
     0
  3

 62
   256
 51
90.0
 52
90.0
 71
     2
 49
0.5
 62
   256
  6
BYLAYER
 49
-0.5
 62
   256
  6
BYLAYER
  0
ACDBPLACEHOLDER
  5
F
102
{ACAD_REACTORS
330
E
102
}
330
E
  0
SCALE
  5
43
102
{ACAD_REACTORS
330
42
102
}
330
42
100
AcDbScale
 70
     0
300
1:1
140
1.0
141
1.0
290
     1
  0
SCALE
  5
44
102
{ACAD_REACTORS
330
42
102
}
330
42
100
AcDbScale
 70
     0
300
1/128" = 1'-0"
140
0.0078125
141
12.0
290
     0
  0
SCALE
  5
45
102
{ACAD_REACTORS
330
42
102
}
330
42
100
AcDbScale
 70
     0
300
1/64" = 1'-0"
140
0.015625
141
12.0
290
     0
  0
SCALE
  5
46
102
{ACAD_REACTORS
330
42
102
}
330
42
100
AcDbScale
 70
     0
300
1/32" = 1'-0"
140
0.03125
141
12.0
290
     0
  0
SCALE
  5
47
102
{ACAD_REACTORS
330
42
102
}
330
42
100
AcDbScale
 70
     0
300
1/16" = 1'-0"
140
0.0625
141
12.0
290
     0
  0
SCALE
  5
48
102
{ACAD_REACTORS
330
42
102
}
330
42
100
AcDbScale
 70
     0
300
3/32" = 1'-0"
140
0.09375
141
12.0
290
     0
  0
SCALE
  5
49
102
{ACAD_REACTORS
330
42
102
}
330
42
100
AcDbScale
 70
     0
300
1/8" = 1'-0"
140
0.125
141
12.0
290
     0
  0
SCALE
  5
4A
102
{ACAD_REACTORS
330
42
102
}
330
42
100
AcDbScale
 70
     0
300
3/16" = 1'-0"
140
0.1875
141
12.0
290
     0
  0
SCALE
  5
4B
102
{ACAD_REACTORS
330
42
102
}
330
42
100
AcDbScale
 70
     0
300
1/4" = 1'-0"
140
0.25
141
12.0
290
     0
  0
SCALE
  5
4C
102
{ACAD_REACTORS
330
42
102
}
330
42
100
AcDbScale
 70
     0
300
3/8" = 1'-0"
140
0.375
141
12.0
290
     0
  0
SCALE
  5
4D
102
{ACAD_REACTORS
330
42
102
}
330
42
100
AcDbScale
 70
     0
300
1/2" = 1'-0"
140
0.5
141
12.0
290
     0
  0
SCALE
  5
4E
102
{ACAD_REACTORS
330
42
102
}
330
42
100
AcDbScale
 70
     0
300
3/4" = 1'-0"
140
0.75
141
12.0
290
     0
  0
SCALE
  5
4F
102
{ACAD_REACTORS
330
42
102
}
330
42
100
AcDbScale
 70
     0
300
1" = 1'-0"
140
1.0
141
12.0
290
     0
  0
SCALE
  5
50
102
{ACAD_REACTORS
330
42
102
}
330
42
100
AcDbScale
 70
     0
300
1-1/2" = 1'-0"
140
1.5
141
12.0
290
     0
  0
SCALE
  5
51
102
{ACAD_REACTORS
330
42
102
}
330
42
100
AcDbScale
 70
     0
300
3" = 1'-0"
140
3.0
141
12.0
290
     0
  0
SCALE
  5
52
102
{ACAD_REACTORS
330
42
102
}
330
42
100
AcDbScale
 70
     0
300
6" = 1'-0"
140
6.0
141
12.0
290
     0
  0
SCALE
  5
53
102
{ACAD_REACTORS
330
42
102
}
330
42
100
AcDbScale
 70
     0
300
1'-0" = 1'-0"
140
12.0
141
12.0
290
     0
  0
ACDBSECTIONVIEWSTYLE
  5
69
102
{ACAD_REACTORS
330
68
102
}
330
68
100
AcDbModelDocViewStyle
 70
     0
  3
Imperial24
290
     1
300
Imperial24
 90
        0
100
AcDbSectionViewStyle
 70
     0
 71
     0
 90
       78
 71
     1
340
55
 62
   256
 40
0.24
340
0
340
0
 62
   256
 40
0.24
300
I, O, Q, S, X, Z
 40
0.48
 90
        3
 40
0.18
 90
        1
 71
     2
340
5D
 90
       25
 62
   256
340
5D
 90
       50
 62
   256
 40
0.24
 40
0.0
 40
0.24
 71
     3
340
55
 62
   256
 40
0.24
 90
        1
 40
0.75
 90
        1
300
%<\AcVar ViewType \f "%tc1">% %<\AcVar ViewSectionStartId>%-%<\AcVar ViewSectionEndId>%\PSCALE %<\AcVar ViewScale \f "%sn">%
 71
     4
 62
   256
 62
   257
300
ANSI31
 40
1.0
 90
        0
290
     0
290
     0
 90
        6
 40
0.0
 40
1.570796326794896
 40
0.2617993877991494
 40
1.308996938995747
 40
-0.2617993877991494
 40
1.832595714594046
  0
TABLESTYLE
  5
65
102
{ACAD_XDICTIONARY
360
362
102
}
102
{ACAD_REACTORS
330
64
102
}
330
64
100
AcDbTableStyle
280
     0
  3
Standard
 70
     0
 71
     0
 40
0.06
 41
0.06
280
     0
281
     0
  7
Standard
140
0.18
170
     2
 62
     0
 63
     7
283
     0
 90
      512
 91
        0
  1

274
    -2
284
     1
 64
     0
275
    -2
285
     1
 65
     0
276
    -2
286
     1
 66
     0
277
    -2
287
     1
 67
     0
278
    -2
288
     1
 68
     0
279
    -2
289
     1
 69
     0
  7
Standard
140
0.25
170
     5
 62
     0
 63
     7
283
     0
 90
      512
 91
        0
  1

274
    -2
284
     1
 64
     0
275
    -2
285
     1
 65
     0
276
    -2
286
     1
 66
     0
277
    -2
287
     1
 67
     0
278
    -2
288
     1
 68
     0
279
    -2
289
     1
 69
     0
  7
Standard
140
0.18
170
     5
 62
     0
 63
     7
283
     0
 90
      512
 91
        0
  1

274
    -2
284
     1
 64
     0
275
    -2
285
     1
 65
     0
276
    -2
286
     1
 66
     0
277
    -2
287
     1
 67
     0
278
    -2
288
     1
 68
     0
279
    -2
289
     1
 69
     0
  0
VISUALSTYLE
  5
2F
102
{ACAD_REACTORS
330
29
102
}
330
29
100
AcDbVisualStyle
  2
2dWireframe
 70
     4
177
     3
291
     0
 70
    58
 90
        0
176
     1
 90
        2
176
     1
 90
        0
176
     1
 90
        0
176
     1
 40
0.6
176
     1
 40
30.0
176
     1
 62
     7
420
 16777215
176
     1
 90
        1
176
     1
 90
        4
176
     1
 62
     7
176
     1
 62
   257
176
     1
 90
        1
176
     1
 90
        1
176
     1
 40
1.0
176
     1
 90
        0
176
     1
 62
   257
176
     1
 40
1.0
176
     1
 90
        1
176
     1
 90
        6
176
     1
 90
        2
176
     1
 62
     7
176
     1
 90
        5
176
     1
 90
        0
176
     1
 90
        0
176
     1
290
     0
176
     1
 90
        1
176
     1
 40
0.0
176
     1
 90
        0
176
     1
290
     1
176
     1
290
     1
176
     1
290
     0
176
     1
290
     0
176
     1
290
     0
176
     1
290
     0
176
     1
290
     0
176
     1
290
     0
176
     1
290
     0
176
     1
 90
       50
176
     1
 40
0.0
176
     1
 40
1.0
176
     1
 90
        0
176
     1
 62
    18
420
        0
176
     1
 90
       50
176
     1
 90
        3
176
     1
 62
     5
420
      255
176
     1
290
     0
176
     1
 90
       50
176
     1
 90
       50
176
     1
 90
       50
176
     1
290
     0
176
     1
 90
       50
176
     1
 62
   256
176
     0
 40
1.0
176
     0
 90
        2
176
     1
  1
strokes_ogs.tif
176
     1
290
     0
176
     1
 40
1.0
176
     1
 40
1.0
176
     1
  0
VISUALSTYLE
  5
2E
102
{ACAD_REACTORS
330
29
102
}
330
29
100
AcDbVisualStyle
  2
Basic
 70
     7
177
     3
291
     1
 70
    58
 90
        1
176
     1
 90
        0
176
     1
 90
        1
176
     1
 90
        0
176
     1
 40
0.6
176
     1
 40
30.0
176
     1
 62
     7
420
 16777215
176
     1
 90
        0
176
     1
 90
        4
176
     1
 62
     7
176
     1
 62
   257
176
     1
 90
        1
176
     1
 90
        1
176
     1
 40
1.0
176
     1
 90
        8
176
     1
 62
     7
176
     1
 40
1.0
176
     1
 90
        1
176
     1
 90
        6
176
     1
 90
        2
176
     1
 62
     7
176
     1
 90
        5
176
     1
 90
        0
176
     1
 90
        0
176
     1
290
     0
176
     1
 90
        1
176
     1
 40
0.0
176
     1
 90
        0
176
     1
290
     0
176
     1
290
     1
176
     1
290
     1
176
     1
290
     0
176
     1
290
     0
176
     1
290
     0
176
     1
290
     0
176
     1
290
     0
176
     1
290
     0
176
     1
 90
       50
176
     1
 40
0.0
176
     1
 40
1.0
176
     1
 90
        0
176
     1
 62
    18
420
        0
176
     1
 90
       50
176
     1
 90
        3
176
     1
 62
     5
420
      255
176
     1
290
     0
176
     1
 90
       50
176
     1
 90
       50
176
     1
 90
       50
176
     1
290
     0
176
     1
 90
       50
176
     1
 62
   256
176
     0
 40
1.0
176
     0
 90
        2
176
     1
  1
strokes_ogs.tif
176
     1
290
     0
176
     1
 40
1.0
176
     1
 40
1.0
176
     1
  0
VISUALSTYLE
  5
35
102
{ACAD_REACTORS
330
29
102
}
330
29
100
AcDbVisualStyle
  2
Brighten
 70
    12
177
     3
291
     1
 70
    58
 90
        2
176
     1
 90
        2
176
     1
 90
        0
176
     1
 90
        0
176
     1
 40
0.6
176
     1
 40
30.0
176
     1
 62
     7
420
 16777215
176
     1
 90
        1
176
     1
 90
        4
176
     1
 62
     7
176
     1
 62
   257
176
     1
 90
        1
176
     1
 90
        1
176
     1
 40
1.0
176
     1
 90
        8
176
     1
 62
     7
176
     1
 40
1.0
176
     1
 90
        1
176
     1
 90
        6
176
     1
 90
        2
176
     1
 62
     7
176
     1
 90
        5
176
     1
 90
        0
176
     1
 90
        0
176
     1
290
     0
176
     1
 90
        1
176
     1
 40
50.0
176
     1
 90
        0
176
     1
290
     0
176
     1
290
     1
176
     1
290
     1
176
     1
290
     0
176
     1
290
     0
176
     1
290
     0
176
     1
290
     0
176
     1
290
     0
176
     1
290
     0
176
     1
 90
       50
176
     1
 40
0.0
176
     1
 40
1.0
176
     1
 90
        0
176
     1
 62
    18
420
        0
176
     1
 90
       50
176
     1
 90
        3
176
     1
 62
     5
420
      255
176
     1
290
     0
176
     1
 90
       50
176
     1
 90
       50
176
     1
 90
       50
176
     1
290
     0
176
     1
 90
       50
176
     1
 62
   256
176
     0
 40
1.0
176
     0
 90
        2
176
     1
  1
strokes_ogs.tif
176
     1
290
     0
176
     1
 40
1.0
176
     1
 40
1.0
176
     1
  0
VISUALSTYLE
  5
39
102
{ACAD_REACTORS
330
29
102
}
330
29
100
AcDbVisualStyle
  2
ColorChange
 70
    16
177
     3
291
     1
 70
    58
 90
        2
176
     1
 90
        2
176
     1
 90
        3
176
     1
 90
        0
176
     1
 40
0.6
176
     1
 40
30.0
176
     1
 62
     8
420
  8421504
176
     1
 90
        1
176
     1
 90
        4
176
     1
 62
     7
176
     1
 62
   257
176
     1
 90
        1
176
     1
 90
        1
176
     1
 40
1.0
176
     1
 90
        8
176
     1
 62
     8
420
  8421504
176
     1
 40
1.0
176
     1
 90
        1
176
     1
 90
        6
176
     1
 90
        2
176
     1
 62
     7
176
     1
 90
        5
176
     1
 90
        0
176
     1
 90
        0
176
     1
290
     0
176
     1
 90
        1
176
     1
 40
0.0
176
     1
 90
        0
176
     1
290
     0
176
     1
290
     1
176
     1
290
     1
176
     1
290
     0
176
     1
290
     0
176
     1
290
     0
176
     1
290
     0
176
     1
290
     0
176
     1
290
     0
176
     1
 90
       50
176
     1
 40
0.0
176
     1
 40
1.0
176
     1
 90
        0
176
     1
 62
    18
420
        0
176
     1
 90
       50
176
     1
 90
        3
176
     1
 62
     5
420
      255
176
     1
290
     0
176
     1
 90
       50
176
     1
 90
       50
176
     1
 90
       50
176
     1
290
     0
176
     1
 90
       50
176
     1
 62
   256
176
     0
 40
1.0
176
     0
 90
        2
176
     1
  1
strokes_ogs.tif
176
     1
290
     0
176
     1
 40
1.0
176
     1
 40
1.0
176
     1
  0
VISUALSTYLE
  5
32
102
{ACAD_REACTORS
330
29
102
}
330
29
100
AcDbVisualStyle
  2
Conceptual
 70
     9
177
     3
291
     0
 70
    58
 90
        3
176
     1
 90
        2
176
     1
 90
        0
176
     1
 90
        0
176
     1
 40
0.6
176
     1
 40
30.0
176
     1
 62
     7
420
 16777215
176
     1
 90
        2
176
     1
 90
        2
176
     1
 62
     7
176
     1
 62
   257
176
     1
 90
        1
176
     1
 90
        1
176
     1
 40
179.0
176
     1
 90
        8
176
     1
 62
     7
176
     1
 40
1.0
176
     1
 90
        1
176
     1
 90
        6
176
     1
 90
        2
176
     1
 62
     7
176
     1
 90
        3
176
     1
 90
        0
176
     1
 90
        0
176
     1
290
     0
176
     1
 90
        1
176
     1
 40
0.0
176
     1
 90
        0
176
     1
290
     0
176
     1
290
     1
176
     1
290
     1
176
     1
290
     0
176
     1
290
     0
176
     1
290
     0
176
     1
290
     0
176
     1
290
     0
176
     1
290
     0
176
     1
 90
       50
176
     1
 40
0.0
176
     1
 40
1.0
176
     1
 90
        0
176
     1
 62
    18
420
        0
176
     1
 90
       50
176
     1
 90
        3
176
     1
 62
     5
420
      255
176
     1
290
     0
176
     1
 90
       50
176
     1
 90
       50
176
     1
 90
       50
176
     1
290
     0
176
     1
 90
       50
176
     1
 62
   256
176
     0
 40
1.0
176
     0
 90
        2
176
     1
  1
strokes_ogs.tif
176
     1
290
     0
176
     1
 40
1.0
176
     1
 40
1.0
176
     1
  0
VISUALSTYLE
  5
34
102
{ACAD_REACTORS
330
29
102
}
330
29
100
AcDbVisualStyle
  2
Dim
 70
    11
177
     3
291
     1
 70
    58
 90
        2
176
     1
 90
        2
176
     1
 90
        0
176
     1
 90
        0
176
     1
 40
0.6
176
     1
 40
30.0
176
     1
 62
     7
420
 16777215
176
     1
 90
        1
176
     1
 90
        4
176
     1
 62
     7
176
     1
 62
   257
176
     1
 90
        1
176
     1
 90
        1
176
     1
 40
1.0
176
     1
 90
        8
176
     1
 62
     7
176
     1
 40
1.0
176
     1
 90
        1
176
     1
 90
        6
176
     1
 90
        2
176
     1
 62
     7
176
     1
 90
        5
176
     1
 90
        0
176
     1
 90
        0
176
     1
290
     0
176
     1
 90
        1
176
     1
 40
-50.0
176
     1
 90
        0
176
     1
290
     0
176
     1
290
     1
176
     1
290
     1
176
     1
290
     0
176
     1
290
     0
176
     1
290
     0
176
     1
290
     0
176
     1
290
     0
176
     1
290
     0
176
     1
 90
       50
176
     1
 40
0.0
176
     1
 40
1.0
176
     1
 90
        0
176
     1
 62
    18
420
        0
176
     1
 90
       50
176
     1
 90
        3
176
     1
 62
     5
420
      255
176
     1
290
     0
176
     1
 90
       50
176
     1
 90
       50
176
     1
 90
       50
176
     1
290
     0
176
     1
 90
       50
176
     1
 62
   256
176
     0
 40
1.0
176
     0
 90
        2
176
     1
  1
strokes_ogs.tif
176
     1
290
     0
176
     1
 40
1.0
176
     1
 40
1.0
176
     1
  0
VISUALSTYLE
  5
41
102
{ACAD_REACTORS
330
29
102
}
330
29
100
AcDbVisualStyle
  2
EdgeColorOff
 70
    22
177
     3
291
     1
 70
    58
 90
        2
176
     0
 90
        2
176
     0
 90
        0
176
     0
 90
        0
176
     0
 40
0.6
176
     0
 40
30.0
176
     0
 62
     7
420
 16777215
176
     0
 90
        1
176
     0
 90
        4
176
     0
 62
     7
176
     0
 62
   257
176
     0
 90
        1
176
     0
 90
        1
176
     0
 40
1.0
176
     0
 90
        8
176
     2
 62
     7
176
     0
 40
1.0
176
     0
 90
        1
176
     0
 90
        6
176
     0
 90
        2
176
     0
 62
     7
176
     0
 90
        5
176
     0
 90
        0
176
     0
 90
        0
176
     0
290
     0
176
     0
 90
        1
176
     0
 40
0.0
176
     0
 90
        0
176
     0
290
     0
176
     0
290
     1
176
     0
290
     1
176
     0
290
     0
176
     0
290
     0
176
     0
290
     0
176
     0
290
     0
176
     0
290
     0
176
     0
290
     0
176
     0
 90
       50
176
     0
 40
0.0
176
     0
 40
1.0
176
     0
 90
        0
176
     0
 62
    18
420
        0
176
     0
 90
       50
176
     0
 90
        3
176
     0
 62
     5
420
      255
176
     0
290
     0
176
     0
 90
       50
176
     0
 90
       50
176
     0
 90
       50
176
     0
290
     0
176
     0
 90
       50
176
     0
 62
   256
176
     0
 40
1.0
176
     0
 90
        2
176
     0
  1
strokes_ogs.tif
176
     0
290
     0
176
     0
 40
1.0
176
     0
 40
1.0
176
     0
  0
VISUALSTYLE
  5
38
102
{ACAD_REACTORS
330
29
102
}
330
29
100
AcDbVisualStyle
  2
Facepattern
 70
    15
177
     3
291
     1
 70
    58
 90
        2
176
     1
 90
        2
176
     1
 90
        0
176
     1
 90
        0
176
     1
 40
0.6
176
     1
 40
30.0
176
     1
 62
     7
420
 16777215
176
     1
 90
        1
176
     1
 90
        4
176
     1
 62
     7
176
     1
 62
   257
176
     1
 90
        1
176
     1
 90
        1
176
     1
 40
1.0
176
     1
 90
        8
176
     1
 62
     7
176
     1
 40
1.0
176
     1
 90
        1
176
     1
 90
        6
176
     1
 90
        2
176
     1
 62
     7
176
     1
 90
        5
176
     1
 90
        0
176
     1
 90
        0
176
     1
290
     0
176
     1
 90
        1
176
     1
 40
0.0
176
     1
 90
        0
176
     1
290
     0
176
     1
290
     1
176
     1
290
     1
176
     1
290
     0
176
     1
290
     0
176
     1
290
     0
176
     1
290
     0
176
     1
290
     0
176
     1
290
     0
176
     1
 90
       50
176
     1
 40
0.0
176
     1
 40
1.0
176
     1
 90
        0
176
     1
 62
    18
420
        0
176
     1
 90
       50
176
     1
 90
        3
176
     1
 62
     5
420
      255
176
     1
290
     0
176
     1
 90
       50
176
     1
 90
       50
176
     1
 90
       50
176
     1
290
     0
176
     1
 90
       50
176
     1
 62
   256
176
     0
 40
1.0
176
     0
 90
        2
176
     1
  1
strokes_ogs.tif
176
     1
290
     0
176
     1
 40
1.0
176
     1
 40
1.0
176
     1
  0
VISUALSTYLE
  5
2A
102
{ACAD_REACTORS
330
29
102
}
330
29
100
AcDbVisualStyle
  2
Flat
 70
     0
177
     3
291
     1
 70
    58
 90
        2
176
     1
 90
        1
176
     1
 90
        1
176
     1
 90
        2
176
     1
 40
0.6
176
     1
 40
30.0
176
     1
 62
     7
420
 16777215
176
     1
 90
        0
176
     1
 90
        0
176
     1
 62
     7
176
     1
 62
   257
176
     1
 90
        1
176
     1
 90
        1
176
     1
 40
1.0
176
     1
 90
        8
176
     1
 62
     7
176
     1
 40
1.0
176
     1
 90
        1
176
     1
 90
        6
176
     1
 90
        2
176
     1
 62
     7
176
     1
 90
        5
176
     1
 90
        0
176
     1
 90
        0
176
     1
290
     0
176
     1
 90
       13
176
     1
 40
0.0
176
     1
 90
        0
176
     1
290
     0
176
     1
290
     1
176
     1
290
     1
176
     1
290
     0
176
     1
290
     0
176
     1
290
     0
176
     1
290
     0
176
     1
290
     0
176
     1
290
     0
176
     1
 90
       50
176
     1
 40
0.0
176
     1
 40
1.0
176
     1
 90
        0
176
     1
 62
    18
420
        0
176
     1
 90
       50
176
     1
 90
        3
176
     1
 62
     5
420
      255
176
     1
290
     0
176
     1
 90
       50
176
     1
 90
       50
176
     1
 90
       50
176
     1
290
     0
176
     1
 90
       50
176
     1
 62
   256
176
     0
 40
1.0
176
     0
 90
        2
176
     1
  1
strokes_ogs.tif
176
     1
290
     0
176
     1
 40
1.0
176
     1
 40
1.0
176
     1
  0
VISUALSTYLE
  5
2B
102
{ACAD_REACTORS
330
29
102
}
330
29
100
AcDbVisualStyle
  2
FlatWithEdges
 70
     1
177
     3
291
     1
 70
    58
 90
        2
176
     1
 90
        1
176
     1
 90
        1
176
     1
 90
        2
176
     1
 40
0.6
176
     1
 40
30.0
176
     1
 62
     7
420
 16777215
176
     1
 90
        1
176
     1
 90
        0
176
     1
 62
     7
176
     1
 62
   257
176
     1
 90
        1
176
     1
 90
        1
176
     1
 40
1.0
176
     1
 90
        0
176
     1
 62
   257
176
     1
 40
1.0
176
     1
 90
        1
176
     1
 90
        6
176
     1
 90
        2
176
     1
 62
     7
176
     1
 90
        5
176
     1
 90
        0
176
     1
 90
        0
176
     1
290
     0
176
     1
 90
       13
176
     1
 40
0.0
176
     1
 90
        0
176
     1
290
     0
176
     1
290
     1
176
     1
290
     1
176
     1
290
     0
176
     1
290
     0
176
     1
290
     0
176
     1
290
     0
176
     1
290
     0
176
     1
290
     0
176
     1
 90
       50
176
     1
 40
0.0
176
     1
 40
1.0
176
     1
 90
        0
176
     1
 62
    18
420
        0
176
     1
 90
       50
176
     1
 90
        3
176
     1
 62
     5
420
      255
176
     1
290
     0
176
     1
 90
       50
176
     1
 90
       50
176
     1
 90
       50
176
     1
290
     0
176
     1
 90
       50
176
     1
 62
   256
176
     0
 40
1.0
176
     0
 90
        2
176
     1
  1
strokes_ogs.tif
176
     1
290
     0
176
     1
 40
1.0
176
     1
 40
1.0
176
     1
  0
VISUALSTYLE
  5
2C
102
{ACAD_REACTORS
330
29
102
}
330
29
100
AcDbVisualStyle
  2
Gouraud
 70
     2
177
     3
291
     1
 70
    58
 90
        2
176
     1
 90
        2
176
     1
 90
        1
176
     1
 90
        2
176
     1
 40
0.6
176
     1
 40
30.0
176
     1
 62
     7
420
 16777215
176
     1
 90
        0
176
     1
 90
        0
176
     1
 62
     7
176
     1
 62
   257
176
     1
 90
        1
176
     1
 90
        1
176
     1
 40
1.0
176
     1
 90
        0
176
     1
 62
     7
176
     1
 40
1.0
176
     1
 90
        1
176
     1
 90
        6
176
     1
 90
        2
176
     1
 62
     7
176
     1
 90
        5
176
     1
 90
        0
176
     1
 90
        0
176
     1
290
     0
176
     1
 90
       13
176
     1
 40
0.0
176
     1
 90
        0
176
     1
290
     0
176
     1
290
     1
176
     1
290
     1
176
     1
290
     0
176
     1
290
     0
176
     1
290
     0
176
     1
290
     0
176
     1
290
     0
176
     1
290
     0
176
     1
 90
       50
176
     1
 40
0.0
176
     1
 40
1.0
176
     1
 90
        0
176
     1
 62
    18
420
        0
176
     1
 90
       50
176
     1
 90
        3
176
     1
 62
     5
420
      255
176
     1
290
     0
176
     1
 90
       50
176
     1
 90
       50
176
     1
 90
       50
176
     1
290
     0
176
     1
 90
       50
176
     1
 62
   256
176
     0
 40
1.0
176
     0
 90
        2
176
     1
  1
strokes_ogs.tif
176
     1
290
     0
176
     1
 40
1.0
176
     1
 40
1.0
176
     1
  0
VISUALSTYLE
  5
2D
102
{ACAD_REACTORS
330
29
102
}
330
29
100
AcDbVisualStyle
  2
GouraudWithEdges
 70
     3
177
     3
291
     1
 70
    58
 90
        2
176
     1
 90
        2
176
     1
 90
        1
176
     1
 90
        2
176
     1
 40
0.6
176
     1
 40
30.0
176
     1
 62
     7
420
 16777215
176
     1
 90
        1
176
     1
 90
        0
176
     1
 62
     7
176
     1
 62
   257
176
     1
 90
        1
176
     1
 90
        1
176
     1
 40
1.0
176
     1
 90
        0
176
     1
 62
   257
176
     1
 40
1.0
176
     1
 90
        1
176
     1
 90
        6
176
     1
 90
        2
176
     1
 62
     7
176
     1
 90
        5
176
     1
 90
        0
176
     1
 90
        0
176
     1
290
     0
176
     1
 90
       13
176
     1
 40
0.0
176
     1
 90
        0
176
     1
290
     0
176
     1
290
     1
176
     1
290
     1
176
     1
290
     0
176
     1
290
     0
176
     1
290
     0
176
     1
290
     0
176
     1
290
     0
176
     1
290
     0
176
     1
 90
       50
176
     1
 40
0.0
176
     1
 40
1.0
176
     1
 90
        0
176
     1
 62
    18
420
        0
176
     1
 90
       50
176
     1
 90
        3
176
     1
 62
     5
420
      255
176
     1
290
     0
176
     1
 90
       50
176
     1
 90
       50
176
     1
 90
       50
176
     1
290
     0
176
     1
 90
       50
176
     1
 62
   256
176
     0
 40
1.0
176
     0
 90
        2
176
     1
  1
strokes_ogs.tif
176
     1
290
     0
176
     1
 40
1.0
176
     1
 40
1.0
176
     1
  0
VISUALSTYLE
  5
31
102
{ACAD_REACTORS
330
29
102
}
330
29
100
AcDbVisualStyle
  2
Hidden
 70
     6
177
     3
291
     0
 70
    58
 90
        1
176
     1
 90
        2
176
     1
 90
        2
176
     1
 90
        0
176
     1
 40
0.6
176
     1
 40
30.0
176
     1
 62
     7
420
 16777215
176
     1
 90
        2
176
     1
 90
        2
176
     1
 62
     7
176
     1
 62
   257
176
     1
 90
        2
176
     1
 90
        1
176
     1
 40
40.0
176
     1
 90
        0
176
     1
 62
   257
176
     1
 40
1.0
176
     1
 90
        1
176
     1
 90
        6
176
     1
 90
        2
176
     1
 62
     7
176
     1
 90
        3
176
     1
 90
        0
176
     1
 90
        0
176
     1
290
     0
176
     1
 90
        1
176
     1
 40
0.0
176
     1
 90
        0
176
     1
290
     0
176
     1
290
     1
176
     1
290
     1
176
     1
290
     0
176
     1
290
     0
176
     1
290
     0
176
     1
290
     0
176
     1
290
     0
176
     1
290
     0
176
     1
 90
       50
176
     1
 40
0.0
176
     1
 40
1.0
176
     1
 90
        0
176
     1
 62
    18
420
        0
176
     1
 90
       50
176
     1
 90
        3
176
     1
 62
     5
420
      255
176
     1
290
     0
176
     1
 90
       50
176
     1
 90
       50
176
     1
 90
       50
176
     1
290
     0
176
     1
 90
       50
176
     1
 62
   256
176
     0
 40
1.0
176
     0
 90
        2
176
     1
  1
strokes_ogs.tif
176
     1
290
     0
176
     1
 40
1.0
176
     1
 40
1.0
176
     1
  0
VISUALSTYLE
  5
3F
102
{ACAD_REACTORS
330
29
102
}
330
29
100
AcDbVisualStyle
  2
JitterOff
 70
    20
177
     3
291
     1
 70
    58
 90
        2
176
     0
 90
        2
176
     0
 90
        0
176
     0
 90
        0
176
     0
 40
0.6
176
     0
 40
30.0
176
     0
 62
     7
420
 16777215
176
     0
 90
        1
176
     0
 90
        4
176
     0
 62
     7
176
     0
 62
   257
176
     0
 90
        1
176
     0
 90
        1
176
     0
 40
1.0
176
     0
 90
       10
176
     2
 62
     7
176
     0
 40
1.0
176
     0
 90
        1
176
     0
 90
        6
176
     0
 90
        2
176
     0
 62
     7
176
     0
 90
        5
176
     0
 90
        0
176
     0
 90
        0
176
     0
290
     0
176
     0
 90
        1
176
     0
 40
0.0
176
     0
 90
        0
176
     0
290
     0
176
     0
290
     1
176
     0
290
     1
176
     0
290
     0
176
     0
290
     0
176
     0
290
     0
176
     0
290
     0
176
     0
290
     0
176
     0
290
     0
176
     0
 90
       50
176
     0
 40
0.0
176
     0
 40
1.0
176
     0
 90
        0
176
     0
 62
    18
420
        0
176
     0
 90
       50
176
     0
 90
        3
176
     0
 62
     5
420
      255
176
     0
290
     0
176
     0
 90
       50
176
     0
 90
       50
176
     0
 90
       50
176
     0
290
     0
176
     0
 90
       50
176
     0
 62
   256
176
     0
 40
1.0
176
     0
 90
        2
176
     0
  1
strokes_ogs.tif
176
     0
290
     0
176
     0
 40
1.0
176
     0
 40
1.0
176
     0
  0
VISUALSTYLE
  5
37
102
{ACAD_REACTORS
330
29
102
}
330
29
100
AcDbVisualStyle
  2
Linepattern
 70
    14
177
     3
291
     1
 70
    58
 90
        2
176
     1
 90
        2
176
     1
 90
        0
176
     1
 90
        0
176
     1
 40
0.6
176
     1
 40
30.0
176
     1
 62
     7
420
 16777215
176
     1
 90
        1
176
     1
 90
        4
176
     1
 62
     7
176
     1
 62
   257
176
     1
 90
        7
176
     1
 90
        7
176
     1
 40
1.0
176
     1
 90
        8
176
     1
 62
     7
176
     1
 40
1.0
176
     1
 90
        1
176
     1
 90
        6
176
     1
 90
        2
176
     1
 62
     7
176
     1
 90
        5
176
     1
 90
        0
176
     1
 90
        0
176
     1
290
     0
176
     1
 90
        1
176
     1
 40
0.0
176
     1
 90
        0
176
     1
290
     0
176
     1
290
     1
176
     1
290
     1
176
     1
290
     0
176
     1
290
     0
176
     1
290
     0
176
     1
290
     0
176
     1
290
     0
176
     1
290
     0
176
     1
 90
       50
176
     1
 40
0.0
176
     1
 40
1.0
176
     1
 90
        0
176
     1
 62
    18
420
        0
176
     1
 90
       50
176
     1
 90
        3
176
     1
 62
     5
420
      255
176
     1
290
     0
176
     1
 90
       50
176
     1
 90
       50
176
     1
 90
       50
176
     1
290
     0
176
     1
 90
       50
176
     1
 62
   256
176
     0
 40
1.0
176
     0
 90
        2
176
     1
  1
strokes_ogs.tif
176
     1
290
     0
176
     1
 40
1.0
176
     1
 40
1.0
176
     1
  0
VISUALSTYLE
  5
40
102
{ACAD_REACTORS
330
29
102
}
330
29
100
AcDbVisualStyle
  2
OverhangOff
 70
    21
177
     3
291
     1
 70
    58
 90
        2
176
     0
 90
        2
176
     0
 90
        0
176
     0
 90
        0
176
     0
 40
0.6
176
     0
 40
30.0
176
     0
 62
     7
420
 16777215
176
     0
 90
        1
176
     0
 90
        4
176
     0
 62
     7
176
     0
 62
   257
176
     0
 90
        1
176
     0
 90
        1
176
     0
 40
1.0
176
     0
 90
        9
176
     2
 62
     7
176
     0
 40
1.0
176
     0
 90
        1
176
     0
 90
        6
176
     0
 90
        2
176
     0
 62
     7
176
     0
 90
        5
176
     0
 90
        0
176
     0
 90
        0
176
     0
290
     0
176
     0
 90
        1
176
     0
 40
0.0
176
     0
 90
        0
176
     0
290
     0
176
     0
290
     1
176
     0
290
     1
176
     0
290
     0
176
     0
290
     0
176
     0
290
     0
176
     0
290
     0
176
     0
290
     0
176
     0
290
     0
176
     0
 90
       50
176
     0
 40
0.0
176
     0
 40
1.0
176
     0
 90
        0
176
     0
 62
    18
420
        0
176
     0
 90
       50
176
     0
 90
        3
176
     0
 62
     5
420
      255
176
     0
290
     0
176
     0
 90
       50
176
     0
 90
       50
176
     0
 90
       50
176
     0
290
     0
176
     0
 90
       50
176
     0
 62
   256
176
     0
 40
1.0
176
     0
 90
        2
176
     0
  1
strokes_ogs.tif
176
     0
290
     0
176
     0
 40
1.0
176
     0
 40
1.0
176
     0
  0
VISUALSTYLE
  5
33
102
{ACAD_REACTORS
330
29
102
}
330
29
100
AcDbVisualStyle
  2
Realistic
 70
     8
177
     3
291
     0
 70
    58
 90
        2
176
     1
 90
        3
176
     1
 90
        0
176
     1
 90
        2
176
     1
 40
0.6
176
     1
 40
30.0
176
     1
 62
     7
420
 16777215
176
     1
 90
        0
176
     1
 90
        0
176
     1
 62
     7
176
     1
 62
   257
176
     1
 90
        1
176
     1
 90
        1
176
     1
 40
1.0
176
     1
 90
        8
176
     1
 62
   257
176
     1
 40
1.0
176
     1
 90
        1
176
     1
 90
        6
176
     1
 90
        2
176
     1
 62
     7
176
     1
 90
        3
176
     1
 90
        0
176
     1
 90
        0
176
     1
290
     0
176
     1
 90
       13
176
     1
 40
0.0
176
     1
 90
        0
176
     1
290
     0
176
     1
290
     1
176
     1
290
     1
176
     1
290
     0
176
     1
290
     0
176
     1
290
     0
176
     1
290
     0
176
     1
290
     0
176
     1
290
     0
176
     1
 90
       50
176
     1
 40
0.0
176
     1
 40
1.0
176
     1
 90
        0
176
     1
 62
    18
420
        0
176
     1
 90
       50
176
     1
 90
        3
176
     1
 62
     5
420
      255
176
     1
290
     0
176
     1
 90
       50
176
     1
 90
       50
176
     1
 90
       50
176
     1
290
     0
176
     1
 90
       50
176
     1
 62
   256
176
     0
 40
1.0
176
     0
 90
        2
176
     1
  1
strokes_ogs.tif
176
     1
290
     0
176
     1
 40
1.0
176
     1
 40
1.0
176
     1
  0
VISUALSTYLE
  5
3E
102
{ACAD_REACTORS
330
29
102
}
330
29
100
AcDbVisualStyle
  2
Shaded
 70
    27
177
     3
291
     0
 70
    58
 90
        2
176
     1
 90
        2
176
     1
 90
        1
176
     1
 90
        2
176
     1
 40
0.6
176
     1
 40
30.0
176
     1
 62
     7
420
 16777215
176
     1
 90
        0
176
     1
 90
        4
176
     1
 62
     7
176
     1
 62
   257
176
     1
 90
        1
176
     1
 90
        1
176
     1
 40
1.0
176
     1
 90
        8
176
     1
 62
   257
176
     1
 40
1.0
176
     1
 90
        1
176
     1
 90
        6
176
     1
 90
        2
176
     1
 62
     8
420
  7895160
176
     1
 90
        3
176
     1
 90
        0
176
     1
 90
        0
176
     1
290
     0
176
     1
 90
        5
176
     1
 40
0.0
176
     1
 90
        0
176
     1
290
     0
176
     1
290
     1
176
     1
290
     1
176
     1
290
     0
176
     1
290
     0
176
     1
290
     0
176
     1
290
     0
176
     1
290
     0
176
     1
290
     0
176
     1
 90
       50
176
     1
 40
0.0
176
     1
 40
1.0
176
     1
 90
        0
176
     1
 62
    18
420
        0
176
     1
 90
       50
176
     1
 90
        3
176
     1
 62
     5
420
      255
176
     1
290
     0
176
     1
 90
       50
176
     1
 90
       50
176
     1
 90
       50
176
     1
290
     0
176
     1
 90
       50
176
     1
 62
   256
176
     0
 40
1.0
176
     0
 90
        2
176
     1
  1
strokes_ogs.tif
176
     1
290
     0
176
     1
 40
1.0
176
     1
 40
1.0
176
     1
  0
VISUALSTYLE
  5
3D
102
{ACAD_REACTORS
330
29
102
}
330
29
100
AcDbVisualStyle
  2
Shaded with edges
 70
    26
177
     3
291
     0
 70
    58
 90
        2
176
     1
 90
        2
176
     1
 90
        1
176
     1
 90
        2
176
     1
 40
0.6
176
     1
 40
30.0
176
     1
 62
     7
420
 16777215
176
     1
 90
        1
176
     1
 90
        2
176
     1
 62
     7
176
     1
 62
   257
176
     1
 90
        2
176
     1
 90
        1
176
     1
 40
1.0
176
     1
 90
        8
176
     1
 62
   257
176
     1
 40
1.0
176
     1
 90
        1
176
     1
 90
        6
176
     1
 90
        2
176
     1
 62
     7
176
     1
 90
        3
176
     1
 90
        0
176
     1
 90
        0
176
     1
290
     0
176
     1
 90
        5
176
     1
 40
0.0
176
     1
 90
        0
176
     1
290
     0
176
     1
290
     1
176
     1
290
     1
176
     1
290
     0
176
     1
290
     0
176
     1
290
     0
176
     1
290
     0
176
     1
290
     0
176
     1
290
     0
176
     1
 90
       50
176
     1
 40
0.0
176
     1
 40
1.0
176
     1
 90
        0
176
     1
 62
    18
420
        0
176
     1
 90
       50
176
     1
 90
        3
176
     1
 62
     5
420
      255
176
     1
290
     0
176
     1
 90
       50
176
     1
 90
       50
176
     1
 90
       50
176
     1
290
     0
176
     1
 90
       50
176
     1
 62
   256
176
     0
 40
1.0
176
     0
 90
        2
176
     1
  1
strokes_ogs.tif
176
     1
290
     0
176
     1
 40
1.0
176
     1
 40
1.0
176
     1
  0
VISUALSTYLE
  5
3A
102
{ACAD_REACTORS
330
29
102
}
330
29
100
AcDbVisualStyle
  2
Shades of Gray
 70
    23
177
     3
291
     0
 70
    58
 90
        2
176
     1
 90
        2
176
     1
 90
        3
176
     1
 90
        0
176
     1
 40
0.6
176
     1
 40
30.0
176
     1
 62
     7
420
 16777215
176
     1
 90
        2
176
     1
 90
        2
176
     1
 62
     7
176
     1
 62
     7
176
     1
 90
        1
176
     1
 90
        1
176
     1
 40
40.0
176
     1
 90
        8
176
     1
 62
     7
176
     1
 40
1.0
176
     1
 90
        1
176
     1
 90
        6
176
     1
 90
        2
176
     1
 62
     7
176
     1
 90
        3
176
     1
 90
        0
176
     1
 90
        0
176
     1
290
     0
176
     1
 90
        1
176
     1
 40
0.0
176
     1
 90
        0
176
     1
290
     0
176
     1
290
     1
176
     1
290
     1
176
     1
290
     0
176
     1
290
     0
176
     1
290
     0
176
     1
290
     0
176
     1
290
     0
176
     1
290
     0
176
     1
 90
       50
176
     1
 40
0.0
176
     1
 40
1.0
176
     1
 90
        0
176
     1
 62
    18
420
        0
176
     1
 90
       50
176
     1
 90
        3
176
     1
 62
     5
420
      255
176
     1
290
     0
176
     1
 90
       50
176
     1
 90
       50
176
     1
 90
       50
176
     1
290
     0
176
     1
 90
       50
176
     1
 62
   256
176
     0
 40
1.0
176
     0
 90
        2
176
     1
  1
strokes_ogs.tif
176
     1
290
     0
176
     1
 40
1.0
176
     1
 40
1.0
176
     1
  0
VISUALSTYLE
  5
3B
102
{ACAD_REACTORS
330
29
102
}
330
29
100
AcDbVisualStyle
  2
Sketchy
 70
    24
177
     3
291
     0
 70
    58
 90
        1
176
     1
 90
        2
176
     1
 90
        2
176
     1
 90
        0
176
     1
 40
0.6
176
     1
 40
30.0
176
     1
 62
     7
420
 16777215
176
     1
 90
        2
176
     1
 90
        2
176
     1
 62
     7
176
     1
 62
     7
176
     1
 90
        1
176
     1
 90
        1
176
     1
 40
40.0
176
     1
 90
       11
176
     1
 62
     7
176
     1
 40
1.0
176
     1
 90
        1
176
     1
 90
        6
176
     1
 90
        2
176
     1
 62
     7
176
     1
 90
        6
176
     1
 90
        0
176
     1
 90
        0
176
     1
290
     0
176
     1
 90
        1
176
     1
 40
0.0
176
     1
 90
        0
176
     1
290
     0
176
     1
290
     1
176
     1
290
     1
176
     1
290
     0
176
     1
290
     0
176
     1
290
     0
176
     1
290
     0
176
     1
290
     0
176
     1
290
     0
176
     1
 90
       50
176
     1
 40
0.0
176
     1
 40
1.0
176
     1
 90
        0
176
     1
 62
    18
420
        0
176
     1
 90
       50
176
     1
 90
        3
176
     1
 62
     5
420
      255
176
     1
290
     0
176
     1
 90
       50
176
     1
 90
       50
176
     1
 90
       50
176
     1
290
     0
176
     1
 90
       50
176
     1
 62
   256
176
     0
 40
1.0
176
     0
 90
        2
176
     1
  1
strokes_ogs.tif
176
     1
290
     0
176
     1
 40
1.0
176
     1
 40
1.0
176
     1
  0
VISUALSTYLE
  5
36
102
{ACAD_REACTORS
330
29
102
}
330
29
100
AcDbVisualStyle
  2
Thicken
 70
    13
177
     3
291
     1
 70
    58
 90
        2
176
     1
 90
        2
176
     1
 90
        0
176
     1
 90
        0
176
     1
 40
0.6
176
     1
 40
30.0
176
     1
 62
     7
420
 16777215
176
     1
 90
        1
176
     1
 90
        4
176
     1
 62
     7
176
     1
 62
   257
176
     1
 90
        1
176
     1
 90
        1
176
     1
 40
1.0
176
     1
 90
       12
176
     1
 62
     7
176
     1
 40
1.0
176
     1
 90
        1
176
     1
 90
        6
176
     1
 90
        2
176
     1
 62
     7
176
     1
 90
        5
176
     1
 90
        0
176
     1
 90
        0
176
     1
290
     0
176
     1
 90
        1
176
     1
 40
0.0
176
     1
 90
        0
176
     1
290
     0
176
     1
290
     1
176
     1
290
     1
176
     1
290
     0
176
     1
290
     0
176
     1
290
     0
176
     1
290
     0
176
     1
290
     0
176
     1
290
     0
176
     1
 90
       50
176
     1
 40
0.0
176
     1
 40
1.0
176
     1
 90
        0
176
     1
 62
    18
420
        0
176
     1
 90
       50
176
     1
 90
        3
176
     1
 62
     5
420
      255
176
     1
290
     0
176
     1
 90
       50
176
     1
 90
       50
176
     1
 90
       50
176
     1
290
     0
176
     1
 90
       50
176
     1
 62
   256
176
     0
 40
1.0
176
     0
 90
        2
176
     1
  1
strokes_ogs.tif
176
     1
290
     0
176
     1
 40
1.0
176
     1
 40
1.0
176
     1
  0
VISUALSTYLE
  5
30
102
{ACAD_REACTORS
330
29
102
}
330
29
100
AcDbVisualStyle
  2
Wireframe
 70
     5
177
     3
291
     0
 70
    58
 90
        0
176
     1
 90
        2
176
     1
 90
        0
176
     1
 90
        0
176
     1
 40
0.6
176
     1
 40
30.0
176
     1
 62
     7
420
 16777215
176
     1
 90
        1
176
     1
 90
        4
176
     1
 62
     7
176
     1
 62
   257
176
     1
 90
        1
176
     1
 90
        1
176
     1
 40
1.0
176
     1
 90
        0
176
     1
 62
   257
176
     1
 40
1.0
176
     1
 90
        1
176
     1
 90
        6
176
     1
 90
        2
176
     1
 62
     7
176
     1
 90
        3
176
     1
 90
        0
176
     1
 90
        0
176
     1
290
     0
176
     1
 90
        1
176
     1
 40
0.0
176
     1
 90
        0
176
     1
290
     0
176
     1
290
     1
176
     1
290
     1
176
     1
290
     0
176
     1
290
     0
176
     1
290
     0
176
     1
290
     0
176
     1
290
     0
176
     1
290
     0
176
     1
 90
       50
176
     1
 40
0.0
176
     1
 40
1.0
176
     1
 90
        0
176
     1
 62
    18
420
        0
176
     1
 90
       50
176
     1
 90
        3
176
     1
 62
     5
420
      255
176
     1
290
     0
176
     1
 90
       50
176
     1
 90
       50
176
     1
 90
       50
176
     1
290
     0
176
     1
 90
       50
176
     1
 62
   256
176
     0
 40
1.0
176
     0
 90
        2
176
     1
  1
strokes_ogs.tif
176
     1
290
     0
176
     1
 40
1.0
176
     1
 40
1.0
176
     1
  0
VISUALSTYLE
  5
3C
102
{ACAD_REACTORS
330
29
102
}
330
29
100
AcDbVisualStyle
  2
X-Ray
 70
    25
177
     3
291
     0
 70
    58
 90
        2
176
     1
 90
        2
176
     1
 90
        1
176
     1
 90
        1
176
     1
 40
0.5
176
     1
 40
30.0
176
     1
 62
     7
420
 16777215
176
     1
 90
        1
176
     1
 90
        0
176
     1
 62
     7
176
     1
 62
   257
176
     1
 90
        1
176
     1
 90
        1
176
     1
 40
1.0
176
     1
 90
        8
176
     1
 62
     7
176
     1
 40
1.0
176
     1
 90
        1
176
     1
 90
        6
176
     1
 90
        2
176
     1
 62
     7
176
     1
 90
        3
176
     1
 90
        0
176
     1
 90
        0
176
     1
290
     0
176
     1
 90
       13
176
     1
 40
0.0
176
     1
 90
        0
176
     1
290
     0
176
     1
290
     1
176
     1
290
     1
176
     1
290
     0
176
     1
290
     0
176
     1
290
     0
176
     1
290
     0
176
     1
290
     0
176
     1
290
     0
176
     1
 90
       50
176
     1
 40
0.0
176
     1
 40
1.0
176
     1
 90
        0
176
     1
 62
    18
420
        0
176
     1
 90
       50
176
     1
 90
        3
176
     1
 62
     5
420
      255
176
     1
290
     0
176
     1
 90
       50
176
     1
 90
       50
176
     1
 90
       50
176
     1
290
     0
176
     1
 90
       50
176
     1
 62
   256
176
     0
 40
1.0
176
     0
 90
        2
176
     1
  1
strokes_ogs.tif
176
     1
290
     0
176
     1
 40
1.0
176
     1
 40
1.0
176
     1
  0
DICTIONARYVAR
  5
361
102
{ACAD_REACTORS
330
35C
102
}
330
35C
100
DictionaryVariables
280
     0
  1
1:1
  0
DICTIONARYVAR
  5
35E
102
{ACAD_REACTORS
330
35C
102
}
330
35C
100
DictionaryVariables
280
     0
  1
STANDARD
  0
DICTIONARYVAR
  5
35D
102
{ACAD_REACTORS
330
35C
102
}
330
35C
100
DictionaryVariables
280
     0
  1
STANDARD
  0
DICTIONARYVAR
  5
35F
102
{ACAD_REACTORS
330
35C
102
}
330
35C
100
DictionaryVariables
280
     0
  1
Imperial24
  0
DICTIONARYVAR
  5
360
102
{ACAD_REACTORS
330
35C
102
}
330
35C
100
DictionaryVariables
280
     0
  1
Imperial24
  0
DICTIONARY
  5
1A
330
19
100
AcDbDictionary
280
     1
281
     1
  3
BUMPTILE
360
1C
  3
DIFFUSETILE
360
1B
  3
OPACITYTILE
360
1F
  3
REFLECTIONTILE
360
1E
  3
REFRACTIONTILE
360
20
  3
SPECULARTILE
360
1D
  0
DICTIONARY
  5
12
330
11
100
AcDbDictionary
280
     1
281
     1
  3
BUMPTILE
360
14
  3
DIFFUSETILE
360
13
  3
OPACITYTILE
360
17
  3
REFLECTIONTILE
360
16
  3
REFRACTIONTILE
360
18
  3
SPECULARTILE
360
15
  0
DICTIONARY
  5
22
330
21
100
AcDbDictionary
280
     1
281
     1
  3
BUMPTILE
360
24
  3
DIFFUSETILE
360
23
  3
OPACITYTILE
360
27
  3
REFLECTIONTILE
360
26
  3
REFRACTIONTILE
360
28
  3
SPECULARTILE
360
25
  0
DICTIONARY
  5
362
330
65
100
AcDbDictionary
280
     1
281
     1
  3
ACAD_ROUNDTRIP_2008_TABLESTYLE_CELLSTYLEMAP
360
363
  0
XRECORD
  5
1C
102
{ACAD_REACTORS
330
1A
102
}
330
1A
100
AcDbXrecord
280
     1
270
     1
271
     1
  0
XRECORD
  5
1B
102
{ACAD_REACTORS
330
1A
102
}
330
1A
100
AcDbXrecord
280
     1
270
     1
271
     1
  0
XRECORD
  5
1F
102
{ACAD_REACTORS
330
1A
102
}
330
1A
100
AcDbXrecord
280
     1
270
     1
271
     1
  0
XRECORD
  5
1E
102
{ACAD_REACTORS
330
1A
102
}
330
1A
100
AcDbXrecord
280
     1
270
     1
271
     1
  0
XRECORD
  5
20
102
{ACAD_REACTORS
330
1A
102
}
330
1A
100
AcDbXrecord
280
     1
270
     1
271
     1
  0
XRECORD
  5
1D
102
{ACAD_REACTORS
330
1A
102
}
330
1A
100
AcDbXrecord
280
     1
270
     1
271
     1
  0
XRECORD
  5
14
102
{ACAD_REACTORS
330
12
102
}
330
12
100
AcDbXrecord
280
     1
270
     1
271
     1
  0
XRECORD
  5
13
102
{ACAD_REACTORS
330
12
102
}
330
12
100
AcDbXrecord
280
     1
270
     1
271
     1
  0
XRECORD
  5
17
102
{ACAD_REACTORS
330
12
102
}
330
12
100
AcDbXrecord
280
     1
270
     1
271
     1
  0
XRECORD
  5
16
102
{ACAD_REACTORS
330
12
102
}
330
12
100
AcDbXrecord
280
     1
270
     1
271
     1
  0
XRECORD
  5
18
102
{ACAD_REACTORS
330
12
102
}
330
12
100
AcDbXrecord
280
     1
270
     1
271
     1
  0
XRECORD
  5
15
102
{ACAD_REACTORS
330
12
102
}
330
12
100
AcDbXrecord
280
     1
270
     1
271
     1
  0
XRECORD
  5
24
102
{ACAD_REACTORS
330
22
102
}
330
22
100
AcDbXrecord
280
     1
270
     1
271
     1
  0
XRECORD
  5
23
102
{ACAD_REACTORS
330
22
102
}
330
22
100
AcDbXrecord
280
     1
270
     1
271
     1
  0
XRECORD
  5
27
102
{ACAD_REACTORS
330
22
102
}
330
22
100
AcDbXrecord
280
     1
270
     1
271
     1
  0
XRECORD
  5
26
102
{ACAD_REACTORS
330
22
102
}
330
22
100
AcDbXrecord
280
     1
270
     1
271
     1
  0
XRECORD
  5
28
102
{ACAD_REACTORS
330
22
102
}
330
22
100
AcDbXrecord
280
     1
270
     1
271
     1
  0
XRECORD
  5
25
102
{ACAD_REACTORS
330
22
102
}
330
22
100
AcDbXrecord
280
     1
270
     1
271
     1
  0
CELLSTYLEMAP
  5
363
102
{ACAD_REACTORS
330
362
102
}
330
362
100
AcDbCellStyleMap
 90
        3
300
CELLSTYLE
  1
TABLEFORMAT_BEGIN
 90
        5
170
     1
 91
        0
 92
    32768
 62
   257
 93
        1
300
CONTENTFORMAT
  1
CONTENTFORMAT_BEGIN
 90
        0
 91
        0
 92
      512
 93
        0
300

 40
0.0
140
1.0
 94
        5
 62
     0
340
55
144
0.25
309
CONTENTFORMAT_END
171
     0
 94
        0
309
TABLEFORMAT_END
  1
CELLSTYLE_BEGIN
 90
        1
 91
        1
300
_TITLE
309
CELLSTYLE_END
300
CELLSTYLE
  1
TABLEFORMAT_BEGIN
 90
        5
170
     1
 91
        0
 92
        0
 62
   257
 93
        1
300
CONTENTFORMAT
  1
CONTENTFORMAT_BEGIN
 90
        0
 91
        0
 92
      512
 93
        0
300

 40
0.0
140
1.0
 94
        5
 62
     0
340
55
144
0.18
309
CONTENTFORMAT_END
171
     0
 94
        0
309
TABLEFORMAT_END
  1
CELLSTYLE_BEGIN
 90
        2
 91
        1
300
_HEADER
309
CELLSTYLE_END
300
CELLSTYLE
  1
TABLEFORMAT_BEGIN
 90
        5
170
     1
 91
        0
 92
        0
 62
   257
 93
        1
300
CONTENTFORMAT
  1
CONTENTFORMAT_BEGIN
 90
        0
 91
        0
 92
      512
 93
        0
300

 40
0.0
140
1.0
 94
        2
 62
     0
340
55
144
0.18
309
CONTENTFORMAT_END
171
     0
 94
        0
309
TABLEFORMAT_END
  1
CELLSTYLE_BEGIN
 90
        3
 91
        2
300
_DATA
309
CELLSTYLE_END
  0
ENDSEC
  0
EOF
