  0
SECTION
  2
HEADER
  9
$ACADVER
  1
AC1032
  9
$ACADMAINTVER
 90
      251
  9
$DWGCODEPAGE
  3
ANSI_1252
  9
$REQUIREDVERSIONS
160
                 0
  9
$INSBASE
 10
0.0
 20
0.0
 30
0.0
  9
$EXTMIN
 10
1.000000000000000E+20
 20
1.000000000000000E+20
 30
1.000000000000000E+20
  9
$EXTMAX
 10
-1.000000000000000E+20
 20
-1.000000000000000E+20
 30
-1.000000000000000E+20
  9
$LIMMIN
 10
0.0
 20
0.0
  9
$LIMMAX
 10
12.0
 20
9.0
  9
$ORTHOMODE
 70
     0
  9
$REGENMODE
 70
     1
  9
$FILLMODE
 70
     1
  9
$QTEXTMODE
 70
     0
  9
$MIRRTEXT
 70
     0
  9
$LTSCALE
 40
1.0
  9
$ATTMODE
 70
     1
  9
$TEXTSIZE
 40
0.2
  9
$TRACEWID
 40
0.05
  9
$TEXTSTYLE
  7
Standard
  9
$CLAYER
  8
0
  9
$CELTYPE
  6
ByLayer
  9
$CECOLOR
 62
   256
  9
$CELTSCALE
 40
1.0
  9
$DISPSILH
 70
     0
  9
$DIMSCALE
 40
1.0
  9
$DIMASZ
 40
0.18
  9
$DIMEXO
 40
0.0625
  9
$DIMDLI
 40
0.38
  9
$DIMRND
 40
0.0
  9
$DIMDLE
 40
0.0
  9
$DIMEXE
 40
0.18
  9
$DIMTP
 40
0.0
  9
$DIMTM
 40
0.0
  9
$DIMTXT
 40
0.18
  9
$DIMCEN
 40
0.09
  9
$DIMTSZ
 40
0.0
  9
$DIMTOL
 70
     0
  9
$DIMLIM
 70
     0
  9
$DIMTIH
 70
     1
  9
$DIMTOH
 70
     1
  9
$DIMSE1
 70
     0
  9
$DIMSE2
 70
     0
  9
$DIMTAD
 70
     0
  9
$DIMZIN
 70
     0
  9
$DIMBLK
  1

  9
$DIMASO
 70
     1
  9
$DIMSHO
 70
     1
  9
$DIMPOST
  1

  9
$DIMAPOST
  1

  9
$DIMALT
 70
     0
  9
$DIMALTD
 70
     2
  9
$DIMALTF
 40
25.4
  9
$DIMLFAC
 40
1.0
  9
$DIMTOFL
 70
     0
  9
$DIMTVP
 40
0.0
  9
$DIMTIX
 70
     0
  9
$DIMSOXD
 70
     0
  9
$DIMSAH
 70
     0
  9
$DIMBLK1
  1

  9
$DIMBLK2
  1

  9
$DIMSTYLE
  2
Standard
  9
$DIMCLRD
 70
     0
  9
$DIMCLRE
 70
     0
  9
$DIMCLRT
 70
     0
  9
$DIMTFAC
 40
1.0
  9
$DIMGAP
 40
0.09
  9
$DIMJUST
 70
     0
  9
$DIMSD1
 70
     0
  9
$DIMSD2
 70
     0
  9
$DIMTOLJ
 70
     1
  9
$DIMTZIN
 70
     0
  9
$DIMALTZ
 70
     0
  9
$DIMALTTZ
 70
     0
  9
$DIMUPT
 70
     0
  9
$DIMDEC
 70
     4
  9
$DIMTDEC
 70
     4
  9
$DIMALTU
 70
     2
  9
$DIMALTTD
 70
     2
  9
$DIMTXSTY
  7
Standard
  9
$DIMAUNIT
 70
     0
  9
$DIMADEC
 70
     0
  9
$DIMALTRND
 40
0.0
  9
$DIMAZIN
 70
     0
  9
$DIMDSEP
 70
    46
  9
$DIMATFIT
 70
     3
  9
$DIMFRAC
 70
     0
  9
$DIMLDRBLK
  1

  9
$DIMLUNIT
 70
     2
  9
$DIMLWD
 70
    -2
  9
$DIMLWE
 70
    -2
  9
$DIMTMOVE
 70
     0
  9
$DIMFXL
 40
1.0
  9
$DIMFXLON
 70
     0
  9
$DIMJOGANG
 40
0.7853981633974483
  9
$DIMTFILL
 70
     0
  9
$DIMTFILLCLR
 70
     0
  9
$DIMARCSYM
 70
     0
  9
$DIMLTYPE
  6

  9
$DIMLTEX1
  6

  9
$DIMLTEX2
  6

  9
$DIMTXTDIRECTION
 70
     0
  9
$LUNITS
 70
     2
  9
$LUPREC
 70
     4
  9
$SKETCHINC
 40
0.1
  9
$FILLETRAD
 40
0.0
  9
$AUNITS
 70
     0
  9
$AUPREC
 70
     0
  9
$MENU
  1
.
  9
$ELEVATION
 40
0.0
  9
$PELEVATION
 40
0.0
  9
$THICKNESS
 40
0.0
  9
$LIMCHECK
 70
     0
  9
$CHAMFERA
 40
0.0
  9
$CHAMFERB
 40
0.0
  9
$CHAMFERC
 40
0.0
  9
$CHAMFERD
 40
0.0
  9
$SKPOLY
 70
     0
  9
$TDCREATE
 40
2460038.430902778
  9
$TDUCREATE
 40
2460038.347569444
  9
$TDUPDATE
 40
2460038.430902778
  9
$TDUUPDATE
 40
2460038.347569444
  9
$TDINDWG
 40
0.0000000000
  9
$TDUSRTIMER
 40
0.0000000000
  9
$USRTIMER
 70
     1
  9
$ANGBASE
 50
0.0
  9
$ANGDIR
 70
     0
  9
$PDMODE
 70
     0
  9
$PDSIZE
 40
0.0
  9
$PLINEWID
 40
0.0
  9
$SPLFRAME
 70
     0
  9
$SPLINETYPE
 70
     6
  9
$SPLINESEGS
 70
     8
  9
$HANDSEED
  5
1D3
  9
$SURFTAB1
 70
     6
  9
$SURFTAB2
 70
     6
  9
$SURFTYPE
 70
     6
  9
$SURFU
 70
     6
  9
$SURFV
 70
     6
  9
$UCSBASE
  2

  9
$UCSNAME
  2

  9
$UCSORG
 10
0.0
 20
0.0
 30
0.0
  9
$UCSXDIR
 10
1.0
 20
0.0
 30
0.0
  9
$UCSYDIR
 10
0.0
 20
1.0
 30
0.0
  9
$UCSORTHOREF
  2

  9
$UCSORTHOVIEW
 70
     0
  9
$UCSORGTOP
 10
0.0
 20
0.0
 30
0.0
  9
$UCSORGBOTTOM
 10
0.0
 20
0.0
 30
0.0
  9
$UCSORGLEFT
 10
0.0
 20
0.0
 30
0.0
  9
$UCSORGRIGHT
 10
0.0
 20
0.0
 30
0.0
  9
$UCSORGFRONT
 10
0.0
 20
0.0
 30
0.0
  9
$UCSORGBACK
 10
0.0
 20
0.0
 30
0.0
  9
$PUCSBASE
  2

  9
$PUCSNAME
  2

  9
$PUCSORG
 10
0.0
 20
0.0
 30
0.0
  9
$PUCSXDIR
 10
1.0
 20
0.0
 30
0.0
  9
$PUCSYDIR
 10
0.0
 20
1.0
 30
0.0
  9
$PUCSORTHOREF
  2

  9
$PUCSORTHOVIEW
 70
     0
  9
$PUCSORGTOP
 10
0.0
 20
0.0
 30
0.0
  9
$PUCSORGBOTTOM
 10
0.0
 20
0.0
 30
0.0
  9
$PUCSORGLEFT
 10
0.0
 20
0.0
 30
0.0
  9
$PUCSORGRIGHT
 10
0.0
 20
0.0
 30
0.0
  9
$PUCSORGFRONT
 10
0.0
 20
0.0
 30
0.0
  9
$PUCSORGBACK
 10
0.0
 20
0.0
 30
0.0
  9
$USERI1
 70
     0
  9
$USERI2
 70
     0
  9
$USERI3
 70
     0
  9
$USERI4
 70
     0
  9
$USERI5
 70
     0
  9
$USERR1
 40
0.0
  9
$USERR2
 40
0.0
  9
$USERR3
 40
0.0
  9
$USERR4
 40
0.0
  9
$USERR5
 40
0.0
  9
$WORLDVIEW
 70
     1
  9
$SHADEDGE
 70
     3
  9
$SHADEDIF
 70
    70
  9
$TILEMODE
 70
     1
  9
$MAXACTVP
 70
    64
  9
$PINSBASE
 10
0.0
 20
0.0
 30
0.0
  9
$PLIMCHECK
 70
     0
  9
$PEXTMIN
 10
1.000000000000000E+20
 20
1.000000000000000E+20
 30
1.000000000000000E+20
  9
$PEXTMAX
 10
-1.000000000000000E+20
 20
-1.000000000000000E+20
 30
-1.000000000000000E+20
  9
$PLIMMIN
 10
0.0
 20
0.0
  9
$PLIMMAX
 10
12.0
 20
9.0
  9
$UNITMODE
 70
     0
  9
$VISRETAIN
 70
     1
  9
$PLINEGEN
 70
     0
  9
$PSLTSCALE
 70
     1
  9
$TREEDEPTH
 70
  3020
  9
$CMLSTYLE
  2
Standard
  9
$CMLJUST
 70
     0
  9
$CMLSCALE
 40
1.0
  9
$PROXYGRAPHICS
 70
     1
  9
$MEASUREMENT
 70
     0
  9
$CELWEIGHT
370
    -1
  9
$ENDCAPS
280
     0
  9
$JOINSTYLE
280
     0
  9
$LWDISPLAY
290
     1
  9
$INSUNITS
 70
     4
  9
$HYPERLINKBASE
  1

  9
$STYLESHEET
  1

  9
$XEDIT
290
     1
  9
$CEPSNTYPE
380
     0
  9
$PSTYLEMODE
290
     1
  9
$FINGERPRINTGUID
  2
{59A56008-2DB3-0A40-BDD4-98BB51672830}
  9
$VERSIONGUID
  2
{F7ADA5BF-B410-8044-B445-50585A622AEF}
  9
$EXTNAMES
290
     1
  9
$PSVPSCALE
 40
0.0
  9
$OLESTARTUP
290
     0
  9
$SORTENTS
280
   127
  9
$INDEXCTL
280
     0
  9
$HIDETEXT
280
     1
  9
$XCLIPFRAME
280
     2
  9
$HALOGAP
280
     0
  9
$OBSCOLOR
 70
   257
  9
$OBSLTYPE
280
     0
  9
$INTERSECTIONDISPLAY
280
     0
  9
$INTERSECTIONCOLOR
 70
   257
  9
$DIMASSOC
280
     2
  9
$PROJECTNAME
  1

  9
$CAMERADISPLAY
290
     0
  9
$LENSLENGTH
 40
50.0
  9
$CAMERAHEIGHT
 40
0.0
  9
$STEPSPERSEC
 40
2.0
  9
$STEPSIZE
 40
6.0
  9
$3DDWFPREC
 40
2.0
  9
$PSOLWIDTH
 40
0.25
  9
$PSOLHEIGHT
 40
4.0
  9
$LOFTANG1
 40
1.570796326794896
  9
$LOFTANG2
 40
1.570796326794896
  9
$LOFTMAG1
 40
0.0
  9
$LOFTMAG2
 40
0.0
  9
$LOFTPARAM
 70
     7
  9
$LOFTNORMALS
280
     1
  9
$LATITUDE
 40
37.795
  9
$LONGITUDE
 40
-122.394
  9
$NORTHDIRECTION
 40
0.0
  9
$TIMEZONE
 70
 -8000
  9
$LIGHTGLYPHDISPLAY
280
     1
  9
$TILEMODELIGHTSYNCH
280
     1
  9
$CMATERIAL
347
11
  9
$SOLIDHIST
280
     0
  9
$SHOWHIST
280
     1
  9
$DWFFRAME
280
     2
  9
$DGNFRAME
280
     0
  9
$REALWORLDSCALE
290
     1
  9
$INTERFERECOLOR
 62
     1
  9
$INTERFEREOBJVS
345
33
  9
$INTERFEREVPVS
346
30
  9
$CSHADOW
280
     0
  9
$SHADOWPLANELOCATION
 40
0.0
  0
ENDSEC
  0
SECTION
  2
CLASSES
  0
CLASS
  1
ACDBDICTIONARYWDFLT
  2
AcDbDictionaryWithDefault
  3
ObjectDBX Classes
 90
        0
 91
        1
280
     0
281
     0
  0
CLASS
  1
MATERIAL
  2
AcDbMaterial
  3
ObjectDBX Classes
 90
     1153
 91
        3
280
     0
281
     0
  0
CLASS
  1
VISUALSTYLE
  2
AcDbVisualStyle
  3
ObjectDBX Classes
 90
     4095
 91
       24
280
     0
281
     0
  0
CLASS
  1
SCALE
  2
AcDbScale
  3
ObjectDBX Classes
 90
     1153
 91
       17
280
     0
281
     0
  0
CLASS
  1
TABLESTYLE
  2
AcDbTableStyle
  3
ObjectDBX Classes
 90
     4095
 91
        1
280
     0
281
     0
  0
CLASS
  1
MLEADERSTYLE
  2
AcDbMLeaderStyle
  3
ACDB_MLEADERSTYLE_CLASS
 90
     4095
 91
        1
280
     0
281
     0
  0
CLASS
  1
ACDBSECTIONVIEWSTYLE
  2
AcDbSectionViewStyle
  3
ObjectDBX Classes
 90
     1025
 91
        1
280
     0
281
     0
  0
CLASS
  1
ACDBDETAILVIEWSTYLE
  2
AcDbDetailViewStyle
  3
ObjectDBX Classes
 90
     1025
 91
        1
280
     0
281
     0
  0
CLASS
  1
DICTIONARYVAR
  2
AcDbDictionaryVar
  3
ObjectDBX Classes
 90
        0
 91
        5
280
     0
281
     0
  0
CLASS
  1
CELLSTYLEMAP
  2
AcDbCellStyleMap
  3
ObjectDBX Classes
 90
     1152
 91
        1
280
     0
281
     0
  0
ENDSEC
  0
SECTION
  2
TABLES
  0
TABLE
  2
VPORT
  5
8
330
0
100
AcDbSymbolTable
 70
     1
  0
VPORT
  5
57
330
8
100
AcDbSymbolTableRecord
100
AcDbViewportTableRecord
  2
*Active
 70
     0
 10
0.0
 20
0.0
 11
1.0
 21
1.0
 12
0.0
 22
0.0
 13
0.0
 23
0.0
 14
1.0
 24
1.0
 15
0.0
 25
0.0
 16
0.0
 26
0.0
 36
1.0
 17
104.9999999737499
 27
-43.49999998912136
 37
0.0
 40
302.9399999242646
 41
0.7070707070707073
 42
50.0
 43
0.0
 44
0.0
 50
0.0
 51
0.0
 71
     0
 72
   100
 73
     1
 74
     1
 75
     0
 76
     0
 77
     0
 78
     0
281
     0
 65
     1
110
0.0
120
0.0
130
0.0
111
1.0
121
0.0
131
0.0
112
0.0
122
1.0
132
0.0
 79
     0
146
0.0
 60
     3
 61
     5
292
     1
282
     1
141
0.0
142
0.0
 63
   250
421
  3355443
  0
ENDTAB
  0
TABLE
  2
LTYPE
  5
5
330
0
100
AcDbSymbolTable
 70
     1
  0
LTYPE
  5
5B
330
5
100
AcDbSymbolTableRecord
100
AcDbLinetypeTableRecord
  2
ByBlock
 70
     0
  3

 72
    65
 73
     0
 40
0.0
  0
LTYPE
  5
5C
330
5
100
AcDbSymbolTableRecord
100
AcDbLinetypeTableRecord
  2
ByLayer
 70
     0
  3

 72
    65
 73
     0
 40
0.0
  0
LTYPE
  5
5D
330
5
100
AcDbSymbolTableRecord
100
AcDbLinetypeTableRecord
  2
Continuous
 70
     0
  3
Solid line
 72
    65
 73
     0
 40
0.0
  0
ENDTAB
  0
TABLE
  2
LAYER
  5
2
330
0
100
AcDbSymbolTable
 70
     2
  0
LAYER
  5
54
330
2
100
AcDbSymbolTableRecord
100
AcDbLayerTableRecord
  2
0
 70
     0
 62
     7
  6
Continuous
370
     0
390
F
347
21
348
0
  0
LAYER
  5
1A5
330
2
100
AcDbSymbolTableRecord
100
AcDbLayerTableRecord
  2
CAPA_BASE
 70
     0
 62
     7
  6
Continuous
370
     0
390
F
347
21
348
0
  0
ENDTAB
  0
TABLE
  2
STYLE
  5
3
330
0
100
AcDbSymbolTable
 70
     2
  0
STYLE
  5
55
330
3
100
AcDbSymbolTableRecord
100
AcDbTextStyleTableRecord
  2
Standard
 70
     0
 40
0.0
 41
1.0
 50
0.0
 71
     0
 42
0.2
  3
txt
  4

  0
STYLE
  5
5A
330
3
100
AcDbSymbolTableRecord
100
AcDbTextStyleTableRecord
  2
Annotative
 70
     0
 40
0.0
 41
1.0
 50
0.0
 71
     0
 42
0.2
  3
txt
  4

1001
AcadAnnotative
1000
AnnotativeData
1002
{
1070
     1
1070
     1
1002
}
  0
ENDTAB
  0
TABLE
  2
VIEW
  5
6
330
0
100
AcDbSymbolTable
 70
     0
  0
ENDTAB
  0
TABLE
  2
UCS
  5
7
330
0
100
AcDbSymbolTable
 70
     0
  0
ENDTAB
  0
TABLE
  2
APPID
  5
9
330
0
100
AcDbSymbolTable
 70
     2
  0
APPID
  5
56
330
9
100
AcDbSymbolTableRecord
100
AcDbRegAppTableRecord
  2
ACAD
 70
     0
  0
APPID
  5
5E
330
9
100
AcDbSymbolTableRecord
100
AcDbRegAppTableRecord
  2
AcadAnnotative
 70
     0
  0
ENDTAB
  0
TABLE
  2
DIMSTYLE
  5
A
330
0
100
AcDbSymbolTable
 70
     2
100
AcDbDimStyleTable
 71
     0
  0
DIMSTYLE
105
58
330
A
100
AcDbSymbolTableRecord
100
AcDbDimStyleTableRecord
  2
Standard
 70
     0
340
55
  0
DIMSTYLE
105
59
330
A
100
AcDbSymbolTableRecord
100
AcDbDimStyleTableRecord
  2
Annotative
 70
     0
340
55
1001
AcadAnnotative
1000
AnnotativeData
1002
{
1070
     1
1070
     1
1002
}
  0
ENDTAB
  0
TABLE
  2
BLOCK_RECORD
  5
1
330
0
100
AcDbSymbolTable
 70
     4
  0
BLOCK_RECORD
  5
70
330
1
100
AcDbSymbolTableRecord
100
AcDbBlockTableRecord
  2
*Model_Space
340
73
 70
     0
280
     1
281
     0
  0
BLOCK_RECORD
  5
6C
330
1
100
AcDbSymbolTableRecord
100
AcDbBlockTableRecord
  2
*Paper_Space
340
6F
 70
     0
280
     1
281
     0
  0
BLOCK_RECORD
  5
74
330
1
100
AcDbSymbolTableRecord
100
AcDbBlockTableRecord
  2
*Paper_Space0
340
77
 70
     0
280
     1
281
     0
  0
BLOCK_RECORD
  5
1A6
330
1
100
AcDbSymbolTableRecord
100
AcDbBlockTableRecord
  2
Block_0
340
0
102
{BLKREFS
331
1A7
102
}
 70
     0
280
     1
281
     0
  0
BLOCK_RECORD
  5
1B2
330
1
100
AcDbSymbolTableRecord
100
AcDbBlockTableRecord
  2
Block_1
340
0
102
{BLKREFS
331
1B3
102
}
 70
     0
280
     1
281
     0
  0
BLOCK_RECORD
  5
1BE
330
1
100
AcDbSymbolTableRecord
100
AcDbBlockTableRecord
  2
Block_2
340
0
102
{BLKREFS
331
1BF
102
}
 70
     0
280
     1
281
     0
  0
ENDTAB
  0
ENDSEC
  0
SECTION
  2
BLOCKS
  0
BLOCK
  5
71
330
70
100
AcDbEntity
  8
0
100
AcDbBlockBegin
  2
*Model_Space
 70
     0
 10
0.0
 20
0.0
 30
0.0
  3
*Model_Space
  1

  0
ENDBLK
  5
72
330
70
100
AcDbEntity
  8
0
100
AcDbBlockEnd
  0
BLOCK
  5
6D
330
6C
100
AcDbEntity
 67
     1
  8
0
100
AcDbBlockBegin
  2
*Paper_Space
 70
     0
 10
0.0
 20
0.0
 30
0.0
  3
*Paper_Space
  1

  0
ENDBLK
  5
6E
330
6C
100
AcDbEntity
 67
     1
  8
0
100
AcDbBlockEnd
  0
BLOCK
  5
75
330
74
100
AcDbEntity
 67
     1
  8
0
100
AcDbBlockBegin
  2
*Paper_Space0
 70
     0
 10
0.0
 20
0.0
 30
0.0
  3
*Paper_Space0
  1

  0
ENDBLK
  5
76
330
74
100
AcDbEntity
 67
     1
  8
0
100
AcDbBlockEnd
  0
BLOCK
  5
1A8
330
1A6
100
AcDbEntity
  8
0
100
AcDbBlockBegin
  2
Block_0
 70
     0
 10
0.0
 20
0.0
 30
0.0
  3
Block_0
  1

  0
LWPOLYLINE
  5
1AA
330
1A6
100
AcDbEntity
  8
CAPA_BASE
100
AcDbPolyline
 90
        4
 70
     1
 43
0.0
 10
101.0932080001295
 20
-37.24659835966033
 10
99.43588694895103
 20
-37.04109054931393
 10
99.43588694895103
 20
-37.45210617000607
 10
99.43588694895103
 20
-37.45210617000607
  0
HATCH
  5
1AB
330
1A6
100
AcDbEntity
  8
CAPA_BASE
 62
    18
420
        0
440
 33554687
100
AcDbHatch
 10
0.0
 20
0.0
 30
0.0
210
0.0
220
0.0
230
1.0
  2
SOLID
 70
     1
 71
     1
 91
        1
 92
        1
 93
        3
 72
     1
 10
101.0932080001295
 20
-37.24659835966033
 11
99.43588694895103
 21
-37.04109054931393
 72
     1
 10
99.43588694895103
 20
-37.04109054931393
 11
99.43588694895103
 21
-37.45210617000607
 72
     1
 10
99.43588694895103
 20
-37.45210617000607
 11
101.0932080001295
 21
-37.24659835966033
 97
        1
330
1AA
 75
     2
 76
     1
 98
        1
 10
0.0
 20
0.0
450
        0
451
        0
460
0.0
461
0.0
452
        0
462
0.0
453
        0
470

  0
LWPOLYLINE
  5
1AC
330
1A6
100
AcDbEntity
  8
CAPA_BASE
100
AcDbPolyline
 90
        4
 70
     1
 43
0.0
 10
59.66018172066197
 20
-37.24659835966033
 10
61.31750277184047
 20
-37.45210617000607
 10
61.31750277184047
 20
-37.04109054931393
 10
61.31750277184047
 20
-37.04109054931393
  0
HATCH
  5
1AD
330
1A6
100
AcDbEntity
  8
CAPA_BASE
 62
    18
420
        0
440
 33554687
100
AcDbHatch
 10
0.0
 20
0.0
 30
0.0
210
0.0
220
0.0
230
1.0
  2
SOLID
 70
     1
 71
     1
 91
        1
 92
        1
 93
        3
 72
     1
 10
59.66018172066197
 20
-37.24659835966033
 11
61.31750277184047
 21
-37.45210617000607
 72
     1
 10
61.31750277184047
 20
-37.45210617000607
 11
61.31750277184047
 21
-37.04109054931393
 72
     1
 10
61.31750277184047
 20
-37.04109054931393
 11
59.66018172066197
 21
-37.24659835966033
 97
        1
330
1AC
 75
     2
 76
     1
 98
        1
 10
0.0
 20
0.0
450
        0
451
        0
460
0.0
461
0.0
452
        0
462
0.0
453
        0
470

  0
LINE
  5
1AE
330
1A6
100
AcDbEntity
  8
CAPA_BASE
 62
    18
420
        0
370
    25
100
AcDbLine
 10
101.0932080001295
 20
-30.06838461959305
 30
0.0
 11
101.0932080001295
 21
-37.90952678013147
 31
0.0
  0
LINE
  5
1AF
330
1A6
100
AcDbEntity
  8
CAPA_BASE
 62
    18
420
        0
370
    25
100
AcDbLine
 10
59.66018172066197
 20
-30.06838461959305
 30
0.0
 11
59.66018172066197
 21
-37.90952678013147
 31
0.0
  0
LINE
  5
1B0
330
1A6
100
AcDbEntity
  8
CAPA_BASE
 62
    18
420
        0
370
    25
100
AcDbLine
 10
101.0932080001295
 20
-37.24659835966033
 30
0.0
 11
59.66018172066197
 21
-37.24659835966033
 31
0.0
  0
MTEXT
  5
1B1
330
1A6
100
AcDbEntity
  8
CAPA_BASE
100
AcDbMText
 10
78.6226987854116
 20
-36.72040073748331
 30
0.0
 40
0.2
 41
0.0
 46
0.0
 71
     7
 72
     1
  1
\C18;\c0;\FArial Bold|b1|i0|c1;\H2.997200;\W0.700000;125
 73
     1
 44
1.0
  0
ENDBLK
  5
1A9
330
1A6
100
AcDbEntity
  8
0
100
AcDbBlockEnd
  0
BLOCK
  5
1B4
330
1B2
100
AcDbEntity
  8
0
100
AcDbBlockBegin
  2
Block_1
 70
     0
 10
0.0
 20
0.0
 30
0.0
  3
Block_1
  1

  0
LWPOLYLINE
  5
1B6
330
1B2
100
AcDbEntity
  8
CAPA_BASE
100
AcDbPolyline
 90
        4
 70
     1
 43
0.0
 10
128.1841178046602
 20
7.518147092019646
 10
127.9786099943138
 20
5.860826040841149
 10
128.389625615006
 20
5.860826040841149
 10
128.389625615006
 20
5.860826040841149
  0
HATCH
  5
1B7
330
1B2
100
AcDbEntity
  8
CAPA_BASE
 62
    18
420
        0
440
 33554687
100
AcDbHatch
 10
0.0
 20
0.0
 30
0.0
210
0.0
220
0.0
230
1.0
  2
SOLID
 70
     1
 71
     1
 91
        1
 92
        1
 93
        3
 72
     1
 10
128.1841178046602
 20
7.518147092019646
 11
127.9786099943138
 21
5.860826040841149
 72
     1
 10
127.9786099943138
 20
5.860826040841149
 11
128.389625615006
 21
5.860826040841149
 72
     1
 10
128.389625615006
 20
5.860826040841149
 11
128.1841178046602
 21
7.518147092019646
 97
        1
330
1B6
 75
     2
 76
     1
 98
        1
 10
0.0
 20
0.0
450
        0
451
        0
460
0.0
461
0.0
452
        0
462
0.0
453
        0
470

  0
LWPOLYLINE
  5
1B8
330
1B2
100
AcDbEntity
  8
CAPA_BASE
100
AcDbPolyline
 90
        4
 70
     1
 43
0.0
 10
128.1841178046602
 20
-30.61647720781438
 10
128.389625615006
 20
-28.95915615663588
 10
127.9786099943138
 20
-28.95915615663588
 10
127.9786099943138
 20
-28.95915615663588
  0
HATCH
  5
1B9
330
1B2
100
AcDbEntity
  8
CAPA_BASE
 62
    18
420
        0
440
 33554687
100
AcDbHatch
 10
0.0
 20
0.0
 30
0.0
210
0.0
220
0.0
230
1.0
  2
SOLID
 70
     1
 71
     1
 91
        1
 92
        1
 93
        3
 72
     1
 10
128.1841178046602
 20
-30.61647720781438
 11
128.389625615006
 21
-28.95915615663588
 72
     1
 10
128.389625615006
 20
-28.95915615663588
 11
127.9786099943138
 21
-28.95915615663588
 72
     1
 10
127.9786099943138
 20
-28.95915615663588
 11
128.1841178046602
 21
-30.61647720781438
 97
        1
330
1B8
 75
     2
 76
     1
 98
        1
 10
0.0
 20
0.0
450
        0
451
        0
460
0.0
461
0.0
452
        0
462
0.0
453
        0
470

  0
LINE
  5
1BA
330
1B2
100
AcDbEntity
  8
CAPA_BASE
 62
    18
420
        0
370
    25
100
AcDbLine
 10
134.2161939759511
 20
7.518147092019646
 30
0.0
 11
127.5211893841884
 21
7.518147092019646
 31
0.0
  0
LINE
  5
1BB
330
1B2
100
AcDbEntity
  8
CAPA_BASE
 62
    18
420
        0
370
    25
100
AcDbLine
 10
150.3407608749538
 20
-30.61647720781438
 30
0.0
 11
127.5211893841884
 21
-30.61647720781438
 31
0.0
  0
LINE
  5
1BC
330
1B2
100
AcDbEntity
  8
CAPA_BASE
 62
    18
420
        0
370
    25
100
AcDbLine
 10
128.1841178046602
 20
7.518147092019646
 30
0.0
 11
128.1841178046602
 21
-30.61647720781438
 31
0.0
  0
MTEXT
  5
1BD
330
1B2
100
AcDbEntity
  8
CAPA_BASE
100
AcDbMText
 10
127.6579163126228
 20
-13.30323621629289
 30
0.0
 40
0.2
 41
0.0
 46
0.0
 71
     7
 72
     1
  1
\C18;\c0;\FArial Bold|b1|i0|c1;\H2.997200;\W0.700000;115
 11
0.0000000000000003
 21
1.0
 31
0.0
 73
     1
 44
1.0
  0
ENDBLK
  5
1B5
330
1B2
100
AcDbEntity
  8
0
100
AcDbBlockEnd
  0
BLOCK
  5
1C0
330
1BE
100
AcDbEntity
  8
0
100
AcDbBlockBegin
  2
Block_2
 70
     0
 10
0.0
 20
0.0
 30
0.0
  3
Block_2
  1

  0
LWPOLYLINE
  5
1C2
330
1BE
100
AcDbEntity
  8
CAPA_BASE
100
AcDbPolyline
 90
        4
 70
     1
 43
0.0
 10
107.7233291519754
 20
-57.90804774974926
 10
107.5178213416291
 20
-59.56536880092841
 10
107.9288369623215
 20
-59.56536880092841
 10
107.9288369623215
 20
-59.56536880092841
  0
HATCH
  5
1C3
330
1BE
100
AcDbEntity
  8
CAPA_BASE
 62
    18
420
        0
440
 33554687
100
AcDbHatch
 10
0.0
 20
0.0
 30
0.0
210
0.0
220
0.0
230
1.0
  2
SOLID
 70
     1
 71
     1
 91
        1
 92
        1
 93
        3
 72
     1
 10
107.7233291519754
 20
-57.90804774974926
 11
107.5178213416291
 21
-59.56536880092841
 72
     1
 10
107.5178213416291
 20
-59.56536880092841
 11
107.9288369623215
 21
-59.56536880092841
 72
     1
 10
107.9288369623215
 20
-59.56536880092841
 11
107.7233291519754
 21
-57.90804774974926
 97
        1
330
1C2
 75
     2
 76
     1
 98
        1
 10
0.0
 20
0.0
450
        0
451
        0
460
0.0
461
0.0
452
        0
462
0.0
453
        0
470

  0
LWPOLYLINE
  5
1C4
330
1BE
100
AcDbEntity
  8
CAPA_BASE
100
AcDbPolyline
 90
        4
 70
     1
 43
0.0
 10
107.7233291519754
 20
-77.32779115897234
 10
107.9288369623215
 20
-75.67047010779385
 10
107.5178213416291
 20
-75.67047010779385
 10
107.5178213416291
 20
-75.67047010779385
  0
HATCH
  5
1C5
330
1BE
100
AcDbEntity
  8
CAPA_BASE
 62
    18
420
        0
440
 33554687
100
AcDbHatch
 10
0.0
 20
0.0
 30
0.0
210
0.0
220
0.0
230
1.0
  2
SOLID
 70
     1
 71
     1
 91
        1
 92
        1
 93
        3
 72
     1
 10
107.7233291519754
 20
-77.32779115897234
 11
107.9288369623215
 21
-75.67047010779385
 72
     1
 10
107.9288369623215
 20
-75.67047010779385
 11
107.5178213416291
 21
-75.67047010779385
 72
     1
 10
107.5178213416291
 20
-75.67047010779385
 11
107.7233291519754
 21
-77.32779115897234
 97
        1
330
1C4
 75
     2
 76
     1
 98
        1
 10
0.0
 20
0.0
450
        0
451
        0
460
0.0
461
0.0
452
        0
462
0.0
453
        0
470

  0
LINE
  5
1C6
330
1BE
100
AcDbEntity
  8
CAPA_BASE
 62
    18
420
        0
370
    25
100
AcDbLine
 10
88.51395190052981
 20
-57.90804774974926
 30
0.0
 11
108.3862575724469
 21
-57.90804774974926
 31
0.0
  0
LINE
  5
1C7
330
1BE
100
AcDbEntity
  8
CAPA_BASE
 62
    18
420
        0
370
    25
100
AcDbLine
 10
101.7561364206013
 20
-77.32779115897234
 30
0.0
 11
108.3862575724469
 21
-77.32779115897234
 31
0.0
  0
LINE
  5
1C8
330
1BE
100
AcDbEntity
  8
CAPA_BASE
 62
    18
420
        0
370
    25
100
AcDbLine
 10
107.7233291519754
 20
-57.90804774974926
 30
0.0
 11
107.7233291519754
 21
-77.32779115897234
 31
0.0
  0
MTEXT
  5
1C9
330
1BE
100
AcDbEntity
  8
CAPA_BASE
100
AcDbMText
 10
107.1971281843287
 20
-68.78718802533857
 30
0.0
 40
0.2
 41
0.0
 46
0.0
 71
     7
 72
     1
  1
\C18;\c0;\FArial Bold|b1|i0|c1;\H2.997200;\W0.700000;59
 11
0.0000000000000003
 21
1.0
 31
0.0
 73
     1
 44
1.0
  0
ENDBLK
  5
1C1
330
1BE
100
AcDbEntity
  8
0
100
AcDbBlockEnd
  0
ENDSEC
  0
SECTION
  2
ENTITIES
  0
LINE
  5
78
330
70
100
AcDbEntity
  8
0
 62
    18
420
        0
370
    25
100
AcDbLine
 10
83.35987275251749
 20
0.8888628873050182
 30
0.0
 11
82.97827898736668
 21
0.8888628873050182
 31
0.0
  0
LINE
  5
79
330
70
100
AcDbEntity
  8
0
 62
    18
420
        0
370
    25
100
AcDbLine
 10
77.94045914777092
 20
0.8888628873050182
 30
0.0
 11
77.39351696827402
 21
0.8888628873050182
 31
0.0
  0
LINE
  5
7A
330
70
100
AcDbEntity
  8
0
 62
    18
420
        0
370
    25
100
AcDbLine
 10
77.39351696827402
 20
-0.7684581638741203
 30
0.0
 11
77.94045914777092
 21
-0.7684581638741203
 31
0.0
  0
LINE
  5
7B
330
70
100
AcDbEntity
  8
0
 62
    18
420
        0
370
    25
100
AcDbLine
 10
82.97827898736668
 20
-0.7684581638741203
 30
0.0
 11
83.35987275251749
 21
-0.7684581638741203
 31
0.0
  0
LINE
  5
7C
330
70
100
AcDbEntity
  8
0
 62
    18
420
        0
370
    25
100
AcDbLine
 10
77.39351696827402
 20
1.236900308052239
 30
0.0
 11
72.08311628530705
 21
1.236900308052239
 31
0.0
  0
LINE
  5
7D
330
70
100
AcDbEntity
  8
0
 62
    18
420
        0
370
    25
100
AcDbLine
 10
88.67188391275375
 20
1.236900308052239
 30
0.0
 11
83.35987275251749
 21
1.236900308052239
 31
0.0
  0
LINE
  5
7E
330
70
100
AcDbEntity
  8
0
 62
    18
420
        0
370
    25
100
AcDbLine
 10
87.84002638296994
 20
7.440859677116582
 30
0.0
 11
73.07871175210125
 21
7.440859677116582
 31
0.0
  0
LINE
  5
7F
330
70
100
AcDbEntity
  8
0
 62
    18
420
        0
370
    25
100
AcDbLine
 10
87.84002638296994
 20
7.440859677116582
 30
0.0
 11
87.90631670078459
 21
7.440859677116582
 31
0.0
  0
LINE
  5
80
330
70
100
AcDbEntity
  8
0
 62
    18
420
        0
370
    25
100
AcDbLine
 10
73.07871175210125
 20
7.507149994931564
 30
0.0
 11
87.84002638296994
 21
7.507149994931564
 31
0.0
  0
LINE
  5
81
330
70
100
AcDbEntity
  8
0
 62
    18
420
        0
370
    25
100
AcDbLine
 10
87.84002638296994
 20
7.440859677116582
 30
0.0
 11
87.84002638296994
 21
7.507149994931564
 31
0.0
  0
LINE
  5
82
330
70
100
AcDbEntity
  8
0
 62
    18
420
        0
370
    25
100
AcDbLine
 10
73.07871175210125
 20
7.507149994931564
 30
0.0
 11
73.07871175210125
 21
7.440859677116582
 31
0.0
  0
SPLINE
  5
83
330
70
100
AcDbEntity
  8
0
 62
    18
420
        0
370
    25
100
AcDbSpline
210
0.0
220
0.0
230
1.0
 70
     8
 71
     3
 72
     8
 73
     4
 74
     0
 42
0.0000000001
 43
0.0000000001
 40
0.0
 40
0.0
 40
0.0
 40
0.0
 40
1.0
 40
1.0
 40
1.0
 40
1.0
 10
87.90631670080193
 20
7.440859677130058
 30
0.0
 10
87.90631343562544
 20
7.477469456157125
 30
0.0
 10
87.87663616201015
 20
7.507146729771775
 30
0.0
 10
87.84002638298309
 20
7.507149994948249
 30
0.0
  0
LINE
  5
84
330
70
100
AcDbEntity
  8
0
 62
    18
420
        0
370
    25
100
AcDbLine
 10
73.01242143428659
 20
7.440859677116582
 30
0.0
 11
73.07871175210125
 21
7.440859677116582
 31
0.0
  0
SPLINE
  5
85
330
70
100
AcDbEntity
  8
0
 62
    18
420
        0
370
    25
100
AcDbSpline
210
0.0
220
0.0
230
1.0
 70
     8
 71
     3
 72
     8
 73
     4
 74
     0
 42
0.0000000001
 43
0.0000000001
 40
0.0
 40
0.0
 40
0.0
 40
0.0
 40
1.0
 40
1.0
 40
1.0
 40
1.0
 10
73.07871175208809
 20
7.507149994948249
 30
0.0
 10
73.04210197306104
 20
7.507146729771775
 30
0.0
 10
73.01242469944575
 20
7.477469456157125
 30
0.0
 10
73.01242143426927
 20
7.440859677130058
 30
0.0
  0
LINE
  5
86
330
70
100
AcDbEntity
  8
0
 62
    18
420
        0
370
    25
100
AcDbLine
 10
87.917313797873
 20
7.451856774204664
 30
0.0
 11
87.90631670078459
 21
7.440859677116582
 31
0.0
  0
LINE
  5
87
330
70
100
AcDbEntity
  8
0
 62
    18
420
        0
370
    25
100
AcDbLine
 10
87.84002638296994
 20
7.507149994931564
 30
0.0
 11
87.85102348005834
 21
7.518147092019646
 31
0.0
  0
SPLINE
  5
88
330
70
100
AcDbEntity
  8
0
 62
    18
420
        0
370
    25
100
AcDbSpline
210
0.0
220
0.0
230
1.0
 70
     8
 71
     3
 72
    11
 73
     7
 74
     0
 42
0.0000000001
 43
0.0000000001
 40
0.0
 40
0.0
 40
0.0
 40
0.0
 40
1.0
 40
1.0
 40
1.0
 40
2.0
 40
2.0
 40
2.0
 40
2.0
 10
87.91731379788551
 20
7.451856774213005
 30
0.0
 10
87.91731427523517
 20
7.488467428456601
 30
0.0
 10
87.88763586294546
 20
7.51814661468219
 30
0.0
 10
87.85102520870252
 20
7.518147092031838
 30
0.0
 10
87.85102463249046
 20
7.518147092039539
 30
0.0
 10
87.8510240562784
 20
7.518147092039539
 30
0.0
 10
87.85102348006669
 20
7.518147092031838
 30
0.0
  0
LINE
  5
89
330
70
100
AcDbEntity
  8
0
 62
    18
420
        0
370
    25
100
AcDbLine
 10
73.06771465507927
 20
7.518147092019646
 30
0.0
 11
73.07871175210125
 21
7.507149994931564
 31
0.0
  0
LINE
  5
8A
330
70
100
AcDbEntity
  8
0
 62
    18
420
        0
370
    25
100
AcDbLine
 10
73.01242143428659
 20
7.440859677116582
 30
0.0
 11
73.00142433726461
 21
7.451856774204664
 31
0.0
  0
SPLINE
  5
8B
330
70
100
AcDbEntity
  8
0
 62
    18
420
        0
370
    25
100
AcDbSpline
210
0.0
220
0.0
230
1.0
 70
     8
 71
     3
 72
    11
 73
     7
 74
     0
 42
0.0000000001
 43
0.0000000001
 40
0.0
 40
0.0
 40
0.0
 40
0.0
 40
1.0
 40
1.0
 40
1.0
 40
2.0
 40
2.0
 40
2.0
 40
2.0
 10
73.06771465507093
 20
7.518147092031838
 30
0.0
 10
73.03110400082798
 20
7.518147569381486
 30
0.0
 10
73.00142481460174
 20
7.488469157092425
 30
0.0
 10
73.00142433725209
 20
7.451858502848829
 30
0.0
 10
73.00142433724471
 20
7.451857926637102
 30
0.0
 10
73.00142433724471
 20
7.451857350424734
 30
0.0
 10
73.00142433725209
 20
7.451856774213005
 30
0.0
  0
LINE
  5
8C
330
70
100
AcDbEntity
  8
0
 62
    18
420
        0
370
    25
100
AcDbLine
 10
87.917313797873
 20
7.451856774204664
 30
0.0
 11
87.917313797873
 21
1.236900308052239
 31
0.0
  0
LINE
  5
8D
330
70
100
AcDbEntity
  8
0
 62
    18
420
        0
370
    25
100
AcDbLine
 10
73.06771465507927
 20
7.518147092019646
 30
0.0
 11
87.85102348005834
 21
7.518147092019646
 31
0.0
  0
LINE
  5
8E
330
70
100
AcDbEntity
  8
0
 62
    18
420
        0
370
    25
100
AcDbLine
 10
73.00142433726461
 20
1.236900308052239
 30
0.0
 11
73.00142433726461
 21
7.451856774204664
 31
0.0
  0
LINE
  5
8F
330
70
100
AcDbEntity
  8
0
 62
    18
420
        0
370
    25
100
AcDbLine
 10
83.35987275251749
 20
-1.26275712696527
 30
0.0
 11
83.35987275251749
 21
0.651865297086791
 31
0.0
  0
LINE
  5
90
330
70
100
AcDbEntity
  8
0
 62
    18
420
        0
370
    25
100
AcDbLine
 10
101.0611753217899
 20
0.651865297086791
 30
0.0
 11
83.35987275251749
 21
0.651865297086791
 31
0.0
  0
LINE
  5
91
330
70
100
AcDbEntity
  8
0
 62
    18
420
        0
370
    25
100
AcDbLine
 10
101.0611753217899
 20
0.651865297086791
 30
0.0
 11
101.0932080001295
 21
0.4748781317984138
 31
0.0
  0
SPLINE
  5
92
330
70
100
AcDbEntity
  8
0
 62
    18
420
        0
370
    25
100
AcDbSpline
210
0.0
220
0.0
230
1.0
 70
     8
 71
     3
 72
     8
 73
     4
 74
     0
 42
0.0000000001
 43
0.0000000001
 40
0.0
 40
0.0
 40
0.0
 40
0.0
 40
1.0
 40
1.0
 40
1.0
 40
1.0
 10
99.767351159159
 20
-30.61647720779834
 30
0.0
 10
100.4647999994842
 20
-30.63973285886033
 30
0.0
 10
101.0533553855022
 20
-30.10215375135125
 30
0.0
 10
101.0932080001025
 20
-29.40545619911869
 30
0.0
  0
LINE
  5
93
330
70
100
AcDbEntity
  8
0
 62
    18
420
        0
370
    25
100
AcDbLine
 10
99.76735115918661
 20
-30.61647720781438
 30
0.0
 11
60.9860385616049
 21
-30.61647720781438
 31
0.0
  0
SPLINE
  5
94
330
70
100
AcDbEntity
  8
0
 62
    18
420
        0
370
    25
100
AcDbSpline
210
0.0
220
0.0
230
1.0
 70
     8
 71
     3
 72
     8
 73
     4
 74
     0
 42
0.0000000001
 43
0.0000000001
 40
0.0
 40
0.0
 40
0.0
 40
0.0
 40
1.0
 40
1.0
 40
1.0
 40
1.0
 10
59.66018172066037
 20
-29.40545619913859
 30
0.0
 10
59.69994334867533
 20
-30.10219701518562
 30
0.0
 10
60.28855485486359
 20
-30.63982738215428
 30
0.0
 10
60.98603856160329
 20
-30.61647720781759
 30
0.0
  0
LINE
  5
95
330
70
100
AcDbEntity
  8
0
 62
    18
420
        0
370
    25
100
AcDbLine
 10
59.66018172066197
 20
0.4748781317984138
 30
0.0
 11
59.69221439900162
 21
0.651865297086791
 31
0.0
  0
LINE
  5
96
330
70
100
AcDbEntity
  8
0
 62
    18
420
        0
370
    25
100
AcDbLine
 10
77.39351696827402
 20
0.651865297086791
 30
0.0
 11
59.69221439900162
 21
0.651865297086791
 31
0.0
  0
LINE
  5
97
330
70
100
AcDbEntity
  8
0
 62
    18
420
        0
370
    25
100
AcDbLine
 10
77.39351696827402
 20
0.651865297086791
 30
0.0
 11
77.39351696827402
 21
-1.196468465146422
 31
0.0
  0
LWPOLYLINE
  5
98
330
70
100
AcDbEntity
  8
0
 62
    18
420
        0
370
    25
100
AcDbPolyline
 90
        3
 70
     0
 43
0.0
 10
77.39351696827402
 20
-1.196468465146422
 10
77.48209457059894
 20
-1.682249224430575
 10
77.74311111976718
 20
-2.117437846098317
  0
SPLINE
  5
99
330
70
100
AcDbEntity
  8
0
 62
    18
420
        0
370
    25
100
AcDbSpline
210
0.0
220
0.0
230
1.0
 70
     8
 71
     3
 72
    11
 73
     7
 74
     0
 42
0.0000000001
 43
0.0000000001
 40
0.0
 40
0.0
 40
0.0
 40
0.0
 40
1.0
 40
1.0
 40
1.0
 40
2.0
 40
2.0
 40
2.0
 40
2.0
 10
77.74311195848387
 20
-2.117438892509241
 30
0.0
 10
79.03714259722744
 20
-3.589502889595701
 30
0.0
 10
81.27950534986899
 20
-3.733827442452414
 30
0.0
 10
82.75156934695578
 20
-2.439796803709156
 30
0.0
 10
82.820698470407
 20
-2.379028247482899
 30
0.0
 10
82.88743731838799
 20
-2.315593328545305
 30
0.0
 10
82.95163449337294
 20
-2.249635949436416
 30
0.0
  0
LWPOLYLINE
  5
9A
330
70
100
AcDbEntity
  8
0
 62
    18
420
        0
370
    25
100
AcDbPolyline
 90
        3
 70
     0
 43
0.0
 10
82.95163518481425
 20
-2.249635296703361
 10
83.25630685482822
 20
-1.788642493602621
 10
83.35987275251749
 20
-1.26275712696527
  0
LINE
  5
9B
330
70
100
AcDbEntity
  8
0
 62
    18
420
        0
370
    25
100
AcDbLine
 10
59.66018172066197
 20
-29.4054561991219
 30
0.0
 11
59.66018172066197
 21
0.4748781317984138
 31
0.0
  0
LINE
  5
9C
330
70
100
AcDbEntity
  8
0
 62
    18
420
        0
370
    25
100
AcDbLine
 10
101.0932080001295
 20
0.4748781317984138
 30
0.0
 11
101.0932080001295
 21
-29.4054561991219
 31
0.0
  0
LINE
  5
9D
330
70
100
AcDbEntity
  8
0
 62
    18
420
        0
370
    25
100
AcDbLine
 10
77.39351696827402
 20
1.236900308052239
 30
0.0
 11
77.39351696827402
 21
0.651865297086791
 31
0.0
  0
LINE
  5
9E
330
70
100
AcDbEntity
  8
0
 62
    18
420
        0
370
    25
100
AcDbLine
 10
60.32311014113344
 20
1.02870733955072
 30
0.0
 11
71.42716118403083
 21
1.02870733955072
 31
0.0
  0
SPLINE
  5
9F
330
70
100
AcDbEntity
  8
0
 62
    18
420
        0
370
    25
100
AcDbSpline
210
0.0
220
0.0
230
1.0
 70
     8
 71
     3
 72
     8
 73
     4
 74
     0
 42
0.0000000001
 43
0.0000000001
 40
0.0
 40
0.0
 40
0.0
 40
0.0
 40
1.0
 40
1.0
 40
1.0
 40
1.0
 10
71.42716118403533
 20
1.028707339592431
 30
0.0
 10
71.65770621102281
 20
1.05009056719646
 30
0.0
 10
71.88118579030789
 20
1.11967705014842
 30
0.0
 10
72.08311628534748
 20
1.232956911838471
 30
0.0
  0
SPLINE
  5
A0
330
70
100
AcDbEntity
  8
0
 62
    18
420
        0
370
    25
100
AcDbSpline
210
0.0
220
0.0
230
1.0
 70
     8
 71
     3
 72
     8
 73
     4
 74
     0
 42
0.0000000001
 43
0.0000000001
 40
0.0
 40
0.0
 40
0.0
 40
0.0
 40
1.0
 40
1.0
 40
1.0
 40
1.0
 10
60.32311014111708
 20
1.028707339573821
 30
0.0
 10
60.05343302958423
 20
1.052802229250015
 30
0.0
 10
59.79884658366284
 20
0.9007345105065594
 30
0.0
 10
59.69221439899488
 20
0.6518652970906411
 30
0.0
  0
SPLINE
  5
A1
330
70
100
AcDbEntity
  8
0
 62
    18
420
        0
370
    25
100
AcDbSpline
210
0.0
220
0.0
230
1.0
 70
     8
 71
     3
 72
     8
 73
     4
 74
     0
 42
0.0000000001
 43
0.0000000001
 40
0.0
 40
0.0
 40
0.0
 40
0.0
 40
1.0
 40
1.0
 40
1.0
 40
1.0
 10
88.67188391276208
 20
1.23269778389317
 30
0.0
 10
88.87579240585592
 20
1.125507441020773
 30
0.0
 10
89.09753089108944
 20
1.056380973907099
 30
0.0
 10
89.32622853673242
 20
1.02870733955457
 30
0.0
  0
LINE
  5
A2
330
70
100
AcDbEntity
  8
0
 62
    18
420
        0
370
    25
100
AcDbLine
 10
89.32622853676098
 20
1.02870733955072
 30
0.0
 11
100.430279579658
 21
1.02870733955072
 31
0.0
  0
LINE
  5
A3
330
70
100
AcDbEntity
  8
0
 62
    18
420
        0
370
    25
100
AcDbLine
 10
83.35987275251749
 20
0.651865297086791
 30
0.0
 11
83.35987275251749
 21
1.236900308052239
 31
0.0
  0
SPLINE
  5
A4
330
70
100
AcDbEntity
  8
0
 62
    18
420
        0
370
    25
100
AcDbSpline
210
0.0
220
0.0
230
1.0
 70
     8
 71
     3
 72
     8
 73
     4
 74
     0
 42
0.0000000001
 43
0.0000000001
 40
0.0
 40
0.0
 40
0.0
 40
0.0
 40
1.0
 40
1.0
 40
1.0
 40
1.0
 10
101.0611753217629
 20
0.6518652970880743
 30
0.0
 10
100.9546891347002
 20
0.9008621499076431
 30
0.0
 10
100.6999998617318
 20
1.052991288553166
 30
0.0
 10
100.430279579641
 20
1.028707339572538
 30
0.0
  0
CIRCLE
  5
A5
330
70
100
AcDbEntity
  8
0
 62
    18
420
        0
370
    25
100
AcDbCircle
 10
80.4593690675688
 20
0.0602023617152885
 30
0.0
 40
2.524825038905047
  0
CIRCLE
  5
A6
330
70
100
AcDbEntity
  8
0
 62
    18
420
        0
370
    25
100
AcDbCircle
 10
80.4593690675688
 20
0.0602023617152885
 30
0.0
 40
2.651713681885931
  0
LINE
  5
A7
330
70
100
AcDbEntity
  8
0
 62
     8
420
  8421504
370
    25
100
AcDbLine
 10
73.07871175210125
 20
7.440859677116582
 30
0.0
 11
73.07871175210125
 21
1.236900308052239
 31
0.0
  0
LINE
  5
A8
330
70
100
AcDbEntity
  8
0
 62
     8
420
  8421504
370
    25
100
AcDbLine
 10
87.84002638296994
 20
1.236900308052239
 30
0.0
 11
87.84002638296994
 21
7.440859677116582
 31
0.0
  0
LINE
  5
A9
330
70
100
AcDbEntity
  8
0
 62
     8
420
  8421504
370
    25
100
AcDbLine
 10
87.90631670078459
 20
7.440859677116582
 30
0.0
 11
87.90631670078459
 21
1.236900308052239
 31
0.0
  0
LINE
  5
AA
330
70
100
AcDbEntity
  8
0
 62
     8
420
  8421504
370
    25
100
AcDbLine
 10
73.01242143428659
 20
1.236900308052239
 30
0.0
 11
73.01242143428659
 21
7.440859677116582
 31
0.0
  0
LINE
  5
AB
330
70
100
AcDbEntity
  8
0
 62
    18
420
        0
370
    25
100
AcDbLine
 10
147.9222390691995
 20
-16.01581183471808
 30
0.0
 11
147.9222390691995
 21
-18.17032920125058
 31
0.0
  0
LINE
  5
AC
330
70
100
AcDbEntity
  8
0
 62
    18
420
        0
370
    25
100
AcDbLine
 10
149.579560120378
 20
-18.17032920125058
 30
0.0
 11
149.579560120378
 21
-16.01581183471808
 31
0.0
  0
LINE
  5
AD
330
70
100
AcDbEntity
  8
0
 62
    18
420
        0
370
    25
100
AcDbLine
 10
147.9222390691995
 20
0.060202361715449
 30
0.0
 11
147.9222390691995
 21
-2.094315004817045
 31
0.0
  0
LINE
  5
AE
330
70
100
AcDbEntity
  8
0
 62
    18
420
        0
370
    25
100
AcDbLine
 10
149.579560120378
 20
-2.094315004817045
 30
0.0
 11
149.579560120378
 21
0.060202361715449
 31
0.0
  0
LINE
  5
AF
330
70
100
AcDbEntity
  8
0
 62
    18
420
        0
370
    25
100
AcDbLine
 10
149.579560120378
 20
-16.01581183471808
 30
0.0
 11
149.579560120378
 21
-2.094315004817045
 31
0.0
  0
LINE
  5
B0
330
70
100
AcDbEntity
  8
0
 62
    18
420
        0
370
    25
100
AcDbLine
 10
147.9222390691995
 20
-2.094315004817045
 30
0.0
 11
147.9222390691995
 21
-16.01581183471808
 31
0.0
  0
LINE
  5
B1
330
70
100
AcDbEntity
  8
0
 62
    18
420
        0
370
    25
100
AcDbLine
 10
136.2049792373658
 20
-2.591511320171044
 30
0.0
 11
147.9222390691995
 21
-2.591511320171044
 31
0.0
  0
LINE
  5
B2
330
70
100
AcDbEntity
  8
0
 62
    18
420
        0
370
    25
100
AcDbLine
 10
149.579560120378
 20
-2.591511320171044
 30
0.0
 11
151.1346875461721
 21
-2.591511320171044
 31
0.0
  0
LINE
  5
B3
330
70
100
AcDbEntity
  8
0
 62
    18
420
        0
370
    25
100
AcDbLine
 10
151.3226244861327
 20
2.7119160436013
 30
0.0
 11
136.2049792373658
 21
2.7119160436013
 31
0.0
  0
SPLINE
  5
B4
330
70
100
AcDbEntity
  8
0
 62
    18
420
        0
370
    25
100
AcDbSpline
210
0.0
220
0.0
230
1.0
 70
     8
 71
     3
 72
     8
 73
     4
 74
     0
 42
0.0000000001
 43
0.0000000001
 40
0.0
 40
0.0
 40
0.0
 40
0.0
 40
1.0
 40
1.0
 40
1.0
 40
1.0
 10
151.4134274094995
 20
-2.564422497525808
 30
0.0
 10
151.4487100088091
 20
-2.541314539432171
 30
0.0
 10
151.473855264758
 20
-2.505624201147448
 30
0.0
 10
151.4837403330135
 20
-2.464622677189999
 30
0.0
  0
SPLINE
  5
B5
330
70
100
AcDbEntity
  8
0
 62
    18
420
        0
370
    25
100
AcDbSpline
210
0.0
220
0.0
230
1.0
 70
     8
 71
     3
 72
     8
 73
     4
 74
     0
 42
0.0000000001
 43
0.0000000001
 40
0.0
 40
0.0
 40
0.0
 40
0.0
 40
1.0
 40
1.0
 40
1.0
 40
1.0
 10
151.4837403330135
 20
2.585027400620896
 30
0.0
 10
151.4657945493196
 20
2.659463354027816
 30
0.0
 10
151.3991931632276
 20
2.7119160436013
 30
0.0
 10
151.3226244861327
 20
2.7119160436013
 30
0.0
  0
SPLINE
  5
B6
330
70
100
AcDbEntity
  8
0
 62
    18
420
        0
370
    25
100
AcDbSpline
210
0.0
220
0.0
230
1.0
 70
     8
 71
     3
 72
     8
 73
     4
 74
     0
 42
0.0000000001
 43
0.0000000001
 40
0.0
 40
0.0
 40
0.0
 40
0.0
 40
1.0
 40
1.0
 40
1.0
 40
1.0
 10
151.4837403330141
 20
-2.464622677193849
 30
0.0
 10
151.6830768222817
 20
-1.637809990692915
 30
0.0
 10
151.783797118446
 20
-0.7902999924919768
 30
0.0
 10
151.783797118446
 20
0.060202361715449
 30
0.0
  0
SPLINE
  5
B7
330
70
100
AcDbEntity
  8
0
 62
    18
420
        0
370
    25
100
AcDbSpline
210
0.0
220
0.0
230
1.0
 70
     8
 71
     3
 72
     8
 73
     4
 74
     0
 42
0.0000000001
 43
0.0000000001
 40
0.0
 40
0.0
 40
0.0
 40
0.0
 40
1.0
 40
1.0
 40
1.0
 40
1.0
 10
151.783797118446
 20
0.060202361715449
 30
0.0
 10
151.783797118446
 20
0.9107047159222329
 30
0.0
 10
151.6830768222817
 20
1.758214714123172
 30
0.0
 10
151.4837403330141
 20
2.585027400624105
 30
0.0
  0
LINE
  5
B8
330
70
100
AcDbEntity
  8
0
 62
    18
420
        0
370
    25
100
AcDbLine
 10
134.8791223964229
 20
7.518147092019646
 30
0.0
 11
136.1392649021917
 21
7.507149994931564
 31
0.0
  0
SPLINE
  5
B9
330
70
100
AcDbEntity
  8
0
 62
    18
420
        0
370
    25
100
AcDbSpline
210
0.0
220
0.0
230
1.0
 70
     8
 71
     3
 72
     8
 73
     4
 74
     0
 42
0.0000000001
 43
0.0000000001
 40
0.0
 40
0.0
 40
0.0
 40
0.0
 40
1.0
 40
1.0
 40
1.0
 40
1.0
 10
136.1392649021358
 20
7.440859677147384
 30
0.0
 10
136.1396504953251
 20
7.462954767584121
 30
0.0
 10
136.1396504953251
 20
7.485054904530121
 30
0.0
 10
136.1392649021358
 20
7.507149994966858
 30
0.0
  0
LINE
  5
BA
330
70
100
AcDbEntity
  8
0
 62
    18
420
        0
370
    25
100
AcDbLine
 10
136.1392649021917
 20
7.440859677116582
 30
0.0
 11
134.8791223964229
 21
7.451856774204664
 31
0.0
  0
LINE
  5
BB
330
70
100
AcDbEntity
  8
0
 62
    18
420
        0
370
    25
100
AcDbLine
 10
134.8791223964229
 20
7.451856774204664
 30
0.0
 11
134.8791223964229
 21
7.518147092019646
 31
0.0
  0
LINE
  5
BC
330
70
100
AcDbEntity
  8
0
 62
    18
420
        0
370
    25
100
AcDbLine
 10
136.1392649021917
 20
-18.92170231200318
 30
0.0
 11
136.1392649021917
 21
7.440859677116582
 31
0.0
  0
LINE
  5
BD
330
70
100
AcDbEntity
  8
0
 62
    18
420
        0
370
    25
100
AcDbLine
 10
134.8791223964229
 20
-18.93269940902517
 30
0.0
 11
136.1392649021917
 21
-18.92170231200318
 31
0.0
  0
LINE
  5
BE
330
70
100
AcDbEntity
  8
0
 62
    18
420
        0
370
    25
100
AcDbLine
 10
134.8791223964229
 20
-18.93269940902517
 30
0.0
 11
134.8791223964229
 21
7.451856774204664
 31
0.0
  0
SPLINE
  5
BF
330
70
100
AcDbEntity
  8
0
 62
    18
420
        0
370
    25
100
AcDbSpline
210
0.0
220
0.0
230
1.0
 70
     8
 71
     3
 72
     8
 73
     4
 74
     0
 42
0.0000000001
 43
0.0000000001
 40
0.0
 40
0.0
 40
0.0
 40
0.0
 40
1.0
 40
1.0
 40
1.0
 40
1.0
 10
136.1392649021352
 20
-18.98799262978672
 30
0.0
 10
136.1396504953244
 20
-18.96589753935062
 30
0.0
 10
136.1396504953244
 20
-18.94379740240398
 30
0.0
 10
136.1392649021352
 20
-18.92170231196724
 30
0.0
  0
LINE
  5
C0
330
70
100
AcDbEntity
  8
0
 62
    18
420
        0
370
    25
100
AcDbLine
 10
136.1392649021917
 20
-18.98799262981752
 30
0.0
 11
134.8791223964229
 21
-18.99898972683951
 31
0.0
  0
LINE
  5
C1
330
70
100
AcDbEntity
  8
0
 62
    18
420
        0
370
    25
100
AcDbLine
 10
134.8791223964229
 20
-18.99898972683951
 30
0.0
 11
134.8791223964229
 21
-18.93269940902517
 31
0.0
  0
LINE
  5
C2
330
70
100
AcDbEntity
  8
0
 62
    18
420
        0
370
    25
100
AcDbLine
 10
136.1392649021917
 20
-18.92170231200318
 30
0.0
 11
136.2049792373658
 21
-18.92170231200318
 31
0.0
  0
SPLINE
  5
C3
330
70
100
AcDbEntity
  8
0
 62
    18
420
        0
370
    25
100
AcDbSpline
210
0.0
220
0.0
230
1.0
 70
     8
 71
     3
 72
     8
 73
     4
 74
     0
 42
0.0000000001
 43
0.0000000001
 40
0.0
 40
0.0
 40
0.0
 40
0.0
 40
1.0
 40
1.0
 40
1.0
 40
1.0
 10
136.1392649021583
 20
-18.98799262982201
 30
0.0
 10
136.1756503221239
 20
-18.98767509907284
 30
0.0
 10
136.2049792373658
 20
-18.95808911746635
 30
0.0
 10
136.2049792373658
 20
-18.92170231200318
 30
0.0
  0
SPLINE
  5
C4
330
70
100
AcDbEntity
  8
0
 62
    18
420
        0
370
    25
100
AcDbSpline
210
0.0
220
0.0
230
1.0
 70
     8
 71
     3
 72
     8
 73
     4
 74
     0
 42
0.0000000001
 43
0.0000000001
 40
0.0
 40
0.0
 40
0.0
 40
0.0
 40
1.0
 40
1.0
 40
1.0
 40
1.0
 10
136.2049792373658
 20
7.440859677116582
 30
0.0
 10
136.2049792373658
 20
7.477246482580391
 30
0.0
 10
136.1756503221239
 20
7.506832464185596
 30
0.0
 10
136.1392649021583
 20
7.507149994935415
 30
0.0
  0
LINE
  5
C5
330
70
100
AcDbEntity
  8
0
 62
    18
420
        0
370
    25
100
AcDbLine
 10
136.1392649021917
 20
7.440859677116582
 30
0.0
 11
136.2049792373658
 21
7.440859677116582
 31
0.0
  0
LINE
  5
C6
330
70
100
AcDbEntity
  8
0
 62
    18
420
        0
370
    25
100
AcDbLine
 10
136.2049792373658
 20
7.440859677116582
 30
0.0
 11
136.2049792373658
 21
-18.92170231200318
 31
0.0
  0
SPLINE
  5
C7
330
70
100
AcDbEntity
  8
0
 62
    18
420
        0
370
    25
100
AcDbSpline
210
0.0
220
0.0
230
1.0
 70
     8
 71
     3
 72
    11
 73
     7
 74
     0
 42
0.0000000001
 43
0.0000000001
 40
0.0
 40
0.0
 40
0.0
 40
0.0
 40
1.0
 40
1.0
 40
1.0
 40
2.0
 40
2.0
 40
2.0
 40
2.0
 10
147.9222390691995
 20
-18.17032920125058
 30
0.0
 10
147.9222390691995
 20
-18.6279857723201
 30
0.0
 10
148.2932430237189
 20
-18.99898972683951
 30
0.0
 10
148.750899594789
 20
-18.99898972683951
 30
0.0
 10
149.2085561658585
 20
-18.99898972683951
 30
0.0
 10
149.579560120378
 20
-18.6279857723201
 30
0.0
 10
149.579560120378
 20
-18.17032920125058
 30
0.0
  0
SPLINE
  5
C8
330
70
100
AcDbEntity
  8
0
 62
    18
420
        0
370
    25
100
AcDbSpline
210
0.0
220
0.0
230
1.0
 70
     8
 71
     3
 72
    11
 73
     7
 74
     0
 42
0.0000000001
 43
0.0000000001
 40
0.0
 40
0.0
 40
0.0
 40
0.0
 40
1.0
 40
1.0
 40
1.0
 40
2.0
 40
2.0
 40
2.0
 40
2.0
 10
149.579560120378
 20
0.060202361715449
 30
0.0
 10
149.579560120378
 20
0.5178589327849718
 30
0.0
 10
149.2085561658585
 20
0.8888628873050182
 30
0.0
 10
148.750899594789
 20
0.8888628873050182
 30
0.0
 10
148.2932430237189
 20
0.8888628873050182
 30
0.0
 10
147.9222390691995
 20
0.5178589327849718
 30
0.0
 10
147.9222390691995
 20
0.060202361715449
 30
0.0
  0
SPLINE
  5
C9
330
70
100
AcDbEntity
  8
0
 62
    18
420
        0
370
    25
100
AcDbSpline
210
0.0
220
0.0
230
1.0
 70
     8
 71
     3
 72
     8
 73
     4
 74
     0
 42
0.0000000001
 43
0.0000000001
 40
0.0
 40
0.0
 40
0.0
 40
0.0
 40
1.0
 40
1.0
 40
1.0
 40
1.0
 10
150.7646701217556
 20
-30.5016482518825
 30
0.0
 10
150.9552955422591
 20
-30.10485695386905
 30
0.0
 10
151.1379975782501
 20
-29.70430758128357
 30
0.0
 10
151.3126674946247
 20
-29.30023852105385
 30
0.0
  0
LINE
  5
CA
330
70
100
AcDbEntity
  8
0
 62
    18
420
        0
370
    25
100
AcDbLine
 10
151.5560706472876
 20
-29.4054561991219
 30
0.0
 11
151.3126674946337
 21
-29.3002385210038
 31
0.0
  0
SPLINE
  5
CB
330
70
100
AcDbEntity
  8
0
 62
    18
420
        0
370
    25
100
AcDbSpline
210
0.0
220
0.0
230
1.0
 70
     8
 71
     3
 72
     8
 73
     4
 74
     0
 42
0.0000000001
 43
0.0000000001
 40
0.0
 40
0.0
 40
0.0
 40
0.0
 40
1.0
 40
1.0
 40
1.0
 40
1.0
 10
151.0036892954564
 20
-30.61647720780475
 30
0.0
 10
151.1958397193239
 20
-30.21651157940889
 30
0.0
 10
151.3800033716017
 20
-29.8127578118438
 30
0.0
 10
151.5560706473069
 20
-29.40545619913345
 30
0.0
  0
LINE
  5
CC
330
70
100
AcDbEntity
  8
0
 62
    18
420
        0
370
    25
100
AcDbLine
 10
151.0036892954249
 20
-30.61647720781438
 30
0.0
 11
150.7646701217607
 21
-30.50164825185555
 31
0.0
  0
LINE
  5
CD
330
70
100
AcDbEntity
  8
0
 62
    18
420
        0
370
    25
100
AcDbLine
 10
149.7680293937168
 20
0.651865297086791
 30
0.0
 11
149.5388170446083
 21
0.5185328046371576
 31
0.0
  0
LINE
  5
CE
330
70
100
AcDbEntity
  8
0
 62
    18
420
        0
370
    25
100
AcDbLine
 10
149.8702593325309
 20
0.4748781317984138
 30
0.0
 11
149.7680293937168
 21
0.651865297086791
 31
0.0
  0
LINE
  5
CF
330
70
100
AcDbEntity
  8
0
 62
    18
420
        0
370
    25
100
AcDbLine
 10
149.8702593325309
 20
0.4748781317984138
 30
0.0
 11
149.6402356347418
 21
0.3429502993522192
 31
0.0
  0
LINE
  5
D0
330
70
100
AcDbEntity
  8
0
 62
    18
420
        0
370
    25
100
AcDbLine
 10
149.6402356347418
 20
0.3429502993522192
 30
0.0
 11
149.5388170446083
 21
0.5185328046371576
 31
0.0
  0
SPLINE
  5
D1
330
70
100
AcDbEntity
  8
0
 62
    18
420
        0
370
    25
100
AcDbSpline
210
0.0
220
0.0
230
1.0
 70
     8
 71
     3
 72
     8
 73
     4
 74
     0
 42
0.0000000001
 43
0.0000000001
 40
0.0
 40
0.0
 40
0.0
 40
0.0
 40
1.0
 40
1.0
 40
1.0
 40
1.0
 10
151.5560706472953
 20
-29.40545619918607
 30
0.0
 10
155.7357536751331
 20
-19.73647239150053
 30
0.0
 10
155.1109805877767
 20
-8.662618178017373
 30
0.0
 10
149.8702593325264
 20
0.4748781317624787
 30
0.0
  0
SPLINE
  5
D2
330
70
100
AcDbEntity
  8
0
 62
    18
420
        0
370
    25
100
AcDbSpline
210
0.0
220
0.0
230
1.0
 70
     8
 71
     3
 72
     8
 73
     4
 74
     0
 42
0.0000000001
 43
0.0000000001
 40
0.0
 40
0.0
 40
0.0
 40
0.0
 40
1.0
 40
1.0
 40
1.0
 40
1.0
 10
151.3126674946497
 20
-29.30023852106476
 30
0.0
 10
155.459178434965
 20
-19.70799268010724
 30
0.0
 10
154.8393638641747
 20
-8.722026198476818
 30
0.0
 10
149.6402356347598
 20
0.3429502993207759
 30
0.0
  0
LINE
  5
D3
330
70
100
AcDbEntity
  8
0
 62
    18
420
        0
370
    25
100
AcDbLine
 10
149.4191930667924
 20
1.02870733955072
 30
0.0
 11
149.2685917210196
 21
0.81045269665568
 31
0.0
  0
SPLINE
  5
D4
330
70
100
AcDbEntity
  8
0
 62
    18
420
        0
370
    25
100
AcDbSpline
210
0.0
220
0.0
230
1.0
 70
     8
 71
     3
 72
     8
 73
     4
 74
     0
 42
0.0000000001
 43
0.0000000001
 40
0.0
 40
0.0
 40
0.0
 40
0.0
 40
1.0
 40
1.0
 40
1.0
 40
1.0
 10
149.538817044632
 20
0.5185328046294572
 30
0.0
 10
149.4713317711534
 20
0.6345469717080347
 30
0.0
 10
149.3790597246278
 20
0.7342269184261412
 30
0.0
 10
149.268591720994
 20
0.8104526966935402
 30
0.0
  0
SPLINE
  5
D5
330
70
100
AcDbEntity
  8
0
 62
    18
420
        0
370
    25
100
AcDbSpline
210
0.0
220
0.0
230
1.0
 70
     8
 71
     3
 72
     8
 73
     4
 74
     0
 42
0.0000000001
 43
0.0000000001
 40
0.0
 40
0.0
 40
0.0
 40
0.0
 40
1.0
 40
1.0
 40
1.0
 40
1.0
 10
149.768029393677
 20
0.6518652971137424
 30
0.0
 10
149.6809120406412
 20
0.8016290400696309
 30
0.0
 10
149.5617972169446
 20
0.9303067894694033
 30
0.0
 10
149.4191930667988
 20
1.028707339595639
 30
0.0
  0
LINE
  5
D6
330
70
100
AcDbEntity
  8
0
 62
    18
420
        0
370
    25
100
AcDbLine
 10
148.7145217226165
 20
1.236337858698518
 30
0.0
 11
148.7227195529398
 21
0.9712932396392025
 31
0.0
  0
SPLINE
  5
D7
330
70
100
AcDbEntity
  8
0
 62
    18
420
        0
370
    25
100
AcDbSpline
210
0.0
220
0.0
230
1.0
 70
     8
 71
     3
 72
     8
 73
     4
 74
     0
 42
0.0000000001
 43
0.0000000001
 40
0.0
 40
0.0
 40
0.0
 40
0.0
 40
1.0
 40
1.0
 40
1.0
 40
1.0
 10
149.268591720994
 20
0.8104526966935402
 30
0.0
 10
149.1084614757431
 20
0.9209467055184955
 30
0.0
 10
148.9171789206168
 20
0.9773078681336844
 30
0.0
 10
148.7227195529463
 20
0.9712932396809129
 30
0.0
  0
SPLINE
  5
D8
330
70
100
AcDbEntity
  8
0
 62
    18
420
        0
370
    25
100
AcDbSpline
210
0.0
220
0.0
230
1.0
 70
     8
 71
     3
 72
     8
 73
     4
 74
     0
 42
0.0000000001
 43
0.0000000001
 40
0.0
 40
0.0
 40
0.0
 40
0.0
 40
1.0
 40
1.0
 40
1.0
 40
1.0
 10
149.4191930667994
 20
1.028707339596922
 30
0.0
 10
149.2124794774751
 20
1.171345060079148
 30
0.0
 10
148.9655510881306
 20
1.244102197273091
 30
0.0
 10
148.7145217225921
 20
1.23633785872547
 30
0.0
  0
SPLINE
  5
D9
330
70
100
AcDbEntity
  8
0
 62
    18
420
        0
370
    25
100
AcDbSpline
210
0.0
220
0.0
230
1.0
 70
     8
 71
     3
 72
    11
 73
     7
 74
     0
 42
0.0000000001
 43
0.0000000001
 40
0.0
 40
0.0
 40
0.0
 40
0.0
 40
1.0
 40
1.0
 40
1.0
 40
2.0
 40
2.0
 40
2.0
 40
2.0
 10
148.7227195529482
 20
0.9712932396815547
 30
0.0
 10
148.2195379553373
 20
0.9557298323230972
 30
0.0
 10
147.8242453094645
 20
0.5352039174855094
 30
0.0
 10
147.8398087168229
 20
0.0320223198746114
 30
0.0
 10
147.8435670510732
 20
-0.0894886442121903
 30
0.0
 10
147.8715936620699
 20
-0.2090202577388739
 30
0.0
 10
147.9222390691995
 20
-0.3195375966784817
 30
0.0
  0
SPLINE
  5
DA
330
70
100
AcDbEntity
  8
0
 62
    18
420
        0
370
    25
100
AcDbSpline
210
0.0
220
0.0
230
1.0
 70
     8
 71
     3
 72
    11
 73
     7
 74
     0
 42
0.0000000001
 43
0.0000000001
 40
0.0
 40
0.0
 40
0.0
 40
0.0
 40
1.0
 40
1.0
 40
1.0
 40
2.0
 40
2.0
 40
2.0
 40
2.0
 10
148.714521722594
 20
1.23633785872547
 30
0.0
 10
148.0649600238609
 20
1.216246914681114
 30
0.0
 10
147.554673153734
 20
0.6733861882548414
 30
0.0
 10
147.5747640977784
 20
0.0238244895210766
 30
0.0
 10
147.5840740483033
 20
-0.2771761635611401
 30
0.0
 10
147.7084334773346
 20
-0.5631518868531625
 30
0.0
 10
147.9222390691995
 20
-0.7752255467506853
 30
0.0
  0
SPLINE
  5
DB
330
70
100
AcDbEntity
  8
0
 62
    18
420
        0
370
    25
100
AcDbSpline
210
0.0
220
0.0
230
1.0
 70
     8
 71
     3
 72
     8
 73
     4
 74
     0
 42
0.0000000001
 43
0.0000000001
 40
0.0
 40
0.0
 40
0.0
 40
0.0
 40
1.0
 40
1.0
 40
1.0
 40
1.0
 10
151.4874959874329
 20
-3.407887392383531
 30
0.0
 10
151.37386953394
 20
-3.133982753164161
 30
0.0
 10
151.2560751256529
 20
-2.861825790436991
 30
0.0
 10
151.1341538006318
 20
-2.591511320190294
 30
0.0
  0
SPLINE
  5
DC
330
70
100
AcDbEntity
  8
0
 62
    18
420
        0
370
    25
100
AcDbSpline
210
0.0
220
0.0
230
1.0
 70
     8
 71
     3
 72
     8
 73
     4
 74
     0
 42
0.0000000001
 43
0.0000000001
 40
0.0
 40
0.0
 40
0.0
 40
0.0
 40
1.0
 40
1.0
 40
1.0
 40
1.0
 10
149.2975404132392
 20
0.7896298894896906
 30
0.0
 10
149.1320825760251
 20
0.913625768599865
 30
0.0
 10
148.9293845339547
 20
0.9776853877671937
 30
0.0
 10
148.7227195529482
 20
0.9712932396815547
 30
0.0
  0
SPLINE
  5
DD
330
70
100
AcDbEntity
  8
0
 62
    18
420
        0
370
    25
100
AcDbSpline
210
0.0
220
0.0
230
1.0
 70
     8
 71
     3
 72
     8
 73
     4
 74
     0
 42
0.0000000001
 43
0.0000000001
 40
0.0
 40
0.0
 40
0.0
 40
0.0
 40
1.0
 40
1.0
 40
1.0
 40
1.0
 10
149.5795601204062
 20
-0.5442613160743099
 30
0.0
 10
149.7250600727325
 20
-0.377167804936726
 30
0.0
 10
149.8020204697928
 20
-0.1612504706407265
 30
0.0
 10
149.7950118570596
 20
0.0602023616711717
 30
0.0
  0
LINE
  5
DE
330
70
100
AcDbEntity
  8
0
 62
     8
420
  8421504
370
    25
100
AcDbLine
 10
147.9222390691995
 20
-16.01581183471808
 30
0.0
 11
149.579560120378
 21
-16.01581183471808
 31
0.0
  0
LINE
  5
DF
330
70
100
AcDbEntity
  8
0
 62
     8
420
  8421504
370
    25
100
AcDbLine
 10
147.9222390691995
 20
-2.094315004817045
 30
0.0
 11
149.579560120378
 21
-2.094315004817045
 31
0.0
  0
LINE
  5
E0
330
70
100
AcDbEntity
  8
0
 62
     8
420
  8421504
370
    25
100
AcDbLine
 10
151.3226244861327
 20
-2.363112678309096
 30
0.0
 11
151.3226244861327
 21
2.7119160436013
 31
0.0
  0
LINE
  5
E1
330
70
100
AcDbEntity
  8
0
 62
     8
420
  8421504
370
    25
100
AcDbLine
 10
151.4837403330147
 20
2.585027400620254
 30
0.0
 11
151.4837403330147
 21
-2.464622677189999
 31
0.0
  0
LINE
  5
E2
330
70
100
AcDbEntity
  8
0
 62
    18
420
        0
370
    25
100
AcDbLine
 10
83.35987275251749
 20
-70.95116442252579
 30
0.0
 11
83.01712880698714
 21
-70.95116442252579
 31
0.0
  0
LINE
  5
E3
330
70
100
AcDbEntity
  8
0
 62
    18
420
        0
370
    25
100
AcDbLine
 10
77.88300576232358
 20
-70.95116442252579
 30
0.0
 11
77.39351696827402
 21
-70.95116442252579
 31
0.0
  0
LINE
  5
E4
330
70
100
AcDbEntity
  8
0
 62
    18
420
        0
370
    25
100
AcDbLine
 10
77.39351696827402
 20
-72.60848547370493
 30
0.0
 11
77.88302922435487
 21
-72.60848547370493
 31
0.0
  0
LINE
  5
E5
330
70
100
AcDbEntity
  8
0
 62
    18
420
        0
370
    25
100
AcDbLine
 10
83.01711844760353
 20
-72.60848547370493
 30
0.0
 11
83.35987275251749
 21
-72.60848547370493
 31
0.0
  0
LINE
  5
E6
330
70
100
AcDbEntity
  8
0
 62
    18
420
        0
370
    25
100
AcDbLine
 10
72.09008960450231
 20
-70.95116442252579
 30
0.0
 11
63.31502769778144
 21
-70.95116442252579
 31
0.0
  0
LINE
  5
E7
330
70
100
AcDbEntity
  8
0
 62
    18
420
        0
370
    25
100
AcDbLine
 10
88.67203978081546
 20
-71.62096275106013
 30
0.0
 11
88.66330011628919
 21
-71.61591690334114
 31
0.0
  0
LINE
  5
E8
330
70
100
AcDbEntity
  8
0
 62
    18
420
        0
370
    25
100
AcDbLine
 10
63.31502769778144
 20
-70.95116442252579
 30
0.0
 11
61.16051033124895
 21
-70.95116442252579
 31
0.0
  0
LINE
  5
E9
330
70
100
AcDbEntity
  8
0
 62
    18
420
        0
370
    25
100
AcDbLine
 10
99.61035871859508
 20
-70.95116442252579
 30
0.0
 11
97.45584135206259
 21
-70.95116442252579
 31
0.0
  0
LINE
  5
EA
330
70
100
AcDbEntity
  8
0
 62
    18
420
        0
370
    25
100
AcDbLine
 10
97.45584135206259
 20
-70.95116442252579
 30
0.0
 11
88.66330011628919
 21
-70.95116442252579
 31
0.0
  0
LINE
  5
EB
330
70
100
AcDbEntity
  8
0
 62
    18
420
        0
370
    25
100
AcDbLine
 10
77.39351696827402
 20
-70.60312700177856
 30
0.0
 11
72.09008960450231
 21
-70.60312700177856
 31
0.0
  0
LINE
  5
EC
330
70
100
AcDbEntity
  8
0
 62
    18
420
        0
370
    25
100
AcDbLine
 10
88.66330011628919
 20
-70.60312700177856
 30
0.0
 11
83.35987275251749
 21
-70.60312700177856
 31
0.0
  0
LINE
  5
ED
330
70
100
AcDbEntity
  8
0
 62
    18
420
        0
370
    25
100
AcDbLine
 10
59.66018172066197
 20
-77.32779115897234
 30
0.0
 11
101.0932080001295
 21
-77.32779115897234
 31
0.0
  0
LINE
  5
EE
330
70
100
AcDbEntity
  8
0
 62
    18
420
        0
370
    25
100
AcDbLine
 10
77.80765538568295
 20
-72.82393721035766
 30
0.0
 11
77.80765538568295
 21
-74.35154983945965
 31
0.0
  0
LINE
  5
EF
330
70
100
AcDbEntity
  8
0
 62
    18
420
        0
370
    25
100
AcDbLine
 10
77.80765538568295
 20
-59.23390459069219
 30
0.0
 11
77.80765538568295
 21
-70.73571268587241
 31
0.0
  0
LINE
  5
F0
330
70
100
AcDbEntity
  8
0
 62
    18
420
        0
370
    25
100
AcDbLine
 10
83.11108274945466
 20
-70.70384728505698
 30
0.0
 11
83.11108274945466
 21
-59.23390459069219
 31
0.0
  0
LINE
  5
F1
330
70
100
AcDbEntity
  8
0
 62
    18
420
        0
370
    25
100
AcDbLine
 10
83.11108274945466
 20
-74.35154983945965
 30
0.0
 11
83.11108274945466
 21
-72.86670532124293
 31
0.0
  0
SPLINE
  5
F2
330
70
100
AcDbEntity
  8
0
 62
    18
420
        0
370
    25
100
AcDbSpline
210
0.0
220
0.0
230
1.0
 70
     8
 71
     3
 72
     8
 73
     4
 74
     0
 42
0.0000000001
 43
0.0000000001
 40
0.0
 40
0.0
 40
0.0
 40
0.0
 40
1.0
 40
1.0
 40
1.0
 40
1.0
 10
77.80765538568295
 20
-74.35154983945965
 30
0.0
 10
77.80765538568295
 20
-74.42811851655452
 30
0.0
 10
77.86010807525643
 20
-74.49471990264594
 30
0.0
 10
77.93454402866368
 20
-74.51266568633979
 30
0.0
  0
SPLINE
  5
F3
330
70
100
AcDbEntity
  8
0
 62
    18
420
        0
370
    25
100
AcDbSpline
210
0.0
220
0.0
230
1.0
 70
     8
 71
     3
 72
     8
 73
     4
 74
     0
 42
0.0000000001
 43
0.0000000001
 40
0.0
 40
0.0
 40
0.0
 40
0.0
 40
1.0
 40
1.0
 40
1.0
 40
1.0
 10
82.98419410647394
 20
-74.51266568633979
 30
0.0
 10
83.05863005988117
 20
-74.49471990264594
 30
0.0
 10
83.11108274945466
 20
-74.42811851655452
 30
0.0
 10
83.11108274945466
 20
-74.35154983945965
 30
0.0
  0
SPLINE
  5
F4
330
70
100
AcDbEntity
  8
0
 62
    18
420
        0
370
    25
100
AcDbSpline
210
0.0
220
0.0
230
1.0
 70
     8
 71
     3
 72
     8
 73
     4
 74
     0
 42
0.0000000001
 43
0.0000000001
 40
0.0
 40
0.0
 40
0.0
 40
0.0
 40
1.0
 40
1.0
 40
1.0
 40
1.0
 10
77.93454402865982
 20
-74.51266568634043
 30
0.0
 10
78.76135671516076
 20
-74.71200217560799
 30
0.0
 10
79.60886671336138
 20
-74.81272247177237
 30
0.0
 10
80.4593690675688
 20
-74.81272247177237
 30
0.0
  0
SPLINE
  5
F5
330
70
100
AcDbEntity
  8
0
 62
    18
420
        0
370
    25
100
AcDbSpline
210
0.0
220
0.0
230
1.0
 70
     8
 71
     3
 72
     8
 73
     4
 74
     0
 42
0.0000000001
 43
0.0000000001
 40
0.0
 40
0.0
 40
0.0
 40
0.0
 40
1.0
 40
1.0
 40
1.0
 40
1.0
 10
80.4593690675688
 20
-74.81272247177237
 30
0.0
 10
81.30987142177623
 20
-74.81272247177237
 30
0.0
 10
82.15738141997684
 20
-74.71200217560799
 30
0.0
 10
82.98419410647779
 20
-74.51266568634043
 30
0.0
  0
LINE
  5
F6
330
70
100
AcDbEntity
  8
0
 62
    18
420
        0
370
    25
100
AcDbLine
 10
73.06771465507927
 20
-57.90804774974926
 30
0.0
 11
73.07871175210125
 21
-59.16819025545191
 31
0.0
  0
SPLINE
  5
F7
330
70
100
AcDbEntity
  8
0
 62
    18
420
        0
370
    25
100
AcDbSpline
210
0.0
220
0.0
230
1.0
 70
     8
 71
     3
 72
     8
 73
     4
 74
     0
 42
0.0000000001
 43
0.0000000001
 40
0.0
 40
0.0
 40
0.0
 40
0.0
 40
1.0
 40
1.0
 40
1.0
 40
1.0
 10
73.01242143431899
 20
-59.16819025543587
 30
0.0
 10
73.03451652475445
 20
-59.16857584862509
 30
0.0
 10
73.05661666169981
 20
-59.16857584862509
 30
0.0
 10
73.07871175213526
 20
-59.16819025543587
 30
0.0
  0
LINE
  5
F8
330
70
100
AcDbEntity
  8
0
 62
    18
420
        0
370
    25
100
AcDbLine
 10
73.01242143428659
 20
-59.16819025545191
 30
0.0
 11
73.00142433726461
 21
-57.90804774974926
 31
0.0
  0
LINE
  5
F9
330
70
100
AcDbEntity
  8
0
 62
    18
420
        0
370
    25
100
AcDbLine
 10
73.00142433726461
 20
-57.90804774974926
 30
0.0
 11
73.06771465507927
 21
-57.90804774974926
 31
0.0
  0
LINE
  5
FA
330
70
100
AcDbEntity
  8
0
 62
    18
420
        0
370
    25
100
AcDbLine
 10
73.06771465507927
 20
-57.90804774974926
 30
0.0
 11
87.85102348005834
 21
-57.90804774974926
 31
0.0
  0
LINE
  5
FB
330
70
100
AcDbEntity
  8
0
 62
    18
420
        0
370
    25
100
AcDbLine
 10
87.84002638296994
 20
-59.16819025545191
 30
0.0
 11
87.85102348005834
 21
-57.90804774974926
 31
0.0
  0
LINE
  5
FC
330
70
100
AcDbEntity
  8
0
 62
    18
420
        0
370
    25
100
AcDbLine
 10
73.07871175210125
 20
-59.16819025545191
 30
0.0
 11
87.84002638296994
 21
-59.16819025545191
 31
0.0
  0
LINE
  5
FD
330
70
100
AcDbEntity
  8
0
 62
    18
420
        0
370
    25
100
AcDbLine
 10
87.917313797873
 20
-57.90804774974926
 30
0.0
 11
87.90631670078459
 21
-59.16819025545191
 31
0.0
  0
SPLINE
  5
FE
330
70
100
AcDbEntity
  8
0
 62
    18
420
        0
370
    25
100
AcDbSpline
210
0.0
220
0.0
230
1.0
 70
     8
 71
     3
 72
     8
 73
     4
 74
     0
 42
0.0000000001
 43
0.0000000001
 40
0.0
 40
0.0
 40
0.0
 40
0.0
 40
1.0
 40
1.0
 40
1.0
 40
1.0
 10
87.84002638300234
 20
-59.1681902554872
 30
0.0
 10
87.8621214734378
 20
-59.16857584867642
 30
0.0
 10
87.88422161038315
 20
-59.16857584867642
 30
0.0
 10
87.90631670081829
 20
-59.1681902554872
 30
0.0
  0
LINE
  5
FF
330
70
100
AcDbEntity
  8
0
 62
    18
420
        0
370
    25
100
AcDbLine
 10
87.85102348005834
 20
-57.90804774974926
 30
0.0
 11
87.917313797873
 21
-57.90804774974926
 31
0.0
  0
LINE
  5
100
330
70
100
AcDbEntity
  8
0
 62
    18
420
        0
370
    25
100
AcDbLine
 10
73.07871175210125
 20
-59.16819025545191
 30
0.0
 11
73.07871175210125
 21
-59.23390459069219
 31
0.0
  0
SPLINE
  5
101
330
70
100
AcDbEntity
  8
0
 62
    18
420
        0
370
    25
100
AcDbSpline
210
0.0
220
0.0
230
1.0
 70
     8
 71
     3
 72
     8
 73
     4
 74
     0
 42
0.0000000001
 43
0.0000000001
 40
0.0
 40
0.0
 40
0.0
 40
0.0
 40
1.0
 40
1.0
 40
1.0
 40
1.0
 10
73.01242143428243
 20
-59.16819025548464
 30
0.0
 10
73.01273896503191
 20
-59.20457567545027
 30
0.0
 10
73.04232494663776
 20
-59.23390459069219
 30
0.0
 10
73.07871175210125
 20
-59.23390459069219
 30
0.0
  0
LINE
  5
102
330
70
100
AcDbEntity
  8
0
 62
    18
420
        0
370
    25
100
AcDbLine
 10
87.84002638296994
 20
-59.23390459069219
 30
0.0
 11
87.84002638296994
 21
-59.16819025545191
 31
0.0
  0
LINE
  5
103
330
70
100
AcDbEntity
  8
0
 62
    18
420
        0
370
    25
100
AcDbLine
 10
87.84002638296994
 20
-59.23390459069219
 30
0.0
 11
73.07871175210125
 21
-59.23390459069219
 31
0.0
  0
SPLINE
  5
104
330
70
100
AcDbEntity
  8
0
 62
    18
420
        0
370
    25
100
AcDbSpline
210
0.0
220
0.0
230
1.0
 70
     8
 71
     3
 72
     8
 73
     4
 74
     0
 42
0.0000000001
 43
0.0000000001
 40
0.0
 40
0.0
 40
0.0
 40
0.0
 40
1.0
 40
1.0
 40
1.0
 40
1.0
 10
87.84002638296994
 20
-59.23390459069219
 30
0.0
 10
87.87641318843375
 20
-59.23390459069219
 30
0.0
 10
87.90599917003929
 20
-59.20457567545027
 30
0.0
 10
87.90631670078878
 20
-59.16819025548464
 30
0.0
  0
LINE
  5
105
330
70
100
AcDbEntity
  8
0
 62
    18
420
        0
370
    25
100
AcDbLine
 10
88.67203978081546
 20
-71.62096275106013
 30
0.0
 11
88.67203978081546
 21
-71.77989841695836
 31
0.0
  0
SPLINE
  5
106
330
70
100
AcDbEntity
  8
0
 62
    18
420
        0
370
    25
100
AcDbSpline
210
0.0
220
0.0
230
1.0
 70
     8
 71
     3
 72
    11
 73
     7
 74
     0
 42
0.0000000001
 43
0.0000000001
 40
0.0
 40
0.0
 40
0.0
 40
0.0
 40
1.0
 40
1.0
 40
1.0
 40
2.0
 40
2.0
 40
2.0
 40
2.0
 10
61.16051033124895
 20
-70.95116442252579
 30
0.0
 10
60.70285376017911
 20
-70.95116442252579
 30
0.0
 10
60.3318498056597
 20
-71.32216837704518
 30
0.0
 10
60.3318498056597
 20
-71.77982494811536
 30
0.0
 10
60.3318498056597
 20
-71.9680041890778
 30
0.0
 10
60.39589886765059
 20
-72.15057958818452
 30
0.0
 10
60.51346077430967
 20
-72.29751707432031
 30
0.0
  0
SPLINE
  5
107
330
70
100
AcDbEntity
  8
0
 62
    18
420
        0
370
    25
100
AcDbSpline
210
0.0
220
0.0
230
1.0
 70
     8
 71
     3
 72
    14
 73
    10
 74
     0
 42
0.0000000001
 43
0.0000000001
 40
0.0
 40
0.0
 40
0.0
 40
0.0
 40
1.0
 40
1.0
 40
1.0
 40
2.0
 40
2.0
 40
2.0
 40
3.0
 40
3.0
 40
3.0
 40
3.0
 10
100.2732871390665
 20
-71.77982494811536
 30
0.0
 10
100.2732871390665
 20
-71.41369969125974
 30
0.0
 10
99.97648397545102
 20
-71.11689652764358
 30
0.0
 10
99.61035871859508
 20
-71.11689652764358
 30
0.0
 10
99.24423346173915
 20
-71.11689652764358
 30
0.0
 10
98.94743029812362
 20
-71.41369969125974
 30
0.0
 10
98.94743029812362
 20
-71.77982494811536
 30
0.0
 10
98.94743029812362
 20
-71.98122977335566
 30
0.0
 10
99.03899015234218
 20
-72.17171263074523
 30
0.0
 10
99.19627062031887
 20
-72.29751707432031
 30
0.0
  0
SPLINE
  5
108
330
70
100
AcDbEntity
  8
0
 62
    18
420
        0
370
    25
100
AcDbSpline
210
0.0
220
0.0
230
1.0
 70
     8
 71
     3
 72
     8
 73
     4
 74
     0
 42
0.0000000001
 43
0.0000000001
 40
0.0
 40
0.0
 40
0.0
 40
0.0
 40
1.0
 40
1.0
 40
1.0
 40
1.0
 10
100.0244468168713
 20
-72.29751707432031
 30
0.0
 10
100.1817272848479
 20
-72.17171263074523
 30
0.0
 10
100.2732871390665
 20
-71.98122977335566
 30
0.0
 10
100.2732871390665
 20
-71.77982494811536
 30
0.0
  0
SPLINE
  5
109
330
70
100
AcDbEntity
  8
0
 62
    18
420
        0
370
    25
100
AcDbSpline
210
0.0
220
0.0
230
1.0
 70
     8
 71
     3
 72
    11
 73
     7
 74
     0
 42
0.0000000001
 43
0.0000000001
 40
0.0
 40
0.0
 40
0.0
 40
0.0
 40
1.0
 40
1.0
 40
1.0
 40
2.0
 40
2.0
 40
2.0
 40
2.0
 10
100.2574082755343
 20
-72.29751707432031
 30
0.0
 10
100.5433217419447
 20
-71.94016147163836
 30
0.0
 10
100.4854064474826
 20
-71.41868885758706
 30
0.0
 10
100.1280508448003
 20
-71.13277539117607
 30
0.0
 10
99.98111335866457
 20
-71.01521348451699
 30
0.0
 10
99.79853795955754
 20
-70.95116442252579
 30
0.0
 10
99.61035871859508
 20
-70.95116442252579
 30
0.0
  0
SPLINE
  5
10A
330
70
100
AcDbEntity
  8
0
 62
    18
420
        0
370
    25
100
AcDbSpline
210
0.0
220
0.0
230
1.0
 70
     8
 71
     3
 72
    11
 73
     7
 74
     0
 42
0.0000000001
 43
0.0000000001
 40
0.0
 40
0.0
 40
0.0
 40
0.0
 40
1.0
 40
1.0
 40
1.0
 40
2.0
 40
2.0
 40
2.0
 40
2.0
 10
99.61035871859508
 20
-70.95116442252579
 30
0.0
 10
99.15270214752524
 20
-70.95116442252579
 30
0.0
 10
98.78169819300584
 20
-71.32216837704518
 30
0.0
 10
98.78169819300584
 20
-71.77982494811536
 30
0.0
 10
98.78169819300584
 20
-71.9680041890778
 30
0.0
 10
98.84574725499671
 20
-72.15057958818452
 30
0.0
 10
98.96330916165581
 20
-72.29751707432031
 30
0.0
  0
LINE
  5
10B
330
70
100
AcDbEntity
  8
0
 62
    18
420
        0
370
    25
100
AcDbLine
 10
77.39351696827402
 20
-70.60312700177856
 30
0.0
 11
77.39351696827402
 21
-72.79695474697702
 31
0.0
  0
LINE
  5
10C
330
70
100
AcDbEntity
  8
0
 62
    18
420
        0
370
    25
100
AcDbLine
 10
77.39351696827402
 20
-72.79695474697702
 30
0.0
 11
59.69221439900162
 21
-72.79695474697702
 31
0.0
  0
SPLINE
  5
10D
330
70
100
AcDbEntity
  8
0
 62
    18
420
        0
370
    25
100
AcDbSpline
210
0.0
220
0.0
230
1.0
 70
     8
 71
     3
 72
     8
 73
     4
 74
     0
 42
0.0000000001
 43
0.0000000001
 40
0.0
 40
0.0
 40
0.0
 40
0.0
 40
1.0
 40
1.0
 40
1.0
 40
1.0
 10
60.32311014111868
 20
-72.44811842008084
 30
0.0
 10
60.06866513737659
 20
-72.45513232275249
 30
0.0
 10
59.83344770133133
 20
-72.58518928926815
 30
0.0
 10
59.69221439899649
 20
-72.79695474696033
 30
0.0
  0
LINE
  5
10E
330
70
100
AcDbEntity
  8
0
 62
    18
420
        0
370
    25
100
AcDbLine
 10
60.32311014113344
 20
-72.44811842011934
 30
0.0
 11
71.42716118403083
 21
-72.44811842011934
 31
0.0
  0
SPLINE
  5
10F
330
70
100
AcDbEntity
  8
0
 62
    18
420
        0
370
    25
100
AcDbSpline
210
0.0
220
0.0
230
1.0
 70
     8
 71
     3
 72
    11
 73
     7
 74
     0
 42
0.0000000001
 43
0.0000000001
 40
0.0
 40
0.0
 40
0.0
 40
0.0
 40
1.0
 40
1.0
 40
1.0
 40
2.0
 40
2.0
 40
2.0
 40
2.0
 10
71.42716118398078
 20
-72.44811842012961
 30
0.0
 10
71.80214552645229
 20
-72.43942732570225
 30
0.0
 10
72.09908487383374
 20
-72.1283969301185
 30
0.0
 10
72.09039377940702
 20
-71.753412587647
 30
0.0
 10
72.09031677224352
 20
-71.75009005091069
 30
0.0
 10
72.09021537786054
 20
-71.74676812418055
 30
0.0
 10
72.09008960445257
 20
-71.74344707592419
 30
0.0
  0
LINE
  5
110
330
70
100
AcDbEntity
  8
0
 62
    18
420
        0
370
    25
100
AcDbLine
 10
72.09008960450231
 20
-71.7434470758767
 30
0.0
 11
72.09008960450231
 21
-70.60312700177856
 31
0.0
  0
SPLINE
  5
111
330
70
100
AcDbEntity
  8
0
 62
    18
420
        0
370
    25
100
AcDbSpline
210
0.0
220
0.0
230
1.0
 70
     8
 71
     3
 72
    11
 73
     7
 74
     0
 42
0.0000000001
 43
0.0000000001
 40
0.0
 40
0.0
 40
0.0
 40
0.0
 40
1.0
 40
1.0
 40
1.0
 40
2.0
 40
2.0
 40
2.0
 40
2.0
 10
88.66330011628887
 20
-71.74344707587991
 30
0.0
 10
88.64980273636135
 20
-72.11900486254183
 30
0.0
 10
88.94331068787943
 20
-72.43439639072114
 30
0.0
 10
89.31886847454165
 20
-72.44789377064868
 30
0.0
 10
89.32132140547917
 20
-72.4479819278967
 30
0.0
 10
89.3237747954654
 20
-72.44805681213785
 30
0.0
 10
89.32622853676098
 20
-72.4481184200847
 30
0.0
  0
LINE
  5
112
330
70
100
AcDbEntity
  8
0
 62
    18
420
        0
370
    25
100
AcDbLine
 10
89.32622853676098
 20
-72.44811842011934
 30
0.0
 11
100.430279579658
 21
-72.44811842011934
 31
0.0
  0
SPLINE
  5
113
330
70
100
AcDbEntity
  8
0
 62
    18
420
        0
370
    25
100
AcDbSpline
210
0.0
220
0.0
230
1.0
 70
     8
 71
     3
 72
     8
 73
     4
 74
     0
 42
0.0000000001
 43
0.0000000001
 40
0.0
 40
0.0
 40
0.0
 40
0.0
 40
1.0
 40
1.0
 40
1.0
 40
1.0
 10
101.0611753217591
 20
-72.79695474697638
 30
0.0
 10
100.9200068296774
 20
-72.58511886916294
 30
0.0
 10
100.6847497628741
 20
-72.45503998991683
 30
0.0
 10
100.4302795796365
 20
-72.44811842009624
 30
0.0
  0
LINE
  5
114
330
70
100
AcDbEntity
  8
0
 62
    18
420
        0
370
    25
100
AcDbLine
 10
101.0611753217899
 20
-72.79695474697702
 30
0.0
 11
83.35987275251749
 21
-72.79695474697702
 31
0.0
  0
LINE
  5
115
330
70
100
AcDbEntity
  8
0
 62
    18
420
        0
370
    25
100
AcDbLine
 10
83.35987275251749
 20
-72.79695474697702
 30
0.0
 11
83.35987275251749
 21
-70.60312700177856
 31
0.0
  0
LINE
  5
116
330
70
100
AcDbEntity
  8
0
 62
    18
420
        0
370
    25
100
AcDbLine
 10
88.66330011628919
 20
-70.60312700177856
 30
0.0
 11
88.66330011628919
 21
-71.7434470758767
 31
0.0
  0
SPLINE
  5
117
330
70
100
AcDbEntity
  8
0
 62
    18
420
        0
370
    25
100
AcDbSpline
210
0.0
220
0.0
230
1.0
 70
     8
 71
     3
 72
    11
 73
     7
 74
     0
 42
0.0000000001
 43
0.0000000001
 40
0.0
 40
0.0
 40
0.0
 40
0.0
 40
1.0
 40
1.0
 40
1.0
 40
2.0
 40
2.0
 40
2.0
 40
2.0
 10
71.42716118398688
 20
-72.29751707431454
 30
0.0
 10
71.75939110688692
 20
-72.33113498458876
 30
0.0
 10
72.05596937417336
 20
-72.08906211913829
 30
0.0
 10
72.08958728444757
 20
-71.75683219623825
 30
0.0
 10
72.0897621756385
 20
-71.75510382923441
 30
0.0
 10
72.08992961719703
 20
-71.75337471651982
 30
0.0
 10
72.09008960445803
 20
-71.75164490626809
 30
0.0
  0
LINE
  5
118
330
70
100
AcDbEntity
  8
0
 62
    18
420
        0
370
    25
100
AcDbLine
 10
72.09008960450231
 20
-71.7434470758767
 30
0.0
 11
72.09008960450231
 21
-71.75164490626682
 31
0.0
  0
LINE
  5
119
330
70
100
AcDbEntity
  8
0
 62
    18
420
        0
370
    25
100
AcDbLine
 10
71.42716118403083
 20
-72.44811842011934
 30
0.0
 11
71.42716118403083
 21
-72.2975170742799
 31
0.0
  0
SPLINE
  5
11A
330
70
100
AcDbEntity
  8
0
 62
    18
420
        0
370
    25
100
AcDbSpline
210
0.0
220
0.0
230
1.0
 70
     8
 71
     3
 72
     8
 73
     4
 74
     0
 42
0.0000000001
 43
0.0000000001
 40
0.0
 40
0.0
 40
0.0
 40
0.0
 40
1.0
 40
1.0
 40
1.0
 40
1.0
 10
88.66330011624299
 20
-71.75164490623152
 30
0.0
 10
88.69936669767874
 20
-72.08343939883434
 30
0.0
 10
88.99367869331866
 20
-72.32578340186828
 30
0.0
 10
89.32622853671414
 20
-72.29751707427796
 30
0.0
  0
LINE
  5
11B
330
70
100
AcDbEntity
  8
0
 62
    18
420
        0
370
    25
100
AcDbLine
 10
89.32622853676098
 20
-72.44811842011934
 30
0.0
 11
89.32622853676098
 21
-72.2975170742799
 31
0.0
  0
SPLINE
  5
11C
330
70
100
AcDbEntity
  8
0
 62
    18
420
        0
370
    25
100
AcDbSpline
210
0.0
220
0.0
230
1.0
 70
     8
 71
     3
 72
     8
 73
     4
 74
     0
 42
0.0000000001
 43
0.0000000001
 40
0.0
 40
0.0
 40
0.0
 40
0.0
 40
1.0
 40
1.0
 40
1.0
 40
1.0
 10
60.32311014114242
 20
-72.29751707431518
 30
0.0
 10
60.08427545383096
 20
-72.2954006003348
 30
0.0
 10
59.85546941538265
 20
-72.3934028242553
 30
0.0
 10
59.69221439901959
 20
-72.56774239795446
 30
0.0
  0
LINE
  5
11D
330
70
100
AcDbEntity
  8
0
 62
    18
420
        0
370
    25
100
AcDbLine
 10
60.32311014113344
 20
-72.44811842011934
 30
0.0
 11
60.32311014113344
 21
-72.2975170742799
 31
0.0
  0
LINE
  5
11E
330
70
100
AcDbEntity
  8
0
 62
    18
420
        0
370
    25
100
AcDbLine
 10
59.69221439900162
 20
-72.79695474697702
 30
0.0
 11
59.69221439900162
 21
-72.56774239793521
 31
0.0
  0
SPLINE
  5
11F
330
70
100
AcDbEntity
  8
0
 62
    18
420
        0
370
    25
100
AcDbSpline
210
0.0
220
0.0
230
1.0
 70
     8
 71
     3
 72
     8
 73
     4
 74
     0
 42
0.0000000001
 43
0.0000000001
 40
0.0
 40
0.0
 40
0.0
 40
0.0
 40
1.0
 40
1.0
 40
1.0
 40
1.0
 10
101.0611753217481
 20
-72.56774239794291
 30
0.0
 10
100.8980183710961
 20
-72.39326299806349
 30
0.0
 10
100.669147817735
 20
-72.29523314110901
 30
0.0
 10
100.4302795796253
 20
-72.29751707430363
 30
0.0
  0
LINE
  5
120
330
70
100
AcDbEntity
  8
0
 62
    18
420
        0
370
    25
100
AcDbLine
 10
101.0611753217899
 20
-72.56774239793521
 30
0.0
 11
101.0611753217899
 21
-72.79695474697702
 31
0.0
  0
LINE
  5
121
330
70
100
AcDbEntity
  8
0
 62
    18
420
        0
370
    25
100
AcDbLine
 10
100.430279579658
 20
-72.44811842011934
 30
0.0
 11
100.430279579658
 21
-72.2975170742799
 31
0.0
  0
LINE
  5
122
330
70
100
AcDbEntity
  8
0
 62
    18
420
        0
370
    25
100
AcDbLine
 10
60.32311014113344
 20
-72.2975170742799
 30
0.0
 11
71.42716118403083
 21
-72.2975170742799
 31
0.0
  0
LINE
  5
123
330
70
100
AcDbEntity
  8
0
 62
    18
420
        0
370
    25
100
AcDbLine
 10
89.32622853676098
 20
-72.2975170742799
 30
0.0
 11
100.430279579658
 21
-72.2975170742799
 31
0.0
  0
LINE
  5
124
330
70
100
AcDbEntity
  8
0
 62
    18
420
        0
370
    25
100
AcDbLine
 10
59.66018172066197
 20
-72.66916098806878
 30
0.0
 11
59.69221439900162
 21
-72.56774239793521
 31
0.0
  0
LINE
  5
125
330
70
100
AcDbEntity
  8
0
 62
    18
420
        0
370
    25
100
AcDbLine
 10
59.66018172066197
 20
-72.89918468585719
 30
0.0
 11
59.69221439900162
 21
-72.79695474697702
 31
0.0
  0
LINE
  5
126
330
70
100
AcDbEntity
  8
0
 62
    18
420
        0
370
    25
100
AcDbLine
 10
59.66018172066197
 20
-72.89918468585719
 30
0.0
 11
59.66018172066197
 21
-72.66916098806878
 31
0.0
  0
LINE
  5
127
330
70
100
AcDbEntity
  8
0
 62
    18
420
        0
370
    25
100
AcDbLine
 10
83.35987275251749
 20
-73.82879134436106
 30
0.0
 11
83.35987275251749
 21
-72.79695474697702
 31
0.0
  0
LINE
  5
128
330
70
100
AcDbEntity
  8
0
 62
    18
420
        0
370
    25
100
AcDbLine
 10
101.0611753217899
 20
-72.79695474697702
 30
0.0
 11
101.0932080001295
 21
-72.89918468585719
 31
0.0
  0
LINE
  5
129
330
70
100
AcDbEntity
  8
0
 62
    18
420
        0
370
    25
100
AcDbLine
 10
101.0932080001295
 20
-72.89918468585719
 30
0.0
 11
101.0932080001295
 21
-77.32779115897234
 31
0.0
  0
LINE
  5
12A
330
70
100
AcDbEntity
  8
0
 62
    18
420
        0
370
    25
100
AcDbLine
 10
59.66018172066197
 20
-77.32779115897234
 30
0.0
 11
59.66018172066197
 21
-72.89918468585719
 31
0.0
  0
LINE
  5
12B
330
70
100
AcDbEntity
  8
0
 62
    18
420
        0
370
    25
100
AcDbLine
 10
77.39351696827402
 20
-72.79695474697702
 30
0.0
 11
77.39351696827402
 21
-73.7957126693188
 31
0.0
  0
LWPOLYLINE
  5
12C
330
70
100
AcDbEntity
  8
0
 62
    18
420
        0
370
    25
100
AcDbPolyline
 90
        3
 70
     0
 43
0.0
 10
77.39351696827402
 20
-73.7957126693188
 10
77.48209457059894
 20
-74.03389669881804
 10
77.74311111976718
 20
-74.23907832829486
  0
LINE
  5
12D
330
70
100
AcDbEntity
  8
0
 62
    18
420
        0
370
    25
100
AcDbLine
 10
77.74311195843799
 20
-74.23907881249786
 30
0.0
 11
77.80765538568295
 21
-74.2683448017675
 31
0.0
  0
LWPOLYLINE
  5
12E
330
70
100
AcDbEntity
  8
0
 62
    18
420
        0
370
    25
100
AcDbPolyline
 90
        3
 70
     0
 43
0.0
 10
83.11108274945466
 20
-74.18731094653408
 10
83.25630685482822
 20
-74.08476738298069
 10
83.35987275251749
 20
-73.82879134436106
  0
LINE
  5
12F
330
70
100
AcDbEntity
  8
0
 62
    18
420
        0
370
    25
100
AcDbLine
 10
101.0611753217899
 20
-72.56774239793521
 30
0.0
 11
101.0932080001295
 21
-72.66916098806878
 31
0.0
  0
LINE
  5
130
330
70
100
AcDbEntity
  8
0
 62
    18
420
        0
370
    25
100
AcDbLine
 10
101.0932080001295
 20
-72.89918468585719
 30
0.0
 11
101.0932080001295
 21
-72.66916098806878
 31
0.0
  0
LINE
  5
131
330
70
100
AcDbEntity
  8
0
 62
    18
420
        0
370
    25
100
AcDbLine
 10
77.74311195843799
 20
-73.9984210343734
 30
0.0
 11
77.80765538568295
 21
-74.02745475381017
 31
0.0
  0
LWPOLYLINE
  5
132
330
70
100
AcDbEntity
  8
0
 62
    18
420
        0
370
    25
100
AcDbPolyline
 90
        3
 70
     0
 43
0.0
 10
77.39351696827402
 20
-73.55857367010482
 10
77.48209457059894
 20
-73.79486735019743
 10
77.74311195843799
 20
-73.9984210343734
  0
LINE
  5
133
330
70
100
AcDbEntity
  8
0
 62
    18
420
        0
370
    25
100
AcDbLine
 10
83.27740744204506
 20
-73.79359547508771
 30
0.0
 11
83.11108274945466
 21
-73.79359547508771
 31
0.0
  0
LINE
  5
134
330
70
100
AcDbEntity
  8
0
 62
    18
420
        0
370
    25
100
AcDbLine
 10
77.80765538568295
 20
-73.79359547508771
 30
0.0
 11
77.481617792479
 21
-73.79359547508771
 31
0.0
  0
LWPOLYLINE
  5
135
330
70
100
AcDbEntity
  8
0
 62
    18
420
        0
370
    25
100
AcDbPolyline
 90
        3
 70
     0
 43
0.0
 10
83.11108274945466
 20
-73.9470640244635
 10
83.25630685482822
 20
-73.84533429875339
 10
83.35987275251749
 20
-73.59138981601271
  0
LINE
  5
136
330
70
100
AcDbEntity
  8
0
 62
    18
420
        0
370
    25
100
AcDbLine
 10
77.74311195843799
 20
-74.23907881249786
 30
0.0
 11
77.74311195843799
 21
-73.9984210343734
 31
0.0
  0
SPLINE
  5
137
330
70
100
AcDbEntity
  8
0
 62
    18
420
        0
370
    25
100
AcDbSpline
210
0.0
220
0.0
230
1.0
 70
     8
 71
     3
 72
     8
 73
     4
 74
     0
 42
0.0000000001
 43
0.0000000001
 40
0.0
 40
0.0
 40
0.0
 40
0.0
 40
1.0
 40
1.0
 40
1.0
 40
1.0
 10
77.80765538565022
 20
-72.82393721035574
 30
0.0
 10
78.0866090370231
 20
-72.15581020398551
 30
0.0
 10
78.0866090370231
 20
-71.4038396922452
 30
0.0
 10
77.80765538565022
 20
-70.73571268587433
 30
0.0
  0
LWPOLYLINE
  5
138
330
70
100
AcDbEntity
  8
0
 62
    18
420
        0
370
    25
100
AcDbPolyline
 90
        4
 70
     0
 43
0.0
 10
82.98570147788955
 20
-71.0467865265814
 10
83.05968557549633
 20
-70.82167942124789
 10
83.10564155986396
 20
-70.70277832736424
 10
83.10520842126138
 20
-70.70384728505698
  0
SPLINE
  5
139
330
70
100
AcDbEntity
  8
0
 62
    18
420
        0
370
    25
100
AcDbSpline
210
0.0
220
0.0
230
1.0
 70
     8
 71
     3
 72
     8
 73
     4
 74
     0
 42
0.0000000001
 43
0.0000000001
 40
0.0
 40
0.0
 40
0.0
 40
0.0
 40
1.0
 40
1.0
 40
1.0
 40
1.0
 10
82.98570147785138
 20
-71.04678652657241
 30
0.0
 10
82.81403843273032
 20
-71.6493741476588
 30
0.0
 10
82.8578770887017
 20
-72.29296166752473
 30
0.0
 10
83.10966720352817
 20
-72.86670532127757
 30
0.0
  0
LINE
  5
13A
330
70
100
AcDbEntity
  8
0
 62
     8
420
  8421504
370
    25
100
AcDbLine
 10
63.31502769778144
 20
-70.95116442252579
 30
0.0
 11
63.31502769778144
 21
-72.2975170742799
 31
0.0
  0
LINE
  5
13B
330
70
100
AcDbEntity
  8
0
 62
     8
420
  8421504
370
    25
100
AcDbLine
 10
97.45584135206259
 20
-72.2975170742799
 30
0.0
 11
97.45584135206259
 21
-70.95116442252579
 31
0.0
  0
LINE
  5
13C
330
70
100
AcDbEntity
  8
0
 62
     8
420
  8421504
370
    25
100
AcDbLine
 10
77.80765538568295
 20
-74.35154983945965
 30
0.0
 11
83.11108274945466
 21
-74.35154983945965
 31
0.0
  0
LINE
  5
13D
330
70
100
AcDbEntity
  8
0
 62
     8
420
  8421504
370
    25
100
AcDbLine
 10
82.98419410647394
 20
-74.51266568634108
 30
0.0
 11
77.93454402866368
 21
-74.51266568634108
 31
0.0
  0
SPLINE
  5
13E
330
70
100
AcDbEntity
  8
0
 62
    18
420
        0
370
    25
100
AcDbSpline
210
0.0
220
0.0
230
1.0
 70
     8
 71
     3
 72
     8
 73
     4
 74
     0
 42
0.0000000001
 43
0.0000000001
 40
0.0
 40
0.0
 40
0.0
 40
0.0
 40
1.0
 40
1.0
 40
1.0
 40
1.0
 10
145.7778240814153
 20
-49.34997031003855
 30
0.0
 10
145.7577997837995
 20
-49.36193719929105
 30
0.0
 10
145.745538922657
 20
-49.38354801275167
 30
0.0
 10
145.745538922657
 20
-49.40687565586848
 30
0.0
  0
LINE
  5
13F
330
70
100
AcDbEntity
  8
0
 62
    18
420
        0
370
    25
100
AcDbLine
 10
146.661271189373
 20
-48.82200603864976
 30
0.0
 11
145.7778240814622
 21
-49.34997031003213
 31
0.0
  0
LINE
  5
140
330
70
100
AcDbEntity
  8
0
 62
    18
420
        0
370
    25
100
AcDbLine
 10
145.745538922657
 20
-49.40687565586848
 30
0.0
 11
145.745538922657
 21
-58.4355298408083
 31
0.0
  0
SPLINE
  5
141
330
70
100
AcDbEntity
  8
0
 62
    18
420
        0
370
    25
100
AcDbSpline
210
0.0
220
0.0
230
1.0
 70
     8
 71
     3
 72
     8
 73
     4
 74
     0
 42
0.0000000001
 43
0.0000000001
 40
0.0
 40
0.0
 40
0.0
 40
0.0
 40
1.0
 40
1.0
 40
1.0
 40
1.0
 10
156.2165137121476
 20
-77.01602476923186
 30
0.0
 10
156.2367137100137
 20
-77.02768597978425
 30
0.0
 10
156.2615557017083
 20
-77.02787372206493
 30
0.0
 10
156.2819296403789
 20
-77.01651914728817
 30
0.0
  0
LINE
  5
142
330
70
100
AcDbEntity
  8
0
 62
    18
420
        0
370
    25
100
AcDbLine
 10
156.2819296403904
 20
-77.0165191472811
 30
0.0
 11
157.1809319478985
 21
-76.51549727367559
 31
0.0
  0
LINE
  5
143
330
70
100
AcDbEntity
  8
0
 62
    18
420
        0
370
    25
100
AcDbLine
 10
154.7138435786044
 20
-76.14855176582688
 30
0.0
 11
156.2165137121687
 21
-77.01602476920683
 31
0.0
  0
LINE
  5
144
330
70
100
AcDbEntity
  8
0
 62
    18
420
        0
370
    25
100
AcDbLine
 10
147.9831037995097
 20
-66.73842177251294
 30
0.0
 11
147.8177555054854
 21
-66.33406021754911
 31
0.0
  0
LINE
  5
145
330
70
100
AcDbEntity
  8
0
 62
    18
420
        0
370
    25
100
AcDbLine
 10
144.1600776407496
 20
-63.81983054057944
 30
0.0
 11
143.8916409097733
 21
-63.66486531434806
 31
0.0
  0
LINE
  5
146
330
70
100
AcDbEntity
  8
0
 62
    18
420
        0
370
    25
100
AcDbLine
 10
140.2893617999241
 20
-61.58531384871109
 30
0.0
 11
140.1690894965425
 21
-61.51588212584563
 31
0.0
  0
LINE
  5
147
330
70
100
AcDbEntity
  8
0
 62
    18
420
        0
370
    25
100
AcDbLine
 10
143.2226715978236
 20
-65.19233522437438
 30
0.0
 11
143.2524859354295
 21
-65.2095466751227
 31
0.0
  0
LINE
  5
148
330
70
100
AcDbEntity
  8
0
 62
    18
420
        0
370
    25
100
AcDbLine
 10
156.2404044589727
 20
-82.71208282090789
 30
0.0
 11
156.1231951215591
 21
-82.64439731620363
 31
0.0
  0
LINE
  5
149
330
70
100
AcDbEntity
  8
0
 62
    18
420
        0
370
    25
100
AcDbLine
 10
155.1855204217856
 20
-82.64439731620363
 30
0.0
 11
155.0683110843058
 21
-82.71208282090789
 31
0.0
  0
LINE
  5
14A
330
70
100
AcDbEntity
  8
0
 62
    18
420
        0
370
    25
100
AcDbLine
 10
154.82569724605
 20
-83.05029043575791
 30
0.0
 11
154.82569724605
 21
-84.53888774012069
 31
0.0
  0
LINE
  5
14B
330
70
100
AcDbEntity
  8
0
 62
    18
420
        0
370
    25
100
AcDbLine
 10
156.4830182972285
 20
-84.53888774012069
 30
0.0
 11
156.4830182972285
 21
-83.05029043575791
 31
0.0
  0
SPLINE
  5
14C
330
70
100
AcDbEntity
  8
0
 62
    18
420
        0
370
    25
100
AcDbSpline
210
0.0
220
0.0
230
1.0
 70
     8
 71
     3
 72
    11
 73
     7
 74
     0
 42
0.0000000001
 43
0.0000000001
 40
0.0
 40
0.0
 40
0.0
 40
0.0
 40
1.0
 40
1.0
 40
1.0
 40
2.0
 40
2.0
 40
2.0
 40
2.0
 10
153.7165873403343
 20
-86.13631687771325
 30
0.0
 10
154.5172644361826
 20
-86.69262425370117
 30
0.0
 10
155.6173177012235
 20
-86.49452345462155
 30
0.0
 10
156.1736250772114
 20
-85.69384635877325
 30
0.0
 10
156.4079634036011
 20
-85.35656999193369
 30
0.0
 10
156.5173739785286
 20
-84.94814253359399
 30
0.0
 10
156.4830182972503
 20
-84.53888774008861
 30
0.0
  0
LWPOLYLINE
  5
14D
330
70
100
AcDbEntity
  8
0
 62
    18
420
        0
370
    25
100
AcDbPolyline
 90
        6
 70
     0
 43
0.0
 10
154.82569724605
 20
-84.53888774012069
 10
154.8227929628716
 20
-84.61947535675507
 10
154.8054868220126
 20
-84.73608492439776
 10
154.7834566689409
 20
-84.80348503496928
 10
154.7717435113099
 20
-84.82494365676627
 10
154.7725803196238
 20
-84.8241792476608
  0
LWPOLYLINE
  5
14E
330
70
100
AcDbEntity
  8
0
 62
    18
420
        0
370
    25
100
AcDbPolyline
 90
        6
 70
     0
 43
0.0
 10
154.8155358625815
 20
-84.79800243681452
 10
154.8168385767236
 20
-84.79747153396955
 10
154.7802959802966
 20
-84.7947015862748
 10
154.6951377135087
 20
-84.77193606036252
 10
154.5823821461338
 20
-84.72157213744594
 10
154.5451805228855
 20
-84.70099586674768
  0
LINE
  5
14F
330
70
100
AcDbEntity
  8
0
 62
    18
420
        0
370
    25
100
AcDbLine
 10
154.5451805228855
 20
-84.70099586674768
 30
0.0
 11
153.1534591059738
 21
-83.89757219415061
 31
0.0
  0
LINE
  5
150
330
70
100
AcDbEntity
  8
0
 62
    18
420
        0
370
    25
100
AcDbLine
 10
153.0112080398643
 20
-85.72911007517609
 30
0.0
 11
153.716587340349
 21
-86.13631687768629
 31
0.0
  0
LINE
  5
151
330
70
100
AcDbEntity
  8
0
 62
    18
420
        0
370
    25
100
AcDbLine
 10
136.1889034339809
 20
-59.21816962015446
 30
0.0
 11
130.4039796727215
 21
-55.87860421741859
 31
0.0
  0
SPLINE
  5
152
330
70
100
AcDbEntity
  8
0
 62
    18
420
        0
370
    25
100
AcDbSpline
210
0.0
220
0.0
230
1.0
 70
     8
 71
     3
 72
     8
 73
     4
 74
     0
 42
0.0000000001
 43
0.0000000001
 40
0.0
 40
0.0
 40
0.0
 40
0.0
 40
1.0
 40
1.0
 40
1.0
 40
1.0
 10
130.4039796727247
 20
-55.87860421740961
 30
0.0
 10
129.9215578542722
 20
-55.56721887791214
 30
0.0
 10
129.326519135288
 20
-55.48399571600943
 30
0.0
 10
128.7771781479939
 20
-55.65107689463798
 30
0.0
  0
LINE
  5
153
330
70
100
AcDbEntity
  8
0
 62
    18
420
        0
370
    25
100
AcDbLine
 10
148.5019195595159
 20
-65.92445441669823
 30
0.0
 11
144.7518301070574
 21
-63.75957385656913
 31
0.0
  0
LINE
  5
154
330
70
100
AcDbEntity
  8
0
 62
    18
420
        0
370
    25
100
AcDbLine
 10
155.983411241746
 20
-71.44771970220637
 30
0.0
 11
155.8582356683837
 21
-71.32242338796753
 31
0.0
  0
LINE
  5
155
330
70
100
AcDbEntity
  8
0
 62
    18
420
        0
370
    25
100
AcDbLine
 10
140.5329794730328
 20
-61.32408322643223
 30
0.0
 11
136.7828900205743
 21
-59.15920266630312
 31
0.0
  0
LINE
  5
156
330
70
100
AcDbEntity
  8
0
 62
    18
420
        0
370
    25
100
AcDbLine
 10
154.757698283796
 20
-97.58239081630591
 30
0.0
 11
154.9287455420891
 21
-97.39241898288701
 31
0.0
  0
LWPOLYLINE
  5
157
330
70
100
AcDbEntity
  8
0
 62
    18
420
        0
370
    25
100
AcDbPolyline
 90
       12
 70
     0
 43
0.0
 10
139.005203111351
 20
-65.60087777760031
 10
139.1639512572063
 20
-65.83944237753392
 10
139.394792048679
 20
-66.12865869723441
 10
139.6438830738152
 20
-66.38836620772458
 10
139.9067070711356
 20
-66.61331239931524
 10
140.1786421340564
 20
-66.79874805167685
 10
140.4549920677021
 20
-66.9403857639488
 10
140.7307839088251
 20
-67.03431103900486
 10
140.9999341638473
 20
-67.07709029212573
 10
141.2552192747336
 20
-67.06681434547765
 10
141.4887470238813
 20
-67.00435610581578
 10
141.55361588998
 20
-66.96935712144365
  0
LWPOLYLINE
  5
158
330
70
100
AcDbEntity
  8
0
 62
    18
420
        0
370
    25
100
AcDbPolyline
 90
       14
 70
     0
 43
0.0
 10
138.9587504028055
 20
-62.35913714676697
 10
138.9115710771794
 20
-62.38329000691642
 10
138.7344917709394
 20
-62.53416146201214
 10
138.5906757629864
 20
-62.72512278650145
 10
138.4812420514359
 20
-62.95376653249019
 10
138.4080760867199
 20
-63.21755758022404
 10
138.3733325557152
 20
-63.5118293067402
 10
138.3781734951107
 20
-63.82996645135476
 10
138.4223536197324
 20
-64.16454320485904
 10
138.5045162196528
 20
-64.50828618888912
 10
138.6226168769237
 20
-64.8543428454774
 10
138.7740488731341
 20
-65.19595327780962
 10
138.9556904823309
 20
-65.52647085801531
 10
139.005203111351
 20
-65.60087777760031
  0
LINE
  5
159
330
70
100
AcDbEntity
  8
0
 62
    18
420
        0
370
    25
100
AcDbLine
 10
149.6581193918957
 20
-56.17684521339988
 30
0.0
 11
138.9683299208733
 21
-62.34792931971533
 31
0.0
  0
LINE
  5
15A
330
70
100
AcDbEntity
  8
0
 62
    18
420
        0
370
    25
100
AcDbLine
 10
141.6198281050154
 20
-66.94095655486511
 30
0.0
 11
142.8845289387554
 21
-66.21086030406238
 31
0.0
  0
LINE
  5
15B
330
70
100
AcDbEntity
  8
0
 62
    18
420
        0
370
    25
100
AcDbLine
 10
145.9412859014268
 20
-64.44623207072351
 30
0.0
 11
152.309617575971
 21
-60.76987244848293
 31
0.0
  0
SPLINE
  5
15C
330
70
100
AcDbEntity
  8
0
 62
    18
420
        0
370
    25
100
AcDbSpline
210
0.0
220
0.0
230
1.0
 70
     8
 71
     3
 72
     8
 73
     4
 74
     0
 42
0.0000000001
 43
0.0000000001
 40
0.0
 40
0.0
 40
0.0
 40
0.0
 40
1.0
 40
1.0
 40
1.0
 40
1.0
 10
156.249248373348
 20
-55.37861155769485
 30
0.0
 10
156.2215981311778
 20
-55.39651168652019
 30
0.0
 10
156.204292396035
 20
-55.42666125785852
 30
0.0
 10
156.2027813213017
 20
-55.45956516579008
 30
0.0
  0
SPLINE
  5
15D
330
70
100
AcDbEntity
  8
0
 62
    18
420
        0
370
    25
100
AcDbSpline
210
0.0
220
0.0
230
1.0
 70
     8
 71
     3
 72
     8
 73
     4
 74
     0
 42
0.0000000001
 43
0.0000000001
 40
0.0
 40
0.0
 40
0.0
 40
0.0
 40
1.0
 40
1.0
 40
1.0
 40
1.0
 10
156.296122706584
 20
-55.45980028423342
 30
0.0
 10
156.2943589156563
 20
-55.42680496353042
 30
0.0
 10
156.2769412638438
 20
-55.39663670573126
 30
0.0
 10
156.2492483733269
 20
-55.37861155770062
 30
0.0
  0
SPLINE
  5
15E
330
70
100
AcDbEntity
  8
0
 62
    18
420
        0
370
    25
100
AcDbSpline
210
0.0
220
0.0
230
1.0
 70
     8
 71
     3
 72
     8
 73
     4
 74
     0
 42
0.0000000001
 43
0.0000000001
 40
0.0
 40
0.0
 40
0.0
 40
0.0
 40
1.0
 40
1.0
 40
1.0
 40
1.0
 10
156.2027813212773
 20
-55.45956516578045
 30
0.0
 10
156.2320330629211
 20
-55.47470608630147
 30
0.0
 10
156.2667950594215
 20
-55.47479364860081
 30
0.0
 10
156.2961227065808
 20
-55.45980028421866
 30
0.0
  0
LINE
  5
15F
330
70
100
AcDbEntity
  8
0
 62
    18
420
        0
370
    25
100
AcDbLine
 10
157.1949541395777
 20
-54.94091448342329
 30
0.0
 11
156.2961227065769
 21
-55.45980028420262
 31
0.0
  0
LINE
  5
160
330
70
100
AcDbEntity
  8
0
 62
    18
420
        0
370
    25
100
AcDbLine
 10
156.2492483733679
 20
-55.37861155768715
 30
0.0
 11
157.1480798063032
 21
-54.85972575690718
 31
0.0
  0
SPLINE
  5
161
330
70
100
AcDbEntity
  8
0
 62
    18
420
        0
370
    25
100
AcDbSpline
210
0.0
220
0.0
230
1.0
 70
     8
 71
     3
 72
     8
 73
     4
 74
     0
 42
0.0000000001
 43
0.0000000001
 40
0.0
 40
0.0
 40
0.0
 40
0.0
 40
1.0
 40
1.0
 40
1.0
 40
1.0
 10
157.1949541395841
 20
-54.94091448340468
 30
0.0
 10
157.1934494800566
 20
-54.90784281675098
 30
0.0
 10
157.1759683800771
 20
-54.87756466350263
 30
0.0
 10
157.148079806327
 20
-54.85972575687188
 30
0.0
  0
LINE
  5
162
330
70
100
AcDbEntity
  8
0
 62
    18
420
        0
370
    25
100
AcDbLine
 10
156.2027813213055
 20
-76.98567293580076
 30
0.0
 11
156.2027813213055
 21
-55.45956516576634
 31
0.0
  0
LINE
  5
163
330
70
100
AcDbEntity
  8
0
 62
    18
420
        0
370
    25
100
AcDbLine
 10
156.2961227065769
 20
-55.45980028420262
 30
0.0
 11
156.2961227065769
 21
-76.98590805423704
 31
0.0
  0
SPLINE
  5
164
330
70
100
AcDbEntity
  8
0
 62
    18
420
        0
370
    25
100
AcDbSpline
210
0.0
220
0.0
230
1.0
 70
     8
 71
     3
 72
     8
 73
     4
 74
     0
 42
0.0000000001
 43
0.0000000001
 40
0.0
 40
0.0
 40
0.0
 40
0.0
 40
1.0
 40
1.0
 40
1.0
 40
1.0
 10
156.2027813212773
 20
-76.98567293574814
 30
0.0
 10
156.2320330629211
 20
-77.00081385626916
 30
0.0
 10
156.2667950594215
 20
-77.00090141856851
 30
0.0
 10
156.2961227065808
 20
-76.98590805418636
 30
0.0
  0
LINE
  5
165
330
70
100
AcDbEntity
  8
0
 62
    18
420
        0
370
    25
100
AcDbLine
 10
145.8114226986235
 20
-49.35298305479674
 30
0.0
 11
156.2492483733679
 21
-55.37861155768715
 31
0.0
  0
LINE
  5
166
330
70
100
AcDbEntity
  8
0
 62
    18
420
        0
370
    25
100
AcDbLine
 10
156.2027813213055
 20
-55.45956516576634
 30
0.0
 11
145.7649556465606
 21
-49.43393666287593
 31
0.0
  0
SPLINE
  5
167
330
70
100
AcDbEntity
  8
0
 62
    18
420
        0
370
    25
100
AcDbSpline
210
0.0
220
0.0
230
1.0
 70
     8
 71
     3
 72
     8
 73
     4
 74
     0
 42
0.0000000001
 43
0.0000000001
 40
0.0
 40
0.0
 40
0.0
 40
0.0
 40
1.0
 40
1.0
 40
1.0
 40
1.0
 10
145.811422698603
 20
-49.35298305480444
 30
0.0
 10
145.7837724564329
 20
-49.37088318362913
 30
0.0
 10
145.7664667212893
 20
-49.40103275496811
 30
0.0
 10
145.7649556465567
 20
-49.43393666289967
 30
0.0
  0
LINE
  5
168
330
70
100
AcDbEntity
  8
0
 62
    18
420
        0
370
    25
100
AcDbLine
 10
157.1949541395777
 20
-54.94091448342329
 30
0.0
 11
157.1949541395777
 21
-76.48498141049772
 31
0.0
  0
LINE
  5
169
330
70
100
AcDbEntity
  8
0
 62
    18
420
        0
370
    25
100
AcDbLine
 10
156.2961227065769
 20
-76.98590805423704
 30
0.0
 11
157.1949541395777
 21
-76.48498141049772
 31
0.0
  0
LINE
  5
16A
330
70
100
AcDbEntity
  8
0
 62
    18
420
        0
370
    25
100
AcDbLine
 10
146.6947018877597
 20
-48.8251191347345
 30
0.0
 11
145.8114226986235
 21
-49.35298305479674
 31
0.0
  0
LINE
  5
16B
330
70
100
AcDbEntity
  8
0
 62
    18
420
        0
370
    25
100
AcDbLine
 10
146.6947018877597
 20
-48.8251191347345
 30
0.0
 11
157.1480798063032
 21
-54.85972575690718
 31
0.0
  0
SPLINE
  5
16C
330
70
100
AcDbEntity
  8
0
 62
    18
420
        0
370
    25
100
AcDbSpline
210
0.0
220
0.0
230
1.0
 70
     8
 71
     3
 72
     8
 73
     4
 74
     0
 42
0.0000000001
 43
0.0000000001
 40
0.0
 40
0.0
 40
0.0
 40
0.0
 40
1.0
 40
1.0
 40
1.0
 40
1.0
 10
146.6947018878001
 20
-48.82511913473258
 30
0.0
 10
146.6849942478326
 20
-48.81797172843285
 30
0.0
 10
146.6721316189295
 20
-48.81677394909519
 30
0.0
 10
146.6612711894006
 20
-48.8220060386395
 30
0.0
  0
SPLINE
  5
16D
330
70
100
AcDbEntity
  8
0
 62
    18
420
        0
370
    25
100
AcDbSpline
210
0.0
220
0.0
230
1.0
 70
     8
 71
     3
 72
     8
 73
     4
 74
     0
 42
0.0000000001
 43
0.0000000001
 40
0.0
 40
0.0
 40
0.0
 40
0.0
 40
1.0
 40
1.0
 40
1.0
 40
1.0
 10
157.1809319478709
 20
-76.51549727365697
 30
0.0
 10
157.1910568820818
 20
-76.50884364944648
 30
0.0
 10
157.1965000812888
 20
-76.49699786055288
 30
0.0
 10
157.1949541395244
 20
-76.48498141049516
 30
0.0
  0
LWPOLYLINE
  5
16E
330
70
100
AcDbEntity
  8
0
 62
    18
420
        0
370
    25
100
AcDbPolyline
 90
       19
 70
     0
 43
0.0
 10
156.2403092485962
 20
-82.71202784823179
 10
156.3766683949111
 20
-82.81583369644287
 10
156.4594570666198
 20
-82.93702812848431
 10
156.4825352067039
 20
-83.06662270771989
 10
156.4441912151246
 20
-83.19500599707252
 10
156.3472688902665
 20
-83.31265639521628
 10
156.198956517599
 20
-83.4108483104012
 10
156.0102537472806
 20
-83.48229929745825
 10
155.7951558006095
 20
-83.52171016360967
 10
155.5696155082791
 20
-83.52615798512587
 10
155.3503601618736
 20
-83.49531288743165
 10
155.1536509275193
 20
-83.43146251035113
 10
154.9940768292674
 20
-83.33934234417212
 10
154.8834727478863
 20
-83.22578452037928
 10
154.8300416821551
 20
-83.09921110311057
 10
154.8377463697717
 20
-82.96900946374716
 10
154.9060153893082
 20
-82.84483606221561
 10
155.0297855399674
 20
-82.73590027169381
 10
155.0683110843058
 20
-82.71208282090789
  0
LWPOLYLINE
  5
16F
330
70
100
AcDbEntity
  8
0
 62
    18
420
        0
370
    25
100
AcDbPolyline
 90
       21
 70
     0
 43
0.0
 10
156.123118953205
 20
-83.18557347807821
 10
156.2450313193567
 20
-83.08870576804826
 10
156.3091244431915
 20
-82.97483094527581
 10
156.3091244431915
 20
-82.85509587086567
 10
156.2450313193567
 20
-82.74122104809322
 10
156.123118953205
 20
-82.64435333806263
 10
155.9553209765808
 20
-82.57397482712516
 10
155.7580626244951
 20
-82.53697465429931
 10
155.5506529188495
 20
-82.53697465429931
 10
155.3533945667638
 20
-82.57397482712516
 10
155.1855965901396
 20
-82.64435333806263
 10
155.0636842239879
 20
-82.74122104809322
 10
154.999591100087
 20
-82.85509587086567
 10
154.999591100087
 20
-82.97483094527581
 10
155.0636842239879
 20
-83.08870576804826
 10
155.1855965901396
 20
-83.18557347807821
 10
155.3533945667638
 20
-83.25595198901632
 10
155.5506529188495
 20
-83.29295216184153
 10
155.7580626244951
 20
-83.29295216184153
 10
155.9553209765808
 20
-83.25595198901632
 10
156.123118953205
 20
-83.18557347807821
  0
SPLINE
  5
170
330
70
100
AcDbEntity
  8
0
 62
    18
420
        0
370
    25
100
AcDbSpline
210
0.0
220
0.0
230
1.0
 70
     8
 71
     3
 72
     8
 73
     4
 74
     0
 42
0.0000000001
 43
0.0000000001
 40
0.0
 40
0.0
 40
0.0
 40
0.0
 40
1.0
 40
1.0
 40
1.0
 40
1.0
 10
143.4443095693332
 20
-64.71073134997424
 30
0.0
 10
143.1879698040333
 20
-65.36735099294812
 30
0.0
 10
142.9447154785886
 20
-66.0290042553952
 30
0.0
 10
142.7146909142222
 20
-66.69529858270109
 30
0.0
  0
LINE
  5
171
330
70
100
AcDbEntity
  8
0
 62
    18
420
        0
370
    25
100
AcDbLine
 10
155.9610206518399
 20
-71.93647485372469
 30
0.0
 11
143.4443095692986
 21
-64.71073135001465
 31
0.0
  0
LINE
  5
172
330
70
100
AcDbEntity
  8
0
 62
    18
420
        0
370
    25
100
AcDbLine
 10
155.9610206518399
 20
-71.93647485372469
 30
0.0
 11
155.9113836929148
 21
-72.13579864223652
 31
0.0
  0
LWPOLYLINE
  5
173
330
70
100
AcDbEntity
  8
0
 62
    18
420
        0
370
    25
100
AcDbPolyline
 90
       22
 70
     0
 43
0.0
 10
155.9113836929148
 20
-72.13579864223652
 10
155.4117478868896
 20
-73.48381680200851
 10
154.9531685824289
 20
-74.83260606069601
 10
154.5365426038842
 20
-76.17952864785713
 10
154.1626847291307
 20
-77.52195044346662
 10
153.8323260963557
 20
-78.85724612953031
 10
153.5461127740519
 20
-80.18280432426967
 10
153.3046044976781
 20
-81.49603268925186
 10
153.1082735747627
 20
-82.79436299867532
 10
152.9575039614486
 20
-84.07525616263992
 10
152.8525905116579
 20
-85.33620719195267
 10
152.7937384001451
 20
-86.57475009769866
 10
152.7810627214268
 20
-87.78846271338228
 10
152.8145882649823
 20
-88.97497143227861
 10
152.8942494661307
 20
-90.13195584899607
 10
153.0198905349682
 20
-91.25715329768231
 10
153.1912657603919
 20
-92.34836327680865
 10
153.4080399911155
 20
-93.40345175296656
 10
153.6697892909108
 20
-94.42035533380254
 10
153.9760017675991
 20
-95.39708530359728
 10
154.326078574271
 20
-96.33173151259711
 10
154.7193350804847
 20
-97.22246611241979
  0
LWPOLYLINE
  5
174
330
70
100
AcDbEntity
  8
0
 62
    18
420
        0
370
    25
100
AcDbPolyline
 90
        5
 70
     0
 43
0.0
 10
154.7193350804847
 20
-97.22246611241979
 10
154.7858147822981
 20
-97.48669393418916
 10
154.7188000070914
 20
-97.60963065945823
 10
154.5150344579531
 20
-97.59481991488701
 10
154.1724053170403
 20
-97.44460974182855
  0
LINE
  5
175
330
70
100
AcDbEntity
  8
0
 62
    18
420
        0
370
    25
100
AcDbLine
 10
154.1724053170403
 20
-97.44460974182855
 30
0.0
 11
126.7498761959838
 21
-81.61392064587262
 31
0.0
  0
SPLINE
  5
176
330
70
100
AcDbEntity
  8
0
 62
    18
420
        0
370
    25
100
AcDbSpline
210
0.0
220
0.0
230
1.0
 70
     8
 71
     3
 72
     8
 73
     4
 74
     0
 42
0.0000000001
 43
0.0000000001
 40
0.0
 40
0.0
 40
0.0
 40
0.0
 40
1.0
 40
1.0
 40
1.0
 40
1.0
 10
125.4217612331531
 20
-80.30933673644616
 30
0.0
 10
125.7468662969459
 20
-80.84963498742645
 30
0.0
 10
126.2038531529189
 20
-81.29852511803902
 30
0.0
 10
126.7498761959633
 20
-81.61392064587776
 30
0.0
  0
LWPOLYLINE
  5
177
330
70
100
AcDbEntity
  8
0
 62
    18
420
        0
370
    25
100
AcDbPolyline
 90
       22
 70
     0
 43
0.0
 10
125.4217612331653
 20
-80.30933673649878
 10
125.0285047270183
 20
-79.41860213667609
 10
124.6784279202797
 20
-78.48395592760953
 10
124.3722154435914
 20
-77.50722595781543
 10
124.1104661437961
 20
-76.4903223769788
 10
123.8936919130731
 20
-75.43523390088764
 10
123.7223166876494
 20
-74.34402392169521
 10
123.5966756188774
 20
-73.21882647300895
 10
123.5170144176636
 20
-72.06184205629149
 10
123.4834888741741
 20
-70.87533333739516
 10
123.4961645528257
 20
-69.66162072171155
 10
123.5550166643385
 20
-68.42307781596557
 10
123.6599301141959
 20
-67.16212678665282
 10
123.8106997274439
 20
-65.88123362275429
 10
124.0070306503587
 20
-64.58290331326477
 10
124.2485389267331
 20
-63.26967494834867
 10
124.5347522490363
 20
-61.9441167535432
 10
124.8651108818113
 20
-60.60882106754561
 10
125.2389687565647
 20
-59.26639927193612
 10
125.6555947351762
 20
-57.919476684775
 10
126.1141740396363
 20
-56.57068742602141
 10
126.6138098456621
 20
-55.22266926631552
  0
LINE
  5
178
330
70
100
AcDbEntity
  8
0
 62
    18
420
        0
370
    25
100
AcDbLine
 10
126.6138098456621
 20
-55.22266926631552
 30
0.0
 11
126.7087478527333
 21
-55.0494972161671
 31
0.0
  0
LWPOLYLINE
  5
179
330
70
100
AcDbEntity
  8
0
 62
    18
420
        0
370
    25
100
AcDbPolyline
 90
        3
 70
     0
 43
0.0
 10
138.4781534336514
 20
-64.39799242098719
 10
138.4134427164859
 20
-64.72222294450415
 10
138.4529239668087
 20
-65.2678762023495
  0
LWPOLYLINE
  5
17A
330
70
100
AcDbEntity
  8
0
 62
    18
420
        0
370
    25
100
AcDbPolyline
 90
       12
 70
     0
 43
0.0
 10
138.4529242175282
 20
-65.26787759681927
 10
138.5668176541378
 20
-65.68153064574932
 10
138.6732159314026
 20
-65.99246260459517
 10
138.8088469622857
 20
-66.28689376281048
 10
138.9849418508466
 20
-66.588223423777
 10
139.4073458544373
 20
-67.11511163372477
 10
139.8991652104733
 20
-67.50778079848362
 10
140.4386040569838
 20
-67.75426953045585
 10
141.003032750948
 20
-67.84084564017618
 10
141.3764588172646
 20
-67.80889720750924
 10
141.6983052024446
 20
-67.71381682688065
 10
142.0929001098286
 20
-67.52678858219702
  0
LWPOLYLINE
  5
17B
330
70
100
AcDbEntity
  8
0
 62
    18
420
        0
370
    25
100
AcDbPolyline
 90
        3
 70
     0
 43
0.0
 10
142.0929008098811
 20
-67.52678820956496
 10
142.460456372902
 20
-67.18691988464101
 10
142.7146909142062
 20
-66.69529858271393
  0
LWPOLYLINE
  5
17C
330
70
100
AcDbEntity
  8
0
 62
    18
420
        0
370
    25
100
AcDbPolyline
 90
       22
 70
     0
 43
0.0
 10
156.0740350094994
 20
-72.14962649525581
 10
155.5783645669655
 20
-73.48694609820774
 10
155.1234247808338
 20
-74.82503068025112
 10
154.7101053575923
 20
-76.16126340562698
 10
154.3392146088479
 20
-77.49303105995744
 10
154.0114778699744
 20
-78.81772916122128
 10
153.7275360819801
 20
-80.13276705283576
 10
153.487944537973
 20
-81.43557297048603
 10
153.2931717969539
 20
-82.72359907109798
 10
153.1435987679137
 20
-83.99432641627106
 10
153.039517964572
 20
-85.24526989777145
 10
152.9811329332654
 20
-86.47398309785492
 10
152.9685578551948
 20
-87.67806307375622
 10
153.0018173229493
 20
-88.85515505679157
 10
153.0808462923785
 20
-90.00295705752002
 10
153.2054902098754
 20
-91.11922436769358
 10
153.3755053144716
 20
-92.20177395023632
 10
153.5905591148169
 20
-93.24848870829951
 10
153.8502310391765
 20
-94.25732162578603
 10
154.1540132581282
 20
-95.22629977043843
 10
154.5013116774308
 20
-96.15352815235212
 10
154.8914471002665
 20
-97.03719343000562
  0
LINE
  5
17D
330
70
100
AcDbEntity
  8
0
 62
    18
420
        0
370
    25
100
AcDbLine
 10
154.7193350804847
 20
-97.22246611241979
 30
0.0
 11
154.8914471002658
 21
-97.03719343000562
 31
0.0
  0
LINE
  5
17E
330
70
100
AcDbEntity
  8
0
 62
    18
420
        0
370
    25
100
AcDbLine
 10
155.9113836929148
 20
-72.13579864223652
 30
0.0
 11
156.0740350094994
 21
-72.14962649525581
 31
0.0
  0
SPLINE
  5
17F
330
70
100
AcDbEntity
  8
0
 62
    18
420
        0
370
    25
100
AcDbSpline
210
0.0
220
0.0
230
1.0
 70
     8
 71
     3
 72
    11
 73
     7
 74
     0
 42
0.0000000001
 43
0.0000000001
 40
0.0
 40
0.0
 40
0.0
 40
0.0
 40
1.0
 40
1.0
 40
1.0
 40
2.0
 40
2.0
 40
2.0
 40
2.0
 10
147.9393414400378
 20
-65.96832010587092
 30
0.0
 10
147.7334291986645
 20
-66.08188247694336
 30
0.0
 10
147.6585648369427
 20
-66.34086782114737
 30
0.0
 10
147.7721272080152
 20
-66.54678006252062
 30
0.0
 10
147.8053058006506
 20
-66.60693976428413
 30
0.0
 10
147.8525493827843
 20
-66.65817736353972
 30
0.0
 10
147.9098247355986
 20
-66.69611866933711
 30
0.0
  0
LINE
  5
180
330
70
100
AcDbEntity
  8
0
 62
    18
420
        0
370
    25
100
AcDbLine
 10
147.9098247355595
 20
-66.69611866932107
 30
0.0
 11
155.76157452665
 21
-71.2288373420681
 31
0.0
  0
SPLINE
  5
181
330
70
100
AcDbEntity
  8
0
 62
    18
420
        0
370
    25
100
AcDbSpline
210
0.0
220
0.0
230
1.0
 70
     8
 71
     3
 72
     8
 73
     4
 74
     0
 42
0.0000000001
 43
0.0000000001
 40
0.0
 40
0.0
 40
0.0
 40
0.0
 40
1.0
 40
1.0
 40
1.0
 40
1.0
 10
155.9610206518714
 20
-71.93647485368619
 30
0.0
 10
156.0419745638246
 20
-71.68193433435563
 30
0.0
 10
155.9635374357469
 20
-71.40363835808776
 30
0.0
 10
155.7615745266558
 20
-71.22883734209185
 30
0.0
  0
LWPOLYLINE
  5
182
330
70
100
AcDbEntity
  8
0
 62
    18
420
        0
370
    25
100
AcDbPolyline
 90
        9
 70
     0
 43
0.0
 10
143.4443095692986
 20
-64.71073135001465
 10
143.5578678069578
 20
-64.46948664297583
 10
143.7029579077811
 20
-64.24433765680736
 10
143.872026207136
 20
-64.04700607307432
 10
144.0562706898237
 20
-63.88776534680819
 10
144.2460992400147
 20
-63.77490585101769
 10
144.4316290248312
 20
-63.71430326434884
 10
144.6032010131107
 20
-63.70911267191052
 10
144.7518301070574
 20
-63.75957385656913
  0
LWPOLYLINE
  5
183
330
70
100
AcDbEntity
  8
0
 62
    18
420
        0
370
    25
100
AcDbPolyline
 90
       11
 70
     0
 43
0.0
 10
148.5985316317515
 20
-67.09370069776158
 10
148.6176195822053
 20
-67.04925737955242
 10
148.7011494471337
 20
-66.79897923178796
 10
148.7419141803108
 20
-66.5565507205417
 10
148.7377001430211
 20
-66.33513639002393
 10
148.6887361692728
 20
-66.1467596557256
 10
148.5976811393359
 20
-66.00164989953812
 10
148.4694795951905
 20
-65.90768698585911
 10
148.3110932382116
 20
-65.86997336297082
 10
148.1311228892633
 20
-65.89055698567853
 10
147.939341439982
 20
-65.96832010588439
  0
SPLINE
  5
184
330
70
100
AcDbEntity
  8
0
 62
    18
420
        0
370
    25
100
AcDbSpline
210
0.0
220
0.0
230
1.0
 70
     8
 71
     3
 72
     8
 73
     4
 74
     0
 42
0.0000000001
 43
0.0000000001
 40
0.0
 40
0.0
 40
0.0
 40
0.0
 40
1.0
 40
1.0
 40
1.0
 40
1.0
 10
156.1230982581999
 20
-71.95178086479606
 30
0.0
 10
156.1613764900299
 20
-71.77093615242238
 30
0.0
 10
156.1082101464614
 20
-71.58283608848027
 30
0.0
 10
155.980927430932
 20
-71.44878705508936
 30
0.0
  0
LINE
  5
185
330
70
100
AcDbEntity
  8
0
 62
    18
420
        0
370
    25
100
AcDbLine
 10
156.1230982582371
 20
-71.95178086482687
 30
0.0
 11
155.9610206518399
 21
-71.93647485372469
 31
0.0
  0
SPLINE
  5
186
330
70
100
AcDbEntity
  8
0
 62
    18
420
        0
370
    25
100
AcDbSpline
210
0.0
220
0.0
230
1.0
 70
     8
 71
     3
 72
    11
 73
     7
 74
     0
 42
0.0000000001
 43
0.0000000001
 40
0.0
 40
0.0
 40
0.0
 40
0.0
 40
1.0
 40
1.0
 40
1.0
 40
2.0
 40
2.0
 40
2.0
 40
2.0
 10
147.933544698597
 20
-66.1880862419159
 30
0.0
 10
147.7880823410733
 20
-66.28448897492951
 30
0.0
 10
147.7483116574413
 20
-66.48055937077117
 30
0.0
 10
147.8447143904543
 20
-66.62602172829422
 30
0.0
 10
147.8450004149048
 20
-66.62645331139906
 30
0.0
 10
147.8452874997207
 20
-66.62688419082702
 30
0.0
 10
147.8455756423012
 20
-66.62731436267204
 30
0.0
  0
LWPOLYLINE
  5
187
330
70
100
AcDbEntity
  8
0
 62
    18
420
        0
370
    25
100
AcDbPolyline
 90
        9
 70
     0
 43
0.0
 10
148.4630540082058
 20
-67.01549113039934
 10
148.5151204290882
 20
-66.86372850679297
 10
148.5552559763046
 20
-66.64375784484431
 10
148.5480445948072
 20
-66.44590777226405
 10
148.4940184180336
 20
-66.28477779771476
 10
148.3971640788716
 20
-66.17225782548857
 10
148.2646285333797
 20
-66.11665079055686
 10
148.1061916810103
 20
-66.12205997873679
 10
147.9335446986104
 20
-66.18808624188638
  0
LINE
  5
188
330
70
100
AcDbEntity
  8
0
 62
    18
420
        0
370
    25
100
AcDbLine
 10
156.1230982582371
 20
-71.95178086482687
 30
0.0
 11
156.0740350094994
 21
-72.14962649525581
 31
0.0
  0
LINE
  5
189
330
70
100
AcDbEntity
  8
0
 62
    18
420
        0
370
    25
100
AcDbLine
 10
147.939341439982
 20
-65.96832010588439
 30
0.0
 11
147.9335446986104
 21
-66.18808624188638
 31
0.0
  0
LINE
  5
18A
330
70
100
AcDbEntity
  8
0
 62
    18
420
        0
370
    25
100
AcDbLine
 10
138.4529242175282
 20
-65.26787759681927
 30
0.0
 11
138.6230949643937
 21
-65.26056510965563
 31
0.0
  0
LWPOLYLINE
  5
18B
330
70
100
AcDbEntity
  8
0
 62
    18
420
        0
370
    25
100
AcDbPolyline
 90
        9
 70
     0
 43
0.0
 10
138.6230949643937
 20
-65.26056510965563
 10
138.7377382854128
 20
-65.67188991664925
 10
138.8446662585283
 20
-65.9811474279538
 10
138.9807506085498
 20
-66.27412494019701
 10
139.1572597044
 20
-66.57410901749513
 10
139.5802432485684
 20
-67.09908544337226
 10
140.0722828844479
 20
-67.49101869447358
 10
140.6115903834924
 20
-67.7379468606152
 10
141.1753139455546
 20
-67.82610613846717
  0
LWPOLYLINE
  5
18C
330
70
100
AcDbEntity
  8
0
 62
    18
420
        0
370
    25
100
AcDbPolyline
 90
       10
 70
     0
 43
0.0
 10
140.621498974455
 20
-61.39357513908771
 10
140.5330322089886
 20
-61.32411367566255
 10
140.3843503790869
 20
-61.27362204177362
 10
140.2127783908067
 20
-61.27881263421195
 10
140.0272486060568
 20
-61.33941522088144
 10
139.8374200557998
 20
-61.4522747166713
 10
139.6531755731121
 20
-61.61151544293744
 10
139.4841072737573
 20
-61.80884702667047
 10
139.3390171729339
 20
-62.03399601283894
 10
139.2678576523671
 20
-62.17501564094711
  0
SPLINE
  5
18D
330
70
100
AcDbEntity
  8
0
 62
    18
420
        0
370
    25
100
AcDbSpline
210
0.0
220
0.0
230
1.0
 70
     8
 71
     3
 72
     8
 73
     4
 74
     0
 42
0.0000000001
 43
0.0000000001
 40
0.0
 40
0.0
 40
0.0
 40
0.0
 40
1.0
 40
1.0
 40
1.0
 40
1.0
 10
127.4015230424858
 20
-54.85692810616397
 30
0.0
 10
127.1546307548874
 20
-54.74242006258312
 30
0.0
 10
126.8611306687896
 20
-54.82400359964639
 30
0.0
 10
126.7087478527487
 20
-55.04949721617672
 30
0.0
  0
LINE
  5
18E
330
70
100
AcDbEntity
  8
0
 62
    18
420
        0
370
    25
100
AcDbLine
 10
127.4015230424621
 20
-54.85692810616333
 30
0.0
 11
135.2532728335532
 21
-59.38964677891036
 31
0.0
  0
SPLINE
  5
18F
330
70
100
AcDbEntity
  8
0
 62
    18
420
        0
370
    25
100
AcDbSpline
210
0.0
220
0.0
230
1.0
 70
     8
 71
     3
 72
     8
 73
     4
 74
     0
 42
0.0000000001
 43
0.0000000001
 40
0.0
 40
0.0
 40
0.0
 40
0.0
 40
1.0
 40
1.0
 40
1.0
 40
1.0
 10
135.2532728335456
 20
-59.38964677895977
 30
0.0
 10
135.5874238122068
 20
-59.47062740117411
 30
0.0
 10
135.9402726117812
 20
-59.40254951792803
 30
0.0
 10
136.2203119010976
 20
-59.20306835552458
 30
0.0
  0
SPLINE
  5
190
330
70
100
AcDbEntity
  8
0
 62
    18
420
        0
370
    25
100
AcDbSpline
210
0.0
220
0.0
230
1.0
 70
     8
 71
     3
 72
     8
 73
     4
 74
     0
 42
0.0000000001
 43
0.0000000001
 40
0.0
 40
0.0
 40
0.0
 40
0.0
 40
1.0
 40
1.0
 40
1.0
 40
1.0
 10
136.7828900205788
 20
-59.15920266632237
 30
0.0
 10
136.6012755585812
 20
-59.07077092334382
 30
0.0
 10
136.3860242012609
 20
-59.08755463535236
 30
0.0
 10
136.2203119010963
 20
-59.20306835552072
 30
0.0
  0
SPLINE
  5
191
330
70
100
AcDbEntity
  8
0
 62
    18
420
        0
370
    25
100
AcDbSpline
210
0.0
220
0.0
230
1.0
 70
     8
 71
     3
 72
     8
 73
     4
 74
     0
 42
0.0000000001
 43
0.0000000001
 40
0.0
 40
0.0
 40
0.0
 40
0.0
 40
1.0
 40
1.0
 40
1.0
 40
1.0
 10
140.3703748368679
 20
-61.5385460179413
 30
0.0
 10
140.0073802235594
 20
-61.48741284964726
 30
0.0
 10
139.6562283716116
 20
-61.69012849885224
 30
0.0
 10
139.5189817899421
 20
-62.03004476208647
 30
0.0
  0
LINE
  5
192
330
70
100
AcDbEntity
  8
0
 62
    18
420
        0
370
    25
100
AcDbLine
 10
138.584218098951
 20
-64.74182736048063
 30
0.0
 11
138.6230949643937
 21
-65.26056510965563
 31
0.0
  0
LWPOLYLINE
  5
193
330
70
100
AcDbEntity
  8
0
 62
    18
420
        0
370
    25
100
AcDbPolyline
 90
        3
 70
     0
 43
0.0
 10
154.8914471002658
 20
-97.03719343000562
 10
154.956697740743
 20
-97.29891927015605
 10
154.9125141941514
 20
-97.37766155254384
  0
LWPOLYLINE
  5
194
330
70
100
AcDbEntity
  8
0
 62
    18
420
        0
370
    25
100
AcDbPolyline
 90
       41
 70
     0
 43
0.0
 10
141.9654738114145
 20
-65.74085490084906
 10
141.9434935484795
 20
-65.40565712296093
 10
141.8780939867013
 20
-65.05333515545969
 10
141.7708854803759
 20
-64.69256433441859
 10
141.6245078586684
 20
-64.33222803478308
 10
141.4425654244875
 20
-63.98119893223047
 10
141.2295382044119
 20
-63.64812052814914
 10
140.9906716355443
 20
-63.34119431832824
 10
140.7318474055121
 20
-63.06797784466855
 10
140.4594386259413
 20
-62.83519860349294
 10
140.180152905035
 20
-62.64858839232279
 10
139.9008671841287
 20
-62.51274217381358
 10
139.6284584046241
 20
-62.43100493276502
 10
139.3696341745926
 20
-62.40538931131118
 10
139.130767605725
 20
-62.43652605103891
 10
138.9177403855827
 20
-62.52364846210507
 10
138.7357979514678
 20
-62.664611301577
 10
138.589420329761
 20
-62.85594359650146
 10
138.4822118234355
 20
-63.09293411088662
 10
138.4168122616573
 20
-63.36974735161546
 10
138.3948319987224
 20
-63.67956725811239
 10
138.4168122616573
 20
-64.01476503600052
 10
138.4822118234355
 20
-64.36708700350177
 10
138.589420329761
 20
-64.72785782454287
 10
138.7357979514678
 20
-65.08819412411227
 10
138.9177403855827
 20
-65.43922322673163
 10
139.130767605725
 20
-65.77230163081231
 10
139.3696341745926
 20
-66.07922784063385
 10
139.6284584046241
 20
-66.35244431429289
 10
139.9008671841287
 20
-66.58522355540242
 10
140.180152905035
 20
-66.7718337666393
 10
140.4594386259413
 20
-66.90767998508241
 10
140.7318474055121
 20
-66.98941722613034
 10
140.9906716355443
 20
-67.01503284765092
 10
141.2295382044119
 20
-66.98389610792318
 10
141.4425654244875
 20
-66.89677369685703
 10
141.6245078586684
 20
-66.75581085738446
 10
141.7708854803759
 20
-66.5644785623939
 10
141.8780939867013
 20
-66.32748804807483
 10
141.9434935484795
 20
-66.0506748072799
 10
141.9654738114145
 20
-65.74085490084906
  0
LINE
  5
195
330
70
100
AcDbEntity
  8
0
 62
    18
420
        0
370
    25
100
AcDbLine
 10
141.6198281050154
 20
-66.94095655486511
 30
0.0
 11
141.5633759970417
 21
-66.97088181743261
 31
0.0
  0
LWPOLYLINE
  5
196
330
70
100
AcDbEntity
  8
0
 62
    18
420
        0
370
    25
100
AcDbPolyline
 90
       22
 70
     0
 43
0.0
 10
152.309617575971
 20
-60.76987244848293
 10
152.4304452018948
 20
-60.68606257233538
 10
152.5955999423658
 20
-60.5102658205845
 10
152.7229770634238
 20
-60.28672569546619
 10
152.809590953435
 20
-60.02068178791788
 10
152.8534114561602
 20
-59.71836994168293
 10
152.8534114561602
 20
-59.38687609032661
 10
152.809590953435
 20
-59.03397016860317
 10
152.7229770634245
 20
-58.66792399230064
 10
152.5955999423658
 20
-58.29731737348343
 10
152.4304452018948
 20
-57.93083701724967
 10
152.2313839292592
 20
-57.57707291254465
 10
152.0030819519074
 20
-57.24431699006047
 10
151.7508904747205
 20
-56.94036876667241
 10
151.4807206521624
 20
-56.67235253106031
 10
151.1989050359087
 20
-56.44655035661357
 10
150.9120491451081
 20
-56.26825485501914
 10
150.6268766387882
 20
-56.14164512166984
 10
150.350071718673
 20
-56.06968878136156
 10
150.0881224575905
 20
-56.05407242979928
 10
149.847168724221
 20
-56.09516210098783
 10
149.6581193918957
 20
-56.17684521339988
  0
LINE
  5
197
330
70
100
AcDbEntity
  8
0
 62
    18
420
        0
370
    25
100
AcDbLine
 10
144.4172863406055
 20
-63.66875807657016
 30
0.0
 11
144.4879220903103
 21
-63.72620390085526
 31
0.0
  0
LWPOLYLINE
  5
198
330
70
100
AcDbEntity
  8
0
 62
    18
420
        0
370
    25
100
AcDbPolyline
 90
       10
 70
     0
 43
0.0
 10
143.2334628120828
 20
-65.28423582733431
 10
143.2166903127588
 20
-65.14139714737308
 10
143.2365278581875
 20
-64.83654635714948
 10
143.3017908308574
 20
-64.50719059300896
 10
143.4231239072845
 20
-64.16867450251668
 10
143.6143449898675
 20
-63.8674719417662
 10
143.8577777003118
 20
-63.67393912277336
 10
144.1126086584279
 20
-63.60565595243251
 10
144.3644560746377
 20
-63.64567925559208
 10
144.4172863406055
 20
-63.66875807657016
  0
LINE
  5
199
330
70
100
AcDbEntity
  8
0
 62
     8
420
  8421504
370
    25
100
AcDbLine
 10
154.7194870554332
 20
-76.12938538272043
 30
0.0
 11
156.2027813213055
 21
-76.98567293580076
 31
0.0
  0
LINE
  5
19A
330
70
100
AcDbEntity
  8
0
 62
     8
420
  8421504
370
    25
100
AcDbLine
 10
145.7649556465606
 20
-49.43393666287593
 30
0.0
 11
145.7649556465606
 21
-58.42432080464167
 31
0.0
  0
SPLINE
  5
19B
330
70
100
AcDbEntity
  8
0
 62
     8
420
  8421504
370
    25
100
AcDbSpline
210
0.0
220
0.0
230
1.0
 70
     8
 71
     3
 72
     8
 73
     4
 74
     0
 42
0.0000000001
 43
0.0000000001
 40
0.0
 40
0.0
 40
0.0
 40
0.0
 40
1.0
 40
1.0
 40
1.0
 40
1.0
 10
145.7455389226525
 20
-49.40687565587232
 30
0.0
 10
145.7465889016738
 20
-49.41876305060848
 30
0.0
 10
145.754030732298
 20
-49.42913469887227
 30
0.0
 10
145.7649556465439
 20
-49.433936662874
 30
0.0
  0
SPLINE
  5
19C
330
70
100
AcDbEntity
  8
0
 62
     8
420
  8421504
370
    25
100
AcDbSpline
210
0.0
220
0.0
230
1.0
 70
     8
 71
     3
 72
     8
 73
     4
 74
     0
 42
0.0000000001
 43
0.0000000001
 40
0.0
 40
0.0
 40
0.0
 40
0.0
 40
1.0
 40
1.0
 40
1.0
 40
1.0
 10
145.8114226986062
 20
-49.35298305478968
 30
0.0
 10
145.8017008871813
 20
-49.34568802982714
 30
0.0
 10
145.7886886395897
 20
-49.34452123834208
 30
0.0
 10
145.7778240814269
 20
-49.34997031005395
 30
0.0
  0
SPLINE
  5
19D
330
70
100
AcDbEntity
  8
0
 62
     8
420
  8421504
370
    25
100
AcDbSpline
210
0.0
220
0.0
230
1.0
 70
     8
 71
     3
 72
     8
 73
     4
 74
     0
 42
0.0000000001
 43
0.0000000001
 40
0.0
 40
0.0
 40
0.0
 40
0.0
 40
1.0
 40
1.0
 40
1.0
 40
1.0
 10
156.281929640368
 20
-77.01651914727789
 30
0.0
 10
156.2919215108735
 20
-77.00969475443152
 30
0.0
 10
156.2973700300536
 20
-76.99794358487496
 30
0.0
 10
156.2961227065853
 20
-76.98590805422229
 30
0.0
  0
SPLINE
  5
19E
330
70
100
AcDbEntity
  8
0
 62
     8
420
  8421504
370
    25
100
AcDbSpline
210
0.0
220
0.0
230
1.0
 70
     8
 71
     3
 72
     8
 73
     4
 74
     0
 42
0.0000000001
 43
0.0000000001
 40
0.0
 40
0.0
 40
0.0
 40
0.0
 40
1.0
 40
1.0
 40
1.0
 40
1.0
 10
156.2027813212606
 20
-76.98567293579755
 30
0.0
 10
156.2012740026164
 20
-76.99756954203872
 30
0.0
 10
156.2065828144018
 20
-77.00930327236765
 30
0.0
 10
156.2165137121155
 20
-77.01602476923508
 30
0.0
  0
LWPOLYLINE
  5
19F
330
70
100
AcDbEntity
  8
0
 62
     8
420
  8421504
370
    25
100
AcDbPolyline
 90
       14
 70
     0
 43
0.0
 10
156.4830182972285
 20
-84.53888774012069
 10
156.4825352067039
 20
-84.55522001208269
 10
156.4441912151246
 20
-84.68360330136922
 10
156.3472688902665
 20
-84.80125369957908
 10
156.198956517599
 20
-84.89944561476399
 10
156.0102537472806
 20
-84.97089660182041
 10
155.7951558006095
 20
-85.01030746797246
 10
155.5696155082791
 20
-85.01475528942192
 10
155.3503601618736
 20
-84.98391019172771
 10
155.1536509275193
 20
-84.92005981464718
 10
154.9940768292674
 20
-84.82793964853428
 10
154.8834727478863
 20
-84.71438182474207
 10
154.8300416821551
 20
-84.58780840747335
 10
154.82569724605
 20
-84.53888774012069
  0
LWPOLYLINE
  5
1A0
330
70
100
AcDbEntity
  8
0
 62
     8
420
  8421504
370
    25
100
AcDbPolyline
 90
       14
 70
     0
 43
0.0
 10
153.7164147697395
 20
-86.13621717179348
 10
153.6763547551287
 20
-86.10806675913266
 10
153.5934426147919
 20
-85.99848681690851
 10
153.550390038338
 20
-85.84590350323095
 10
153.550390038338
 20
-85.66163322427525
 10
153.5934426147919
 20
-85.4593424638193
 10
153.6763547551287
 20
-85.25403420208737
 10
153.7929772451687
 20
-85.06093521359563
 10
153.9346607282725
 20
-84.89436676693204
 10
154.0908971886948
 20
-84.76668248190172
 10
154.2500992829404
 20
-84.68735211770065
 10
154.4004597199287
 20
-84.66225924454148
 10
154.5308269539722
 20
-84.69326488606411
 10
154.5421579278661
 20
-84.69927623274477
  0
LWPOLYLINE
  5
1A1
330
70
100
AcDbEntity
  8
0
 62
     8
420
  8421504
370
    25
100
AcDbPolyline
 90
        7
 70
     0
 43
0.0
 10
130.4039796727215
 20
-55.87860421741859
 10
130.3896261038081
 20
-55.87087323673501
 10
130.2592588697646
 20
-55.8398675952124
 10
130.1088984327764
 20
-55.86496046837157
 10
129.9496963385308
 20
-55.94429083257264
 10
129.7934598781084
 20
-56.07197511760295
 10
129.6953378913313
 20
-56.18111923218791
  0
LINE
  5
1A2
330
70
100
AcDbEntity
  8
0
 62
     8
420
  8421504
370
    25
100
AcDbLine
 10
139.1598514236568
 20
-62.237366309601
 30
0.0
 11
126.7087478527333
 21
-55.0494972161671
 31
0.0
  0
SPLINE
  5
1A3
330
70
100
AcDbEntity
  8
0
 62
     8
420
  8421504
370
    25
100
AcDbSpline
210
0.0
220
0.0
230
1.0
 70
     8
 71
     3
 72
     8
 73
     4
 74
     0
 42
0.0000000001
 43
0.0000000001
 40
0.0
 40
0.0
 40
0.0
 40
0.0
 40
1.0
 40
1.0
 40
1.0
 40
1.0
 10
141.6198281049942
 20
-66.9409565548311
 30
0.0
 10
142.0110267015414
 20
-66.66704875532611
 30
0.0
 10
142.2216392683396
 20
-66.20154514309655
 30
0.0
 10
142.1691237391698
 20
-65.72688321733649
 30
0.0
  0
LWPOLYLINE
  5
1A4
330
70
100
AcDbEntity
  8
0
 62
     8
420
  8421504
370
    25
100
AcDbPolyline
 90
       17
 70
     0
 43
0.0
 10
138.9578463034123
 20
-62.3540778490913
 10
139.0465635676519
 20
-62.30780634447278
 10
139.2748655450031
 20
-62.23864227431646
 10
139.52705702219
 20
-62.2258681326295
 10
139.7972268446825
 20
-62.26978333454798
 10
140.0790424610024
 20
-62.36935854481345
 10
140.3658983517362
 20
-62.52225980499377
 10
140.6510708581229
 20
-62.72490323912658
 10
140.9278757781713
 20
-62.9725390568284
 10
141.1898250392538
 20
-63.2593628844986
 10
141.4307787726895
 20
-63.57865181460738
 10
141.6450892271541
 20
-63.92292198530384
 10
141.8277331472635
 20
-64.2841039956524
 10
141.9744295143686
 20
-64.65373204534403
 10
142.081739889855
 20
-65.02314236620505
 10
142.147149009603
 20
-65.38367629348788
 10
142.169123739207
 20
-65.72688321735509
  0
INSERT
  5
1A7
330
70
100
AcDbEntity
  8
CAPA_BASE
100
AcDbBlockReference
  2
Block_0
 10
0.0
 20
0.0
 30
0.0
  0
INSERT
  5
1B3
330
70
100
AcDbEntity
  8
CAPA_BASE
100
AcDbBlockReference
  2
Block_1
 10
0.0
 20
0.0
 30
0.0
  0
INSERT
  5
1BF
330
70
100
AcDbEntity
  8
CAPA_BASE
100
AcDbBlockReference
  2
Block_2
 10
0.0
 20
0.0
 30
0.0
  0
ENDSEC
  0
SECTION
  2
OBJECTS
  0
DICTIONARY
  5
C
330
0
100
AcDbDictionary
281
     1
  3
ACAD_COLOR
350
63
  3
ACAD_DETAILVIEWSTYLE
350
6A
  3
ACAD_GROUP
350
D
  3
ACAD_LAYOUT
350
62
  3
ACAD_MATERIAL
350
10
  3
ACAD_MLEADERSTYLE
350
66
  3
ACAD_MLINESTYLE
350
5F
  3
ACAD_PLOTSETTINGS
350
61
  3
ACAD_PLOTSTYLENAME
350
E
  3
ACAD_SCALELIST
350
42
  3
ACAD_SECTIONVIEWSTYLE
350
68
  3
ACAD_TABLESTYLE
350
64
  3
ACAD_VISUALSTYLE
350
29
  3
ACDB_RECOMPOSE_DATA
350
1D2
  3
AcDbVariableDictionary
350
1CA
  0
DICTIONARY
  5
63
102
{ACAD_REACTORS
330
C
102
}
330
C
100
AcDbDictionary
281
     1
  0
DICTIONARY
  5
6A
102
{ACAD_REACTORS
330
C
102
}
330
C
100
AcDbDictionary
281
     1
  3
Imperial24
350
6B
  0
DICTIONARY
  5
D
102
{ACAD_REACTORS
330
C
102
}
330
C
100
AcDbDictionary
281
     1
  0
DICTIONARY
  5
62
102
{ACAD_REACTORS
330
C
102
}
330
C
100
AcDbDictionary
281
     1
  3
Layout1
350
6F
  3
Layout2
350
77
  3
Model
350
73
  0
DICTIONARY
  5
10
102
{ACAD_REACTORS
330
C
102
}
330
C
100
AcDbDictionary
281
     1
  3
ByBlock
350
19
  3
ByLayer
350
11
  3
Global
350
21
  0
DICTIONARY
  5
66
102
{ACAD_REACTORS
330
C
102
}
330
C
100
AcDbDictionary
281
     1
  3
Standard
350
67
  0
DICTIONARY
  5
5F
102
{ACAD_REACTORS
330
C
102
}
330
C
100
AcDbDictionary
281
     1
  3
Standard
350
60
  0
DICTIONARY
  5
61
102
{ACAD_REACTORS
330
C
102
}
330
C
100
AcDbDictionary
281
     1
  0
ACDBDICTIONARYWDFLT
  5
E
102
{ACAD_REACTORS
330
C
102
}
330
C
100
AcDbDictionary
281
     1
  3
Normal
350
F
100
AcDbDictionaryWithDefault
340
F
  0
DICTIONARY
  5
42
102
{ACAD_REACTORS
330
C
102
}
330
C
100
AcDbDictionary
281
     1
  3
A0
350
43
  3
A1
350
44
  3
A2
350
45
  3
A3
350
46
  3
A4
350
47
  3
A5
350
48
  3
A6
350
49
  3
A7
350
4A
  3
A8
350
4B
  3
A9
350
4C
  3
B0
350
4D
  3
B1
350
4E
  3
B2
350
4F
  3
B3
350
50
  3
B4
350
51
  3
B5
350
52
  3
B6
350
53
  0
DICTIONARY
  5
68
102
{ACAD_REACTORS
330
C
102
}
330
C
100
AcDbDictionary
281
     1
  3
Imperial24
350
69
  0
DICTIONARY
  5
64
102
{ACAD_REACTORS
330
C
102
}
330
C
100
AcDbDictionary
281
     1
  3
Standard
350
65
  0
DICTIONARY
  5
29
102
{ACAD_REACTORS
330
C
102
}
330
C
100
AcDbDictionary
281
     1
  3
2dWireframe
350
2F
  3
Basic
350
2E
  3
Brighten
350
35
  3
ColorChange
350
39
  3
Conceptual
350
32
  3
Dim
350
34
  3
EdgeColorOff
350
41
  3
Facepattern
350
38
  3
Flat
350
2A
  3
FlatWithEdges
350
2B
  3
Gouraud
350
2C
  3
GouraudWithEdges
350
2D
  3
Hidden
350
31
  3
JitterOff
350
3F
  3
Linepattern
350
37
  3
OverhangOff
350
40
  3
Realistic
350
33
  3
Shaded
350
3E
  3
Shaded with edges
350
3D
  3
Shades of Gray
350
3A
  3
Sketchy
350
3B
  3
Thicken
350
36
  3
Wireframe
350
30
  3
X-Ray
350
3C
  0
XRECORD
  5
1D2
102
{ACAD_REACTORS
330
C
102
}
330
C
100
AcDbXrecord
280
     1
 90
        1
330
65
  0
DICTIONARY
  5
1CA
102
{ACAD_REACTORS
330
C
102
}
330
C
100
AcDbDictionary
281
     1
  3
CANNOSCALE
350
1CF
  3
CMLEADERSTYLE
350
1CC
  3
CTABLESTYLE
350
1CB
  3
CVIEWDETAILSTYLE
350
1CD
  3
CVIEWSECTIONSTYLE
350
1CE
  0
ACDBDETAILVIEWSTYLE
  5
6B
102
{ACAD_REACTORS
330
6A
102
}
330
6A
100
AcDbModelDocViewStyle
 70
     0
  3
Imperial24
290
     1
300
Imperial24
 90
        0
100
AcDbDetailViewStyle
 70
     0
 71
     0
 90
        3
 71
     1
340
55
 62
   256
 40
0.24
340
0
 62
   256
 40
0.24
300

 40
0.36
280
     3
 71
     2
340
5D
 90
       25
 62
   256
 71
     3
340
55
 62
   256
 40
0.24
 90
        1
 40
0.75
 90
        1
300
%<\AcVar ViewType \f "%tc1">% %<\AcVar ViewDetailId>%\PSCALE %<\AcVar ViewScale \f "%sn">%
 71
     4
340
5D
 90
       25
 62
   256
340
5D
 90
       25
 62
   256
280
     0
  0
LAYOUT
  5
6F
102
{ACAD_REACTORS
330
62
102
}
330
62
100
AcDbPlotSettings
  1

  2

  4

  6

 40
0.0
 41
0.0
 42
0.0
 43
0.0
 44
0.0
 45
0.0
 46
0.0
 47
0.0
 48
0.0
 49
0.0
140
0.0
141
0.0
142
1.0
143
1.0
 70
   688
 72
     0
 73
     0
 74
     5
  7

 75
    16
147
1.0
 76
     0
 77
     2
 78
   300
148
0.0
149
0.0
100
AcDbLayout
  1
Layout1
 70
     1
 71
     1
 10
0.0
 20
0.0
 11
12.0
 21
9.0
 12
0.0
 22
0.0
 32
0.0
 14
0.0
 24
0.0
 34
0.0
 15
0.0
 25
0.0
 35
0.0
146
0.0
 13
0.0
 23
0.0
 33
0.0
 16
1.0
 26
0.0
 36
0.0
 17
0.0
 27
1.0
 37
0.0
 76
     0
330
6C
  0
LAYOUT
  5
77
102
{ACAD_REACTORS
330
62
102
}
330
62
100
AcDbPlotSettings
  1

  2

  4

  6

 40
0.0
 41
0.0
 42
0.0
 43
0.0
 44
0.0
 45
0.0
 46
0.0
 47
0.0
 48
0.0
 49
0.0
140
0.0
141
0.0
142
1.0
143
1.0
 70
   688
 72
     0
 73
     0
 74
     5
  7

 75
    16
147
1.0
 76
     0
 77
     2
 78
   300
148
0.0
149
0.0
100
AcDbLayout
  1
Layout2
 70
     1
 71
     2
 10
0.0
 20
0.0
 11
12.0
 21
9.0
 12
0.0
 22
0.0
 32
0.0
 14
0.0
 24
0.0
 34
0.0
 15
0.0
 25
0.0
 35
0.0
146
0.0
 13
0.0
 23
0.0
 33
0.0
 16
1.0
 26
0.0
 36
0.0
 17
0.0
 27
1.0
 37
0.0
 76
     0
330
74
  0
LAYOUT
  5
73
102
{ACAD_REACTORS
330
62
102
}
330
62
100
AcDbPlotSettings
  1

  2

  4

  6

 40
0.0
 41
0.0
 42
0.0
 43
0.0
 44
0.0
 45
0.0
 46
0.0
 47
0.0
 48
0.0
 49
0.0
140
0.0
141
0.0
142
1.0
143
1.0
 70
  1712
 72
     0
 73
     0
 74
     0
  7

 75
     0
147
1.0
 76
     0
 77
     2
 78
   300
148
0.0
149
0.0
100
AcDbLayout
  1
Model
 70
     1
 71
     0
 10
0.0
 20
0.0
 11
12.0
 21
9.0
 12
0.0
 22
0.0
 32
0.0
 14
0.0
 24
0.0
 34
0.0
 15
0.0
 25
0.0
 35
0.0
146
0.0
 13
0.0
 23
0.0
 33
0.0
 16
1.0
 26
0.0
 36
0.0
 17
0.0
 27
1.0
 37
0.0
 76
     0
330
70
  0
MATERIAL
  5
19
102
{ACAD_XDICTIONARY
360
1A
102
}
102
{ACAD_REACTORS
330
10
102
}
330
10
100
AcDbMaterial
  1
ByBlock
 72
     0
 43
0.0208333333333333
 43
0.0
 43
0.0
 43
0.0
 43
0.0
 43
0.0208333333333333
 43
0.0
 43
0.0
 43
0.0
 43
0.0
 43
1.0
 43
0.0
 43
0.0
 43
0.0
 43
0.0
 43
1.0
 77
     0
 47
0.0208333333333333
 47
0.0
 47
0.0
 47
0.0
 47
0.0
 47
0.0208333333333333
 47
0.0
 47
0.0
 47
0.0
 47
0.0
 47
1.0
 47
0.0
 47
0.0
 47
0.0
 47
0.0
 47
1.0
171
     0
 49
0.0208333333333333
 49
0.0
 49
0.0
 49
0.0
 49
0.0
 49
0.0208333333333333
 49
0.0
 49
0.0
 49
0.0
 49
0.0
 49
1.0
 49
0.0
 49
0.0
 49
0.0
 49
0.0
 49
1.0
175
     0
142
0.0208333333333333
142
0.0
142
0.0
142
0.0
142
0.0
142
0.0208333333333333
142
0.0
142
0.0
142
0.0
142
0.0
142
1.0
142
0.0
142
0.0
142
0.0
142
0.0
142
1.0
179
     0
144
0.0208333333333333
144
0.0
144
0.0
144
0.0
144
0.0
144
0.0208333333333333
144
0.0
144
0.0
144
0.0
144
0.0
144
1.0
144
0.0
144
0.0
144
0.0
144
0.0
144
1.0
147
0.0208333333333333
147
0.0
147
0.0
147
0.0
147
0.0
147
0.0208333333333333
147
0.0
147
0.0
147
0.0
147
0.0
147
1.0
147
0.0
147
0.0
147
0.0
147
0.0
147
1.0
  0
MATERIAL
  5
11
102
{ACAD_XDICTIONARY
360
12
102
}
102
{ACAD_REACTORS
330
10
102
}
330
10
100
AcDbMaterial
  1
ByLayer
 72
     0
 43
0.0208333333333333
 43
0.0
 43
0.0
 43
0.0
 43
0.0
 43
0.0208333333333333
 43
0.0
 43
0.0
 43
0.0
 43
0.0
 43
1.0
 43
0.0
 43
0.0
 43
0.0
 43
0.0
 43
1.0
 77
     0
 47
0.0208333333333333
 47
0.0
 47
0.0
 47
0.0
 47
0.0
 47
0.0208333333333333
 47
0.0
 47
0.0
 47
0.0
 47
0.0
 47
1.0
 47
0.0
 47
0.0
 47
0.0
 47
0.0
 47
1.0
171
     0
 49
0.0208333333333333
 49
0.0
 49
0.0
 49
0.0
 49
0.0
 49
0.0208333333333333
 49
0.0
 49
0.0
 49
0.0
 49
0.0
 49
1.0
 49
0.0
 49
0.0
 49
0.0
 49
0.0
 49
1.0
175
     0
142
0.0208333333333333
142
0.0
142
0.0
142
0.0
142
0.0
142
0.0208333333333333
142
0.0
142
0.0
142
0.0
142
0.0
142
1.0
142
0.0
142
0.0
142
0.0
142
0.0
142
1.0
179
     0
144
0.0208333333333333
144
0.0
144
0.0
144
0.0
144
0.0
144
0.0208333333333333
144
0.0
144
0.0
144
0.0
144
0.0
144
1.0
144
0.0
144
0.0
144
0.0
144
0.0
144
1.0
147
0.0208333333333333
147
0.0
147
0.0
147
0.0
147
0.0
147
0.0208333333333333
147
0.0
147
0.0
147
0.0
147
0.0
147
1.0
147
0.0
147
0.0
147
0.0
147
0.0
147
1.0
  0
MATERIAL
  5
21
102
{ACAD_XDICTIONARY
360
22
102
}
102
{ACAD_REACTORS
330
10
102
}
330
10
100
AcDbMaterial
  1
Global
 72
     0
 43
0.0208333333333333
 43
0.0
 43
0.0
 43
0.0
 43
0.0
 43
0.0208333333333333
 43
0.0
 43
0.0
 43
0.0
 43
0.0
 43
1.0
 43
0.0
 43
0.0
 43
0.0
 43
0.0
 43
1.0
 77
     0
 47
0.0208333333333333
 47
0.0
 47
0.0
 47
0.0
 47
0.0
 47
0.0208333333333333
 47
0.0
 47
0.0
 47
0.0
 47
0.0
 47
1.0
 47
0.0
 47
0.0
 47
0.0
 47
0.0
 47
1.0
171
     0
 49
0.0208333333333333
 49
0.0
 49
0.0
 49
0.0
 49
0.0
 49
0.0208333333333333
 49
0.0
 49
0.0
 49
0.0
 49
0.0
 49
1.0
 49
0.0
 49
0.0
 49
0.0
 49
0.0
 49
1.0
175
     0
142
0.0208333333333333
142
0.0
142
0.0
142
0.0
142
0.0
142
0.0208333333333333
142
0.0
142
0.0
142
0.0
142
0.0
142
1.0
142
0.0
142
0.0
142
0.0
142
0.0
142
1.0
179
     0
144
0.0208333333333333
144
0.0
144
0.0
144
0.0
144
0.0
144
0.0208333333333333
144
0.0
144
0.0
144
0.0
144
0.0
144
1.0
144
0.0
144
0.0
144
0.0
144
0.0
144
1.0
147
0.0208333333333333
147
0.0
147
0.0
147
0.0
147
0.0
147
0.0208333333333333
147
0.0
147
0.0
147
0.0
147
0.0
147
1.0
147
0.0
147
0.0
147
0.0
147
0.0
147
1.0
  0
MLEADERSTYLE
  5
67
102
{ACAD_REACTORS
330
66
102
}
330
66
100
AcDbMLeaderStyle
179
     2
170
     2
171
     1
172
     0
 90
        2
 40
0.0
 41
0.0
173
     1
 91
-1056964608
340
5B
 92
       -2
290
     1
 42
0.09
291
     1
 43
0.36
  3
Standard
 44
0.18
300

342
55
174
     1
178
     6
175
     1
176
     0
 93
-1056964608
 45
0.18
292
     0
297
     0
 46
0.18
 94
-1056964608
 47
1.0
 49
1.0
140
1.0
293
     1
141
0.0
294
     1
177
     0
142
1.0
295
     1
296
     0
143
0.125
271
     0
272
     9
273
     9
298
     1
  0
MLINESTYLE
  5
60
102
{ACAD_REACTORS
330
5F
102
}
330
5F
100
AcDbMlineStyle
  2
STANDARD
 70
     0
  3

 62
   256
 51
90.0
 52
90.0
 71
     2
 49
0.5
 62
   256
  6
BYLAYER
 49
-0.5
 62
   256
  6
BYLAYER
  0
ACDBPLACEHOLDER
  5
F
102
{ACAD_REACTORS
330
E
102
}
330
E
  0
SCALE
  5
43
102
{ACAD_REACTORS
330
42
102
}
330
42
100
AcDbScale
 70
     0
300
1:1
140
1.0
141
1.0
290
     1
  0
SCALE
  5
44
102
{ACAD_REACTORS
330
42
102
}
330
42
100
AcDbScale
 70
     0
300
1/128" = 1'-0"
140
0.0078125
141
12.0
290
     0
  0
SCALE
  5
45
102
{ACAD_REACTORS
330
42
102
}
330
42
100
AcDbScale
 70
     0
300
1/64" = 1'-0"
140
0.015625
141
12.0
290
     0
  0
SCALE
  5
46
102
{ACAD_REACTORS
330
42
102
}
330
42
100
AcDbScale
 70
     0
300
1/32" = 1'-0"
140
0.03125
141
12.0
290
     0
  0
SCALE
  5
47
102
{ACAD_REACTORS
330
42
102
}
330
42
100
AcDbScale
 70
     0
300
1/16" = 1'-0"
140
0.0625
141
12.0
290
     0
  0
SCALE
  5
48
102
{ACAD_REACTORS
330
42
102
}
330
42
100
AcDbScale
 70
     0
300
3/32" = 1'-0"
140
0.09375
141
12.0
290
     0
  0
SCALE
  5
49
102
{ACAD_REACTORS
330
42
102
}
330
42
100
AcDbScale
 70
     0
300
1/8" = 1'-0"
140
0.125
141
12.0
290
     0
  0
SCALE
  5
4A
102
{ACAD_REACTORS
330
42
102
}
330
42
100
AcDbScale
 70
     0
300
3/16" = 1'-0"
140
0.1875
141
12.0
290
     0
  0
SCALE
  5
4B
102
{ACAD_REACTORS
330
42
102
}
330
42
100
AcDbScale
 70
     0
300
1/4" = 1'-0"
140
0.25
141
12.0
290
     0
  0
SCALE
  5
4C
102
{ACAD_REACTORS
330
42
102
}
330
42
100
AcDbScale
 70
     0
300
3/8" = 1'-0"
140
0.375
141
12.0
290
     0
  0
SCALE
  5
4D
102
{ACAD_REACTORS
330
42
102
}
330
42
100
AcDbScale
 70
     0
300
1/2" = 1'-0"
140
0.5
141
12.0
290
     0
  0
SCALE
  5
4E
102
{ACAD_REACTORS
330
42
102
}
330
42
100
AcDbScale
 70
     0
300
3/4" = 1'-0"
140
0.75
141
12.0
290
     0
  0
SCALE
  5
4F
102
{ACAD_REACTORS
330
42
102
}
330
42
100
AcDbScale
 70
     0
300
1" = 1'-0"
140
1.0
141
12.0
290
     0
  0
SCALE
  5
50
102
{ACAD_REACTORS
330
42
102
}
330
42
100
AcDbScale
 70
     0
300
1-1/2" = 1'-0"
140
1.5
141
12.0
290
     0
  0
SCALE
  5
51
102
{ACAD_REACTORS
330
42
102
}
330
42
100
AcDbScale
 70
     0
300
3" = 1'-0"
140
3.0
141
12.0
290
     0
  0
SCALE
  5
52
102
{ACAD_REACTORS
330
42
102
}
330
42
100
AcDbScale
 70
     0
300
6" = 1'-0"
140
6.0
141
12.0
290
     0
  0
SCALE
  5
53
102
{ACAD_REACTORS
330
42
102
}
330
42
100
AcDbScale
 70
     0
300
1'-0" = 1'-0"
140
12.0
141
12.0
290
     0
  0
ACDBSECTIONVIEWSTYLE
  5
69
102
{ACAD_REACTORS
330
68
102
}
330
68
100
AcDbModelDocViewStyle
 70
     0
  3
Imperial24
290
     1
300
Imperial24
 90
        0
100
AcDbSectionViewStyle
 70
     0
 71
     0
 90
       78
 71
     1
340
55
 62
   256
 40
0.24
340
0
340
0
 62
   256
 40
0.24
300
I, O, Q, S, X, Z
 40
0.48
 90
        3
 40
0.18
 90
        1
 71
     2
340
5D
 90
       25
 62
   256
340
5D
 90
       50
 62
   256
 40
0.24
 40
0.0
 40
0.24
 71
     3
340
55
 62
   256
 40
0.24
 90
        1
 40
0.75
 90
        1
300
%<\AcVar ViewType \f "%tc1">% %<\AcVar ViewSectionStartId>%-%<\AcVar ViewSectionEndId>%\PSCALE %<\AcVar ViewScale \f "%sn">%
 71
     4
 62
   256
 62
   257
300
ANSI31
 40
1.0
 90
        0
290
     0
290
     0
 90
        6
 40
0.0
 40
1.570796326794896
 40
0.2617993877991494
 40
1.308996938995747
 40
-0.2617993877991494
 40
1.832595714594046
  0
TABLESTYLE
  5
65
102
{ACAD_XDICTIONARY
360
1D0
102
}
102
{ACAD_REACTORS
330
64
102
}
330
64
100
AcDbTableStyle
280
     0
  3
Standard
 70
     0
 71
     0
 40
0.06
 41
0.06
280
     0
281
     0
  7
Standard
140
0.18
170
     2
 62
     0
 63
     7
283
     0
 90
      512
 91
        0
  1

274
    -2
284
     1
 64
     0
275
    -2
285
     1
 65
     0
276
    -2
286
     1
 66
     0
277
    -2
287
     1
 67
     0
278
    -2
288
     1
 68
     0
279
    -2
289
     1
 69
     0
  7
Standard
140
0.25
170
     5
 62
     0
 63
     7
283
     0
 90
      512
 91
        0
  1

274
    -2
284
     1
 64
     0
275
    -2
285
     1
 65
     0
276
    -2
286
     1
 66
     0
277
    -2
287
     1
 67
     0
278
    -2
288
     1
 68
     0
279
    -2
289
     1
 69
     0
  7
Standard
140
0.18
170
     5
 62
     0
 63
     7
283
     0
 90
      512
 91
        0
  1

274
    -2
284
     1
 64
     0
275
    -2
285
     1
 65
     0
276
    -2
286
     1
 66
     0
277
    -2
287
     1
 67
     0
278
    -2
288
     1
 68
     0
279
    -2
289
     1
 69
     0
  0
VISUALSTYLE
  5
2F
102
{ACAD_REACTORS
330
29
102
}
330
29
100
AcDbVisualStyle
  2
2dWireframe
 70
     4
177
     3
291
     0
 70
    58
 90
        0
176
     1
 90
        2
176
     1
 90
        0
176
     1
 90
        0
176
     1
 40
0.6
176
     1
 40
30.0
176
     1
 62
     7
420
 16777215
176
     1
 90
        1
176
     1
 90
        4
176
     1
 62
     7
176
     1
 62
   257
176
     1
 90
        1
176
     1
 90
        1
176
     1
 40
1.0
176
     1
 90
        0
176
     1
 62
   257
176
     1
 40
1.0
176
     1
 90
        1
176
     1
 90
        6
176
     1
 90
        2
176
     1
 62
     7
176
     1
 90
        5
176
     1
 90
        0
176
     1
 90
        0
176
     1
290
     0
176
     1
 90
        1
176
     1
 40
0.0
176
     1
 90
        0
176
     1
290
     1
176
     1
290
     1
176
     1
290
     0
176
     1
290
     0
176
     1
290
     0
176
     1
290
     0
176
     1
290
     0
176
     1
290
     0
176
     1
290
     0
176
     1
 90
       50
176
     1
 40
0.0
176
     1
 40
1.0
176
     1
 90
        0
176
     1
 62
    18
420
        0
176
     1
 90
       50
176
     1
 90
        3
176
     1
 62
     5
420
      255
176
     1
290
     0
176
     1
 90
       50
176
     1
 90
       50
176
     1
 90
       50
176
     1
290
     0
176
     1
 90
       50
176
     1
 62
   256
176
     0
 40
1.0
176
     0
 90
        2
176
     1
  1
strokes_ogs.tif
176
     1
290
     0
176
     1
 40
1.0
176
     1
 40
1.0
176
     1
  0
VISUALSTYLE
  5
2E
102
{ACAD_REACTORS
330
29
102
}
330
29
100
AcDbVisualStyle
  2
Basic
 70
     7
177
     3
291
     1
 70
    58
 90
        1
176
     1
 90
        0
176
     1
 90
        1
176
     1
 90
        0
176
     1
 40
0.6
176
     1
 40
30.0
176
     1
 62
     7
420
 16777215
176
     1
 90
        0
176
     1
 90
        4
176
     1
 62
     7
176
     1
 62
   257
176
     1
 90
        1
176
     1
 90
        1
176
     1
 40
1.0
176
     1
 90
        8
176
     1
 62
     7
176
     1
 40
1.0
176
     1
 90
        1
176
     1
 90
        6
176
     1
 90
        2
176
     1
 62
     7
176
     1
 90
        5
176
     1
 90
        0
176
     1
 90
        0
176
     1
290
     0
176
     1
 90
        1
176
     1
 40
0.0
176
     1
 90
        0
176
     1
290
     0
176
     1
290
     1
176
     1
290
     1
176
     1
290
     0
176
     1
290
     0
176
     1
290
     0
176
     1
290
     0
176
     1
290
     0
176
     1
290
     0
176
     1
 90
       50
176
     1
 40
0.0
176
     1
 40
1.0
176
     1
 90
        0
176
     1
 62
    18
420
        0
176
     1
 90
       50
176
     1
 90
        3
176
     1
 62
     5
420
      255
176
     1
290
     0
176
     1
 90
       50
176
     1
 90
       50
176
     1
 90
       50
176
     1
290
     0
176
     1
 90
       50
176
     1
 62
   256
176
     0
 40
1.0
176
     0
 90
        2
176
     1
  1
strokes_ogs.tif
176
     1
290
     0
176
     1
 40
1.0
176
     1
 40
1.0
176
     1
  0
VISUALSTYLE
  5
35
102
{ACAD_REACTORS
330
29
102
}
330
29
100
AcDbVisualStyle
  2
Brighten
 70
    12
177
     3
291
     1
 70
    58
 90
        2
176
     1
 90
        2
176
     1
 90
        0
176
     1
 90
        0
176
     1
 40
0.6
176
     1
 40
30.0
176
     1
 62
     7
420
 16777215
176
     1
 90
        1
176
     1
 90
        4
176
     1
 62
     7
176
     1
 62
   257
176
     1
 90
        1
176
     1
 90
        1
176
     1
 40
1.0
176
     1
 90
        8
176
     1
 62
     7
176
     1
 40
1.0
176
     1
 90
        1
176
     1
 90
        6
176
     1
 90
        2
176
     1
 62
     7
176
     1
 90
        5
176
     1
 90
        0
176
     1
 90
        0
176
     1
290
     0
176
     1
 90
        1
176
     1
 40
50.0
176
     1
 90
        0
176
     1
290
     0
176
     1
290
     1
176
     1
290
     1
176
     1
290
     0
176
     1
290
     0
176
     1
290
     0
176
     1
290
     0
176
     1
290
     0
176
     1
290
     0
176
     1
 90
       50
176
     1
 40
0.0
176
     1
 40
1.0
176
     1
 90
        0
176
     1
 62
    18
420
        0
176
     1
 90
       50
176
     1
 90
        3
176
     1
 62
     5
420
      255
176
     1
290
     0
176
     1
 90
       50
176
     1
 90
       50
176
     1
 90
       50
176
     1
290
     0
176
     1
 90
       50
176
     1
 62
   256
176
     0
 40
1.0
176
     0
 90
        2
176
     1
  1
strokes_ogs.tif
176
     1
290
     0
176
     1
 40
1.0
176
     1
 40
1.0
176
     1
  0
VISUALSTYLE
  5
39
102
{ACAD_REACTORS
330
29
102
}
330
29
100
AcDbVisualStyle
  2
ColorChange
 70
    16
177
     3
291
     1
 70
    58
 90
        2
176
     1
 90
        2
176
     1
 90
        3
176
     1
 90
        0
176
     1
 40
0.6
176
     1
 40
30.0
176
     1
 62
     8
420
  8421504
176
     1
 90
        1
176
     1
 90
        4
176
     1
 62
     7
176
     1
 62
   257
176
     1
 90
        1
176
     1
 90
        1
176
     1
 40
1.0
176
     1
 90
        8
176
     1
 62
     8
420
  8421504
176
     1
 40
1.0
176
     1
 90
        1
176
     1
 90
        6
176
     1
 90
        2
176
     1
 62
     7
176
     1
 90
        5
176
     1
 90
        0
176
     1
 90
        0
176
     1
290
     0
176
     1
 90
        1
176
     1
 40
0.0
176
     1
 90
        0
176
     1
290
     0
176
     1
290
     1
176
     1
290
     1
176
     1
290
     0
176
     1
290
     0
176
     1
290
     0
176
     1
290
     0
176
     1
290
     0
176
     1
290
     0
176
     1
 90
       50
176
     1
 40
0.0
176
     1
 40
1.0
176
     1
 90
        0
176
     1
 62
    18
420
        0
176
     1
 90
       50
176
     1
 90
        3
176
     1
 62
     5
420
      255
176
     1
290
     0
176
     1
 90
       50
176
     1
 90
       50
176
     1
 90
       50
176
     1
290
     0
176
     1
 90
       50
176
     1
 62
   256
176
     0
 40
1.0
176
     0
 90
        2
176
     1
  1
strokes_ogs.tif
176
     1
290
     0
176
     1
 40
1.0
176
     1
 40
1.0
176
     1
  0
VISUALSTYLE
  5
32
102
{ACAD_REACTORS
330
29
102
}
330
29
100
AcDbVisualStyle
  2
Conceptual
 70
     9
177
     3
291
     0
 70
    58
 90
        3
176
     1
 90
        2
176
     1
 90
        0
176
     1
 90
        0
176
     1
 40
0.6
176
     1
 40
30.0
176
     1
 62
     7
420
 16777215
176
     1
 90
        2
176
     1
 90
        2
176
     1
 62
     7
176
     1
 62
   257
176
     1
 90
        1
176
     1
 90
        1
176
     1
 40
179.0
176
     1
 90
        8
176
     1
 62
     7
176
     1
 40
1.0
176
     1
 90
        1
176
     1
 90
        6
176
     1
 90
        2
176
     1
 62
     7
176
     1
 90
        3
176
     1
 90
        0
176
     1
 90
        0
176
     1
290
     0
176
     1
 90
        1
176
     1
 40
0.0
176
     1
 90
        0
176
     1
290
     0
176
     1
290
     1
176
     1
290
     1
176
     1
290
     0
176
     1
290
     0
176
     1
290
     0
176
     1
290
     0
176
     1
290
     0
176
     1
290
     0
176
     1
 90
       50
176
     1
 40
0.0
176
     1
 40
1.0
176
     1
 90
        0
176
     1
 62
    18
420
        0
176
     1
 90
       50
176
     1
 90
        3
176
     1
 62
     5
420
      255
176
     1
290
     0
176
     1
 90
       50
176
     1
 90
       50
176
     1
 90
       50
176
     1
290
     0
176
     1
 90
       50
176
     1
 62
   256
176
     0
 40
1.0
176
     0
 90
        2
176
     1
  1
strokes_ogs.tif
176
     1
290
     0
176
     1
 40
1.0
176
     1
 40
1.0
176
     1
  0
VISUALSTYLE
  5
34
102
{ACAD_REACTORS
330
29
102
}
330
29
100
AcDbVisualStyle
  2
Dim
 70
    11
177
     3
291
     1
 70
    58
 90
        2
176
     1
 90
        2
176
     1
 90
        0
176
     1
 90
        0
176
     1
 40
0.6
176
     1
 40
30.0
176
     1
 62
     7
420
 16777215
176
     1
 90
        1
176
     1
 90
        4
176
     1
 62
     7
176
     1
 62
   257
176
     1
 90
        1
176
     1
 90
        1
176
     1
 40
1.0
176
     1
 90
        8
176
     1
 62
     7
176
     1
 40
1.0
176
     1
 90
        1
176
     1
 90
        6
176
     1
 90
        2
176
     1
 62
     7
176
     1
 90
        5
176
     1
 90
        0
176
     1
 90
        0
176
     1
290
     0
176
     1
 90
        1
176
     1
 40
-50.0
176
     1
 90
        0
176
     1
290
     0
176
     1
290
     1
176
     1
290
     1
176
     1
290
     0
176
     1
290
     0
176
     1
290
     0
176
     1
290
     0
176
     1
290
     0
176
     1
290
     0
176
     1
 90
       50
176
     1
 40
0.0
176
     1
 40
1.0
176
     1
 90
        0
176
     1
 62
    18
420
        0
176
     1
 90
       50
176
     1
 90
        3
176
     1
 62
     5
420
      255
176
     1
290
     0
176
     1
 90
       50
176
     1
 90
       50
176
     1
 90
       50
176
     1
290
     0
176
     1
 90
       50
176
     1
 62
   256
176
     0
 40
1.0
176
     0
 90
        2
176
     1
  1
strokes_ogs.tif
176
     1
290
     0
176
     1
 40
1.0
176
     1
 40
1.0
176
     1
  0
VISUALSTYLE
  5
41
102
{ACAD_REACTORS
330
29
102
}
330
29
100
AcDbVisualStyle
  2
EdgeColorOff
 70
    22
177
     3
291
     1
 70
    58
 90
        2
176
     0
 90
        2
176
     0
 90
        0
176
     0
 90
        0
176
     0
 40
0.6
176
     0
 40
30.0
176
     0
 62
     7
420
 16777215
176
     0
 90
        1
176
     0
 90
        4
176
     0
 62
     7
176
     0
 62
   257
176
     0
 90
        1
176
     0
 90
        1
176
     0
 40
1.0
176
     0
 90
        8
176
     2
 62
     7
176
     0
 40
1.0
176
     0
 90
        1
176
     0
 90
        6
176
     0
 90
        2
176
     0
 62
     7
176
     0
 90
        5
176
     0
 90
        0
176
     0
 90
        0
176
     0
290
     0
176
     0
 90
        1
176
     0
 40
0.0
176
     0
 90
        0
176
     0
290
     0
176
     0
290
     1
176
     0
290
     1
176
     0
290
     0
176
     0
290
     0
176
     0
290
     0
176
     0
290
     0
176
     0
290
     0
176
     0
290
     0
176
     0
 90
       50
176
     0
 40
0.0
176
     0
 40
1.0
176
     0
 90
        0
176
     0
 62
    18
420
        0
176
     0
 90
       50
176
     0
 90
        3
176
     0
 62
     5
420
      255
176
     0
290
     0
176
     0
 90
       50
176
     0
 90
       50
176
     0
 90
       50
176
     0
290
     0
176
     0
 90
       50
176
     0
 62
   256
176
     0
 40
1.0
176
     0
 90
        2
176
     0
  1
strokes_ogs.tif
176
     0
290
     0
176
     0
 40
1.0
176
     0
 40
1.0
176
     0
  0
VISUALSTYLE
  5
38
102
{ACAD_REACTORS
330
29
102
}
330
29
100
AcDbVisualStyle
  2
Facepattern
 70
    15
177
     3
291
     1
 70
    58
 90
        2
176
     1
 90
        2
176
     1
 90
        0
176
     1
 90
        0
176
     1
 40
0.6
176
     1
 40
30.0
176
     1
 62
     7
420
 16777215
176
     1
 90
        1
176
     1
 90
        4
176
     1
 62
     7
176
     1
 62
   257
176
     1
 90
        1
176
     1
 90
        1
176
     1
 40
1.0
176
     1
 90
        8
176
     1
 62
     7
176
     1
 40
1.0
176
     1
 90
        1
176
     1
 90
        6
176
     1
 90
        2
176
     1
 62
     7
176
     1
 90
        5
176
     1
 90
        0
176
     1
 90
        0
176
     1
290
     0
176
     1
 90
        1
176
     1
 40
0.0
176
     1
 90
        0
176
     1
290
     0
176
     1
290
     1
176
     1
290
     1
176
     1
290
     0
176
     1
290
     0
176
     1
290
     0
176
     1
290
     0
176
     1
290
     0
176
     1
290
     0
176
     1
 90
       50
176
     1
 40
0.0
176
     1
 40
1.0
176
     1
 90
        0
176
     1
 62
    18
420
        0
176
     1
 90
       50
176
     1
 90
        3
176
     1
 62
     5
420
      255
176
     1
290
     0
176
     1
 90
       50
176
     1
 90
       50
176
     1
 90
       50
176
     1
290
     0
176
     1
 90
       50
176
     1
 62
   256
176
     0
 40
1.0
176
     0
 90
        2
176
     1
  1
strokes_ogs.tif
176
     1
290
     0
176
     1
 40
1.0
176
     1
 40
1.0
176
     1
  0
VISUALSTYLE
  5
2A
102
{ACAD_REACTORS
330
29
102
}
330
29
100
AcDbVisualStyle
  2
Flat
 70
     0
177
     3
291
     1
 70
    58
 90
        2
176
     1
 90
        1
176
     1
 90
        1
176
     1
 90
        2
176
     1
 40
0.6
176
     1
 40
30.0
176
     1
 62
     7
420
 16777215
176
     1
 90
        0
176
     1
 90
        0
176
     1
 62
     7
176
     1
 62
   257
176
     1
 90
        1
176
     1
 90
        1
176
     1
 40
1.0
176
     1
 90
        8
176
     1
 62
     7
176
     1
 40
1.0
176
     1
 90
        1
176
     1
 90
        6
176
     1
 90
        2
176
     1
 62
     7
176
     1
 90
        5
176
     1
 90
        0
176
     1
 90
        0
176
     1
290
     0
176
     1
 90
       13
176
     1
 40
0.0
176
     1
 90
        0
176
     1
290
     0
176
     1
290
     1
176
     1
290
     1
176
     1
290
     0
176
     1
290
     0
176
     1
290
     0
176
     1
290
     0
176
     1
290
     0
176
     1
290
     0
176
     1
 90
       50
176
     1
 40
0.0
176
     1
 40
1.0
176
     1
 90
        0
176
     1
 62
    18
420
        0
176
     1
 90
       50
176
     1
 90
        3
176
     1
 62
     5
420
      255
176
     1
290
     0
176
     1
 90
       50
176
     1
 90
       50
176
     1
 90
       50
176
     1
290
     0
176
     1
 90
       50
176
     1
 62
   256
176
     0
 40
1.0
176
     0
 90
        2
176
     1
  1
strokes_ogs.tif
176
     1
290
     0
176
     1
 40
1.0
176
     1
 40
1.0
176
     1
  0
VISUALSTYLE
  5
2B
102
{ACAD_REACTORS
330
29
102
}
330
29
100
AcDbVisualStyle
  2
FlatWithEdges
 70
     1
177
     3
291
     1
 70
    58
 90
        2
176
     1
 90
        1
176
     1
 90
        1
176
     1
 90
        2
176
     1
 40
0.6
176
     1
 40
30.0
176
     1
 62
     7
420
 16777215
176
     1
 90
        1
176
     1
 90
        0
176
     1
 62
     7
176
     1
 62
   257
176
     1
 90
        1
176
     1
 90
        1
176
     1
 40
1.0
176
     1
 90
        0
176
     1
 62
   257
176
     1
 40
1.0
176
     1
 90
        1
176
     1
 90
        6
176
     1
 90
        2
176
     1
 62
     7
176
     1
 90
        5
176
     1
 90
        0
176
     1
 90
        0
176
     1
290
     0
176
     1
 90
       13
176
     1
 40
0.0
176
     1
 90
        0
176
     1
290
     0
176
     1
290
     1
176
     1
290
     1
176
     1
290
     0
176
     1
290
     0
176
     1
290
     0
176
     1
290
     0
176
     1
290
     0
176
     1
290
     0
176
     1
 90
       50
176
     1
 40
0.0
176
     1
 40
1.0
176
     1
 90
        0
176
     1
 62
    18
420
        0
176
     1
 90
       50
176
     1
 90
        3
176
     1
 62
     5
420
      255
176
     1
290
     0
176
     1
 90
       50
176
     1
 90
       50
176
     1
 90
       50
176
     1
290
     0
176
     1
 90
       50
176
     1
 62
   256
176
     0
 40
1.0
176
     0
 90
        2
176
     1
  1
strokes_ogs.tif
176
     1
290
     0
176
     1
 40
1.0
176
     1
 40
1.0
176
     1
  0
VISUALSTYLE
  5
2C
102
{ACAD_REACTORS
330
29
102
}
330
29
100
AcDbVisualStyle
  2
Gouraud
 70
     2
177
     3
291
     1
 70
    58
 90
        2
176
     1
 90
        2
176
     1
 90
        1
176
     1
 90
        2
176
     1
 40
0.6
176
     1
 40
30.0
176
     1
 62
     7
420
 16777215
176
     1
 90
        0
176
     1
 90
        0
176
     1
 62
     7
176
     1
 62
   257
176
     1
 90
        1
176
     1
 90
        1
176
     1
 40
1.0
176
     1
 90
        0
176
     1
 62
     7
176
     1
 40
1.0
176
     1
 90
        1
176
     1
 90
        6
176
     1
 90
        2
176
     1
 62
     7
176
     1
 90
        5
176
     1
 90
        0
176
     1
 90
        0
176
     1
290
     0
176
     1
 90
       13
176
     1
 40
0.0
176
     1
 90
        0
176
     1
290
     0
176
     1
290
     1
176
     1
290
     1
176
     1
290
     0
176
     1
290
     0
176
     1
290
     0
176
     1
290
     0
176
     1
290
     0
176
     1
290
     0
176
     1
 90
       50
176
     1
 40
0.0
176
     1
 40
1.0
176
     1
 90
        0
176
     1
 62
    18
420
        0
176
     1
 90
       50
176
     1
 90
        3
176
     1
 62
     5
420
      255
176
     1
290
     0
176
     1
 90
       50
176
     1
 90
       50
176
     1
 90
       50
176
     1
290
     0
176
     1
 90
       50
176
     1
 62
   256
176
     0
 40
1.0
176
     0
 90
        2
176
     1
  1
strokes_ogs.tif
176
     1
290
     0
176
     1
 40
1.0
176
     1
 40
1.0
176
     1
  0
VISUALSTYLE
  5
2D
102
{ACAD_REACTORS
330
29
102
}
330
29
100
AcDbVisualStyle
  2
GouraudWithEdges
 70
     3
177
     3
291
     1
 70
    58
 90
        2
176
     1
 90
        2
176
     1
 90
        1
176
     1
 90
        2
176
     1
 40
0.6
176
     1
 40
30.0
176
     1
 62
     7
420
 16777215
176
     1
 90
        1
176
     1
 90
        0
176
     1
 62
     7
176
     1
 62
   257
176
     1
 90
        1
176
     1
 90
        1
176
     1
 40
1.0
176
     1
 90
        0
176
     1
 62
   257
176
     1
 40
1.0
176
     1
 90
        1
176
     1
 90
        6
176
     1
 90
        2
176
     1
 62
     7
176
     1
 90
        5
176
     1
 90
        0
176
     1
 90
        0
176
     1
290
     0
176
     1
 90
       13
176
     1
 40
0.0
176
     1
 90
        0
176
     1
290
     0
176
     1
290
     1
176
     1
290
     1
176
     1
290
     0
176
     1
290
     0
176
     1
290
     0
176
     1
290
     0
176
     1
290
     0
176
     1
290
     0
176
     1
 90
       50
176
     1
 40
0.0
176
     1
 40
1.0
176
     1
 90
        0
176
     1
 62
    18
420
        0
176
     1
 90
       50
176
     1
 90
        3
176
     1
 62
     5
420
      255
176
     1
290
     0
176
     1
 90
       50
176
     1
 90
       50
176
     1
 90
       50
176
     1
290
     0
176
     1
 90
       50
176
     1
 62
   256
176
     0
 40
1.0
176
     0
 90
        2
176
     1
  1
strokes_ogs.tif
176
     1
290
     0
176
     1
 40
1.0
176
     1
 40
1.0
176
     1
  0
VISUALSTYLE
  5
31
102
{ACAD_REACTORS
330
29
102
}
330
29
100
AcDbVisualStyle
  2
Hidden
 70
     6
177
     3
291
     0
 70
    58
 90
        1
176
     1
 90
        2
176
     1
 90
        2
176
     1
 90
        0
176
     1
 40
0.6
176
     1
 40
30.0
176
     1
 62
     7
420
 16777215
176
     1
 90
        2
176
     1
 90
        2
176
     1
 62
     7
176
     1
 62
   257
176
     1
 90
        2
176
     1
 90
        1
176
     1
 40
40.0
176
     1
 90
        0
176
     1
 62
   257
176
     1
 40
1.0
176
     1
 90
        1
176
     1
 90
        6
176
     1
 90
        2
176
     1
 62
     7
176
     1
 90
        3
176
     1
 90
        0
176
     1
 90
        0
176
     1
290
     0
176
     1
 90
        1
176
     1
 40
0.0
176
     1
 90
        0
176
     1
290
     0
176
     1
290
     1
176
     1
290
     1
176
     1
290
     0
176
     1
290
     0
176
     1
290
     0
176
     1
290
     0
176
     1
290
     0
176
     1
290
     0
176
     1
 90
       50
176
     1
 40
0.0
176
     1
 40
1.0
176
     1
 90
        0
176
     1
 62
    18
420
        0
176
     1
 90
       50
176
     1
 90
        3
176
     1
 62
     5
420
      255
176
     1
290
     0
176
     1
 90
       50
176
     1
 90
       50
176
     1
 90
       50
176
     1
290
     0
176
     1
 90
       50
176
     1
 62
   256
176
     0
 40
1.0
176
     0
 90
        2
176
     1
  1
strokes_ogs.tif
176
     1
290
     0
176
     1
 40
1.0
176
     1
 40
1.0
176
     1
  0
VISUALSTYLE
  5
3F
102
{ACAD_REACTORS
330
29
102
}
330
29
100
AcDbVisualStyle
  2
JitterOff
 70
    20
177
     3
291
     1
 70
    58
 90
        2
176
     0
 90
        2
176
     0
 90
        0
176
     0
 90
        0
176
     0
 40
0.6
176
     0
 40
30.0
176
     0
 62
     7
420
 16777215
176
     0
 90
        1
176
     0
 90
        4
176
     0
 62
     7
176
     0
 62
   257
176
     0
 90
        1
176
     0
 90
        1
176
     0
 40
1.0
176
     0
 90
       10
176
     2
 62
     7
176
     0
 40
1.0
176
     0
 90
        1
176
     0
 90
        6
176
     0
 90
        2
176
     0
 62
     7
176
     0
 90
        5
176
     0
 90
        0
176
     0
 90
        0
176
     0
290
     0
176
     0
 90
        1
176
     0
 40
0.0
176
     0
 90
        0
176
     0
290
     0
176
     0
290
     1
176
     0
290
     1
176
     0
290
     0
176
     0
290
     0
176
     0
290
     0
176
     0
290
     0
176
     0
290
     0
176
     0
290
     0
176
     0
 90
       50
176
     0
 40
0.0
176
     0
 40
1.0
176
     0
 90
        0
176
     0
 62
    18
420
        0
176
     0
 90
       50
176
     0
 90
        3
176
     0
 62
     5
420
      255
176
     0
290
     0
176
     0
 90
       50
176
     0
 90
       50
176
     0
 90
       50
176
     0
290
     0
176
     0
 90
       50
176
     0
 62
   256
176
     0
 40
1.0
176
     0
 90
        2
176
     0
  1
strokes_ogs.tif
176
     0
290
     0
176
     0
 40
1.0
176
     0
 40
1.0
176
     0
  0
VISUALSTYLE
  5
37
102
{ACAD_REACTORS
330
29
102
}
330
29
100
AcDbVisualStyle
  2
Linepattern
 70
    14
177
     3
291
     1
 70
    58
 90
        2
176
     1
 90
        2
176
     1
 90
        0
176
     1
 90
        0
176
     1
 40
0.6
176
     1
 40
30.0
176
     1
 62
     7
420
 16777215
176
     1
 90
        1
176
     1
 90
        4
176
     1
 62
     7
176
     1
 62
   257
176
     1
 90
        7
176
     1
 90
        7
176
     1
 40
1.0
176
     1
 90
        8
176
     1
 62
     7
176
     1
 40
1.0
176
     1
 90
        1
176
     1
 90
        6
176
     1
 90
        2
176
     1
 62
     7
176
     1
 90
        5
176
     1
 90
        0
176
     1
 90
        0
176
     1
290
     0
176
     1
 90
        1
176
     1
 40
0.0
176
     1
 90
        0
176
     1
290
     0
176
     1
290
     1
176
     1
290
     1
176
     1
290
     0
176
     1
290
     0
176
     1
290
     0
176
     1
290
     0
176
     1
290
     0
176
     1
290
     0
176
     1
 90
       50
176
     1
 40
0.0
176
     1
 40
1.0
176
     1
 90
        0
176
     1
 62
    18
420
        0
176
     1
 90
       50
176
     1
 90
        3
176
     1
 62
     5
420
      255
176
     1
290
     0
176
     1
 90
       50
176
     1
 90
       50
176
     1
 90
       50
176
     1
290
     0
176
     1
 90
       50
176
     1
 62
   256
176
     0
 40
1.0
176
     0
 90
        2
176
     1
  1
strokes_ogs.tif
176
     1
290
     0
176
     1
 40
1.0
176
     1
 40
1.0
176
     1
  0
VISUALSTYLE
  5
40
102
{ACAD_REACTORS
330
29
102
}
330
29
100
AcDbVisualStyle
  2
OverhangOff
 70
    21
177
     3
291
     1
 70
    58
 90
        2
176
     0
 90
        2
176
     0
 90
        0
176
     0
 90
        0
176
     0
 40
0.6
176
     0
 40
30.0
176
     0
 62
     7
420
 16777215
176
     0
 90
        1
176
     0
 90
        4
176
     0
 62
     7
176
     0
 62
   257
176
     0
 90
        1
176
     0
 90
        1
176
     0
 40
1.0
176
     0
 90
        9
176
     2
 62
     7
176
     0
 40
1.0
176
     0
 90
        1
176
     0
 90
        6
176
     0
 90
        2
176
     0
 62
     7
176
     0
 90
        5
176
     0
 90
        0
176
     0
 90
        0
176
     0
290
     0
176
     0
 90
        1
176
     0
 40
0.0
176
     0
 90
        0
176
     0
290
     0
176
     0
290
     1
176
     0
290
     1
176
     0
290
     0
176
     0
290
     0
176
     0
290
     0
176
     0
290
     0
176
     0
290
     0
176
     0
290
     0
176
     0
 90
       50
176
     0
 40
0.0
176
     0
 40
1.0
176
     0
 90
        0
176
     0
 62
    18
420
        0
176
     0
 90
       50
176
     0
 90
        3
176
     0
 62
     5
420
      255
176
     0
290
     0
176
     0
 90
       50
176
     0
 90
       50
176
     0
 90
       50
176
     0
290
     0
176
     0
 90
       50
176
     0
 62
   256
176
     0
 40
1.0
176
     0
 90
        2
176
     0
  1
strokes_ogs.tif
176
     0
290
     0
176
     0
 40
1.0
176
     0
 40
1.0
176
     0
  0
VISUALSTYLE
  5
33
102
{ACAD_REACTORS
330
29
102
}
330
29
100
AcDbVisualStyle
  2
Realistic
 70
     8
177
     3
291
     0
 70
    58
 90
        2
176
     1
 90
        3
176
     1
 90
        0
176
     1
 90
        2
176
     1
 40
0.6
176
     1
 40
30.0
176
     1
 62
     7
420
 16777215
176
     1
 90
        0
176
     1
 90
        0
176
     1
 62
     7
176
     1
 62
   257
176
     1
 90
        1
176
     1
 90
        1
176
     1
 40
1.0
176
     1
 90
        8
176
     1
 62
   257
176
     1
 40
1.0
176
     1
 90
        1
176
     1
 90
        6
176
     1
 90
        2
176
     1
 62
     7
176
     1
 90
        3
176
     1
 90
        0
176
     1
 90
        0
176
     1
290
     0
176
     1
 90
       13
176
     1
 40
0.0
176
     1
 90
        0
176
     1
290
     0
176
     1
290
     1
176
     1
290
     1
176
     1
290
     0
176
     1
290
     0
176
     1
290
     0
176
     1
290
     0
176
     1
290
     0
176
     1
290
     0
176
     1
 90
       50
176
     1
 40
0.0
176
     1
 40
1.0
176
     1
 90
        0
176
     1
 62
    18
420
        0
176
     1
 90
       50
176
     1
 90
        3
176
     1
 62
     5
420
      255
176
     1
290
     0
176
     1
 90
       50
176
     1
 90
       50
176
     1
 90
       50
176
     1
290
     0
176
     1
 90
       50
176
     1
 62
   256
176
     0
 40
1.0
176
     0
 90
        2
176
     1
  1
strokes_ogs.tif
176
     1
290
     0
176
     1
 40
1.0
176
     1
 40
1.0
176
     1
  0
VISUALSTYLE
  5
3E
102
{ACAD_REACTORS
330
29
102
}
330
29
100
AcDbVisualStyle
  2
Shaded
 70
    27
177
     3
291
     0
 70
    58
 90
        2
176
     1
 90
        2
176
     1
 90
        1
176
     1
 90
        2
176
     1
 40
0.6
176
     1
 40
30.0
176
     1
 62
     7
420
 16777215
176
     1
 90
        0
176
     1
 90
        4
176
     1
 62
     7
176
     1
 62
   257
176
     1
 90
        1
176
     1
 90
        1
176
     1
 40
1.0
176
     1
 90
        8
176
     1
 62
   257
176
     1
 40
1.0
176
     1
 90
        1
176
     1
 90
        6
176
     1
 90
        2
176
     1
 62
     8
420
  7895160
176
     1
 90
        3
176
     1
 90
        0
176
     1
 90
        0
176
     1
290
     0
176
     1
 90
        5
176
     1
 40
0.0
176
     1
 90
        0
176
     1
290
     0
176
     1
290
     1
176
     1
290
     1
176
     1
290
     0
176
     1
290
     0
176
     1
290
     0
176
     1
290
     0
176
     1
290
     0
176
     1
290
     0
176
     1
 90
       50
176
     1
 40
0.0
176
     1
 40
1.0
176
     1
 90
        0
176
     1
 62
    18
420
        0
176
     1
 90
       50
176
     1
 90
        3
176
     1
 62
     5
420
      255
176
     1
290
     0
176
     1
 90
       50
176
     1
 90
       50
176
     1
 90
       50
176
     1
290
     0
176
     1
 90
       50
176
     1
 62
   256
176
     0
 40
1.0
176
     0
 90
        2
176
     1
  1
strokes_ogs.tif
176
     1
290
     0
176
     1
 40
1.0
176
     1
 40
1.0
176
     1
  0
VISUALSTYLE
  5
3D
102
{ACAD_REACTORS
330
29
102
}
330
29
100
AcDbVisualStyle
  2
Shaded with edges
 70
    26
177
     3
291
     0
 70
    58
 90
        2
176
     1
 90
        2
176
     1
 90
        1
176
     1
 90
        2
176
     1
 40
0.6
176
     1
 40
30.0
176
     1
 62
     7
420
 16777215
176
     1
 90
        1
176
     1
 90
        2
176
     1
 62
     7
176
     1
 62
   257
176
     1
 90
        2
176
     1
 90
        1
176
     1
 40
1.0
176
     1
 90
        8
176
     1
 62
   257
176
     1
 40
1.0
176
     1
 90
        1
176
     1
 90
        6
176
     1
 90
        2
176
     1
 62
     7
176
     1
 90
        3
176
     1
 90
        0
176
     1
 90
        0
176
     1
290
     0
176
     1
 90
        5
176
     1
 40
0.0
176
     1
 90
        0
176
     1
290
     0
176
     1
290
     1
176
     1
290
     1
176
     1
290
     0
176
     1
290
     0
176
     1
290
     0
176
     1
290
     0
176
     1
290
     0
176
     1
290
     0
176
     1
 90
       50
176
     1
 40
0.0
176
     1
 40
1.0
176
     1
 90
        0
176
     1
 62
    18
420
        0
176
     1
 90
       50
176
     1
 90
        3
176
     1
 62
     5
420
      255
176
     1
290
     0
176
     1
 90
       50
176
     1
 90
       50
176
     1
 90
       50
176
     1
290
     0
176
     1
 90
       50
176
     1
 62
   256
176
     0
 40
1.0
176
     0
 90
        2
176
     1
  1
strokes_ogs.tif
176
     1
290
     0
176
     1
 40
1.0
176
     1
 40
1.0
176
     1
  0
VISUALSTYLE
  5
3A
102
{ACAD_REACTORS
330
29
102
}
330
29
100
AcDbVisualStyle
  2
Shades of Gray
 70
    23
177
     3
291
     0
 70
    58
 90
        2
176
     1
 90
        2
176
     1
 90
        3
176
     1
 90
        0
176
     1
 40
0.6
176
     1
 40
30.0
176
     1
 62
     7
420
 16777215
176
     1
 90
        2
176
     1
 90
        2
176
     1
 62
     7
176
     1
 62
     7
176
     1
 90
        1
176
     1
 90
        1
176
     1
 40
40.0
176
     1
 90
        8
176
     1
 62
     7
176
     1
 40
1.0
176
     1
 90
        1
176
     1
 90
        6
176
     1
 90
        2
176
     1
 62
     7
176
     1
 90
        3
176
     1
 90
        0
176
     1
 90
        0
176
     1
290
     0
176
     1
 90
        1
176
     1
 40
0.0
176
     1
 90
        0
176
     1
290
     0
176
     1
290
     1
176
     1
290
     1
176
     1
290
     0
176
     1
290
     0
176
     1
290
     0
176
     1
290
     0
176
     1
290
     0
176
     1
290
     0
176
     1
 90
       50
176
     1
 40
0.0
176
     1
 40
1.0
176
     1
 90
        0
176
     1
 62
    18
420
        0
176
     1
 90
       50
176
     1
 90
        3
176
     1
 62
     5
420
      255
176
     1
290
     0
176
     1
 90
       50
176
     1
 90
       50
176
     1
 90
       50
176
     1
290
     0
176
     1
 90
       50
176
     1
 62
   256
176
     0
 40
1.0
176
     0
 90
        2
176
     1
  1
strokes_ogs.tif
176
     1
290
     0
176
     1
 40
1.0
176
     1
 40
1.0
176
     1
  0
VISUALSTYLE
  5
3B
102
{ACAD_REACTORS
330
29
102
}
330
29
100
AcDbVisualStyle
  2
Sketchy
 70
    24
177
     3
291
     0
 70
    58
 90
        1
176
     1
 90
        2
176
     1
 90
        2
176
     1
 90
        0
176
     1
 40
0.6
176
     1
 40
30.0
176
     1
 62
     7
420
 16777215
176
     1
 90
        2
176
     1
 90
        2
176
     1
 62
     7
176
     1
 62
     7
176
     1
 90
        1
176
     1
 90
        1
176
     1
 40
40.0
176
     1
 90
       11
176
     1
 62
     7
176
     1
 40
1.0
176
     1
 90
        1
176
     1
 90
        6
176
     1
 90
        2
176
     1
 62
     7
176
     1
 90
        6
176
     1
 90
        0
176
     1
 90
        0
176
     1
290
     0
176
     1
 90
        1
176
     1
 40
0.0
176
     1
 90
        0
176
     1
290
     0
176
     1
290
     1
176
     1
290
     1
176
     1
290
     0
176
     1
290
     0
176
     1
290
     0
176
     1
290
     0
176
     1
290
     0
176
     1
290
     0
176
     1
 90
       50
176
     1
 40
0.0
176
     1
 40
1.0
176
     1
 90
        0
176
     1
 62
    18
420
        0
176
     1
 90
       50
176
     1
 90
        3
176
     1
 62
     5
420
      255
176
     1
290
     0
176
     1
 90
       50
176
     1
 90
       50
176
     1
 90
       50
176
     1
290
     0
176
     1
 90
       50
176
     1
 62
   256
176
     0
 40
1.0
176
     0
 90
        2
176
     1
  1
strokes_ogs.tif
176
     1
290
     0
176
     1
 40
1.0
176
     1
 40
1.0
176
     1
  0
VISUALSTYLE
  5
36
102
{ACAD_REACTORS
330
29
102
}
330
29
100
AcDbVisualStyle
  2
Thicken
 70
    13
177
     3
291
     1
 70
    58
 90
        2
176
     1
 90
        2
176
     1
 90
        0
176
     1
 90
        0
176
     1
 40
0.6
176
     1
 40
30.0
176
     1
 62
     7
420
 16777215
176
     1
 90
        1
176
     1
 90
        4
176
     1
 62
     7
176
     1
 62
   257
176
     1
 90
        1
176
     1
 90
        1
176
     1
 40
1.0
176
     1
 90
       12
176
     1
 62
     7
176
     1
 40
1.0
176
     1
 90
        1
176
     1
 90
        6
176
     1
 90
        2
176
     1
 62
     7
176
     1
 90
        5
176
     1
 90
        0
176
     1
 90
        0
176
     1
290
     0
176
     1
 90
        1
176
     1
 40
0.0
176
     1
 90
        0
176
     1
290
     0
176
     1
290
     1
176
     1
290
     1
176
     1
290
     0
176
     1
290
     0
176
     1
290
     0
176
     1
290
     0
176
     1
290
     0
176
     1
290
     0
176
     1
 90
       50
176
     1
 40
0.0
176
     1
 40
1.0
176
     1
 90
        0
176
     1
 62
    18
420
        0
176
     1
 90
       50
176
     1
 90
        3
176
     1
 62
     5
420
      255
176
     1
290
     0
176
     1
 90
       50
176
     1
 90
       50
176
     1
 90
       50
176
     1
290
     0
176
     1
 90
       50
176
     1
 62
   256
176
     0
 40
1.0
176
     0
 90
        2
176
     1
  1
strokes_ogs.tif
176
     1
290
     0
176
     1
 40
1.0
176
     1
 40
1.0
176
     1
  0
VISUALSTYLE
  5
30
102
{ACAD_REACTORS
330
29
102
}
330
29
100
AcDbVisualStyle
  2
Wireframe
 70
     5
177
     3
291
     0
 70
    58
 90
        0
176
     1
 90
        2
176
     1
 90
        0
176
     1
 90
        0
176
     1
 40
0.6
176
     1
 40
30.0
176
     1
 62
     7
420
 16777215
176
     1
 90
        1
176
     1
 90
        4
176
     1
 62
     7
176
     1
 62
   257
176
     1
 90
        1
176
     1
 90
        1
176
     1
 40
1.0
176
     1
 90
        0
176
     1
 62
   257
176
     1
 40
1.0
176
     1
 90
        1
176
     1
 90
        6
176
     1
 90
        2
176
     1
 62
     7
176
     1
 90
        3
176
     1
 90
        0
176
     1
 90
        0
176
     1
290
     0
176
     1
 90
        1
176
     1
 40
0.0
176
     1
 90
        0
176
     1
290
     0
176
     1
290
     1
176
     1
290
     1
176
     1
290
     0
176
     1
290
     0
176
     1
290
     0
176
     1
290
     0
176
     1
290
     0
176
     1
290
     0
176
     1
 90
       50
176
     1
 40
0.0
176
     1
 40
1.0
176
     1
 90
        0
176
     1
 62
    18
420
        0
176
     1
 90
       50
176
     1
 90
        3
176
     1
 62
     5
420
      255
176
     1
290
     0
176
     1
 90
       50
176
     1
 90
       50
176
     1
 90
       50
176
     1
290
     0
176
     1
 90
       50
176
     1
 62
   256
176
     0
 40
1.0
176
     0
 90
        2
176
     1
  1
strokes_ogs.tif
176
     1
290
     0
176
     1
 40
1.0
176
     1
 40
1.0
176
     1
  0
VISUALSTYLE
  5
3C
102
{ACAD_REACTORS
330
29
102
}
330
29
100
AcDbVisualStyle
  2
X-Ray
 70
    25
177
     3
291
     0
 70
    58
 90
        2
176
     1
 90
        2
176
     1
 90
        1
176
     1
 90
        1
176
     1
 40
0.5
176
     1
 40
30.0
176
     1
 62
     7
420
 16777215
176
     1
 90
        1
176
     1
 90
        0
176
     1
 62
     7
176
     1
 62
   257
176
     1
 90
        1
176
     1
 90
        1
176
     1
 40
1.0
176
     1
 90
        8
176
     1
 62
     7
176
     1
 40
1.0
176
     1
 90
        1
176
     1
 90
        6
176
     1
 90
        2
176
     1
 62
     7
176
     1
 90
        3
176
     1
 90
        0
176
     1
 90
        0
176
     1
290
     0
176
     1
 90
       13
176
     1
 40
0.0
176
     1
 90
        0
176
     1
290
     0
176
     1
290
     1
176
     1
290
     1
176
     1
290
     0
176
     1
290
     0
176
     1
290
     0
176
     1
290
     0
176
     1
290
     0
176
     1
290
     0
176
     1
 90
       50
176
     1
 40
0.0
176
     1
 40
1.0
176
     1
 90
        0
176
     1
 62
    18
420
        0
176
     1
 90
       50
176
     1
 90
        3
176
     1
 62
     5
420
      255
176
     1
290
     0
176
     1
 90
       50
176
     1
 90
       50
176
     1
 90
       50
176
     1
290
     0
176
     1
 90
       50
176
     1
 62
   256
176
     0
 40
1.0
176
     0
 90
        2
176
     1
  1
strokes_ogs.tif
176
     1
290
     0
176
     1
 40
1.0
176
     1
 40
1.0
176
     1
  0
DICTIONARYVAR
  5
1CF
102
{ACAD_REACTORS
330
1CA
102
}
330
1CA
100
DictionaryVariables
280
     0
  1
1:1
  0
DICTIONARYVAR
  5
1CC
102
{ACAD_REACTORS
330
1CA
102
}
330
1CA
100
DictionaryVariables
280
     0
  1
STANDARD
  0
DICTIONARYVAR
  5
1CB
102
{ACAD_REACTORS
330
1CA
102
}
330
1CA
100
DictionaryVariables
280
     0
  1
STANDARD
  0
DICTIONARYVAR
  5
1CD
102
{ACAD_REACTORS
330
1CA
102
}
330
1CA
100
DictionaryVariables
280
     0
  1
Imperial24
  0
DICTIONARYVAR
  5
1CE
102
{ACAD_REACTORS
330
1CA
102
}
330
1CA
100
DictionaryVariables
280
     0
  1
Imperial24
  0
DICTIONARY
  5
1A
330
19
100
AcDbDictionary
280
     1
281
     1
  3
BUMPTILE
360
1C
  3
DIFFUSETILE
360
1B
  3
OPACITYTILE
360
1F
  3
REFLECTIONTILE
360
1E
  3
REFRACTIONTILE
360
20
  3
SPECULARTILE
360
1D
  0
DICTIONARY
  5
12
330
11
100
AcDbDictionary
280
     1
281
     1
  3
BUMPTILE
360
14
  3
DIFFUSETILE
360
13
  3
OPACITYTILE
360
17
  3
REFLECTIONTILE
360
16
  3
REFRACTIONTILE
360
18
  3
SPECULARTILE
360
15
  0
DICTIONARY
  5
22
330
21
100
AcDbDictionary
280
     1
281
     1
  3
BUMPTILE
360
24
  3
DIFFUSETILE
360
23
  3
OPACITYTILE
360
27
  3
REFLECTIONTILE
360
26
  3
REFRACTIONTILE
360
28
  3
SPECULARTILE
360
25
  0
DICTIONARY
  5
1D0
330
65
100
AcDbDictionary
280
     1
281
     1
  3
ACAD_ROUNDTRIP_2008_TABLESTYLE_CELLSTYLEMAP
360
1D1
  0
XRECORD
  5
1C
102
{ACAD_REACTORS
330
1A
102
}
330
1A
100
AcDbXrecord
280
     1
270
     1
271
     1
  0
XRECORD
  5
1B
102
{ACAD_REACTORS
330
1A
102
}
330
1A
100
AcDbXrecord
280
     1
270
     1
271
     1
  0
XRECORD
  5
1F
102
{ACAD_REACTORS
330
1A
102
}
330
1A
100
AcDbXrecord
280
     1
270
     1
271
     1
  0
XRECORD
  5
1E
102
{ACAD_REACTORS
330
1A
102
}
330
1A
100
AcDbXrecord
280
     1
270
     1
271
     1
  0
XRECORD
  5
20
102
{ACAD_REACTORS
330
1A
102
}
330
1A
100
AcDbXrecord
280
     1
270
     1
271
     1
  0
XRECORD
  5
1D
102
{ACAD_REACTORS
330
1A
102
}
330
1A
100
AcDbXrecord
280
     1
270
     1
271
     1
  0
XRECORD
  5
14
102
{ACAD_REACTORS
330
12
102
}
330
12
100
AcDbXrecord
280
     1
270
     1
271
     1
  0
XRECORD
  5
13
102
{ACAD_REACTORS
330
12
102
}
330
12
100
AcDbXrecord
280
     1
270
     1
271
     1
  0
XRECORD
  5
17
102
{ACAD_REACTORS
330
12
102
}
330
12
100
AcDbXrecord
280
     1
270
     1
271
     1
  0
XRECORD
  5
16
102
{ACAD_REACTORS
330
12
102
}
330
12
100
AcDbXrecord
280
     1
270
     1
271
     1
  0
XRECORD
  5
18
102
{ACAD_REACTORS
330
12
102
}
330
12
100
AcDbXrecord
280
     1
270
     1
271
     1
  0
XRECORD
  5
15
102
{ACAD_REACTORS
330
12
102
}
330
12
100
AcDbXrecord
280
     1
270
     1
271
     1
  0
XRECORD
  5
24
102
{ACAD_REACTORS
330
22
102
}
330
22
100
AcDbXrecord
280
     1
270
     1
271
     1
  0
XRECORD
  5
23
102
{ACAD_REACTORS
330
22
102
}
330
22
100
AcDbXrecord
280
     1
270
     1
271
     1
  0
XRECORD
  5
27
102
{ACAD_REACTORS
330
22
102
}
330
22
100
AcDbXrecord
280
     1
270
     1
271
     1
  0
XRECORD
  5
26
102
{ACAD_REACTORS
330
22
102
}
330
22
100
AcDbXrecord
280
     1
270
     1
271
     1
  0
XRECORD
  5
28
102
{ACAD_REACTORS
330
22
102
}
330
22
100
AcDbXrecord
280
     1
270
     1
271
     1
  0
XRECORD
  5
25
102
{ACAD_REACTORS
330
22
102
}
330
22
100
AcDbXrecord
280
     1
270
     1
271
     1
  0
CELLSTYLEMAP
  5
1D1
102
{ACAD_REACTORS
330
1D0
102
}
330
1D0
100
AcDbCellStyleMap
 90
        3
300
CELLSTYLE
  1
TABLEFORMAT_BEGIN
 90
        5
170
     1
 91
        0
 92
    32768
 62
   257
 93
        1
300
CONTENTFORMAT
  1
CONTENTFORMAT_BEGIN
 90
        0
 91
        0
 92
      512
 93
        0
300

 40
0.0
140
1.0
 94
        5
 62
     0
340
55
144
0.25
309
CONTENTFORMAT_END
171
     0
 94
        0
309
TABLEFORMAT_END
  1
CELLSTYLE_BEGIN
 90
        1
 91
        1
300
_TITLE
309
CELLSTYLE_END
300
CELLSTYLE
  1
TABLEFORMAT_BEGIN
 90
        5
170
     1
 91
        0
 92
        0
 62
   257
 93
        1
300
CONTENTFORMAT
  1
CONTENTFORMAT_BEGIN
 90
        0
 91
        0
 92
      512
 93
        0
300

 40
0.0
140
1.0
 94
        5
 62
     0
340
55
144
0.18
309
CONTENTFORMAT_END
171
     0
 94
        0
309
TABLEFORMAT_END
  1
CELLSTYLE_BEGIN
 90
        2
 91
        1
300
_HEADER
309
CELLSTYLE_END
300
CELLSTYLE
  1
TABLEFORMAT_BEGIN
 90
        5
170
     1
 91
        0
 92
        0
 62
   257
 93
        1
300
CONTENTFORMAT
  1
CONTENTFORMAT_BEGIN
 90
        0
 91
        0
 92
      512
 93
        0
300

 40
0.0
140
1.0
 94
        2
 62
     0
340
55
144
0.18
309
CONTENTFORMAT_END
171
     0
 94
        0
309
TABLEFORMAT_END
  1
CELLSTYLE_BEGIN
 90
        3
 91
        2
300
_DATA
309
CELLSTYLE_END
  0
ENDSEC
  0
EOF
