  0
SECTION
  2
HEADER
  9
$ACADVER
  1
AC1032
  9
$ACADMAINTVER
 90
      251
  9
$DWGCODEPAGE
  3
ANSI_1252
  9
$REQUIREDVERSIONS
160
                 0
  9
$INSBASE
 10
0.0
 20
0.0
 30
0.0
  9
$EXTMIN
 10
1.000000000000000E+20
 20
1.000000000000000E+20
 30
1.000000000000000E+20
  9
$EXTMAX
 10
-1.000000000000000E+20
 20
-1.000000000000000E+20
 30
-1.000000000000000E+20
  9
$LIMMIN
 10
0.0
 20
0.0
  9
$LIMMAX
 10
12.0
 20
9.0
  9
$ORTHOMODE
 70
     0
  9
$REGENMODE
 70
     1
  9
$FILLMODE
 70
     1
  9
$QTEXTMODE
 70
     0
  9
$MIRRTEXT
 70
     0
  9
$LTSCALE
 40
1.0
  9
$ATTMODE
 70
     1
  9
$TEXTSIZE
 40
0.2
  9
$TRACEWID
 40
0.05
  9
$TEXTSTYLE
  7
Standard
  9
$CLAYER
  8
0
  9
$CELTYPE
  6
ByLayer
  9
$CECOLOR
 62
   256
  9
$CELTSCALE
 40
1.0
  9
$DISPSILH
 70
     0
  9
$DIMSCALE
 40
1.0
  9
$DIMASZ
 40
0.18
  9
$DIMEXO
 40
0.0625
  9
$DIMDLI
 40
0.38
  9
$DIMRND
 40
0.0
  9
$DIMDLE
 40
0.0
  9
$DIMEXE
 40
0.18
  9
$DIMTP
 40
0.0
  9
$DIMTM
 40
0.0
  9
$DIMTXT
 40
0.18
  9
$DIMCEN
 40
0.09
  9
$DIMTSZ
 40
0.0
  9
$DIMTOL
 70
     0
  9
$DIMLIM
 70
     0
  9
$DIMTIH
 70
     1
  9
$DIMTOH
 70
     1
  9
$DIMSE1
 70
     0
  9
$DIMSE2
 70
     0
  9
$DIMTAD
 70
     0
  9
$DIMZIN
 70
     0
  9
$DIMBLK
  1

  9
$DIMASO
 70
     1
  9
$DIMSHO
 70
     1
  9
$DIMPOST
  1

  9
$DIMAPOST
  1

  9
$DIMALT
 70
     0
  9
$DIMALTD
 70
     2
  9
$DIMALTF
 40
25.4
  9
$DIMLFAC
 40
1.0
  9
$DIMTOFL
 70
     0
  9
$DIMTVP
 40
0.0
  9
$DIMTIX
 70
     0
  9
$DIMSOXD
 70
     0
  9
$DIMSAH
 70
     0
  9
$DIMBLK1
  1

  9
$DIMBLK2
  1

  9
$DIMSTYLE
  2
Standard
  9
$DIMCLRD
 70
     0
  9
$DIMCLRE
 70
     0
  9
$DIMCLRT
 70
     0
  9
$DIMTFAC
 40
1.0
  9
$DIMGAP
 40
0.09
  9
$DIMJUST
 70
     0
  9
$DIMSD1
 70
     0
  9
$DIMSD2
 70
     0
  9
$DIMTOLJ
 70
     1
  9
$DIMTZIN
 70
     0
  9
$DIMALTZ
 70
     0
  9
$DIMALTTZ
 70
     0
  9
$DIMUPT
 70
     0
  9
$DIMDEC
 70
     4
  9
$DIMTDEC
 70
     4
  9
$DIMALTU
 70
     2
  9
$DIMALTTD
 70
     2
  9
$DIMTXSTY
  7
Standard
  9
$DIMAUNIT
 70
     0
  9
$DIMADEC
 70
     0
  9
$DIMALTRND
 40
0.0
  9
$DIMAZIN
 70
     0
  9
$DIMDSEP
 70
    46
  9
$DIMATFIT
 70
     3
  9
$DIMFRAC
 70
     0
  9
$DIMLDRBLK
  1

  9
$DIMLUNIT
 70
     2
  9
$DIMLWD
 70
    -2
  9
$DIMLWE
 70
    -2
  9
$DIMTMOVE
 70
     0
  9
$DIMFXL
 40
1.0
  9
$DIMFXLON
 70
     0
  9
$DIMJOGANG
 40
0.7853981633974483
  9
$DIMTFILL
 70
     0
  9
$DIMTFILLCLR
 70
     0
  9
$DIMARCSYM
 70
     0
  9
$DIMLTYPE
  6

  9
$DIMLTEX1
  6

  9
$DIMLTEX2
  6

  9
$DIMTXTDIRECTION
 70
     0
  9
$LUNITS
 70
     2
  9
$LUPREC
 70
     4
  9
$SKETCHINC
 40
0.1
  9
$FILLETRAD
 40
0.0
  9
$AUNITS
 70
     0
  9
$AUPREC
 70
     0
  9
$MENU
  1
.
  9
$ELEVATION
 40
0.0
  9
$PELEVATION
 40
0.0
  9
$THICKNESS
 40
0.0
  9
$LIMCHECK
 70
     0
  9
$CHAMFERA
 40
0.0
  9
$CHAMFERB
 40
0.0
  9
$CHAMFERC
 40
0.0
  9
$CHAMFERD
 40
0.0
  9
$SKPOLY
 70
     0
  9
$TDCREATE
 40
2460038.428402778
  9
$TDUCREATE
 40
2460038.345069444
  9
$TDUPDATE
 40
2460038.428402778
  9
$TDUUPDATE
 40
2460038.345069444
  9
$TDINDWG
 40
0.0000000000
  9
$TDUSRTIMER
 40
0.0000000000
  9
$USRTIMER
 70
     1
  9
$ANGBASE
 50
0.0
  9
$ANGDIR
 70
     0
  9
$PDMODE
 70
     0
  9
$PDSIZE
 40
0.0
  9
$PLINEWID
 40
0.0
  9
$SPLFRAME
 70
     0
  9
$SPLINETYPE
 70
     6
  9
$SPLINESEGS
 70
     8
  9
$HANDSEED
  5
188
  9
$SURFTAB1
 70
     6
  9
$SURFTAB2
 70
     6
  9
$SURFTYPE
 70
     6
  9
$SURFU
 70
     6
  9
$SURFV
 70
     6
  9
$UCSBASE
  2

  9
$UCSNAME
  2

  9
$UCSORG
 10
0.0
 20
0.0
 30
0.0
  9
$UCSXDIR
 10
1.0
 20
0.0
 30
0.0
  9
$UCSYDIR
 10
0.0
 20
1.0
 30
0.0
  9
$UCSORTHOREF
  2

  9
$UCSORTHOVIEW
 70
     0
  9
$UCSORGTOP
 10
0.0
 20
0.0
 30
0.0
  9
$UCSORGBOTTOM
 10
0.0
 20
0.0
 30
0.0
  9
$UCSORGLEFT
 10
0.0
 20
0.0
 30
0.0
  9
$UCSORGRIGHT
 10
0.0
 20
0.0
 30
0.0
  9
$UCSORGFRONT
 10
0.0
 20
0.0
 30
0.0
  9
$UCSORGBACK
 10
0.0
 20
0.0
 30
0.0
  9
$PUCSBASE
  2

  9
$PUCSNAME
  2

  9
$PUCSORG
 10
0.0
 20
0.0
 30
0.0
  9
$PUCSXDIR
 10
1.0
 20
0.0
 30
0.0
  9
$PUCSYDIR
 10
0.0
 20
1.0
 30
0.0
  9
$PUCSORTHOREF
  2

  9
$PUCSORTHOVIEW
 70
     0
  9
$PUCSORGTOP
 10
0.0
 20
0.0
 30
0.0
  9
$PUCSORGBOTTOM
 10
0.0
 20
0.0
 30
0.0
  9
$PUCSORGLEFT
 10
0.0
 20
0.0
 30
0.0
  9
$PUCSORGRIGHT
 10
0.0
 20
0.0
 30
0.0
  9
$PUCSORGFRONT
 10
0.0
 20
0.0
 30
0.0
  9
$PUCSORGBACK
 10
0.0
 20
0.0
 30
0.0
  9
$USERI1
 70
     0
  9
$USERI2
 70
     0
  9
$USERI3
 70
     0
  9
$USERI4
 70
     0
  9
$USERI5
 70
     0
  9
$USERR1
 40
0.0
  9
$USERR2
 40
0.0
  9
$USERR3
 40
0.0
  9
$USERR4
 40
0.0
  9
$USERR5
 40
0.0
  9
$WORLDVIEW
 70
     1
  9
$SHADEDGE
 70
     3
  9
$SHADEDIF
 70
    70
  9
$TILEMODE
 70
     1
  9
$MAXACTVP
 70
    64
  9
$PINSBASE
 10
0.0
 20
0.0
 30
0.0
  9
$PLIMCHECK
 70
     0
  9
$PEXTMIN
 10
1.000000000000000E+20
 20
1.000000000000000E+20
 30
1.000000000000000E+20
  9
$PEXTMAX
 10
-1.000000000000000E+20
 20
-1.000000000000000E+20
 30
-1.000000000000000E+20
  9
$PLIMMIN
 10
0.0
 20
0.0
  9
$PLIMMAX
 10
12.0
 20
9.0
  9
$UNITMODE
 70
     0
  9
$VISRETAIN
 70
     1
  9
$PLINEGEN
 70
     0
  9
$PSLTSCALE
 70
     1
  9
$TREEDEPTH
 70
  3020
  9
$CMLSTYLE
  2
Standard
  9
$CMLJUST
 70
     0
  9
$CMLSCALE
 40
1.0
  9
$PROXYGRAPHICS
 70
     1
  9
$MEASUREMENT
 70
     0
  9
$CELWEIGHT
370
    -1
  9
$ENDCAPS
280
     0
  9
$JOINSTYLE
280
     0
  9
$LWDISPLAY
290
     1
  9
$INSUNITS
 70
     4
  9
$HYPERLINKBASE
  1

  9
$STYLESHEET
  1

  9
$XEDIT
290
     1
  9
$CEPSNTYPE
380
     0
  9
$PSTYLEMODE
290
     1
  9
$FINGERPRINTGUID
  2
{F0FB0689-3AB6-0D49-9081-7AB8DFA742B3}
  9
$VERSIONGUID
  2
{1CA345A1-912C-5E4C-B6BC-F2800051FF52}
  9
$EXTNAMES
290
     1
  9
$PSVPSCALE
 40
0.0
  9
$OLESTARTUP
290
     0
  9
$SORTENTS
280
   127
  9
$INDEXCTL
280
     0
  9
$HIDETEXT
280
     1
  9
$XCLIPFRAME
280
     2
  9
$HALOGAP
280
     0
  9
$OBSCOLOR
 70
   257
  9
$OBSLTYPE
280
     0
  9
$INTERSECTIONDISPLAY
280
     0
  9
$INTERSECTIONCOLOR
 70
   257
  9
$DIMASSOC
280
     2
  9
$PROJECTNAME
  1

  9
$CAMERADISPLAY
290
     0
  9
$LENSLENGTH
 40
50.0
  9
$CAMERAHEIGHT
 40
0.0
  9
$STEPSPERSEC
 40
2.0
  9
$STEPSIZE
 40
6.0
  9
$3DDWFPREC
 40
2.0
  9
$PSOLWIDTH
 40
0.25
  9
$PSOLHEIGHT
 40
4.0
  9
$LOFTANG1
 40
1.570796326794896
  9
$LOFTANG2
 40
1.570796326794896
  9
$LOFTMAG1
 40
0.0
  9
$LOFTMAG2
 40
0.0
  9
$LOFTPARAM
 70
     7
  9
$LOFTNORMALS
280
     1
  9
$LATITUDE
 40
37.795
  9
$LONGITUDE
 40
-122.394
  9
$NORTHDIRECTION
 40
0.0
  9
$TIMEZONE
 70
 -8000
  9
$LIGHTGLYPHDISPLAY
280
     1
  9
$TILEMODELIGHTSYNCH
280
     1
  9
$CMATERIAL
347
11
  9
$SOLIDHIST
280
     0
  9
$SHOWHIST
280
     1
  9
$DWFFRAME
280
     2
  9
$DGNFRAME
280
     0
  9
$REALWORLDSCALE
290
     1
  9
$INTERFERECOLOR
 62
     1
  9
$INTERFEREOBJVS
345
33
  9
$INTERFEREVPVS
346
30
  9
$CSHADOW
280
     0
  9
$SHADOWPLANELOCATION
 40
0.0
  0
ENDSEC
  0
SECTION
  2
CLASSES
  0
CLASS
  1
ACDBDICTIONARYWDFLT
  2
AcDbDictionaryWithDefault
  3
ObjectDBX Classes
 90
        0
 91
        1
280
     0
281
     0
  0
CLASS
  1
MATERIAL
  2
AcDbMaterial
  3
ObjectDBX Classes
 90
     1153
 91
        3
280
     0
281
     0
  0
CLASS
  1
VISUALSTYLE
  2
AcDbVisualStyle
  3
ObjectDBX Classes
 90
     4095
 91
       24
280
     0
281
     0
  0
CLASS
  1
SCALE
  2
AcDbScale
  3
ObjectDBX Classes
 90
     1153
 91
       17
280
     0
281
     0
  0
CLASS
  1
TABLESTYLE
  2
AcDbTableStyle
  3
ObjectDBX Classes
 90
     4095
 91
        1
280
     0
281
     0
  0
CLASS
  1
MLEADERSTYLE
  2
AcDbMLeaderStyle
  3
ACDB_MLEADERSTYLE_CLASS
 90
     4095
 91
        1
280
     0
281
     0
  0
CLASS
  1
ACDBSECTIONVIEWSTYLE
  2
AcDbSectionViewStyle
  3
ObjectDBX Classes
 90
     1025
 91
        1
280
     0
281
     0
  0
CLASS
  1
ACDBDETAILVIEWSTYLE
  2
AcDbDetailViewStyle
  3
ObjectDBX Classes
 90
     1025
 91
        1
280
     0
281
     0
  0
CLASS
  1
DICTIONARYVAR
  2
AcDbDictionaryVar
  3
ObjectDBX Classes
 90
        0
 91
        5
280
     0
281
     0
  0
CLASS
  1
CELLSTYLEMAP
  2
AcDbCellStyleMap
  3
ObjectDBX Classes
 90
     1152
 91
        1
280
     0
281
     0
  0
ENDSEC
  0
SECTION
  2
TABLES
  0
TABLE
  2
VPORT
  5
8
330
0
100
AcDbSymbolTable
 70
     1
  0
VPORT
  5
57
330
8
100
AcDbSymbolTableRecord
100
AcDbViewportTableRecord
  2
*Active
 70
     0
 10
0.0
 20
0.0
 11
1.0
 21
1.0
 12
0.0
 22
0.0
 13
0.0
 23
0.0
 14
1.0
 24
1.0
 15
0.0
 25
0.0
 16
0.0
 26
0.0
 36
1.0
 17
104.9999999737499
 27
-43.49999998912136
 37
0.0
 40
302.9399999242646
 41
0.7070707070707073
 42
50.0
 43
0.0
 44
0.0
 50
0.0
 51
0.0
 71
     0
 72
   100
 73
     1
 74
     1
 75
     0
 76
     0
 77
     0
 78
     0
281
     0
 65
     1
110
0.0
120
0.0
130
0.0
111
1.0
121
0.0
131
0.0
112
0.0
122
1.0
132
0.0
 79
     0
146
0.0
 60
     3
 61
     5
292
     1
282
     1
141
0.0
142
0.0
 63
   250
421
  3355443
  0
ENDTAB
  0
TABLE
  2
LTYPE
  5
5
330
0
100
AcDbSymbolTable
 70
     1
  0
LTYPE
  5
5B
330
5
100
AcDbSymbolTableRecord
100
AcDbLinetypeTableRecord
  2
ByBlock
 70
     0
  3

 72
    65
 73
     0
 40
0.0
  0
LTYPE
  5
5C
330
5
100
AcDbSymbolTableRecord
100
AcDbLinetypeTableRecord
  2
ByLayer
 70
     0
  3

 72
    65
 73
     0
 40
0.0
  0
LTYPE
  5
5D
330
5
100
AcDbSymbolTableRecord
100
AcDbLinetypeTableRecord
  2
Continuous
 70
     0
  3
Solid line
 72
    65
 73
     0
 40
0.0
  0
ENDTAB
  0
TABLE
  2
LAYER
  5
2
330
0
100
AcDbSymbolTable
 70
     2
  0
LAYER
  5
54
330
2
100
AcDbSymbolTableRecord
100
AcDbLayerTableRecord
  2
0
 70
     0
 62
     7
  6
Continuous
370
     0
390
F
347
21
348
0
  0
LAYER
  5
159
330
2
100
AcDbSymbolTableRecord
100
AcDbLayerTableRecord
  2
CAPA_BASE
 70
     0
 62
     7
  6
Continuous
370
     0
390
F
347
21
348
0
  0
ENDTAB
  0
TABLE
  2
STYLE
  5
3
330
0
100
AcDbSymbolTable
 70
     2
  0
STYLE
  5
55
330
3
100
AcDbSymbolTableRecord
100
AcDbTextStyleTableRecord
  2
Standard
 70
     0
 40
0.0
 41
1.0
 50
0.0
 71
     0
 42
0.2
  3
txt
  4

  0
STYLE
  5
5A
330
3
100
AcDbSymbolTableRecord
100
AcDbTextStyleTableRecord
  2
Annotative
 70
     0
 40
0.0
 41
1.0
 50
0.0
 71
     0
 42
0.2
  3
txt
  4

1001
AcadAnnotative
1000
AnnotativeData
1002
{
1070
     1
1070
     1
1002
}
  0
ENDTAB
  0
TABLE
  2
VIEW
  5
6
330
0
100
AcDbSymbolTable
 70
     0
  0
ENDTAB
  0
TABLE
  2
UCS
  5
7
330
0
100
AcDbSymbolTable
 70
     0
  0
ENDTAB
  0
TABLE
  2
APPID
  5
9
330
0
100
AcDbSymbolTable
 70
     2
  0
APPID
  5
56
330
9
100
AcDbSymbolTableRecord
100
AcDbRegAppTableRecord
  2
ACAD
 70
     0
  0
APPID
  5
5E
330
9
100
AcDbSymbolTableRecord
100
AcDbRegAppTableRecord
  2
AcadAnnotative
 70
     0
  0
ENDTAB
  0
TABLE
  2
DIMSTYLE
  5
A
330
0
100
AcDbSymbolTable
 70
     2
100
AcDbDimStyleTable
 71
     0
  0
DIMSTYLE
105
58
330
A
100
AcDbSymbolTableRecord
100
AcDbDimStyleTableRecord
  2
Standard
 70
     0
340
55
  0
DIMSTYLE
105
59
330
A
100
AcDbSymbolTableRecord
100
AcDbDimStyleTableRecord
  2
Annotative
 70
     0
340
55
1001
AcadAnnotative
1000
AnnotativeData
1002
{
1070
     1
1070
     1
1002
}
  0
ENDTAB
  0
TABLE
  2
BLOCK_RECORD
  5
1
330
0
100
AcDbSymbolTable
 70
     4
  0
BLOCK_RECORD
  5
70
330
1
100
AcDbSymbolTableRecord
100
AcDbBlockTableRecord
  2
*Model_Space
340
73
 70
     0
280
     1
281
     0
  0
BLOCK_RECORD
  5
6C
330
1
100
AcDbSymbolTableRecord
100
AcDbBlockTableRecord
  2
*Paper_Space
340
6F
 70
     0
280
     1
281
     0
  0
BLOCK_RECORD
  5
74
330
1
100
AcDbSymbolTableRecord
100
AcDbBlockTableRecord
  2
*Paper_Space0
340
77
 70
     0
280
     1
281
     0
  0
BLOCK_RECORD
  5
15A
330
1
100
AcDbSymbolTableRecord
100
AcDbBlockTableRecord
  2
Block_0
340
0
102
{BLKREFS
331
15B
102
}
 70
     0
280
     1
281
     0
  0
BLOCK_RECORD
  5
167
330
1
100
AcDbSymbolTableRecord
100
AcDbBlockTableRecord
  2
Block_1
340
0
102
{BLKREFS
331
168
102
}
 70
     0
280
     1
281
     0
  0
BLOCK_RECORD
  5
173
330
1
100
AcDbSymbolTableRecord
100
AcDbBlockTableRecord
  2
Block_2
340
0
102
{BLKREFS
331
174
102
}
 70
     0
280
     1
281
     0
  0
ENDTAB
  0
ENDSEC
  0
SECTION
  2
BLOCKS
  0
BLOCK
  5
71
330
70
100
AcDbEntity
  8
0
100
AcDbBlockBegin
  2
*Model_Space
 70
     0
 10
0.0
 20
0.0
 30
0.0
  3
*Model_Space
  1

  0
ENDBLK
  5
72
330
70
100
AcDbEntity
  8
0
100
AcDbBlockEnd
  0
BLOCK
  5
6D
330
6C
100
AcDbEntity
 67
     1
  8
0
100
AcDbBlockBegin
  2
*Paper_Space
 70
     0
 10
0.0
 20
0.0
 30
0.0
  3
*Paper_Space
  1

  0
ENDBLK
  5
6E
330
6C
100
AcDbEntity
 67
     1
  8
0
100
AcDbBlockEnd
  0
BLOCK
  5
75
330
74
100
AcDbEntity
 67
     1
  8
0
100
AcDbBlockBegin
  2
*Paper_Space0
 70
     0
 10
0.0
 20
0.0
 30
0.0
  3
*Paper_Space0
  1

  0
ENDBLK
  5
76
330
74
100
AcDbEntity
 67
     1
  8
0
100
AcDbBlockEnd
  0
BLOCK
  5
15C
330
15A
100
AcDbEntity
  8
0
100
AcDbBlockBegin
  2
Block_0
 70
     0
 10
0.0
 20
0.0
 30
0.0
  3
Block_0
  1

  0
LWPOLYLINE
  5
15E
330
15A
100
AcDbEntity
  8
CAPA_BASE
100
AcDbPolyline
 90
        4
 70
     1
 43
0.0
 10
62.14139871973422
 20
-3.39672007080497
 10
63.76752549703948
 20
-3.598359791190828
 10
63.76752549703948
 20
-3.195080350419113
 10
63.76752549703948
 20
-3.195080350419113
  0
HATCH
  5
15F
330
15A
100
AcDbEntity
  8
CAPA_BASE
 62
    18
420
        0
440
 33554687
100
AcDbHatch
 10
0.0
 20
0.0
 30
0.0
210
0.0
220
0.0
230
1.0
  2
SOLID
 70
     1
 71
     1
 91
        1
 92
        1
 93
        3
 72
     1
 10
62.14139871973422
 20
-3.39672007080497
 11
63.76752549703948
 21
-3.598359791190828
 72
     1
 10
63.76752549703948
 20
-3.598359791190828
 11
63.76752549703948
 21
-3.195080350419113
 72
     1
 10
63.76752549703948
 20
-3.195080350419113
 11
62.14139871973422
 21
-3.39672007080497
 97
        1
330
15E
 75
     2
 76
     1
 98
        1
 10
0.0
 20
0.0
450
        0
451
        0
460
0.0
461
0.0
452
        0
462
0.0
453
        0
470

  0
LWPOLYLINE
  5
160
330
15A
100
AcDbEntity
  8
CAPA_BASE
100
AcDbPolyline
 90
        4
 70
     1
 43
0.0
 10
86.85852573477154
 20
-3.39672007080497
 10
85.23239895746661
 20
-3.195080350419113
 10
85.23239895746661
 20
-3.598359791190828
 10
85.23239895746661
 20
-3.598359791190828
  0
HATCH
  5
161
330
15A
100
AcDbEntity
  8
CAPA_BASE
 62
    18
420
        0
440
 33554687
100
AcDbHatch
 10
0.0
 20
0.0
 30
0.0
210
0.0
220
0.0
230
1.0
  2
SOLID
 70
     1
 71
     1
 91
        1
 92
        1
 93
        3
 72
     1
 10
86.85852573477154
 20
-3.39672007080497
 11
85.23239895746661
 21
-3.195080350419113
 72
     1
 10
85.23239895746661
 20
-3.195080350419113
 11
85.23239895746661
 21
-3.598359791190828
 72
     1
 10
85.23239895746661
 20
-3.598359791190828
 11
86.85852573477154
 21
-3.39672007080497
 97
        1
330
160
 75
     2
 76
     1
 98
        1
 10
0.0
 20
0.0
450
        0
451
        0
460
0.0
461
0.0
452
        0
462
0.0
453
        0
470

  0
LINE
  5
162
330
15A
100
AcDbEntity
  8
CAPA_BASE
 62
    18
420
        0
370
    25
100
AcDbLine
 10
62.14139871973422
 20
32.82525389366587
 30
0.0
 11
62.14139871973422
 21
-4.047170781726946
 31
0.0
  0
LINE
  5
163
330
15A
100
AcDbEntity
  8
CAPA_BASE
 62
    18
420
        0
370
    25
100
AcDbLine
 10
86.85852573477154
 20
32.82525389366587
 30
0.0
 11
86.85852573477154
 21
-4.047170781726946
 31
0.0
  0
LINE
  5
164
330
15A
100
AcDbEntity
  8
CAPA_BASE
 62
    18
420
        0
370
    25
100
AcDbLine
 10
62.14139871973422
 20
-3.39672007080497
 30
0.0
 11
86.85852573477154
 21
-3.39672007080497
 31
0.0
  0
MTEXT
  5
165
330
15A
100
AcDbEntity
  8
CAPA_BASE
100
AcDbMText
 10
72.25587164873833
 20
-2.880423476240818
 30
0.0
 40
0.2
 41
0.0
 46
0.0
 71
     7
 72
     1
  1
\C18;\c0;\FArial Bold|b1|i0|c1;\H2.997200;\W0.700000;Ø
 73
     1
 44
1.0
  0
MTEXT
  5
166
330
15A
100
AcDbEntity
  8
CAPA_BASE
100
AcDbMText
 10
74.44940700789047
 20
-2.880423476240818
 30
0.0
 40
0.2
 41
0.0
 46
0.0
 71
     7
 72
     1
  1
\C18;\c0;\FArial Bold|b1|i0|c1;\H2.997200;\W0.700000;76
 73
     1
 44
1.0
  0
ENDBLK
  5
15D
330
15A
100
AcDbEntity
  8
0
100
AcDbBlockEnd
  0
BLOCK
  5
169
330
167
100
AcDbEntity
  8
0
100
AcDbBlockBegin
  2
Block_1
 70
     0
 10
0.0
 20
0.0
 30
0.0
  3
Block_1
  1

  0
LWPOLYLINE
  5
16B
330
167
100
AcDbEntity
  8
CAPA_BASE
100
AcDbPolyline
 90
        4
 70
     1
 43
0.0
 10
114.8378273327674
 20
40.91523461075854
 10
114.6361876123816
 20
39.28910783345393
 10
115.0394670531533
 20
39.28910783345393
 10
115.0394670531533
 20
39.28910783345393
  0
HATCH
  5
16C
330
167
100
AcDbEntity
  8
CAPA_BASE
 62
    18
420
        0
440
 33554687
100
AcDbHatch
 10
0.0
 20
0.0
 30
0.0
210
0.0
220
0.0
230
1.0
  2
SOLID
 70
     1
 71
     1
 91
        1
 92
        1
 93
        3
 72
     1
 10
114.8378273327674
 20
40.91523461075854
 11
114.6361876123816
 21
39.28910783345393
 72
     1
 10
114.6361876123816
 20
39.28910783345393
 11
115.0394670531533
 21
39.28910783345393
 72
     1
 10
115.0394670531533
 20
39.28910783345393
 11
114.8378273327674
 21
40.91523461075854
 97
        1
330
16B
 75
     2
 76
     1
 98
        1
 10
0.0
 20
0.0
450
        0
451
        0
460
0.0
461
0.0
452
        0
462
0.0
453
        0
470

  0
LWPOLYLINE
  5
16D
330
167
100
AcDbEntity
  8
CAPA_BASE
100
AcDbPolyline
 90
        4
 70
     1
 43
0.0
 10
114.8378273327674
 20
3.107787038415426
 10
115.0394670531533
 20
4.733913815720043
 10
114.6361876123816
 20
4.733913815720043
 10
114.6361876123816
 20
4.733913815720043
  0
HATCH
  5
16E
330
167
100
AcDbEntity
  8
CAPA_BASE
 62
    18
420
        0
440
 33554687
100
AcDbHatch
 10
0.0
 20
0.0
 30
0.0
210
0.0
220
0.0
230
1.0
  2
SOLID
 70
     1
 71
     1
 91
        1
 92
        1
 93
        3
 72
     1
 10
114.8378273327674
 20
3.107787038415426
 11
115.0394670531533
 21
4.733913815720043
 72
     1
 10
115.0394670531533
 20
4.733913815720043
 11
114.6361876123816
 21
4.733913815720043
 72
     1
 10
114.6361876123816
 20
4.733913815720043
 11
114.8378273327674
 21
3.107787038415426
 97
        1
330
16D
 75
     2
 76
     1
 98
        1
 10
0.0
 20
0.0
450
        0
451
        0
460
0.0
461
0.0
452
        0
462
0.0
453
        0
470

  0
LINE
  5
16F
330
167
100
AcDbEntity
  8
CAPA_BASE
 62
    18
420
        0
370
    25
100
AcDbLine
 10
120.7563671219677
 20
40.91523461075854
 30
0.0
 11
114.1873766218455
 21
40.91523461075854
 31
0.0
  0
LINE
  5
170
330
167
100
AcDbEntity
  8
CAPA_BASE
 62
    18
420
        0
370
    25
100
AcDbLine
 10
133.598009381042
 20
3.107787038415426
 30
0.0
 11
114.1873766218455
 21
3.107787038415426
 31
0.0
  0
LINE
  5
171
330
167
100
AcDbEntity
  8
CAPA_BASE
 62
    18
420
        0
370
    25
100
AcDbLine
 10
114.8378273327674
 20
40.91523461075854
 30
0.0
 11
114.8378273327674
 21
3.107787038415426
 31
0.0
  0
MTEXT
  5
172
330
167
100
AcDbEntity
  8
CAPA_BASE
100
AcDbMText
 10
114.3215318182084
 20
20.29057887947533
 30
0.0
 40
0.2
 41
0.0
 46
0.0
 71
     7
 72
     1
  1
\C18;\c0;\FArial Bold|b1|i0|c1;\H2.997200;\W0.700000;116
 11
0.0000000000000003
 21
1.0
 31
0.0
 73
     1
 44
1.0
  0
ENDBLK
  5
16A
330
167
100
AcDbEntity
  8
0
100
AcDbBlockEnd
  0
BLOCK
  5
175
330
173
100
AcDbEntity
  8
0
100
AcDbBlockBegin
  2
Block_2
 70
     0
 10
0.0
 20
0.0
 30
0.0
  3
Block_2
  1

  0
LWPOLYLINE
  5
177
330
173
100
AcDbEntity
  8
CAPA_BASE
100
AcDbPolyline
 90
        4
 70
     1
 43
0.0
 10
93.38324881754855
 20
-25.12959626691647
 10
93.1816090971627
 20
-26.7557230442211
 10
93.58488853793408
 20
-26.7557230442211
 10
93.58488853793408
 20
-26.7557230442211
  0
HATCH
  5
178
330
173
100
AcDbEntity
  8
CAPA_BASE
 62
    18
420
        0
440
 33554687
100
AcDbHatch
 10
0.0
 20
0.0
 30
0.0
210
0.0
220
0.0
230
1.0
  2
SOLID
 70
     1
 71
     1
 91
        1
 92
        1
 93
        3
 72
     1
 10
93.38324881754855
 20
-25.12959626691647
 11
93.1816090971627
 21
-26.7557230442211
 72
     1
 10
93.1816090971627
 20
-26.7557230442211
 11
93.58488853793408
 21
-26.7557230442211
 72
     1
 10
93.58488853793408
 20
-26.7557230442211
 11
93.38324881754855
 21
-25.12959626691647
 97
        1
330
177
 75
     2
 76
     1
 98
        1
 10
0.0
 20
0.0
450
        0
451
        0
460
0.0
461
0.0
452
        0
462
0.0
453
        0
470

  0
LWPOLYLINE
  5
179
330
173
100
AcDbEntity
  8
CAPA_BASE
100
AcDbPolyline
 90
        4
 70
     1
 43
0.0
 10
93.38324881754855
 20
-59.94891908303095
 10
93.58488853793408
 20
-58.32279230572634
 10
93.1816090971627
 20
-58.32279230572634
 10
93.1816090971627
 20
-58.32279230572634
  0
HATCH
  5
17A
330
173
100
AcDbEntity
  8
CAPA_BASE
 62
    18
420
        0
440
 33554687
100
AcDbHatch
 10
0.0
 20
0.0
 30
0.0
210
0.0
220
0.0
230
1.0
  2
SOLID
 70
     1
 71
     1
 91
        1
 92
        1
 93
        3
 72
     1
 10
93.38324881754855
 20
-59.94891908303095
 11
93.58488853793408
 21
-58.32279230572634
 72
     1
 10
93.58488853793408
 20
-58.32279230572634
 11
93.1816090971627
 21
-58.32279230572634
 72
     1
 10
93.1816090971627
 20
-58.32279230572634
 11
93.38324881754855
 21
-59.94891908303095
 97
        1
330
179
 75
     2
 76
     1
 98
        1
 10
0.0
 20
0.0
450
        0
451
        0
460
0.0
461
0.0
452
        0
462
0.0
453
        0
470

  0
LINE
  5
17B
330
173
100
AcDbEntity
  8
CAPA_BASE
 62
    18
420
        0
370
    25
100
AcDbLine
 10
82.40294084167691
 20
-25.12959626691647
 30
0.0
 11
94.03369952847054
 21
-25.12959626691647
 31
0.0
  0
LINE
  5
17C
330
173
100
AcDbEntity
  8
CAPA_BASE
 62
    18
420
        0
370
    25
100
AcDbLine
 10
75.15041293817502
 20
-59.94891908303095
 30
0.0
 11
94.03369952847054
 21
-59.94891908303095
 31
0.0
  0
LINE
  5
17D
330
173
100
AcDbEntity
  8
CAPA_BASE
 62
    18
420
        0
370
    25
100
AcDbLine
 10
93.38324881754855
 20
-25.12959626691647
 30
0.0
 11
93.38324881754855
 21
-59.94891908303095
 31
0.0
  0
MTEXT
  5
17E
330
173
100
AcDbEntity
  8
CAPA_BASE
100
AcDbMText
 10
92.86695206757709
 20
-44.26017522765087
 30
0.0
 40
0.2
 41
0.0
 46
0.0
 71
     7
 72
     1
  1
\C18;\c0;\FArial Bold|b1|i0|c1;\H2.997200;\W0.700000;107
 11
0.0000000000000003
 21
1.0
 31
0.0
 73
     1
 44
1.0
  0
ENDBLK
  5
176
330
173
100
AcDbEntity
  8
0
100
AcDbBlockEnd
  0
ENDSEC
  0
SECTION
  2
ENTITIES
  0
SPLINE
  5
78
330
70
100
AcDbEntity
  8
0
 62
    18
420
        0
370
    25
100
AcDbSpline
210
0.0
220
0.0
230
1.0
 70
     8
 71
     3
 72
    11
 73
     7
 74
     0
 42
0.0000000001
 43
0.0000000001
 40
0.0
 40
0.0
 40
0.0
 40
0.0
 40
1.0
 40
1.0
 40
1.0
 40
2.0
 40
2.0
 40
2.0
 40
2.0
 10
62.12118893797013
 20
31.15989299223276
 30
0.0
 10
62.1204052208894
 20
31.07008790982497
 30
0.0
 10
62.19257129619662
 20
30.99665117807087
 30
0.0
 10
62.28237637860376
 20
30.99586746099015
 30
0.0
 10
62.28284938244826
 20
30.99586333314814
 30
0.0
 10
62.28332240205255
 20
30.99586126919761
 30
0.0
 10
62.28379542390825
 20
30.99586126919761
 30
0.0
  0
SPLINE
  5
79
330
70
100
AcDbEntity
  8
0
 62
    18
420
        0
370
    25
100
AcDbSpline
210
0.0
220
0.0
230
1.0
 70
     8
 71
     3
 72
    11
 73
     7
 74
     0
 42
0.0000000001
 43
0.0000000001
 40
0.0
 40
0.0
 40
0.0
 40
0.0
 40
1.0
 40
1.0
 40
1.0
 40
2.0
 40
2.0
 40
2.0
 40
2.0
 10
86.71612903059751
 20
30.99586126919761
 30
0.0
 10
86.80593753263712
 20
30.99586126919761
 30
0.0
 10
86.87874170832817
 20
31.06866544488833
 30
0.0
 10
86.87874170832817
 20
31.15847394692762
 30
0.0
 10
86.87874170832817
 20
31.15894696878365
 30
0.0
 10
86.87873964437764
 20
31.15941998838795
 30
0.0
 10
86.87873551653563
 20
31.15989299223276
 30
0.0
  0
LINE
  5
7A
330
70
100
AcDbEntity
  8
0
 62
    18
420
        0
370
    25
100
AcDbLine
 10
86.87873551655776
 20
31.15989299218399
 30
0.0
 11
86.85852573477154
 21
33.47570460458785
 31
0.0
  0
LINE
  5
7B
330
70
100
AcDbEntity
  8
0
 62
    18
420
        0
370
    25
100
AcDbLine
 10
62.14139871973422
 20
33.47570460458785
 30
0.0
 11
62.12118893794799
 21
31.15989299218399
 31
0.0
  0
SPLINE
  5
7C
330
70
100
AcDbEntity
  8
0
 62
    18
420
        0
370
    25
100
AcDbSpline
210
0.0
220
0.0
230
1.0
 70
     8
 71
     3
 72
     8
 73
     4
 74
     0
 42
0.0000000001
 43
0.0000000001
 40
0.0
 40
0.0
 40
0.0
 40
0.0
 40
1.0
 40
1.0
 40
1.0
 40
1.0
 10
86.85852573477443
 20
33.47570460458785
 30
0.0
 10
86.85852573477443
 20
34.33272260928679
 30
0.0
 10
86.83594201471956
 20
35.18959180937069
 30
0.0
 10
86.79079808972312
 20
36.04541999680915
 30
0.0
  0
SPLINE
  5
7D
330
70
100
AcDbEntity
  8
0
 62
    18
420
        0
370
    25
100
AcDbSpline
210
0.0
220
0.0
230
1.0
 70
     8
 71
     3
 72
     8
 73
     4
 74
     0
 42
0.0000000001
 43
0.0000000001
 40
0.0
 40
0.0
 40
0.0
 40
0.0
 40
1.0
 40
1.0
 40
1.0
 40
1.0
 10
62.20912636478296
 20
36.04541999680915
 30
0.0
 10
62.1639824397862
 20
35.18959180937069
 30
0.0
 10
62.14139871973133
 20
34.33272260928679
 30
0.0
 10
62.14139871973133
 20
33.47570460458785
 30
0.0
  0
SPLINE
  5
7E
330
70
100
AcDbEntity
  8
0
 62
    18
420
        0
370
    25
100
AcDbSpline
210
0.0
220
0.0
230
1.0
 70
     8
 71
     3
 72
     8
 73
     4
 74
     0
 42
0.0000000001
 43
0.0000000001
 40
0.0
 40
0.0
 40
0.0
 40
0.0
 40
1.0
 40
1.0
 40
1.0
 40
1.0
 10
86.79079808969392
 20
36.0454199968175
 30
0.0
 10
86.78624271534136
 20
36.13177974013633
 30
0.0
 10
86.71489097594625
 20
36.19946695657406
 30
0.0
 10
86.62841117078015
 20
36.19946695657406
 30
0.0
  0
SPLINE
  5
7F
330
70
100
AcDbEntity
  8
0
 62
    18
420
        0
370
    25
100
AcDbSpline
210
0.0
220
0.0
230
1.0
 70
     8
 71
     3
 72
     8
 73
     4
 74
     0
 42
0.0000000001
 43
0.0000000001
 40
0.0
 40
0.0
 40
0.0
 40
0.0
 40
1.0
 40
1.0
 40
1.0
 40
1.0
 10
62.37151328366049
 20
36.19946695657406
 30
0.0
 10
62.2850334784947
 20
36.19946695657406
 30
0.0
 10
62.21368173909928
 20
36.13177974013633
 30
0.0
 10
62.20912636474703
 20
36.0454199968175
 30
0.0
  0
LINE
  5
80
330
70
100
AcDbEntity
  8
0
 62
    18
420
        0
370
    25
100
AcDbLine
 10
62.7918494306562
 20
36.28077329543874
 30
0.0
 11
62.7918494306562
 21
36.19946695657406
 31
0.0
  0
LINE
  5
81
330
70
100
AcDbEntity
  8
0
 62
    18
420
        0
370
    25
100
AcDbLine
 10
86.20807502384955
 20
36.19946695657406
 30
0.0
 11
86.20807502384955
 21
36.28077329543874
 31
0.0
  0
SPLINE
  5
82
330
70
100
AcDbEntity
  8
0
 62
    18
420
        0
370
    25
100
AcDbSpline
210
0.0
220
0.0
230
1.0
 70
     8
 71
     3
 72
    11
 73
     7
 74
     0
 42
0.0000000001
 43
0.0000000001
 40
0.0
 40
0.0
 40
0.0
 40
0.0
 40
1.0
 40
1.0
 40
1.0
 40
2.0
 40
2.0
 40
2.0
 40
2.0
 10
86.64155722180227
 20
39.36899512701412
 30
0.0
 10
86.64234093888332
 20
39.45880020942127
 30
0.0
 10
86.57017486357611
 20
39.53223694117601
 30
0.0
 10
86.48036978116897
 20
39.53302065825673
 30
0.0
 10
86.47989677732446
 20
39.53302478609874
 30
0.0
 10
86.47942375771986
 20
39.53302685004926
 30
0.0
 10
86.47895073586415
 20
39.53302685004926
 30
0.0
  0
SPLINE
  5
83
330
70
100
AcDbEntity
  8
0
 62
    18
420
        0
370
    25
100
AcDbSpline
210
0.0
220
0.0
230
1.0
 70
     8
 71
     3
 72
    11
 73
     7
 74
     0
 42
0.0000000001
 43
0.0000000001
 40
0.0
 40
0.0
 40
0.0
 40
0.0
 40
1.0
 40
1.0
 40
1.0
 40
2.0
 40
2.0
 40
2.0
 40
2.0
 10
62.52097371864161
 20
39.53302685004926
 30
0.0
 10
62.431165216602
 20
39.53302685004926
 30
0.0
 10
62.35836104091127
 20
39.46022267435855
 30
0.0
 10
62.35836104091127
 20
39.37041417231861
 30
0.0
 10
62.35836104091127
 20
39.36994115046323
 30
0.0
 10
62.35836310486148
 20
39.36946813085894
 30
0.0
 10
62.35836723270349
 20
39.36899512701412
 30
0.0
  0
LINE
  5
84
330
70
100
AcDbEntity
  8
0
 62
    18
420
        0
370
    25
100
AcDbLine
 10
62.35836723268167
 20
39.36899512699744
 30
0.0
 11
62.38391102082228
 21
36.44196692784823
 31
0.0
  0
LINE
  5
85
330
70
100
AcDbEntity
  8
0
 62
    18
420
        0
370
    25
100
AcDbLine
 10
86.61601343368348
 20
36.44196692784823
 30
0.0
 11
86.64155722182441
 21
39.36899512699744
 31
0.0
  0
SPLINE
  5
86
330
70
100
AcDbEntity
  8
0
 62
    18
420
        0
370
    25
100
AcDbSpline
210
0.0
220
0.0
230
1.0
 70
     8
 71
     3
 72
     8
 73
     4
 74
     0
 42
0.0000000001
 43
0.0000000001
 40
0.0
 40
0.0
 40
0.0
 40
0.0
 40
1.0
 40
1.0
 40
1.0
 40
1.0
 10
86.45340694772322
 20
36.28077329543874
 30
0.0
 10
86.54266177053363
 20
36.28077329543874
 30
0.0
 10
86.61523454828177
 20
36.35271550360459
 30
0.0
 10
86.61601343366134
 20
36.44196692786491
 30
0.0
  0
SPLINE
  5
87
330
70
100
AcDbEntity
  8
0
 62
    18
420
        0
370
    25
100
AcDbSpline
210
0.0
220
0.0
230
1.0
 70
     8
 71
     3
 72
     8
 73
     4
 74
     0
 42
0.0000000001
 43
0.0000000001
 40
0.0
 40
0.0
 40
0.0
 40
0.0
 40
1.0
 40
1.0
 40
1.0
 40
1.0
 10
62.3839110207793
 20
36.44196692786491
 30
0.0
 10
62.38468990615918
 20
36.35271550360459
 30
0.0
 10
62.45726268390701
 20
36.28077329543874
 30
0.0
 10
62.54651750671741
 20
36.28077329543874
 30
0.0
  0
LINE
  5
88
330
70
100
AcDbEntity
  8
0
 62
    18
420
        0
370
    25
100
AcDbLine
 10
64.14456371547351
 20
30.99586126919761
 30
0.0
 11
64.41324036934974
 21
3.590842575580206
 31
0.0
  0
LINE
  5
89
330
70
100
AcDbEntity
  8
0
 62
    18
420
        0
370
    25
100
AcDbLine
 10
84.58668408515634
 20
3.590842575580206
 30
0.0
 11
84.85536073896744
 21
30.99586126919761
 31
0.0
  0
SPLINE
  5
8A
330
70
100
AcDbEntity
  8
0
 62
    18
420
        0
370
    25
100
AcDbSpline
210
0.0
220
0.0
230
1.0
 70
     8
 71
     3
 72
     8
 73
     4
 74
     0
 42
0.0000000001
 43
0.0000000001
 40
0.0
 40
0.0
 40
0.0
 40
0.0
 40
1.0
 40
1.0
 40
1.0
 40
1.0
 10
84.09886949498888
 20
3.107787038415426
 30
0.0
 10
84.366429180773
 20
3.107787038415426
 30
0.0
 10
84.58406107701595
 20
3.323295747414506
 30
0.0
 10
84.58668408513581
 20
3.590842575625125
 30
0.0
  0
SPLINE
  5
8B
330
70
100
AcDbEntity
  8
0
 62
    18
420
        0
370
    25
100
AcDbSpline
210
0.0
220
0.0
230
1.0
 70
     8
 71
     3
 72
     8
 73
     4
 74
     0
 42
0.0000000001
 43
0.0000000001
 40
0.0
 40
0.0
 40
0.0
 40
0.0
 40
1.0
 40
1.0
 40
1.0
 40
1.0
 10
64.41324036936994
 20
3.590842575625125
 30
0.0
 10
64.41586337748983
 20
3.323295747414506
 30
0.0
 10
64.63349527373278
 20
3.107787038415426
 30
0.0
 10
64.90105495951688
 20
3.107787038415426
 30
0.0
  0
LINE
  5
8C
330
70
100
AcDbEntity
  8
0
 62
    18
420
        0
370
    25
100
AcDbLine
 10
81.74170002220256
 20
40.83940190783533
 30
0.0
 11
67.25822443223808
 21
40.83940190783533
 31
0.0
  0
LINE
  5
8D
330
70
100
AcDbEntity
  8
0
 62
    18
420
        0
370
    25
100
AcDbLine
 10
67.19318183786727
 20
40.83940190783533
 30
0.0
 11
67.25822443223808
 21
40.83940190783533
 31
0.0
  0
LINE
  5
8E
330
70
100
AcDbEntity
  8
0
 62
    18
420
        0
370
    25
100
AcDbLine
 10
81.74170002220256
 20
40.83940190783533
 30
0.0
 11
81.80674261657369
 21
40.83940190783533
 31
0.0
  0
LINE
  5
8F
330
70
100
AcDbEntity
  8
0
 62
    18
420
        0
370
    25
100
AcDbLine
 10
67.25822443223808
 20
40.90444450220648
 30
0.0
 11
67.25822443223808
 21
40.83940190783533
 31
0.0
  0
SPLINE
  5
90
330
70
100
AcDbEntity
  8
0
 62
    18
420
        0
370
    25
100
AcDbSpline
210
0.0
220
0.0
230
1.0
 70
     8
 71
     3
 72
     8
 73
     4
 74
     0
 42
0.0000000001
 43
0.0000000001
 40
0.0
 40
0.0
 40
0.0
 40
0.0
 40
1.0
 40
1.0
 40
1.0
 40
1.0
 10
67.25822443222525
 20
40.9044445022238
 30
0.0
 10
67.22230372636992
 20
40.90444129850413
 30
0.0
 10
67.19318504156897
 20
40.87532261370349
 30
0.0
 10
67.19318183784993
 20
40.83940190784817
 30
0.0
  0
LINE
  5
91
330
70
100
AcDbEntity
  8
0
 62
    18
420
        0
370
    25
100
AcDbLine
 10
67.25822443223808
 20
40.90444450220648
 30
0.0
 11
81.74170002220256
 21
40.90444450220648
 31
0.0
  0
LINE
  5
92
330
70
100
AcDbEntity
  8
0
 62
    18
420
        0
370
    25
100
AcDbLine
 10
81.74170002220256
 20
40.83940190783533
 30
0.0
 11
81.74170002220256
 21
40.90444450220648
 31
0.0
  0
SPLINE
  5
93
330
70
100
AcDbEntity
  8
0
 62
    18
420
        0
370
    25
100
AcDbSpline
210
0.0
220
0.0
230
1.0
 70
     8
 71
     3
 72
     8
 73
     4
 74
     0
 42
0.0000000001
 43
0.0000000001
 40
0.0
 40
0.0
 40
0.0
 40
0.0
 40
1.0
 40
1.0
 40
1.0
 40
1.0
 10
81.80674261659069
 20
40.83940190784817
 30
0.0
 10
81.80673941287166
 20
40.87532261370349
 30
0.0
 10
81.7776207280707
 20
40.90444129850413
 30
0.0
 10
81.74170002221538
 20
40.9044445022238
 30
0.0
  0
LINE
  5
94
330
70
100
AcDbEntity
  8
0
 62
    18
420
        0
370
    25
100
AcDbLine
 10
81.81753272512574
 20
40.85019201632259
 30
0.0
 11
81.80674261657369
 21
40.83940190783533
 31
0.0
  0
LINE
  5
95
330
70
100
AcDbEntity
  8
0
 62
    18
420
        0
370
    25
100
AcDbLine
 10
81.74170002220256
 20
40.90444450220648
 30
0.0
 11
81.75249013075461
 21
40.91523461075854
 31
0.0
  0
SPLINE
  5
96
330
70
100
AcDbEntity
  8
0
 62
    18
420
        0
370
    25
100
AcDbSpline
210
0.0
220
0.0
230
1.0
 70
     8
 71
     3
 72
    11
 73
     7
 74
     0
 42
0.0000000001
 43
0.0000000001
 40
0.0
 40
0.0
 40
0.0
 40
0.0
 40
1.0
 40
1.0
 40
1.0
 40
2.0
 40
2.0
 40
2.0
 40
2.0
 10
81.81753272513793
 20
40.85019201633029
 30
0.0
 10
81.81753319350283
 20
40.88611358092844
 30
0.0
 10
81.78841339145989
 20
40.9152341423407
 30
0.0
 10
81.75249182686206
 20
40.91523461070528
 30
0.0
 10
81.75249126149536
 20
40.91523461071298
 30
0.0
 10
81.75249069612931
 20
40.91523461071298
 30
0.0
 10
81.75249013076262
 20
40.91523461070528
 30
0.0
  0
LINE
  5
97
330
70
100
AcDbEntity
  8
0
 62
    18
420
        0
370
    25
100
AcDbLine
 10
67.24743432375115
 20
40.91523461075854
 30
0.0
 11
67.25822443223808
 21
40.90444450220648
 31
0.0
  0
LINE
  5
98
330
70
100
AcDbEntity
  8
0
 62
    18
420
        0
370
    25
100
AcDbLine
 10
67.19318183786727
 20
40.83940190783533
 30
0.0
 11
67.18239172938002
 21
40.85019201632259
 31
0.0
  0
SPLINE
  5
99
330
70
100
AcDbEntity
  8
0
 62
    18
420
        0
370
    25
100
AcDbSpline
210
0.0
220
0.0
230
1.0
 70
     8
 71
     3
 72
    11
 73
     7
 74
     0
 42
0.0000000001
 43
0.0000000001
 40
0.0
 40
0.0
 40
0.0
 40
0.0
 40
1.0
 40
1.0
 40
1.0
 40
2.0
 40
2.0
 40
2.0
 40
2.0
 10
67.24743432374314
 20
40.91523461070528
 30
0.0
 10
67.21151275914498
 20
40.9152350790705
 30
0.0
 10
67.18239219773272
 20
40.88611527702755
 30
0.0
 10
67.18239172936782
 20
40.8501937124294
 30
0.0
 10
67.18239172936044
 20
40.85019314706303
 30
0.0
 10
67.18239172936044
 20
40.85019258169666
 30
0.0
 10
67.18239172936782
 20
40.85019201633029
 30
0.0
  0
LINE
  5
9A
330
70
100
AcDbEntity
  8
0
 62
    18
420
        0
370
    25
100
AcDbLine
 10
67.24743432375115
 20
40.91523461075854
 30
0.0
 11
81.75249013075461
 21
40.91523461075854
 31
0.0
  0
LINE
  5
9B
330
70
100
AcDbEntity
  8
0
 62
    18
420
        0
370
    25
100
AcDbLine
 10
81.81753272512574
 20
40.85019201632259
 30
0.0
 11
81.81753272512574
 21
39.53302685004926
 31
0.0
  0
LINE
  5
9C
330
70
100
AcDbEntity
  8
0
 62
    18
420
        0
370
    25
100
AcDbLine
 10
67.18239172938002
 20
39.53302685004926
 30
0.0
 11
67.18239172938002
 21
40.85019201632259
 31
0.0
  0
LINE
  5
9D
330
70
100
AcDbEntity
  8
0
 62
    18
420
        0
370
    25
100
AcDbLine
 10
86.71612903059751
 20
30.99586126919761
 30
0.0
 11
62.28379542390825
 21
30.99586126919761
 31
0.0
  0
LINE
  5
9E
330
70
100
AcDbEntity
  8
0
 62
    18
420
        0
370
    25
100
AcDbLine
 10
62.37151328366049
 20
36.19946695657406
 30
0.0
 11
86.62841117078015
 21
36.19946695657406
 31
0.0
  0
LINE
  5
9F
330
70
100
AcDbEntity
  8
0
 62
    18
420
        0
370
    25
100
AcDbLine
 10
86.47895073332753
 20
39.53302685004926
 30
0.0
 11
62.52097371864161
 21
39.53302685004926
 31
0.0
  0
LINE
  5
A0
330
70
100
AcDbEntity
  8
0
 62
    18
420
        0
370
    25
100
AcDbLine
 10
86.45340694538166
 20
36.28077329543874
 30
0.0
 11
62.54651750671741
 21
36.28077329543874
 31
0.0
  0
LINE
  5
A1
330
70
100
AcDbEntity
  8
0
 62
    18
420
        0
370
    25
100
AcDbLine
 10
84.09886949316774
 20
3.107787038415426
 30
0.0
 11
64.90105495951688
 21
3.107787038415426
 31
0.0
  0
LINE
  5
A2
330
70
100
AcDbEntity
  8
0
 62
     8
420
  8421504
370
    25
100
AcDbLine
 10
67.25822443223808
 20
40.83940190783533
 30
0.0
 11
67.25822443223808
 21
39.53302685004926
 31
0.0
  0
LINE
  5
A3
330
70
100
AcDbEntity
  8
0
 62
     8
420
  8421504
370
    25
100
AcDbLine
 10
81.74170002220256
 20
39.53302685004926
 30
0.0
 11
81.74170002220256
 21
40.83940190783533
 31
0.0
  0
LINE
  5
A4
330
70
100
AcDbEntity
  8
0
 62
     8
420
  8421504
370
    25
100
AcDbLine
 10
67.19318183786727
 20
39.53302685004926
 30
0.0
 11
67.19318183786727
 21
40.83940190783533
 31
0.0
  0
LINE
  5
A5
330
70
100
AcDbEntity
  8
0
 62
     8
420
  8421504
370
    25
100
AcDbLine
 10
81.80674261657369
 20
40.83940190783533
 30
0.0
 11
81.80674261657369
 21
39.53302685004926
 31
0.0
  0
LINE
  5
A6
330
70
100
AcDbEntity
  8
0
 62
     8
420
  8421504
370
    25
100
AcDbLine
 10
62.12118893794799
 20
31.15989299218399
 30
0.0
 11
86.87873551655776
 21
31.15989299218399
 31
0.0
  0
LINE
  5
A7
330
70
100
AcDbEntity
  8
0
 62
     8
420
  8421504
370
    25
100
AcDbLine
 10
62.14139871973422
 20
33.47570460458785
 30
0.0
 11
86.85852573477154
 21
33.47570460458785
 31
0.0
  0
LINE
  5
A8
330
70
100
AcDbEntity
  8
0
 62
     8
420
  8421504
370
    25
100
AcDbLine
 10
86.79079808968749
 20
36.04541999680402
 30
0.0
 11
62.20912636475312
 21
36.04541999680402
 31
0.0
  0
LINE
  5
A9
330
70
100
AcDbEntity
  8
0
 62
     8
420
  8421504
370
    25
100
AcDbLine
 10
86.64155722182441
 20
39.36899512699744
 30
0.0
 11
62.35836723268167
 21
39.36899512699744
 31
0.0
  0
LINE
  5
AA
330
70
100
AcDbEntity
  8
0
 62
     8
420
  8421504
370
    25
100
AcDbLine
 10
86.61601343368348
 20
36.44196692784823
 30
0.0
 11
62.38391102082228
 21
36.44196692784823
 31
0.0
  0
LINE
  5
AB
330
70
100
AcDbEntity
  8
0
 62
     8
420
  8421504
370
    25
100
AcDbLine
 10
84.58668408515634
 20
3.590842575580206
 30
0.0
 11
64.41324036934974
 21
3.590842575580206
 31
0.0
  0
SPLINE
  5
AC
330
70
100
AcDbEntity
  8
0
 62
    18
420
        0
370
    25
100
AcDbSpline
210
0.0
220
0.0
230
1.0
 70
     8
 71
     3
 72
    11
 73
     7
 74
     0
 42
0.0000000001
 43
0.0000000001
 40
0.0
 40
0.0
 40
0.0
 40
0.0
 40
1.0
 40
1.0
 40
1.0
 40
2.0
 40
2.0
 40
2.0
 40
2.0
 10
156.0635341630449
 20
30.99586126919761
 30
0.0
 10
156.1533426650842
 20
30.99586126919761
 30
0.0
 10
156.2261468407755
 20
31.06866544488833
 30
0.0
 10
156.2261468407755
 20
31.15847394692762
 30
0.0
 10
156.2261468407755
 20
31.15894696878365
 30
0.0
 10
156.226144776825
 20
31.15941998838795
 30
0.0
 10
156.226140648983
 20
31.15989299223276
 30
0.0
  0
LINE
  5
AD
330
70
100
AcDbEntity
  8
0
 62
    18
420
        0
370
    25
100
AcDbLine
 10
156.2261406490048
 20
31.15989299218399
 30
0.0
 11
156.2059308672189
 21
33.47570460458785
 31
0.0
  0
SPLINE
  5
AE
330
70
100
AcDbEntity
  8
0
 62
    18
420
        0
370
    25
100
AcDbSpline
210
0.0
220
0.0
230
1.0
 70
     8
 71
     3
 72
     8
 73
     4
 74
     0
 42
0.0000000001
 43
0.0000000001
 40
0.0
 40
0.0
 40
0.0
 40
0.0
 40
1.0
 40
1.0
 40
1.0
 40
1.0
 10
156.2059308672215
 20
33.47570460458785
 30
0.0
 10
156.2059308672215
 20
34.33272260928679
 30
0.0
 10
156.1833471471666
 20
35.18959180937069
 30
0.0
 10
156.1382032221701
 20
36.04541999680915
 30
0.0
  0
SPLINE
  5
AF
330
70
100
AcDbEntity
  8
0
 62
    18
420
        0
370
    25
100
AcDbSpline
210
0.0
220
0.0
230
1.0
 70
     8
 71
     3
 72
     8
 73
     4
 74
     0
 42
0.0000000001
 43
0.0000000001
 40
0.0
 40
0.0
 40
0.0
 40
0.0
 40
1.0
 40
1.0
 40
1.0
 40
1.0
 10
156.1382032222061
 20
36.0454199968175
 30
0.0
 10
156.1336478478535
 20
36.13177974013633
 30
0.0
 10
156.0622961084584
 20
36.19946695657406
 30
0.0
 10
155.9758163032923
 20
36.19946695657406
 30
0.0
  0
LINE
  5
B0
330
70
100
AcDbEntity
  8
0
 62
    18
420
        0
370
    25
100
AcDbLine
 10
122.7077192547336
 20
30.99586126919761
 30
0.0
 11
131.6312005563553
 21
30.99586126919761
 31
0.0
  0
LINE
  5
B1
330
70
100
AcDbEntity
  8
0
 62
    18
420
        0
370
    25
100
AcDbLine
 10
131.7189184161727
 20
36.19946695657406
 30
0.0
 11
122.7077192547336
 21
36.19946695657406
 31
0.0
  0
LINE
  5
B2
330
70
100
AcDbEntity
  8
0
 62
    18
420
        0
370
    25
100
AcDbLine
 10
132.1392545631032
 20
36.28077329543874
 30
0.0
 11
132.1392545631032
 21
36.19946695657406
 31
0.0
  0
LINE
  5
B3
330
70
100
AcDbEntity
  8
0
 62
    18
420
        0
370
    25
100
AcDbLine
 10
155.5554801562969
 20
36.19946695657406
 30
0.0
 11
155.5554801562969
 21
36.28077329543874
 31
0.0
  0
SPLINE
  5
B4
330
70
100
AcDbEntity
  8
0
 62
    18
420
        0
370
    25
100
AcDbSpline
210
0.0
220
0.0
230
1.0
 70
     8
 71
     3
 72
    11
 73
     7
 74
     0
 42
0.0000000001
 43
0.0000000001
 40
0.0
 40
0.0
 40
0.0
 40
0.0
 40
1.0
 40
1.0
 40
1.0
 40
2.0
 40
2.0
 40
2.0
 40
2.0
 10
155.9889623542496
 20
39.36899512701412
 30
0.0
 10
155.9897460713304
 20
39.45880020942127
 30
0.0
 10
155.9175799960232
 20
39.53223694117601
 30
0.0
 10
155.827774913616
 20
39.53302065825673
 30
0.0
 10
155.8273019097712
 20
39.53302478609874
 30
0.0
 10
155.8268288901669
 20
39.53302685004926
 30
0.0
 10
155.8263558683115
 20
39.53302685004926
 30
0.0
  0
SPLINE
  5
B5
330
70
100
AcDbEntity
  8
0
 62
    18
420
        0
370
    25
100
AcDbSpline
210
0.0
220
0.0
230
1.0
 70
     8
 71
     3
 72
    11
 73
     7
 74
     0
 42
0.0000000001
 43
0.0000000001
 40
0.0
 40
0.0
 40
0.0
 40
0.0
 40
1.0
 40
1.0
 40
1.0
 40
2.0
 40
2.0
 40
2.0
 40
2.0
 10
131.8683788510887
 20
39.53302685004926
 30
0.0
 10
131.7785703490494
 20
39.53302685004926
 30
0.0
 10
131.705766173358
 20
39.46022267435855
 30
0.0
 10
131.705766173358
 20
39.37041417231861
 30
0.0
 10
131.705766173358
 20
39.36994115046323
 30
0.0
 10
131.7057682373085
 20
39.36946813085894
 30
0.0
 10
131.7057723651505
 20
39.36899512701412
 30
0.0
  0
LINE
  5
B6
330
70
100
AcDbEntity
  8
0
 62
    18
420
        0
370
    25
100
AcDbLine
 10
131.7057723651287
 20
39.36899512699744
 30
0.0
 11
131.7313161532693
 21
36.44196692784823
 31
0.0
  0
LINE
  5
B7
330
70
100
AcDbEntity
  8
0
 62
    18
420
        0
370
    25
100
AcDbLine
 10
155.9634185661308
 20
36.44196692784823
 30
0.0
 11
155.9889623542715
 21
39.36899512699744
 31
0.0
  0
SPLINE
  5
B8
330
70
100
AcDbEntity
  8
0
 62
    18
420
        0
370
    25
100
AcDbSpline
210
0.0
220
0.0
230
1.0
 70
     8
 71
     3
 72
     8
 73
     4
 74
     0
 42
0.0000000001
 43
0.0000000001
 40
0.0
 40
0.0
 40
0.0
 40
0.0
 40
1.0
 40
1.0
 40
1.0
 40
1.0
 10
155.8008120802357
 20
36.28077329543874
 30
0.0
 10
155.8900669030458
 20
36.28077329543874
 30
0.0
 10
155.9626396807936
 20
36.35271550360459
 30
0.0
 10
155.9634185661738
 20
36.44196692786491
 30
0.0
  0
SPLINE
  5
B9
330
70
100
AcDbEntity
  8
0
 62
    18
420
        0
370
    25
100
AcDbSpline
210
0.0
220
0.0
230
1.0
 70
     8
 71
     3
 72
     8
 73
     4
 74
     0
 42
0.0000000001
 43
0.0000000001
 40
0.0
 40
0.0
 40
0.0
 40
0.0
 40
1.0
 40
1.0
 40
1.0
 40
1.0
 10
131.7313161532918
 20
36.44196692786491
 30
0.0
 10
131.7320950386714
 20
36.35271550360459
 30
0.0
 10
131.8046678164192
 20
36.28077329543874
 30
0.0
 10
131.8939226392299
 20
36.28077329543874
 30
0.0
  0
LINE
  5
BA
330
70
100
AcDbEntity
  8
0
 62
    18
420
        0
370
    25
100
AcDbLine
 10
133.4919688479854
 20
30.99586126919761
 30
0.0
 11
133.7606455017968
 21
3.590842575580206
 31
0.0
  0
LINE
  5
BB
330
70
100
AcDbEntity
  8
0
 62
    18
420
        0
370
    25
100
AcDbLine
 10
153.9340892176034
 20
3.590842575580206
 30
0.0
 11
154.2027658714796
 21
30.99586126919761
 31
0.0
  0
SPLINE
  5
BC
330
70
100
AcDbEntity
  8
0
 62
    18
420
        0
370
    25
100
AcDbSpline
210
0.0
220
0.0
230
1.0
 70
     8
 71
     3
 72
     8
 73
     4
 74
     0
 42
0.0000000001
 43
0.0000000001
 40
0.0
 40
0.0
 40
0.0
 40
0.0
 40
1.0
 40
1.0
 40
1.0
 40
1.0
 10
153.4462746274362
 20
3.107787038415426
 30
0.0
 10
153.7138343132204
 20
3.107787038415426
 30
0.0
 10
153.9314662094633
 20
3.323295747414506
 30
0.0
 10
153.9340892175829
 20
3.590842575625125
 30
0.0
  0
SPLINE
  5
BD
330
70
100
AcDbEntity
  8
0
 62
    18
420
        0
370
    25
100
AcDbSpline
210
0.0
220
0.0
230
1.0
 70
     8
 71
     3
 72
     8
 73
     4
 74
     0
 42
0.0000000001
 43
0.0000000001
 40
0.0
 40
0.0
 40
0.0
 40
0.0
 40
1.0
 40
1.0
 40
1.0
 40
1.0
 10
133.7606455018173
 20
3.590842575625125
 30
0.0
 10
133.7632685099369
 20
3.323295747414506
 30
0.0
 10
133.9809004061798
 20
3.107787038415426
 30
0.0
 10
134.2484600919639
 20
3.107787038415426
 30
0.0
  0
LINE
  5
BE
330
70
100
AcDbEntity
  8
0
 62
    18
420
        0
370
    25
100
AcDbLine
 10
121.4068178328897
 20
40.91523461075854
 30
0.0
 11
122.6432418017964
 21
40.90444450220648
 31
0.0
  0
SPLINE
  5
BF
330
70
100
AcDbEntity
  8
0
 62
    18
420
        0
370
    25
100
AcDbSpline
210
0.0
220
0.0
230
1.0
 70
     8
 71
     3
 72
     8
 73
     4
 74
     0
 42
0.0000000001
 43
0.0000000001
 40
0.0
 40
0.0
 40
0.0
 40
0.0
 40
1.0
 40
1.0
 40
1.0
 40
1.0
 10
122.6432418018067
 20
40.8394019078655
 30
0.0
 10
122.6436201373195
 20
40.86108112214947
 30
0.0
 10
122.6436201373195
 20
40.88276528795715
 30
0.0
 10
122.6432418018067
 20
40.90444450224113
 30
0.0
  0
LINE
  5
C0
330
70
100
AcDbEntity
  8
0
 62
    18
420
        0
370
    25
100
AcDbLine
 10
122.6432418017964
 20
40.83940190783533
 30
0.0
 11
121.4068178328897
 21
40.85019201632259
 31
0.0
  0
LINE
  5
C1
330
70
100
AcDbEntity
  8
0
 62
    18
420
        0
370
    25
100
AcDbLine
 10
121.4068178328897
 20
40.85019201632259
 30
0.0
 11
121.4068178328897
 21
40.91523461075854
 31
0.0
  0
LINE
  5
C2
330
70
100
AcDbEntity
  8
0
 62
    18
420
        0
370
    25
100
AcDbLine
 10
122.6432418017964
 20
14.97303887673534
 30
0.0
 11
122.6432418017964
 21
40.83940190783533
 31
0.0
  0
LINE
  5
C3
330
70
100
AcDbEntity
  8
0
 62
    18
420
        0
370
    25
100
AcDbLine
 10
121.4068178328897
 20
14.96224876824809
 30
0.0
 11
122.6432418017964
 21
14.97303887673534
 31
0.0
  0
LINE
  5
C4
330
70
100
AcDbEntity
  8
0
 62
    18
420
        0
370
    25
100
AcDbLine
 10
121.4068178328897
 20
14.96224876824809
 30
0.0
 11
121.4068178328897
 21
40.85019201632259
 31
0.0
  0
SPLINE
  5
C5
330
70
100
AcDbEntity
  8
0
 62
    18
420
        0
370
    25
100
AcDbSpline
210
0.0
220
0.0
230
1.0
 70
     8
 71
     3
 72
     8
 73
     4
 74
     0
 42
0.0000000001
 43
0.0000000001
 40
0.0
 40
0.0
 40
0.0
 40
0.0
 40
1.0
 40
1.0
 40
1.0
 40
1.0
 10
122.6432418018041
 20
14.90799628232955
 30
0.0
 10
122.6436201373169
 20
14.92967549661353
 30
0.0
 10
122.6436201373169
 20
14.9513596624212
 30
0.0
 10
122.6432418018041
 20
14.97303887670518
 30
0.0
  0
LINE
  5
C6
330
70
100
AcDbEntity
  8
0
 62
    18
420
        0
370
    25
100
AcDbLine
 10
122.6432418017964
 20
14.9079962823642
 30
0.0
 11
121.4068178328897
 21
14.89720617387759
 31
0.0
  0
LINE
  5
C7
330
70
100
AcDbEntity
  8
0
 62
    18
420
        0
370
    25
100
AcDbLine
 10
121.4068178328897
 20
14.89720617387759
 30
0.0
 11
121.4068178328897
 21
14.96224876824809
 31
0.0
  0
LINE
  5
C8
330
70
100
AcDbEntity
  8
0
 62
    18
420
        0
370
    25
100
AcDbLine
 10
122.6432418017964
 20
14.97303887673534
 30
0.0
 11
122.7077192547336
 21
14.97303887673534
 31
0.0
  0
SPLINE
  5
C9
330
70
100
AcDbEntity
  8
0
 62
    18
420
        0
370
    25
100
AcDbSpline
210
0.0
220
0.0
230
1.0
 70
     8
 71
     3
 72
     8
 73
     4
 74
     0
 42
0.0000000001
 43
0.0000000001
 40
0.0
 40
0.0
 40
0.0
 40
0.0
 40
1.0
 40
1.0
 40
1.0
 40
1.0
 10
122.6432418017637
 20
14.90799628236035
 30
0.0
 10
122.6789423714679
 20
14.90830783651205
 30
0.0
 10
122.7077192547336
 20
14.93733694761156
 30
0.0
 10
122.7077192547336
 20
14.97303887673534
 30
0.0
  0
SPLINE
  5
CA
330
70
100
AcDbEntity
  8
0
 62
    18
420
        0
370
    25
100
AcDbSpline
210
0.0
220
0.0
230
1.0
 70
     8
 71
     3
 72
     8
 73
     4
 74
     0
 42
0.0000000001
 43
0.0000000001
 40
0.0
 40
0.0
 40
0.0
 40
0.0
 40
1.0
 40
1.0
 40
1.0
 40
1.0
 10
122.7077192547336
 20
40.83940190783533
 30
0.0
 10
122.7077192547336
 20
40.87510383695976
 30
0.0
 10
122.6789423714679
 20
40.90413294805863
 30
0.0
 10
122.6432418017637
 20
40.90444450221097
 30
0.0
  0
LINE
  5
CB
330
70
100
AcDbEntity
  8
0
 62
    18
420
        0
370
    25
100
AcDbLine
 10
122.6432418017964
 20
40.83940190783533
 30
0.0
 11
122.7077192547336
 21
40.83940190783533
 31
0.0
  0
LINE
  5
CC
330
70
100
AcDbEntity
  8
0
 62
    18
420
        0
370
    25
100
AcDbLine
 10
122.7077192547336
 20
40.83940190783533
 30
0.0
 11
122.7077192547336
 21
14.97303887673534
 31
0.0
  0
LINE
  5
CD
330
70
100
AcDbEntity
  8
0
 62
    18
420
        0
370
    25
100
AcDbLine
 10
156.0635341629146
 20
30.99586126919761
 30
0.0
 11
131.6312005563553
 21
30.99586126919761
 31
0.0
  0
LWPOLYLINE
  5
CE
330
70
100
AcDbEntity
  8
0
 62
    18
420
        0
370
    25
100
AcDbPolyline
 90
        5
 70
     0
 43
0.0
 10
131.5359172859118
 20
31.15989299218399
 10
131.5284163140711
 20
31.06268040830848
 10
131.6145234467267
 20
30.99676101802207
 10
131.6301858492784
 20
30.99586444404789
 10
131.6312005563553
 20
30.99586126919761
  0
SPLINE
  5
CF
330
70
100
AcDbEntity
  8
0
 62
    18
420
        0
370
    25
100
AcDbSpline
210
0.0
220
0.0
230
1.0
 70
     8
 71
     3
 72
     8
 73
     4
 74
     0
 42
0.0000000001
 43
0.0000000001
 40
0.0
 40
0.0
 40
0.0
 40
0.0
 40
1.0
 40
1.0
 40
1.0
 40
1.0
 10
131.5359172858919
 20
31.159892992175
 30
0.0
 10
131.6909734438123
 20
31.92254893347374
 30
0.0
 10
131.7770747513423
 20
32.69761261644292
 30
0.0
 10
131.793179253133
 20
33.47570460453266
 30
0.0
  0
LINE
  5
D0
330
70
100
AcDbEntity
  8
0
 62
    18
420
        0
370
    25
100
AcDbLine
 10
131.7931650428458
 20
33.47570460458785
 30
0.0
 11
131.7931792531773
 21
33.47570460458785
 31
0.0
  0
SPLINE
  5
D1
330
70
100
AcDbEntity
  8
0
 62
    18
420
        0
370
    25
100
AcDbSpline
210
0.0
220
0.0
230
1.0
 70
     8
 71
     3
 72
     8
 73
     4
 74
     0
 42
0.0000000001
 43
0.0000000001
 40
0.0
 40
0.0
 40
0.0
 40
0.0
 40
1.0
 40
1.0
 40
1.0
 40
1.0
 10
131.7931650428939
 20
33.47570460458849
 30
0.0
 10
131.8011060682289
 20
34.33542502859294
 30
0.0
 10
131.743361824031
 20
35.19449604132629
 30
0.0
 10
131.6204362801623
 20
36.04541999680017
 30
0.0
  0
LWPOLYLINE
  5
D2
330
70
100
AcDbEntity
  8
0
 62
    18
420
        0
370
    25
100
AcDbPolyline
 90
        5
 70
     0
 43
0.0
 10
131.7189184161727
 20
36.19946695657406
 10
131.7179037189176
 20
36.19946378165897
 10
131.6871600147712
 20
36.19601745240978
 10
131.6198967633304
 20
36.14226168119512
 10
131.6204362801277
 20
36.04541999680402
  0
LINE
  5
D3
330
70
100
AcDbEntity
  8
0
 62
    18
420
        0
370
    25
100
AcDbLine
 10
131.7189184161727
 20
36.19946695657406
 30
0.0
 11
155.9758163016662
 21
36.19946695657406
 31
0.0
  0
SPLINE
  5
D4
330
70
100
AcDbEntity
  8
0
 62
    18
420
        0
370
    25
100
AcDbSpline
210
0.0
220
0.0
230
1.0
 70
     8
 71
     3
 72
     8
 73
     4
 74
     0
 42
0.0000000001
 43
0.0000000001
 40
0.0
 40
0.0
 40
0.0
 40
0.0
 40
1.0
 40
1.0
 40
1.0
 40
1.0
 10
131.5359172859291
 20
31.1598929921827
 30
0.0
 10
131.5266265811648
 20
31.24222678627722
 30
0.0
 10
131.4570513709071
 20
31.30449340007722
 30
0.0
 10
131.3741951518765
 20
31.30462686544848
 30
0.0
  0
SPLINE
  5
D5
330
70
100
AcDbEntity
  8
0
 62
    18
420
        0
370
    25
100
AcDbSpline
210
0.0
220
0.0
230
1.0
 70
     8
 71
     3
 72
     8
 73
     4
 74
     0
 42
0.0000000001
 43
0.0000000001
 40
0.0
 40
0.0
 40
0.0
 40
0.0
 40
1.0
 40
1.0
 40
1.0
 40
1.0
 10
131.3741951518829
 20
31.3046268654658
 30
0.0
 10
131.5310807483728
 20
32.02083216154898
 30
0.0
 10
131.6182769645445
 20
32.7505410157604
 30
0.0
 10
131.6345641937598
 20
33.48354704758346
 30
0.0
  0
SPLINE
  5
D6
330
70
100
AcDbEntity
  8
0
 62
    18
420
        0
370
    25
100
AcDbSpline
210
0.0
220
0.0
230
1.0
 70
     8
 71
     3
 72
     8
 73
     4
 74
     0
 42
0.0000000001
 43
0.0000000001
 40
0.0
 40
0.0
 40
0.0
 40
0.0
 40
1.0
 40
1.0
 40
1.0
 40
1.0
 10
131.7931650574945
 20
33.47570608321837
 30
0.0
 10
131.7404684923771
 20
33.4810503723003
 30
0.0
 10
131.6875309275343
 20
33.48366751794405
 30
0.0
 10
131.6345641937489
 20
33.48354704758603
 30
0.0
  0
SPLINE
  5
D7
330
70
100
AcDbEntity
  8
0
 62
    18
420
        0
370
    25
100
AcDbSpline
210
0.0
220
0.0
230
1.0
 70
     8
 71
     3
 72
     8
 73
     4
 74
     0
 42
0.0000000001
 43
0.0000000001
 40
0.0
 40
0.0
 40
0.0
 40
0.0
 40
1.0
 40
1.0
 40
1.0
 40
1.0
 10
131.6345641937649
 20
33.48354704759758
 30
0.0
 10
131.6422898139565
 20
34.2956351610075
 30
0.0
 10
131.5835368465271
 20
35.10699333121952
 30
0.0
 10
131.4588936732894
 20
35.90949620879345
 30
0.0
  0
SPLINE
  5
D8
330
70
100
AcDbEntity
  8
0
 62
    18
420
        0
370
    25
100
AcDbSpline
210
0.0
220
0.0
230
1.0
 70
     8
 71
     3
 72
     8
 73
     4
 74
     0
 42
0.0000000001
 43
0.0000000001
 40
0.0
 40
0.0
 40
0.0
 40
0.0
 40
1.0
 40
1.0
 40
1.0
 40
1.0
 10
131.4588936732688
 20
35.90949620873698
 30
0.0
 10
131.5389151842157
 20
35.90870466991608
 30
0.0
 10
131.607534195774
 20
35.96644148723118
 30
0.0
 10
131.6204362801347
 20
36.04541999675781
 30
0.0
  0
LWPOLYLINE
  5
D9
330
70
100
AcDbEntity
  8
0
 62
    18
420
        0
370
    25
100
AcDbPolyline
 90
        6
 70
     0
 43
0.0
 10
131.4588936733022
 20
35.90949620877933
 10
131.4963243005324
 20
36.09178643830242
 10
131.5758466131088
 20
36.16425752381527
 10
131.6809224598539
 20
36.19731286292267
 10
131.7169275145556
 20
36.19946121315911
 10
131.7189184161727
 20
36.19946695657406
  0
LWPOLYLINE
  5
DA
330
70
100
AcDbEntity
  8
0
 62
    18
420
        0
370
    25
100
AcDbPolyline
 90
        6
 70
     0
 43
0.0
 10
131.6312005563553
 20
30.99586126919761
 10
131.6292096459566
 20
30.99586701254712
 10
131.5974415192115
 20
30.99755491405958
 10
131.48337838283
 20
31.03376401404327
 10
131.3973188798831
 20
31.12163847227629
 10
131.3741951518925
 20
31.30462686547672
  0
LINE
  5
DB
330
70
100
AcDbEntity
  8
0
 62
    18
420
        0
370
    25
100
AcDbLine
 10
143.8473673597001
 20
39.53302685004926
 30
0.0
 11
131.8683788510887
 21
39.53302685004926
 31
0.0
  0
LINE
  5
DC
330
70
100
AcDbEntity
  8
0
 62
    18
420
        0
370
    25
100
AcDbLine
 10
155.8263558683115
 20
39.53302685004926
 30
0.0
 11
143.8473673597001
 21
39.53302685004926
 31
0.0
  0
LINE
  5
DD
330
70
100
AcDbEntity
  8
0
 62
    18
420
        0
370
    25
100
AcDbLine
 10
143.8473673597001
 20
36.28077329543874
 30
0.0
 11
131.8939226392299
 21
36.28077329543874
 31
0.0
  0
LINE
  5
DE
330
70
100
AcDbEntity
  8
0
 62
    18
420
        0
370
    25
100
AcDbLine
 10
155.8008120802357
 20
36.28077329543874
 30
0.0
 11
143.8473673597001
 21
36.28077329543874
 31
0.0
  0
LINE
  5
DF
330
70
100
AcDbEntity
  8
0
 62
    18
420
        0
370
    25
100
AcDbLine
 10
143.8473673597001
 20
3.107787038415426
 30
0.0
 11
134.2484600919639
 21
3.107787038415426
 31
0.0
  0
LINE
  5
E0
330
70
100
AcDbEntity
  8
0
 62
    18
420
        0
370
    25
100
AcDbLine
 10
153.4462746274362
 20
3.107787038415426
 30
0.0
 11
143.8473673597001
 21
3.107787038415426
 31
0.0
  0
LINE
  5
E1
330
70
100
AcDbEntity
  8
0
 62
     8
420
  8421504
370
    25
100
AcDbLine
 10
131.5359172859118
 20
31.15989299218399
 30
0.0
 11
156.2261406490048
 21
31.15989299218399
 31
0.0
  0
LINE
  5
E2
330
70
100
AcDbEntity
  8
0
 62
     8
420
  8421504
370
    25
100
AcDbLine
 10
131.7931792531773
 20
33.47570460458785
 30
0.0
 11
156.2059308672189
 21
33.47570460458785
 31
0.0
  0
LINE
  5
E3
330
70
100
AcDbEntity
  8
0
 62
     8
420
  8421504
370
    25
100
AcDbLine
 10
156.1382032221997
 20
36.04541999680402
 30
0.0
 11
131.6204362801277
 21
36.04541999680402
 31
0.0
  0
LINE
  5
E4
330
70
100
AcDbEntity
  8
0
 62
     8
420
  8421504
370
    25
100
AcDbLine
 10
143.8473673597001
 20
39.36899512699744
 30
0.0
 11
131.7057723651287
 21
39.36899512699744
 31
0.0
  0
LINE
  5
E5
330
70
100
AcDbEntity
  8
0
 62
     8
420
  8421504
370
    25
100
AcDbLine
 10
155.9889623542715
 20
39.36899512699744
 30
0.0
 11
143.8473673597001
 21
39.36899512699744
 31
0.0
  0
LINE
  5
E6
330
70
100
AcDbEntity
  8
0
 62
     8
420
  8421504
370
    25
100
AcDbLine
 10
143.8473673597001
 20
36.44196692784823
 30
0.0
 11
131.7313161532693
 21
36.44196692784823
 31
0.0
  0
LINE
  5
E7
330
70
100
AcDbEntity
  8
0
 62
     8
420
  8421504
370
    25
100
AcDbLine
 10
155.9634185661308
 20
36.44196692784823
 30
0.0
 11
143.8473673597001
 21
36.44196692784823
 31
0.0
  0
LINE
  5
E8
330
70
100
AcDbEntity
  8
0
 62
     8
420
  8421504
370
    25
100
AcDbLine
 10
143.8473673597001
 20
3.590842575580206
 30
0.0
 11
133.7606455017968
 21
3.590842575580206
 31
0.0
  0
LINE
  5
E9
330
70
100
AcDbEntity
  8
0
 62
     8
420
  8421504
370
    25
100
AcDbLine
 10
153.9340892176034
 20
3.590842575580206
 30
0.0
 11
143.8473673597001
 21
3.590842575580206
 31
0.0
  0
LINE
  5
EA
330
70
100
AcDbEntity
  8
0
 62
    18
420
        0
370
    25
100
AcDbLine
 10
71.89815938356481
 20
-26.43049768876043
 30
0.0
 11
71.89815938356481
 21
-35.3572893124683
 31
0.0
  0
LINE
  5
EB
330
70
100
AcDbEntity
  8
0
 62
    18
420
        0
370
    25
100
AcDbLine
 10
77.10176507094094
 20
-35.3572893124683
 30
0.0
 11
77.10176507094094
 21
-26.43049768876043
 31
0.0
  0
SPLINE
  5
EC
330
70
100
AcDbEntity
  8
0
 62
    18
420
        0
370
    25
100
AcDbSpline
210
0.0
220
0.0
230
1.0
 70
     8
 71
     3
 72
     8
 73
     4
 74
     0
 42
0.0000000001
 43
0.0000000001
 40
0.0
 40
0.0
 40
0.0
 40
0.0
 40
1.0
 40
1.0
 40
1.0
 40
1.0
 10
71.77468722110332
 20
-35.51578222476118
 30
0.0
 10
71.84755693355159
 20
-35.49867306429849
 30
0.0
 10
71.89842784821671
 20
-35.4327878001625
 30
0.0
 10
71.89654376161207
 20
-35.35796020778088
 30
0.0
  0
LWPOLYLINE
  5
ED
330
70
100
AcDbEntity
  8
0
 62
    18
420
        0
370
    25
100
AcDbPolyline
 90
       10
 70
     0
 43
0.0
 10
77.22511161256353
 20
-35.51578798123086
 10
77.22532340139628
 20
-35.5158293093082
 10
77.21795661545605
 20
-35.51387642367227
 10
77.20906012873891
 20
-35.51097120209368
 10
77.19720953744605
 20
-35.50616793171206
 10
77.17417631212693
 20
-35.49340032160753
 10
77.14382723180834
 20
-35.46726137542399
 10
77.11392627788107
 20
-35.4198941349162
 10
77.10183996090893
 20
-35.364319493158
 10
77.10274114644909
 20
-35.35808863859838
  0
SPLINE
  5
EE
330
70
100
AcDbEntity
  8
0
 62
    18
420
        0
370
    25
100
AcDbSpline
210
0.0
220
0.0
230
1.0
 70
     8
 71
     3
 72
    17
 73
    13
 74
     0
 42
0.0000000001
 43
0.0000000001
 40
0.0
 40
0.0
 40
0.0
 40
0.0
 40
1.0
 40
1.0
 40
1.0
 40
2.0
 40
2.0
 40
2.0
 40
3.0
 40
3.0
 40
3.0
 40
4.0
 40
4.0
 40
4.0
 40
4.0
 10
71.79678239816269
 20
-35.4901209488508
 30
0.0
 10
65.1251688987606
 20
-36.98304594450755
 30
0.0
 10
60.9270123867202
 20
-43.60171212341449
 30
0.0
 10
62.41993738237696
 20
-50.27332562281658
 30
0.0
 10
63.91286237803372
 20
-56.94493912221866
 30
0.0
 10
70.53152855694098
 20
-61.14309563425907
 30
0.0
 10
77.20314205634307
 20
-59.65017063860231
 30
0.0
 10
83.87475555574516
 20
-58.15724564294555
 30
0.0
 10
88.07291206778556
 20
-51.53857946403797
 30
0.0
 10
86.57998707212881
 20
-44.86696596463588
 30
0.0
 10
85.53547110949526
 20
-40.19921184643235
 30
0.0
 10
81.89521386154341
 20
-36.55091819779425
 30
0.0
 10
77.22977446942419
 20
-35.49611139905465
 30
0.0
  0
CIRCLE
  5
EF
330
70
100
AcDbEntity
  8
0
 62
    18
420
        0
370
    25
100
AcDbCircle
 10
74.49996222725296
 20
-47.57014579372639
 30
0.0
 40
12.14160118634806
  0
LINE
  5
F0
330
70
100
AcDbEntity
  8
0
 62
    18
420
        0
370
    25
100
AcDbLine
 10
81.81753272512574
 20
-25.12959626691647
 30
0.0
 11
81.80674261657369
 21
-26.36602023582256
 31
0.0
  0
SPLINE
  5
F1
330
70
100
AcDbEntity
  8
0
 62
    18
420
        0
370
    25
100
AcDbSpline
210
0.0
220
0.0
230
1.0
 70
     8
 71
     3
 72
     8
 73
     4
 74
     0
 42
0.0000000001
 43
0.0000000001
 40
0.0
 40
0.0
 40
0.0
 40
0.0
 40
1.0
 40
1.0
 40
1.0
 40
1.0
 10
81.7417000222327
 20
-26.36602023578277
 30
0.0
 10
81.76337923651669
 20
-26.36639857129554
 30
0.0
 10
81.78506340232468
 20
-26.36639857129554
 30
0.0
 10
81.80674261660866
 20
-26.36602023578277
 30
0.0
  0
LINE
  5
F2
330
70
100
AcDbEntity
  8
0
 62
    18
420
        0
370
    25
100
AcDbLine
 10
81.74170002220256
 20
-26.36602023582256
 30
0.0
 11
81.75249013075461
 21
-25.12959626691647
 31
0.0
  0
LINE
  5
F3
330
70
100
AcDbEntity
  8
0
 62
    18
420
        0
370
    25
100
AcDbLine
 10
81.75249013075461
 20
-25.12959626691647
 30
0.0
 11
81.81753272512574
 21
-25.12959626691647
 31
0.0
  0
LINE
  5
F4
330
70
100
AcDbEntity
  8
0
 62
    18
420
        0
370
    25
100
AcDbLine
 10
67.24743432375115
 20
-25.12959626691647
 30
0.0
 11
67.25822443223808
 21
-26.36602023582256
 31
0.0
  0
SPLINE
  5
F5
330
70
100
AcDbEntity
  8
0
 62
    18
420
        0
370
    25
100
AcDbSpline
210
0.0
220
0.0
230
1.0
 70
     8
 71
     3
 72
     8
 73
     4
 74
     0
 42
0.0000000001
 43
0.0000000001
 40
0.0
 40
0.0
 40
0.0
 40
0.0
 40
1.0
 40
1.0
 40
1.0
 40
1.0
 10
67.1931818378971
 20
-26.36602023578213
 30
0.0
 10
67.2148610521814
 20
-26.3663985712949
 30
0.0
 10
67.23654521798907
 20
-26.3663985712949
 30
0.0
 10
67.25822443227338
 20
-26.36602023578213
 30
0.0
  0
LINE
  5
F6
330
70
100
AcDbEntity
  8
0
 62
    18
420
        0
370
    25
100
AcDbLine
 10
67.19318183786727
 20
-26.36602023582256
 30
0.0
 11
67.18239172938002
 21
-25.12959626691647
 31
0.0
  0
LINE
  5
F7
330
70
100
AcDbEntity
  8
0
 62
    18
420
        0
370
    25
100
AcDbLine
 10
67.18239172938002
 20
-25.12959626691647
 30
0.0
 11
67.24743432375115
 21
-25.12959626691647
 31
0.0
  0
LINE
  5
F8
330
70
100
AcDbEntity
  8
0
 62
    18
420
        0
370
    25
100
AcDbLine
 10
67.25822443223808
 20
-26.36602023582256
 30
0.0
 11
81.74170002220256
 21
-26.36602023582256
 31
0.0
  0
LINE
  5
F9
330
70
100
AcDbEntity
  8
0
 62
    18
420
        0
370
    25
100
AcDbLine
 10
67.24743432375115
 20
-25.12959626691647
 30
0.0
 11
81.75249013075461
 21
-25.12959626691647
 31
0.0
  0
LINE
  5
FA
330
70
100
AcDbEntity
  8
0
 62
    18
420
        0
370
    25
100
AcDbLine
 10
81.74170002220256
 20
-26.43049768876043
 30
0.0
 11
81.74170002220256
 21
-26.36602023582256
 31
0.0
  0
LINE
  5
FB
330
70
100
AcDbEntity
  8
0
 62
    18
420
        0
370
    25
100
AcDbLine
 10
81.74170002220256
 20
-26.43049768876043
 30
0.0
 11
67.25822443223808
 21
-26.43049768876043
 31
0.0
  0
LINE
  5
FC
330
70
100
AcDbEntity
  8
0
 62
    18
420
        0
370
    25
100
AcDbLine
 10
67.25822443223808
 20
-26.36602023582256
 30
0.0
 11
67.25822443223808
 21
-26.43049768876043
 31
0.0
  0
SPLINE
  5
FD
330
70
100
AcDbEntity
  8
0
 62
    18
420
        0
370
    25
100
AcDbSpline
210
0.0
220
0.0
230
1.0
 70
     8
 71
     3
 72
     8
 73
     4
 74
     0
 42
0.0000000001
 43
0.0000000001
 40
0.0
 40
0.0
 40
0.0
 40
0.0
 40
1.0
 40
1.0
 40
1.0
 40
1.0
 10
67.1931818378631
 20
-26.36602023578983
 30
0.0
 10
67.19349339201478
 20
-26.40172080549409
 30
0.0
 10
67.22252250311398
 20
-26.43049768876043
 30
0.0
 10
67.25822443223808
 20
-26.43049768876043
 30
0.0
  0
SPLINE
  5
FE
330
70
100
AcDbEntity
  8
0
 62
    18
420
        0
370
    25
100
AcDbSpline
210
0.0
220
0.0
230
1.0
 70
     8
 71
     3
 72
     8
 73
     4
 74
     0
 42
0.0000000001
 43
0.0000000001
 40
0.0
 40
0.0
 40
0.0
 40
0.0
 40
1.0
 40
1.0
 40
1.0
 40
1.0
 10
81.74170002220256
 20
-26.43049768876043
 30
0.0
 10
81.77740195132665
 20
-26.43049768876043
 30
0.0
 10
81.80643106242584
 20
-26.40172080549409
 30
0.0
 10
81.80674261657786
 20
-26.36602023578983
 30
0.0
  0
LWPOLYLINE
  5
FF
330
70
100
AcDbEntity
  8
0
 62
    18
420
        0
370
    25
100
AcDbPolyline
 90
        9
 70
     0
 43
0.0
 10
75.69361644755973
 20
-35.18167210732834
 10
75.69312076157832
 20
-35.21146206678516
 10
75.69517834714267
 20
-35.24023920618759
 10
75.69971924899371
 20
-35.26702513975759
 10
75.70658908239491
 20
-35.29090918049473
 10
75.71555428187941
 20
-35.31107930176413
 10
75.72631004221115
 20
-35.32684974554476
 10
75.7384906813662
 20
-35.33768433705541
 10
75.75168207344292
 20
-35.34321471415447
  0
SPLINE
  5
100
330
70
100
AcDbEntity
  8
0
 62
    18
420
        0
370
    25
100
AcDbSpline
210
0.0
220
0.0
230
1.0
 70
     8
 71
     3
 72
     8
 73
     4
 74
     0
 42
0.0000000001
 43
0.0000000001
 40
0.0
 40
0.0
 40
0.0
 40
0.0
 40
1.0
 40
1.0
 40
1.0
 40
1.0
 10
75.75168207348558
 20
-35.3432147141673
 30
0.0
 10
75.33215717319639
 20
-35.33259343297355
 30
0.0
 10
74.91266421375023
 20
-35.36559807280281
 30
0.0
 10
74.49996222725497
 20
-35.4416968501892
 30
0.0
  0
SPLINE
  5
101
330
70
100
AcDbEntity
  8
0
 62
    18
420
        0
370
    25
100
AcDbSpline
210
0.0
220
0.0
230
1.0
 70
     8
 71
     3
 72
     8
 73
     4
 74
     0
 42
0.0000000001
 43
0.0000000001
 40
0.0
 40
0.0
 40
0.0
 40
0.0
 40
1.0
 40
1.0
 40
1.0
 40
1.0
 10
75.69361644761139
 20
-35.18167210728407
 30
0.0
 10
75.28401829057293
 20
-35.20119845112401
 30
0.0
 10
74.88056924381652
 20
-35.28908548981857
 30
0.0
 10
74.49996222727037
 20
-35.44169685017123
 30
0.0
  0
SPLINE
  5
102
330
70
100
AcDbEntity
  8
0
 62
    18
420
        0
370
    25
100
AcDbSpline
210
0.0
220
0.0
230
1.0
 70
     8
 71
     3
 72
     8
 73
     4
 74
     0
 42
0.0000000001
 43
0.0000000001
 40
0.0
 40
0.0
 40
0.0
 40
0.0
 40
1.0
 40
1.0
 40
1.0
 40
1.0
 10
74.49996222724341
 20
-35.44169685022256
 30
0.0
 10
74.11815174891278
 20
-35.29304027140771
 30
0.0
 10
73.71535562849246
 20
-35.2052954656986
 30
0.0
 10
73.30630800690336
 20
-35.1816721073354
 30
0.0
  0
SPLINE
  5
103
330
70
100
AcDbEntity
  8
0
 62
    18
420
        0
370
    25
100
AcDbSpline
210
0.0
220
0.0
230
1.0
 70
     8
 71
     3
 72
     8
 73
     4
 74
     0
 42
0.0000000001
 43
0.0000000001
 40
0.0
 40
0.0
 40
0.0
 40
0.0
 40
1.0
 40
1.0
 40
1.0
 40
1.0
 10
74.49996222725079
 20
-35.4416968501892
 30
0.0
 10
74.08726024075552
 20
-35.36559807280281
 30
0.0
 10
73.66776728130938
 20
-35.33259343297291
 30
0.0
 10
73.24824238102017
 20
-35.3432147141673
 30
0.0
  0
LWPOLYLINE
  5
104
330
70
100
AcDbEntity
  8
0
 62
    18
420
        0
370
    25
100
AcDbPolyline
 90
        9
 70
     0
 43
0.0
 10
73.30630800688123
 20
-35.18167210732834
 10
73.30680369292743
 20
-35.21146206678516
 10
73.30474610736342
 20
-35.24023920618759
 10
73.30020520544724
 20
-35.26702513975759
 10
73.29333537204573
 20
-35.29090918049473
 10
73.28437017262635
 20
-35.31107930176413
 10
73.2736144122946
 20
-35.32684974554476
 10
73.26143377307476
 20
-35.33768433705541
 10
73.24824238099771
 20
-35.34321471415447
  0
SPLINE
  5
105
330
70
100
AcDbEntity
  8
0
 62
    18
420
        0
370
    25
100
AcDbSpline
210
0.0
220
0.0
230
1.0
 70
     8
 71
     3
 72
    17
 73
    13
 74
     0
 42
0.0000000001
 43
0.0000000001
 40
0.0
 40
0.0
 40
0.0
 40
0.0
 40
1.0
 40
1.0
 40
1.0
 40
2.0
 40
2.0
 40
2.0
 40
3.0
 40
3.0
 40
3.0
 40
4.0
 40
4.0
 40
4.0
 40
4.0
 10
73.24824238102563
 20
-35.34321471415191
 30
0.0
 10
66.49549480854467
 20
-36.03452049628433
 30
0.0
 10
61.58172536554692
 20
-42.06911806747301
 30
0.0
 10
62.27303114767871
 20
-48.82186563995396
 30
0.0
 10
62.9643369298105
 20
-55.57461321243492
 30
0.0
 10
68.99893450099918
 20
-60.48838265543235
 30
0.0
 10
75.75168207348013
 20
-59.79707687330056
 30
0.0
 10
82.50442964596141
 20
-59.10577109116878
 30
0.0
 10
87.41819908895916
 20
-53.07117351998009
 30
0.0
 10
86.72689330682706
 20
-46.31842594749914
 30
0.0
 10
86.13334570433549
 20
-40.52059055327339
 30
0.0
 10
81.54951746770587
 20
-35.9367623166438
 30
0.0
 10
75.75168207348013
 20
-35.34321471415191
 30
0.0
  0
SPLINE
  5
106
330
70
100
AcDbEntity
  8
0
 62
    18
420
        0
370
    25
100
AcDbSpline
210
0.0
220
0.0
230
1.0
 70
     8
 71
     3
 72
     8
 73
     4
 74
     0
 42
0.0000000001
 43
0.0000000001
 40
0.0
 40
0.0
 40
0.0
 40
0.0
 40
1.0
 40
1.0
 40
1.0
 40
1.0
 10
77.22323930673351
 20
-35.51588731770202
 30
0.0
 10
76.7348734946803
 20
-35.44126415532601
 30
0.0
 10
76.24405694465338
 20
-35.38367171539988
 30
0.0
 10
75.75168207344612
 20
-35.34321471415832
 30
0.0
  0
LINE
  5
107
330
70
100
AcDbEntity
  8
0
 62
    18
420
        0
370
    25
100
AcDbLine
 10
77.22588245005792
 20
-35.51595768720348
 30
0.0
 11
77.22581961053503
 21
-35.51594347693676
 31
0.0
  0
SPLINE
  5
108
330
70
100
AcDbEntity
  8
0
 62
    18
420
        0
370
    25
100
AcDbSpline
210
0.0
220
0.0
230
1.0
 70
     8
 71
     3
 72
    17
 73
    13
 74
     0
 42
0.0000000001
 43
0.0000000001
 40
0.0
 40
0.0
 40
0.0
 40
0.0
 40
1.0
 40
1.0
 40
1.0
 40
2.0
 40
2.0
 40
2.0
 40
3.0
 40
3.0
 40
3.0
 40
4.0
 40
4.0
 40
4.0
 40
4.0
 10
71.77404200440645
 20
-35.51595768717846
 30
0.0
 10
65.1166977415682
 20
-37.02144185551146
 30
0.0
 10
60.94028995237131
 20
-43.63872175373489
 30
0.0
 10
62.44577412070462
 20
-50.29606601657315
 30
0.0
 10
63.95125828903827
 20
-56.9534102794114
 30
0.0
 10
70.56853818726107
 20
-61.1298180686083
 30
0.0
 10
77.22588245009932
 20
-59.62433390027465
 30
0.0
 10
83.88322671293757
 20
-58.118849731941
 30
0.0
 10
88.05963450213445
 20
-51.50156983371822
 30
0.0
 10
86.55415033380114
 20
-44.84422557087996
 30
0.0
 10
85.50311158160839
 20
-40.19646709283718
 30
0.0
 10
81.87364092814176
 20
-36.5669964393712
 30
0.0
 10
77.22588245009932
 20
-35.51595768717846
 30
0.0
  0
LINE
  5
109
330
70
100
AcDbEntity
  8
0
 62
    18
420
        0
370
    25
100
AcDbLine
 10
71.77410484397075
 20
-35.51594347693676
 30
0.0
 11
71.77404200438303
 21
-35.51595768720348
 31
0.0
  0
SPLINE
  5
10A
330
70
100
AcDbEntity
  8
0
 62
    18
420
        0
370
    25
100
AcDbSpline
210
0.0
220
0.0
230
1.0
 70
     8
 71
     3
 72
     8
 73
     4
 74
     0
 42
0.0000000001
 43
0.0000000001
 40
0.0
 40
0.0
 40
0.0
 40
0.0
 40
1.0
 40
1.0
 40
1.0
 40
1.0
 10
73.24824238100092
 20
-35.34321471419298
 30
0.0
 10
72.75425964556841
 20
-35.36562007447854
 30
0.0
 10
72.26251166758164
 20
-35.42332424353772
 30
0.0
 10
71.77676139472485
 20
-35.51588565825547
 30
0.0
  0
LINE
  5
10B
330
70
100
AcDbEntity
  8
0
 62
    18
420
        0
370
    25
100
AcDbLine
 10
71.8187430162705
 20
-35.49752909548145
 30
0.0
 11
71.77410477931603
 21
-35.51594349150717
 31
0.0
  0
CIRCLE
  5
10C
330
70
100
AcDbEntity
  8
0
 62
    18
420
        0
370
    25
100
AcDbCircle
 10
74.49996222725303
 20
-47.57014579372639
 30
0.0
 40
11.97898850861744
  0
CIRCLE
  5
10D
330
70
100
AcDbEntity
  8
0
 62
    18
420
        0
370
    25
100
AcDbCircle
 10
74.49996222725296
 20
-47.57014579372639
 30
0.0
 40
9.604742349966588
  0
CIRCLE
  5
10E
330
70
100
AcDbEntity
  8
0
 62
    18
420
        0
370
    25
100
AcDbCircle
 10
74.49996222725296
 20
-47.57014579372623
 30
0.0
 40
9.25881946137828
  0
CIRCLE
  5
10F
330
70
100
AcDbEntity
  8
0
 62
    18
420
        0
370
    25
100
AcDbCircle
 10
74.49996222725296
 20
-47.57014579372639
 30
0.0
 40
8.29324656425587
  0
CIRCLE
  5
110
330
70
100
AcDbEntity
  8
0
 62
    18
420
        0
370
    25
100
AcDbCircle
 10
74.49996222725296
 20
-47.57014579372639
 30
0.0
 40
5.907518295953555
  0
SPLINE
  5
111
330
70
100
AcDbEntity
  8
0
 62
     8
420
  8421504
370
    25
100
AcDbSpline
210
0.0
220
0.0
230
1.0
 70
     8
 71
     3
 72
     8
 73
     4
 74
     0
 42
0.0000000001
 43
0.0000000001
 40
0.0
 40
0.0
 40
0.0
 40
0.0
 40
1.0
 40
1.0
 40
1.0
 40
1.0
 10
77.0972298349658
 20
-35.35728931247023
 30
0.0
 10
76.6316569128368
 20
-35.2816527793337
 30
0.0
 10
76.16347267025679
 20
-35.22307453484684
 30
0.0
 10
75.69361644760849
 20
-35.18167210733669
 30
0.0
  0
SPLINE
  5
112
330
70
100
AcDbEntity
  8
0
 62
     8
420
  8421504
370
    25
100
AcDbSpline
210
0.0
220
0.0
230
1.0
 70
     8
 71
     3
 72
     8
 73
     4
 74
     0
 42
0.0000000001
 43
0.0000000001
 40
0.0
 40
0.0
 40
0.0
 40
0.0
 40
1.0
 40
1.0
 40
1.0
 40
1.0
 10
73.30630800692325
 20
-35.18167210733604
 30
0.0
 10
72.83644731277712
 20
-35.22303257219075
 30
0.0
 10
72.36826153662722
 20
-35.28161100855398
 30
0.0
 10
71.90269461955408
 20
-35.35728931247023
 30
0.0
  0
LINE
  5
113
330
70
100
AcDbEntity
  8
0
 62
     8
420
  8421504
370
    25
100
AcDbLine
 10
77.22581961053503
 20
-35.51594347693676
 30
0.0
 11
77.22323930677842
 21
-35.51588731773796
 31
0.0
  0
LINE
  5
114
330
70
100
AcDbEntity
  8
0
 62
     8
420
  8421504
370
    25
100
AcDbLine
 10
71.77676139473063
 20
-35.51588565824328
 30
0.0
 11
71.77410484397075
 21
-35.51594347693676
 31
0.0
  0
SPLINE
  5
115
330
70
100
AcDbEntity
  8
0
 62
     8
420
  8421504
370
    25
100
AcDbSpline
210
0.0
220
0.0
230
1.0
 70
     8
 71
     3
 72
    17
 73
    13
 74
     0
 42
0.0000000001
 43
0.0000000001
 40
0.0
 40
0.0
 40
0.0
 40
0.0
 40
1.0
 40
1.0
 40
1.0
 40
2.0
 40
2.0
 40
2.0
 40
3.0
 40
3.0
 40
3.0
 40
4.0
 40
4.0
 40
4.0
 40
4.0
 10
71.83418581132582
 20
-35.48181819029532
 30
0.0
 10
65.15798682499222
 20
-36.95408585127058
 30
0.0
 10
60.93936696284654
 20
-43.55972322331951
 30
0.0
 10
62.4116346238218
 20
-50.23592220965312
 30
0.0
 10
63.88390228479675
 20
-56.91212119598738
 30
0.0
 10
70.48953965684631
 20
-61.13074105813241
 30
0.0
 10
77.16573864317993
 20
-59.65847339715779
 30
0.0
 10
83.84193762951355
 20
-58.18620573618253
 30
0.0
 10
88.06055749165922
 20
-51.58056836413295
 30
0.0
 10
86.58828983068428
 20
-44.90436937779934
 30
0.0
 10
85.55527675274618
 20
-40.22003034991476
 30
0.0
 10
81.90893757663621
 20
-36.55419097504763
 30
0.0
 10
77.23017483945771
 20
-35.49620827360703
 30
0.0
  0
SPLINE
  5
116
330
70
100
AcDbEntity
  8
0
 62
    18
420
        0
370
    25
100
AcDbSpline
210
0.0
220
0.0
230
1.0
 70
     8
 71
     3
 72
     8
 73
     4
 74
     0
 42
0.0000000001
 43
0.0000000001
 40
0.0
 40
0.0
 40
0.0
 40
0.0
 40
1.0
 40
1.0
 40
1.0
 40
1.0
 10
142.5192409172284
 20
-16.10725630213799
 30
0.0
 10
142.4995935190811
 20
-16.1189979493223
 30
0.0
 10
142.4875634331768
 20
-16.14020200174364
 30
0.0
 10
142.4875634331768
 20
-16.16309056946948
 30
0.0
  0
LINE
  5
117
330
70
100
AcDbEntity
  8
0
 62
    18
420
        0
370
    25
100
AcDbLine
 10
143.3860596893427
 20
-15.58922943066639
 30
0.0
 11
142.519240917274
 21
-16.10725630213157
 31
0.0
  0
LINE
  5
118
330
70
100
AcDbEntity
  8
0
 62
    18
420
        0
370
    25
100
AcDbLine
 10
142.4875634331768
 20
-16.16309056946948
 30
0.0
 11
142.4875634331768
 21
-24.80091430872756
 31
0.0
  0
SPLINE
  5
119
330
70
100
AcDbEntity
  8
0
 62
    18
420
        0
370
    25
100
AcDbSpline
210
0.0
220
0.0
230
1.0
 70
     8
 71
     3
 72
     8
 73
     4
 74
     0
 42
0.0000000001
 43
0.0000000001
 40
0.0
 40
0.0
 40
0.0
 40
0.0
 40
1.0
 40
1.0
 40
1.0
 40
1.0
 10
152.7614524165859
 20
-43.25257732879052
 30
0.0
 10
152.7812722079342
 20
-43.26401905079195
 30
0.0
 10
152.8056466210074
 20
-43.26420325936693
 30
0.0
 10
152.8256370792282
 20
-43.25306240161012
 30
0.0
  0
LINE
  5
11A
330
70
100
AcDbEntity
  8
0
 62
    18
420
        0
370
    25
100
AcDbLine
 10
152.8256370792392
 20
-43.25306240160306
 30
0.0
 11
153.7077182692769
 21
-42.76147081522548
 31
0.0
  0
LINE
  5
11B
330
70
100
AcDbEntity
  8
0
 62
    18
420
        0
370
    25
100
AcDbLine
 10
144.2058378530537
 20
-38.31352617192491
 30
0.0
 11
152.7614524166065
 21
-43.2525773287655
 31
0.0
  0
SPLINE
  5
11C
330
70
100
AcDbEntity
  8
0
 62
    18
420
        0
370
    25
100
AcDbSpline
210
0.0
220
0.0
230
1.0
 70
     8
 71
     3
 72
     8
 73
     4
 74
     0
 42
0.0000000001
 43
0.0000000001
 40
0.0
 40
0.0
 40
0.0
 40
0.0
 40
1.0
 40
1.0
 40
1.0
 40
1.0
 10
145.0351380499433
 20
-33.78786340633604
 30
0.0
 10
145.0448180087616
 20
-32.99928207335381
 30
0.0
 10
145.0182187833236
 20
-32.21067283504033
 30
0.0
 10
144.9554247072289
 20
-31.42453599940887
 30
0.0
  0
LWPOLYLINE
  5
11D
330
70
100
AcDbEntity
  8
0
 62
    18
420
        0
370
    25
100
AcDbPolyline
 90
        3
 70
     0
 43
0.0
 10
120.4005944405846
 20
-31.42431186972725
 10
120.3407529944335
 20
-32.57704794857673
 10
120.3234792824368
 20
-33.7876497610253
  0
LINE
  5
11E
330
70
100
AcDbEntity
  8
0
 62
    18
420
        0
370
    25
100
AcDbLine
 10
145.0578457462641
 20
-35.63466286896059
 30
0.0
 11
145.0376363491543
 21
-33.74378015725297
 31
0.0
  0
LINE
  5
11F
330
70
100
AcDbEntity
  8
0
 62
    18
420
        0
370
    25
100
AcDbLine
 10
120.3209797887248
 20
-33.74378015725297
 30
0.0
 11
120.3007703916156
 21
-35.63466286896059
 31
0.0
  0
SPLINE
  5
120
330
70
100
AcDbEntity
  8
0
 62
    18
420
        0
370
    25
100
AcDbSpline
210
0.0
220
0.0
230
1.0
 70
     8
 71
     3
 72
     8
 73
     4
 74
     0
 42
0.0000000001
 43
0.0000000001
 40
0.0
 40
0.0
 40
0.0
 40
0.0
 40
1.0
 40
1.0
 40
1.0
 40
1.0
 10
120.7127038678334
 20
-37.51708345892136
 30
0.0
 10
121.4242021098716
 20
-38.9265741659994
 30
0.0
 10
122.5599041113582
 20
-40.0773776123653
 30
0.0
 10
123.9598739508547
 20
-40.80743120646888
 30
0.0
  0
LWPOLYLINE
  5
121
330
70
100
AcDbEntity
  8
0
 62
    18
420
        0
370
    25
100
AcDbPolyline
 90
       34
 70
     0
 43
0.0
 10
123.9598739508354
 20
-40.80743120647595
 10
124.264071547162
 20
-40.97714263209295
 10
124.8680104003936
 20
-41.28219534721892
 10
125.5043968913332
 20
-41.56376395968315
 10
126.1705161105879
 20
-41.82070585101647
 10
126.863584376156
 20
-42.05200260475186
 10
127.580716445638
 20
-42.25673909716572
 10
128.3189348345924
 20
-42.43410566861348
 10
129.075179992318
 20
-42.58340068064446
 10
129.8463213081933
 20
-42.70403314226425
 10
130.6291688569321
 20
-42.79552517182274
 10
131.4204857587736
 20
-42.85751412750369
 10
132.2170010230188
 20
-42.88975429283448
 10
133.0154227421023
 20
-42.89211804138536
 10
133.8124515114911
 20
-42.86459643219097
 10
134.6047862051717
 20
-42.80729991581446
 10
135.3891526318382
 20
-42.72045725297416
 10
136.1623104396876
 20
-42.60441400146479
 10
136.9210655887485
 20
-42.45963067603088
 10
137.6622831298938
 20
-42.28668031633383
 10
138.3828994759186
 20
-42.08624552206688
 10
139.0799340135199
 20
-41.85911503522491
 10
139.7504998959611
 20
-41.60618000040631
 10
140.3918138512184
 20
-41.32843010601165
 10
141.0012048623146
 20
-41.02694991140989
 10
141.5761216362445
 20
-40.70291580328414
 10
142.1141389231068
 20
-40.35759418445151
 10
142.6129630261366
 20
-39.99234165462267
 10
143.0704135012074
 20
-39.60862942474598
 10
143.4844742923423
 20
-39.2080207131941
 10
143.8532900625202
 20
-38.79218877157127
 10
144.1751848858702
 20
-38.36292609100389
 10
144.4486912657797
 20
-37.92214680346754
 10
144.6293247345739
 20
-37.55887804072262
  0
LINE
  5
122
330
70
100
AcDbEntity
  8
0
 62
    18
420
        0
370
    25
100
AcDbLine
 10
146.3265008948497
 20
-22.805635036702
 30
0.0
 11
142.6499690880566
 21
-24.9280516718897
 31
0.0
  0
LINE
  5
123
330
70
100
AcDbEntity
  8
0
 62
    18
420
        0
370
    25
100
AcDbLine
 10
144.8135264328695
 20
-29.68750013639799
 30
0.0
 11
148.9280922968509
 21
-27.31221182256735
 31
0.0
  0
LWPOLYLINE
  5
124
330
70
100
AcDbEntity
  8
0
 62
    18
420
        0
370
    25
100
AcDbPolyline
 90
       34
 70
     0
 43
0.0
 10
144.4057387703213
 20
-27.14644213378751
 10
144.3441699933107
 20
-27.0047099192623
 10
144.1000155650733
 20
-26.56520852351945
 10
143.8071175711785
 20
-26.13582553077479
 10
143.4666421071381
 20
-25.71845026208399
 10
143.0800256333748
 20
-25.31495309783217
 10
142.648957248947
 20
-24.92714136826661
 10
142.1753486727897
 20
-24.55672929480191
 10
141.6613033691615
 20
-24.20532289130425
 10
141.1090909229456
 20
-23.87441555403401
 10
140.5211432768565
 20
-23.56539666509341
 10
139.9000155959658
 20
-23.27953863479613
 10
139.2483739220862
 20
-23.018002085633
 10
138.5689987624974
 20
-22.78184388364366
 10
137.8647764244536
 20
-22.57201606705967
 10
137.1386896915527
 20
-22.38936383719349
 10
136.3938076324116
 20
-22.23462302981193
 10
135.633274524271
 20
-22.10841742285314
 10
134.860297970561
 20
-22.01125615192859
 10
134.0781363387478
 20
-21.94353142697818
 10
133.2900856574592
 20
-21.90551668648773
 10
132.499466113452
 20
-21.89736527720548
 10
131.7096082840425
 20
-21.91910971724372
 10
130.9238455471931
 20
-21.97066104198665
 10
130.1454896423879
 20
-22.05180939144778
 10
129.3778184344183
 20
-22.16222568576536
 10
128.6240647283621
 20
-22.30146341511467
 10
127.8874030576303
 20
-22.46896106159255
 10
127.1709369809239
 20
-22.66404508621919
 10
126.4776870481791
 20
-22.88593340065512
 10
125.8105796051435
 20
-23.13373919484036
 10
125.1724366121926
 20
-23.40647491261705
 10
124.5659666354573
 20
-23.7030560660354
 10
124.127584331446
 20
-23.94382528677176
  0
SPLINE
  5
125
330
70
100
AcDbEntity
  8
0
 62
    18
420
        0
370
    25
100
AcDbSpline
210
0.0
220
0.0
230
1.0
 70
     8
 71
     3
 72
     8
 73
     4
 74
     0
 42
0.0000000001
 43
0.0000000001
 40
0.0
 40
0.0
 40
0.0
 40
0.0
 40
1.0
 40
1.0
 40
1.0
 40
1.0
 10
124.1275843314325
 20
-23.94382528681539
 30
0.0
 10
122.7575397838787
 20
-24.65436166469729
 30
0.0
 10
121.6457494424924
 20
-25.77790708537696
 30
0.0
 10
120.9496614166303
 20
-27.15534872364212
 30
0.0
  0
LINE
  5
126
330
70
100
AcDbEntity
  8
0
 62
    18
420
        0
370
    25
100
AcDbLine
 10
120.5379441720258
 20
-29.01893170938595
 30
0.0
 11
120.5634874739549
 21
-31.40887871052802
 31
0.0
  0
LINE
  5
127
330
70
100
AcDbEntity
  8
0
 62
    18
420
        0
370
    25
100
AcDbLine
 10
144.7951286639248
 20
-31.40887871052802
 30
0.0
 11
144.8206719658533
 21
-29.01893170938595
 31
0.0
  0
LWPOLYLINE
  5
128
330
70
100
AcDbEntity
  8
0
 62
    18
420
        0
370
    25
100
AcDbPolyline
 90
       42
 70
     0
 43
0.0
 10
121.0247835446941
 20
-33.29103483148859
 10
121.0748424255665
 20
-33.40142031616816
 10
121.3266621188916
 20
-33.83896482808515
 10
121.6270553336671
 20
-34.26608598346483
 10
121.9748108028558
 20
-34.68089215267313
 10
122.3684476572277
 20
-35.08151839784016
 10
122.8062361472873
 20
-35.46616893233249
 10
123.2862285989414
 20
-35.83314474415909
 10
123.8062898398881
 20
-36.18085664635423
 10
124.3641218469552
 20
-36.50782845345315
 10
124.9572626521685
 20
-36.81268615226827
 10
125.5831377414974
 20
-37.09417710267441
 10
126.2390580064581
 20
-37.35115725280326
 10
126.9222211254076
 20
-37.58258663441438
 10
127.6297203365658
 20
-37.78753062145048
 10
128.3585539279573
 20
-37.96516205863914
 10
129.1056356119745
 20
-38.11476384638103
 10
129.8678057815548
 20
-38.23573163765252
 10
130.6418435563972
 20
-38.32757638952479
 10
131.4244794888679
 20
-38.38992658335026
 10
132.2124087881181
 20
-38.42252998845751
 10
133.0023049217246
 20
-38.42525488506542
 10
133.79083345975
 20
-38.39809069346332
 10
134.5746581346052
 20
-38.34114870459625
 10
135.3504701173139
 20
-38.25466098353795
 10
136.1149954566502
 20
-38.13897877568825
 10
136.8650078366929
 20
-37.99457058651365
 10
137.5973417466939
 20
-37.82201964147482
 10
138.3089051092522
 20
-37.62202079026689
 10
138.9966912054197
 20
-37.39537694339293
 10
139.6577897229301
 20
-37.14299518598187
 10
140.2893967523904
 20
-36.86588279091368
 10
140.8888235787743
 20
-36.56514347216074
 10
141.4535041883363
 20
-36.24197436818944
 10
141.9810015785721
 20
-35.89766442481261
 10
142.4690116025748
 20
-35.53359635102846
 10
142.9153471644496
 20
-35.15127113353196
 10
143.3179921656146
 20
-34.75228364852132
 10
143.6750953752137
 20
-34.3383446859589
 10
143.9849929427992
 20
-33.91128929199111
 10
144.2462404356339
 20
-33.47307767860497
 10
144.3176584753346
 20
-33.32197345945199
  0
LINE
  5
129
330
70
100
AcDbEntity
  8
0
 62
    18
420
        0
370
    25
100
AcDbLine
 10
122.3700297455647
 20
-39.67453713319784
 30
0.0
 11
122.5928285112113
 21
-58.23036845290245
 31
0.0
  0
LINE
  5
12A
330
70
100
AcDbEntity
  8
0
 62
    18
420
        0
370
    25
100
AcDbLine
 10
142.765787626603
 20
-58.23036845290245
 30
0.0
 11
142.9885532875609
 21
-39.67729426789919
 31
0.0
  0
LWPOLYLINE
  5
12B
330
70
100
AcDbEntity
  8
0
 62
    18
420
        0
370
    25
100
AcDbPolyline
 90
       46
 70
     0
 43
0.0
 10
122.5990275546986
 20
-58.21683683067826
 10
122.5990391410464
 20
-58.40458912787746
 10
122.6505034459567
 20
-58.83864924441408
 10
122.7527850120613
 20
-59.26806573127283
 10
122.905375235298
 20
-59.69132648880702
 10
123.1078463943699
 20
-60.10685400863399
 10
123.3596766596007
 20
-60.51285371213801
 10
123.6600423320168
 20
-60.90727560509929
 10
124.0076649553638
 20
-61.28788897948851
 10
124.4007656134237
 20
-61.65242375165823
 10
124.8371204031177
 20
-61.99871252753935
 10
125.3141687776085
 20
-62.32478548057328
 10
125.8291223280045
 20
-62.62890644684591
 10
126.3789981402928
 20
-62.90954406302862
 10
126.9607179199928
 20
-63.16538213365129
 10
127.5711901437588
 20
-63.39530656146845
 10
128.2072430969732
 20
-63.59834034973854
 10
128.8656257457412
 20
-63.77363171471648
 10
129.5430101299647
 20
-63.9204488399033
 10
130.2359968065731
 20
-64.03817897828665
 10
130.9411235562627
 20
-64.1263299468246
 10
131.6548769652904
 20
-64.18453257531986
 10
132.3737062836516
 20
-64.21254314073729
 10
133.0940389258424
 20
-64.21024516530676
 10
133.8122943033433
 20
-64.17765038179379
 10
134.5248736734246
 20
-64.11490185683115
 10
135.2282415526161
 20
-64.02226895552363
 10
135.9189090047401
 20
-63.90014351562377
 10
136.5934490902898
 20
-63.74903533951837
 10
137.2485106328234
 20
-63.56956662637281
 10
137.8808295381127
 20
-63.36246578588728
 10
138.4872368191397
 20
-63.12856143801994
 10
139.0646624426041
 20
-62.86877796331939
 10
139.61013427903
 20
-62.58413479770259
 10
140.1207720750394
 20
-62.27575276407674
 10
140.5937779086395
 20
-61.94487190847646
 10
141.026350597646
 20
-61.59295364619107
 10
141.4158034457723
 20
-61.22167545454516
 10
141.7596026441931
 20
-60.83298535451842
 10
142.0554263774844
 20
-60.4291742909494
 10
142.3012986965242
 20
-60.01288466957118
 10
142.495743918191
 20
-59.58703333785805
 10
142.6378988812526
 20
-59.15463837306031
 10
142.7275141162661
 20
-58.71859350075482
 10
142.7648196724925
 20
-58.28147632760469
 10
142.7633429838388
 20
-58.23712416583258
  0
SPLINE
  5
12C
330
70
100
AcDbEntity
  8
0
 62
    18
420
        0
370
    25
100
AcDbSpline
210
0.0
220
0.0
230
1.0
 70
     8
 71
     3
 72
     8
 73
     4
 74
     0
 42
0.0000000001
 43
0.0000000001
 40
0.0
 40
0.0
 40
0.0
 40
0.0
 40
1.0
 40
1.0
 40
1.0
 40
1.0
 10
152.793570942496
 20
-22.02242582020311
 30
0.0
 10
152.766441136138
 20
-22.03998903089122
 30
0.0
 10
152.7494611313907
 20
-22.06957112377714
 30
0.0
 10
152.7479784982675
 20
-22.10185571083881
 30
0.0
  0
SPLINE
  5
12D
330
70
100
AcDbEntity
  8
0
 62
    18
420
        0
370
    25
100
AcDbSpline
210
0.0
220
0.0
230
1.0
 70
     8
 71
     3
 72
     8
 73
     4
 74
     0
 42
0.0000000001
 43
0.0000000001
 40
0.0
 40
0.0
 40
0.0
 40
0.0
 40
1.0
 40
1.0
 40
1.0
 40
1.0
 10
152.8395630020241
 20
-22.10208640385734
 30
0.0
 10
152.8378324093583
 20
-22.06971212460546
 30
0.0
 10
152.8207425944487
 20
-22.04011169697779
 30
0.0
 10
152.7935709424754
 20
-22.02242582020824
 30
0.0
  0
SPLINE
  5
12E
330
70
100
AcDbEntity
  8
0
 62
    18
420
        0
370
    25
100
AcDbSpline
210
0.0
220
0.0
230
1.0
 70
     8
 71
     3
 72
     8
 73
     4
 74
     0
 42
0.0000000001
 43
0.0000000001
 40
0.0
 40
0.0
 40
0.0
 40
0.0
 40
1.0
 40
1.0
 40
1.0
 40
1.0
 10
152.7479784982437
 20
-22.10185571082918
 30
0.0
 10
152.7766796604812
 20
-22.11671164732604
 30
0.0
 10
152.8107873629698
 20
-22.11679756151893
 30
0.0
 10
152.8395630020215
 20
-22.10208640384323
 30
0.0
  0
LINE
  5
12F
330
70
100
AcDbEntity
  8
0
 62
    18
420
        0
370
    25
100
AcDbLine
 10
153.7214765337662
 20
-21.59296712702168
 30
0.0
 11
152.8395630020176
 21
-22.10208640382718
 31
0.0
  0
LINE
  5
130
330
70
100
AcDbEntity
  8
0
 62
    18
420
        0
370
    25
100
AcDbLine
 10
152.7935709425159
 20
-22.02242582019541
 30
0.0
 11
153.6754844741996
 21
-21.51330654338927
 31
0.0
  0
SPLINE
  5
131
330
70
100
AcDbEntity
  8
0
 62
    18
420
        0
370
    25
100
AcDbSpline
210
0.0
220
0.0
230
1.0
 70
     8
 71
     3
 72
     8
 73
     4
 74
     0
 42
0.0000000001
 43
0.0000000001
 40
0.0
 40
0.0
 40
0.0
 40
0.0
 40
1.0
 40
1.0
 40
1.0
 40
1.0
 10
153.7214765337719
 20
-21.59296712700372
 30
0.0
 10
153.7200001951073
 20
-21.56051793879244
 30
0.0
 10
153.7028481262589
 20
-21.53080968417918
 30
0.0
 10
153.6754844742233
 20
-21.51330654335462
 30
0.0
  0
LINE
  5
132
330
70
100
AcDbEntity
  8
0
 62
    18
420
        0
370
    25
100
AcDbLine
 10
152.7479784982713
 20
-43.22279678074528
 30
0.0
 11
152.7479784982713
 21
-22.1018557108157
 31
0.0
  0
LINE
  5
133
330
70
100
AcDbEntity
  8
0
 62
    18
420
        0
370
    25
100
AcDbLine
 10
152.8395630020176
 20
-22.10208640382718
 30
0.0
 11
152.8395630020176
 21
-43.2230274737574
 31
0.0
  0
SPLINE
  5
134
330
70
100
AcDbEntity
  8
0
 62
    18
420
        0
370
    25
100
AcDbSpline
210
0.0
220
0.0
230
1.0
 70
     8
 71
     3
 72
     8
 73
     4
 74
     0
 42
0.0000000001
 43
0.0000000001
 40
0.0
 40
0.0
 40
0.0
 40
0.0
 40
1.0
 40
1.0
 40
1.0
 40
1.0
 10
152.7479784982437
 20
-43.22279678075876
 30
0.0
 10
152.7766796604812
 20
-43.23765271725626
 30
0.0
 10
152.8107873629698
 20
-43.23773863144851
 30
0.0
 10
152.8395630020215
 20
-43.22302747377281
 30
0.0
  0
LINE
  5
135
330
70
100
AcDbEntity
  8
0
 62
    18
420
        0
370
    25
100
AcDbLine
 10
142.5522071376738
 20
-16.11021234069259
 30
0.0
 11
152.7935709425159
 21
-22.02242582019541
 31
0.0
  0
LINE
  5
136
330
70
100
AcDbEntity
  8
0
 62
    18
420
        0
370
    25
100
AcDbLine
 10
152.7479784982713
 20
-22.1018557108157
 30
0.0
 11
142.5066146934292
 21
-16.18964223131224
 31
0.0
  0
SPLINE
  5
137
330
70
100
AcDbEntity
  8
0
 62
    18
420
        0
370
    25
100
AcDbSpline
210
0.0
220
0.0
230
1.0
 70
     8
 71
     3
 72
     8
 73
     4
 74
     0
 42
0.0000000001
 43
0.0000000001
 40
0.0
 40
0.0
 40
0.0
 40
0.0
 40
1.0
 40
1.0
 40
1.0
 40
1.0
 10
142.5522071376539
 20
-16.11021234063484
 30
0.0
 10
142.5250773312953
 20
-16.12777555132294
 30
0.0
 10
142.508097326548
 20
-16.15735764420951
 30
0.0
 10
142.5066146934247
 20
-16.18964223127053
 30
0.0
  0
LINE
  5
138
330
70
100
AcDbEntity
  8
0
 62
    18
420
        0
370
    25
100
AcDbLine
 10
153.7214765337662
 20
-21.59296712702168
 30
0.0
 11
153.7214765337662
 21
-42.73152932488499
 31
0.0
  0
LINE
  5
139
330
70
100
AcDbEntity
  8
0
 62
    18
420
        0
370
    25
100
AcDbLine
 10
152.8395630020176
 20
-43.2230274737574
 30
0.0
 11
153.7214765337662
 21
-42.73152932488499
 31
0.0
  0
LINE
  5
13A
330
70
100
AcDbEntity
  8
0
 62
    18
420
        0
370
    25
100
AcDbLine
 10
143.418861151553
 20
-15.59228393172437
 30
0.0
 11
142.5522071376738
 21
-16.11021234069259
 31
0.0
  0
LINE
  5
13B
330
70
100
AcDbEntity
  8
0
 62
    18
420
        0
370
    25
100
AcDbLine
 10
143.418861151553
 20
-15.59228393172437
 30
0.0
 11
153.6754844741996
 21
-21.51330654338927
 31
0.0
  0
SPLINE
  5
13C
330
70
100
AcDbEntity
  8
0
 62
    18
420
        0
370
    25
100
AcDbSpline
210
0.0
220
0.0
230
1.0
 70
     8
 71
     3
 72
     8
 73
     4
 74
     0
 42
0.0000000001
 43
0.0000000001
 40
0.0
 40
0.0
 40
0.0
 40
0.0
 40
1.0
 40
1.0
 40
1.0
 40
1.0
 10
143.4188611515928
 20
-15.59228393172117
 30
0.0
 10
143.4093362298619
 20
-15.58527105466746
 30
0.0
 10
143.3967157027337
 20
-15.58409582006001
 30
0.0
 10
143.3860596893696
 20
-15.58922943065548
 30
0.0
  0
SPLINE
  5
13D
330
70
100
AcDbEntity
  8
0
 62
    18
420
        0
370
    25
100
AcDbSpline
210
0.0
220
0.0
230
1.0
 70
     8
 71
     3
 72
     8
 73
     4
 74
     0
 42
0.0000000001
 43
0.0000000001
 40
0.0
 40
0.0
 40
0.0
 40
0.0
 40
1.0
 40
1.0
 40
1.0
 40
1.0
 10
153.7077182693147
 20
-42.76147081520815
 30
0.0
 10
153.7176526309326
 20
-42.7549424262226
 30
0.0
 10
153.7229933776626
 20
-42.74331960003277
 30
0.0
 10
153.7214765337797
 20
-42.73152932488242
 30
0.0
  0
SPLINE
  5
13E
330
70
100
AcDbEntity
  8
0
 62
    18
420
        0
370
    25
100
AcDbSpline
210
0.0
220
0.0
230
1.0
 70
     8
 71
     3
 72
     8
 73
     4
 74
     0
 42
0.0000000001
 43
0.0000000001
 40
0.0
 40
0.0
 40
0.0
 40
0.0
 40
1.0
 40
1.0
 40
1.0
 40
1.0
 10
144.7218168217914
 20
-33.10859573570244
 30
0.0
 10
145.0201502825185
 20
-32.27874937405783
 30
0.0
 10
145.0490969390781
 20
-31.37593848127834
 30
0.0
 10
144.8045360037256
 20
-30.52868539829618
 30
0.0
  0
SPLINE
  5
13F
330
70
100
AcDbEntity
  8
0
 62
    18
420
        0
370
    25
100
AcDbSpline
210
0.0
220
0.0
230
1.0
 70
     8
 71
     3
 72
     8
 73
     4
 74
     0
 42
0.0000000001
 43
0.0000000001
 40
0.0
 40
0.0
 40
0.0
 40
0.0
 40
1.0
 40
1.0
 40
1.0
 40
1.0
 10
120.5540801341445
 20
-30.52868539834752
 30
0.0
 10
120.3076819563619
 20
-31.38249270769819
 30
0.0
 10
120.3389896121122
 20
-32.29251415734179
 30
0.0
 10
120.6434831832627
 20
-33.12736902415661
 30
0.0
  0
SPLINE
  5
140
330
70
100
AcDbEntity
  8
0
 62
    18
420
        0
370
    25
100
AcDbSpline
210
0.0
220
0.0
230
1.0
 70
     8
 71
     3
 72
     8
 73
     4
 74
     0
 42
0.0000000001
 43
0.0000000001
 40
0.0
 40
0.0
 40
0.0
 40
0.0
 40
1.0
 40
1.0
 40
1.0
 40
1.0
 10
120.3007703916541
 20
-35.63466286890925
 30
0.0
 10
120.2973426322813
 20
-36.26933048930925
 30
0.0
 10
120.4327403533389
 20
-36.89707094440586
 30
0.0
 10
120.697476179817
 20
-37.47389819766091
 30
0.0
  0
SPLINE
  5
141
330
70
100
AcDbEntity
  8
0
 62
    18
420
        0
370
    25
100
AcDbSpline
210
0.0
220
0.0
230
1.0
 70
     8
 71
     3
 72
     8
 73
     4
 74
     0
 42
0.0000000001
 43
0.0000000001
 40
0.0
 40
0.0
 40
0.0
 40
0.0
 40
1.0
 40
1.0
 40
1.0
 40
1.0
 10
144.6425913591977
 20
-37.51466249019741
 30
0.0
 10
144.9200139468522
 20
-36.92698800315787
 30
0.0
 10
145.0619233781267
 20
-36.2845151350225
 30
0.0
 10
145.0578457462468
 20
-35.63466286890604
 30
0.0
  0
LWPOLYLINE
  5
142
330
70
100
AcDbEntity
  8
0
 62
    18
420
        0
370
    25
100
AcDbPolyline
 90
       17
 70
     0
 43
0.0
 10
149.4670490299351
 20
-26.12098990311244
 10
149.4465005152736
 20
-25.7924904517672
 10
149.3853139912349
 20
-25.44760432536108
 10
149.2848562636212
 20
-25.09403571006658
 10
149.1473713920039
 20
-24.73968274435943
 10
148.9759305613713
 20
-24.39246108810102
 10
148.7743634764257
 20
-24.06012709920383
 10
148.5471728128767
 20
-23.75010456988943
 10
148.2994336347309
 20
-23.4693188911563
 10
148.0366800257465
 20
-23.22404235107895
 10
147.7647814674349
 20
-23.01975402219699
 10
147.4898117242656
 20
-22.8610173682847
 10
147.217913165954
 20
-22.75137830382991
 10
146.9551595570351
 20
-22.69328598442495
 10
146.7074203788239
 20
-22.68803809644343
 10
146.4802297152748
 20
-22.73575186899137
 10
146.3265008948497
 20
-22.805635036702
  0
SPLINE
  5
143
330
70
100
AcDbEntity
  8
0
 62
    18
420
        0
370
    25
100
AcDbSpline
210
0.0
220
0.0
230
1.0
 70
     8
 71
     3
 72
     8
 73
     4
 74
     0
 42
0.0000000001
 43
0.0000000001
 40
0.0
 40
0.0
 40
0.0
 40
0.0
 40
1.0
 40
1.0
 40
1.0
 40
1.0
 10
148.9280922968695
 20
-27.31221182253206
 30
0.0
 10
149.3110594899026
 20
-27.04274028537141
 30
0.0
 10
149.517462686813
 20
-26.58654037670352
 30
0.0
 10
149.4670490299364
 20
-26.12098990309191
 30
0.0
  0
LWPOLYLINE
  5
144
330
70
100
AcDbEntity
  8
0
 62
    18
420
        0
370
    25
100
AcDbPolyline
 90
       91
 70
     0
 43
0.0
 10
124.2088840627081
 20
-23.95187592348157
 10
124.8203844997045
 20
-23.62268719862422
 10
125.4701728222584
 20
-23.31892521154545
 10
126.1550833271535
 20
-23.04206986009361
 10
126.8717791991203
 20
-22.7934699557423
 10
127.6167687680071
 20
-22.57433665215652
 10
128.3864225194984
 20
-22.38573754475455
 10
129.1769907778089
 20
-22.22859146951204
 10
129.9846219739209
 20
-22.1036640263001
 10
130.8053814098513
 20
-22.0115638490032
 10
131.6352704280795
 20
-21.95273964044158
 10
132.470245892749
 20
-21.92747798633757
 10
133.3062398873237
 20
-21.93590195879481
 10
134.1391795331111
 20
-21.97797051716965
 10
134.9650068319093
 20
-22.05347870763182
 10
135.7796984360014
 20
-22.16205866186113
 10
136.5792852499428
 20
-22.3031813892398
 10
137.3598717670962
 20
-22.47615935406526
 10
138.117655048349
 20
-22.68014982504527
 10
138.8489432497516
 20
-22.91415898107577
 10
139.5501736087755
 20
-23.17704675312959
 10
140.2179298015284
 20
-23.46753237838883
 10
140.8489585870062
 20
-23.7842006400859
 10
141.4401856563667
 20
-24.12550876227734
 10
141.9887306107256
 20
-24.48979392606787
 10
142.4919209943072
 20
-24.87528137083809
 10
142.9473053139954
 20
-25.28009304042808
 10
143.3526649833013
 20
-25.70225673309312
 10
143.7060251305739
 20
-26.13971570983162
 10
144.0056642207307
 20
-26.59033871438017
 10
144.2501224422332
 20
-27.05193035681776
 10
144.4382088191782
 20
-27.52224180898896
 10
144.5690070137122
 20
-27.99898176089255
 10
144.6418797901348
 20
-28.47982758332505
 10
144.6564721195706
 20
-28.96243664377167
 10
144.6127129097077
 20
-29.44445771941126
 10
144.5108153510347
 20
-29.92354245200767
 10
144.3512758781372
 20
-30.3973567889466
 10
144.1348717513202
 20
-30.86359235435062
 10
143.8626572698142
 20
-31.31997769550286
 10
143.5359586351021
 20
-31.76428934876924
 10
143.156367490187
 20
-32.19436267252806
 10
142.7257331648527
 20
-32.60810239273651
 10
142.2461536663379
 20
-33.00349281103471
 10
141.7199654577613
 20
-33.37860762512109
 10
141.1497320751062
 20
-33.73161931332936
 10
140.5382316381752
 20
-34.0608080381219
 10
139.8884433155559
 20
-34.36457002520067
 10
139.2035328107256
 20
-34.64142537665252
 10
138.4868369387588
 20
-34.89002528106863
 10
137.741847369872
 20
-35.10915858465441
 10
136.9721936183814
 20
-35.29775769199157
 10
136.1816253600709
 20
-35.45490376723344
 10
135.3739941638933
 20
-35.57983121051083
 10
134.5532347280285
 20
-35.67193138780774
 10
133.7233457097348
 20
-35.73075559630389
 10
132.8883702450653
 20
-35.75601725047337
 10
132.0523762504906
 20
-35.74759327795132
 10
131.2194366047031
 20
-35.70552471964127
 10
130.3936093059705
 20
-35.63001652917911
 10
129.5789177018129
 20
-35.52143657488499
 10
128.7793308879363
 20
-35.38031384750568
 10
127.9987443707836
 20
-35.20733588274568
 10
127.2409610895301
 20
-35.00334541176566
 10
126.5096728880626
 20
-34.76933625566971
 10
125.8084425290387
 20
-34.50644848361589
 10
125.1406863362859
 20
-34.21596285835665
 10
124.5096575508729
 20
-33.89929459672567
 10
123.9184304815124
 20
-33.55798647453359
 10
123.3698855270886
 20
-33.19370131067826
 10
122.8666951435726
 20
-32.80821386597284
 10
122.4113108238837
 20
-32.40340219631805
 10
122.0059511545777
 20
-31.98123850365236
 10
121.6525910073052
 20
-31.54377952697931
 10
121.3529519171484
 20
-31.09315652243076
 10
121.1084936956466
 20
-30.63156487999318
 10
120.9204073186361
 20
-30.16125342775716
 10
120.7896091241675
 20
-29.68451347591838
 10
120.7167363477443
 20
-29.20366765348589
 10
120.7021440183085
 20
-28.72105859303927
 10
120.7459032281714
 20
-28.23903751739967
 10
120.8478007868444
 20
-27.75995278473845
 10
121.0073402597419
 20
-27.28613844779952
 10
121.2237443864941
 20
-26.8199028823955
 10
121.4959588680655
 20
-26.36351754130807
 10
121.8226575027777
 20
-25.91920588804233
 10
122.2022486476928
 20
-25.48913256428287
 10
122.632882973027
 20
-25.07539284407442
 10
123.1124624714764
 20
-24.68000242571141
 10
123.6386506801179
 20
-24.3048876116244
 10
124.2088840627081
 20
-23.95187592348157
  0
SPLINE
  5
145
330
70
100
AcDbEntity
  8
0
 62
    18
420
        0
370
    25
100
AcDbSpline
210
0.0
220
0.0
230
1.0
 70
     8
 71
     3
 72
     8
 73
     4
 74
     0
 42
0.0000000001
 43
0.0000000001
 40
0.0
 40
0.0
 40
0.0
 40
0.0
 40
1.0
 40
1.0
 40
1.0
 40
1.0
 10
144.3581393895255
 20
-30.89235340422898
 30
0.0
 10
144.946397998537
 20
-29.73343176043908
 30
0.0
 10
144.9693720060194
 20
-28.36844547091216
 30
0.0
 10
144.4204470291684
 20
-27.19038395413552
 30
0.0
  0
SPLINE
  5
146
330
70
100
AcDbEntity
  8
0
 62
    18
420
        0
370
    25
100
AcDbSpline
210
0.0
220
0.0
230
1.0
 70
     8
 71
     3
 72
     8
 73
     4
 74
     0
 42
0.0000000001
 43
0.0000000001
 40
0.0
 40
0.0
 40
0.0
 40
0.0
 40
1.0
 40
1.0
 40
1.0
 40
1.0
 10
120.9340845746036
 20
-27.19936019124777
 30
0.0
 10
120.3912580708406
 20
-28.36953491536137
 30
0.0
 10
120.4127469339381
 20
-29.72358165464238
 30
0.0
 10
120.9924323116641
 20
-30.87594199802103
 30
0.0
  0
SPLINE
  5
147
330
70
100
AcDbEntity
  8
0
 62
    18
420
        0
370
    25
100
AcDbSpline
210
0.0
220
0.0
230
1.0
 70
     8
 71
     3
 72
     8
 73
     4
 74
     0
 42
0.0000000001
 43
0.0000000001
 40
0.0
 40
0.0
 40
0.0
 40
0.0
 40
1.0
 40
1.0
 40
1.0
 40
1.0
 10
144.3336120143501
 20
-33.27827206042241
 30
0.0
 10
144.6245503368868
 20
-32.69721375120743
 30
0.0
 10
144.7822173913316
 20
-32.0585764597125
 30
0.0
 10
144.795128663939
 20
-31.40887871054856
 30
0.0
  0
SPLINE
  5
148
330
70
100
AcDbEntity
  8
0
 62
    18
420
        0
370
    25
100
AcDbSpline
210
0.0
220
0.0
230
1.0
 70
     8
 71
     3
 72
     8
 73
     4
 74
     0
 42
0.0000000001
 43
0.0000000001
 40
0.0
 40
0.0
 40
0.0
 40
0.0
 40
1.0
 40
1.0
 40
1.0
 40
1.0
 10
120.5634874739067
 20
-31.40887871053059
 30
0.0
 10
120.5744859121689
 20
-32.04704513899844
 30
0.0
 10
120.7268966747882
 20
-32.67482749946988
 30
0.0
 10
121.0097391786704
 20
-33.2469965951624
 30
0.0
  0
LWPOLYLINE
  5
149
330
70
100
AcDbEntity
  8
0
 62
    18
420
        0
370
    25
100
AcDbPolyline
 90
       82
 70
     0
 43
0.0
 10
125.8877296217262
 20
-24.92105283511921
 10
126.4344481517275
 20
-24.6290184655777
 10
127.0187240040736
 20
-24.36231994477627
 10
127.637043275038
 20
-24.12256122907517
 10
128.2856873197583
 20
-23.91118425562787
 10
128.9607551166847
 20
-23.72946027037678
 10
129.6581867285574
 20
-23.57848218278743
 10
130.3737877196732
 20
-23.4591579928469
 10
131.1032543814075
 20
-23.37220533020561
 10
131.8421996155332
 20
-23.31814713850231
 10
132.5861793183225
 20
-23.29730852997875
 10
133.3307191084138
 20
-23.30981483055183
 10
134.071341235889
 20
-23.35559082580763
 10
134.8035915120432
 20
-23.43436121352437
 10
135.5230660976736
 20
-23.54565225932588
 10
136.2254379878732
 20
-23.68879464578875
 10
136.9064830355218
 20
-23.8629274977543
 10
137.5621053554853
 20
-24.06700355978747
 10
138.1883619580932
 20
-24.29979549435981
 10
138.7814864623605
 20
-24.55990326342649
 10
139.3379117477408
 20
-24.84576254831213
 10
139.8542914071577
 20
-25.1556541575744
 10
140.3275198725387
 20
-25.4877143666288
 10
140.75475109218
 20
-25.83994612631797
 10
141.1334156472916
 20
-26.21023107335387
 10
141.4612362046926
 20
-26.59634227056499
 10
141.7362412129582
 20
-26.99595759974179
 10
141.9567767596175
 20
-27.40667372726978
 10
142.1215165179116
 20
-27.82602055798716
 10
142.2294697236592
 20
-28.25147609083263
 10
142.2799871334505
 20
-28.6804815860516
 10
142.2727649296943
 20
-29.11045695414532
 10
142.2078465475374
 20
-29.53881627276457
 10
142.0856224138401
 20
-29.96298333839883
 10
141.9068275988532
 20
-30.38040716050372
 10
141.6725373956889
 20
-30.78857730309535
 10
141.3841608532172
 20
-31.18503898288209
 10
141.0434323017967
 20
-31.56740783267782
 10
140.6524009230387
 20
-31.93338424116671
 10
140.2134184257812
 20
-32.28076718331365
 10
139.7291249022997
 20
-32.60746745716133
 10
139.2024329508696
 20
-32.91152024871968
 10
138.6365101588682
 20
-33.19109694889602
 10
138.0347600525704
 20
-33.44451615040898
 10
137.4008016278535
 20
-33.67025376034216
 10
136.7384475853392
 20
-33.86695216623303
 10
136.0516814001789
 20
-34.03342840072285
 10
135.3446333649857
 20
-34.16868125605919
 10
134.6215557498304
 20
-34.27189730570735
 10
133.8867972286055
 20
-34.34245579625822
 10
133.1447767254414
 20
-34.37993238049835
 10
132.399956839111
 20
-34.38410167003617
 10
131.6568170038735
 20
-34.35493859006266
 10
130.9198265502113
 20
-34.29261853096825
 10
130.1934178254752
 20
-34.19751629279531
 10
129.481959537115
 20
-34.07020383161945
 10
128.7897304790861
 20
-33.91144681957541
 10
128.1208937983304
 20
-33.72220004005754
 10
127.4794719573016
 20
-33.50360164534631
 10
126.8693225425969
 20
-33.25696631204233
 10
126.2941150643566
 20
-32.9837773339974
 10
125.7573088882284
 20
-32.68567770183305
 10
125.2621324296577
 20
-32.36446022188335
 10
124.8115637380686
 20
-32.02205673379927
 10
124.4083125866998
 20
-31.66052649252774
 10
124.0548041753018
 20
-31.28204378346577
 10
123.7531645451487
 20
-30.8888848460624
 10
123.5052077924112
 20
-30.48341418449798
 10
123.3124251582758
 20
-30.06807034707331
 10
123.1759760600128
 20
-29.6453512604989
 10
123.0966811187268
 20
-29.2177992070204
 10
123.0750172234147
 20
-28.78798553505404
 10
123.1111146633872
 20
-28.35849519452602
 10
123.2047563442796
 20
-27.93191119103497
 10
123.3553790940925
 20
-27.51079905081236
 10
123.5620770498309
 20
-27.09769139190257
 10
123.8236071056742
 20
-26.6950726922973
 10
124.1383963891327
 20
-26.30536434836799
 10
124.5045517204164
 20
-25.93091011179363
 10
124.9198709982529
 20
-25.57396199455666
 10
125.3818564435847
 20
-25.23666672447428
 10
125.8877296217262
 20
-24.92105283511921
  0
LWPOLYLINE
  5
14A
330
70
100
AcDbEntity
  8
0
 62
    18
420
        0
370
    25
100
AcDbPolyline
 90
       22
 70
     0
 43
0.0
 10
126.1323340419778
 20
-25.3276915679399
 10
125.6328719013085
 20
-25.63992006226829
 10
125.1779595987405
 20
-25.9740696853917
 10
124.7704732364746
 20
-26.32802783584289
 10
124.4129890743511
 20
-26.69955667613336
 10
124.1077672424952
 20
-27.08630728135342
 10
123.8567374515051
 20
-27.48583448967999
 10
123.661486792594
 20
-27.8956123614404
 10
123.5232497032192
 20
-28.31305014898202
 10
123.4429001628443
 20
-28.73550867625457
 10
123.420946167101
 20
-29.16031702443221
 10
123.4575265162508
 20
-29.58478941833024
 10
123.5524099374712
 20
-30.0062422067448
 10
123.7049965472589
 20
-30.42201082959276
 10
123.914321644018
 20
-30.82946666360435
 10
124.1790618069423
 20
-31.22603364199519
 10
124.4975432636096
 20
-31.60920454051206
 10
124.8677524716446
 20
-31.97655682943775
 10
125.2873488492735
 20
-32.32576798923453
 10
125.7536795730796
 20
-32.65463019460031
 10
126.2637963501346
 20
-32.96106427274662
 10
126.4678224434384
 20
-33.07088828648639
  0
LWPOLYLINE
  5
14B
330
70
100
AcDbEntity
  8
0
 62
    18
420
        0
370
    25
100
AcDbPolyline
 90
       43
 70
     0
 43
0.0
 10
138.8907936944414
 20
-33.07088828648639
 10
138.9608211682848
 20
-33.03393806679991
 10
139.4813909117587
 20
-32.73341955056526
 10
139.9589556974768
 20
-32.40997477550048
 10
140.3904962070004
 20
-32.06564866354546
 10
140.7732841023158
 20
-31.70261815530217
 10
141.1048992752054
 20
-31.32317844643534
 10
141.3832451476657
 20
-30.92972847702516
 10
141.6065619274448
 20
-30.5247557644246
 10
141.7734377340663
 20
-30.1108206765321
 10
141.8828175248999
 20
-29.69054024421711
 10
141.9340097657256
 20
-29.26657161574442
 10
141.9266908026129
 20
-28.84159525725371
 10
141.8609069085597
 20
-28.41829800611675
 10
141.7370739903368
 20
-27.99935608382914
 10
141.5559749596901
 20
-27.58741817615911
 10
141.318754782891
 20
-27.18508868710369
 10
141.0269132423894
 20
-26.7949112733111
 10
140.6822954542207
 20
-26.41935276201247
 10
140.2870802031448
 20
-26.06078755496957
 10
139.8437661670789
 20
-25.7214826169858
 10
139.3551561202474
 20
-25.40358314302683
 10
138.8243392125688
 20
-25.10909899593261
 10
138.2546714394767
 20
-24.83989199928117
 10
137.6497544240908
 20
-24.59766416643691
 10
137.0134126464342
 20
-24.3839469397588
 10
136.349669264227
 20
-24.2000915082494
 10
135.6627206768167
 20
-24.04726026531498
 10
134.9569099943356
 20
-23.9264194591291
 10
134.2366995791186
 20
-23.83833308425005
 10
133.5066428333775
 20
-23.78355805111194
 10
132.7713554108407
 20
-23.76244066507284
 10
132.035486035387
 20
-23.77511443699533
 10
131.3036871101031
 20
-23.82149923935134
 10
130.5805853034503
 20
-23.90130181240591
 10
129.8707522979078
 20
-24.01401761858366
 10
129.1786758861556
 20
-24.15893403228221
 10
128.5087315981554
 20
-24.33513484528153
 10
127.8651550374162
 20
-24.54150605933299
 10
127.2520151021324
 20
-24.77674292911238
 10
126.6731882604444
 20
-25.03935821142725
 10
126.1323340419778
 20
-25.3276915679399
 10
126.1323340419778
 20
-25.3276915679399
  0
LINE
  5
14C
330
70
100
AcDbEntity
  8
0
 62
     8
420
  8421504
370
    25
100
AcDbLine
 10
144.2158896947153
 20
-38.29732675603068
 30
0.0
 11
152.7479784982713
 21
-43.22279678074528
 31
0.0
  0
LINE
  5
14D
330
70
100
AcDbEntity
  8
0
 62
     8
420
  8421504
370
    25
100
AcDbLine
 10
142.5066146934292
 20
-16.18964223131224
 30
0.0
 11
142.5066146934292
 21
-24.81581441225146
 31
0.0
  0
SPLINE
  5
14E
330
70
100
AcDbEntity
  8
0
 62
     8
420
  8421504
370
    25
100
AcDbSpline
210
0.0
220
0.0
230
1.0
 70
     8
 71
     3
 72
     8
 73
     4
 74
     0
 42
0.0000000001
 43
0.0000000001
 40
0.0
 40
0.0
 40
0.0
 40
0.0
 40
1.0
 40
1.0
 40
1.0
 40
1.0
 10
142.4875634331723
 20
-16.16309056947333
 30
0.0
 10
142.4885936493758
 20
-16.17475421839608
 30
0.0
 10
142.4958954090699
 20
-16.18493065038792
 30
0.0
 10
142.5066146934125
 20
-16.18964223131032
 30
0.0
  0
SPLINE
  5
14F
330
70
100
AcDbEntity
  8
0
 62
     8
420
  8421504
370
    25
100
AcDbSpline
210
0.0
220
0.0
230
1.0
 70
     8
 71
     3
 72
     8
 73
     4
 74
     0
 42
0.0000000001
 43
0.0000000001
 40
0.0
 40
0.0
 40
0.0
 40
0.0
 40
1.0
 40
1.0
 40
1.0
 40
1.0
 10
142.5522071376565
 20
-16.11021234068489
 30
0.0
 10
142.5426683112045
 20
-16.10305462346168
 30
0.0
 10
142.5299009815276
 20
-16.10190979344989
 30
0.0
 10
142.5192409172394
 20
-16.10725630215146
 30
0.0
  0
SPLINE
  5
150
330
70
100
AcDbEntity
  8
0
 62
     8
420
  8421504
370
    25
100
AcDbSpline
210
0.0
220
0.0
230
1.0
 70
     8
 71
     3
 72
     8
 73
     4
 74
     0
 42
0.0000000001
 43
0.0000000001
 40
0.0
 40
0.0
 40
0.0
 40
0.0
 40
1.0
 40
1.0
 40
1.0
 40
1.0
 10
152.8256370792167
 20
-43.25306240159985
 30
0.0
 10
152.8354408816682
 20
-43.24636645820463
 30
0.0
 10
152.8407868482387
 20
-43.23483647041691
 30
0.0
 10
152.8395630020253
 20
-43.2230274738081
 30
0.0
  0
SPLINE
  5
151
330
70
100
AcDbEntity
  8
0
 62
     8
420
  8421504
370
    25
100
AcDbSpline
210
0.0
220
0.0
230
1.0
 70
     8
 71
     3
 72
     8
 73
     4
 74
     0
 42
0.0000000001
 43
0.0000000001
 40
0.0
 40
0.0
 40
0.0
 40
0.0
 40
1.0
 40
1.0
 40
1.0
 40
1.0
 10
152.7479784982918
 20
-43.22279678080817
 30
0.0
 10
152.7464995505604
 20
-43.23446946785462
 30
0.0
 10
152.7517084393226
 20
-43.24598234465788
 30
0.0
 10
152.7614524166187
 20
-43.25257732879372
 30
0.0
  0
LWPOLYLINE
  5
152
330
70
100
AcDbEntity
  8
0
 62
     8
420
  8421504
370
    25
100
AcDbPolyline
 90
       43
 70
     0
 43
0.0
 10
144.7218168217586
 20
-33.1085957357172
 10
144.7138210192148
 20
-33.13102400096228
 10
144.5153310273019
 20
-33.60183446291826
 10
144.2616406160066
 20
-34.06372634566366
 10
143.9539329375459
 20
-34.51454549446953
 10
143.5936430679886
 20
-34.95218939506055
 10
143.1824513143146
 20
-35.37461697961184
 10
142.7222753779144
 20
-35.77985814544877
 10
142.2152614106965
 20
-36.16602294337575
 10
141.6637740062773
 20
-36.53131039187063
 10
141.0703851719151
 20
-36.87401687641702
 10
140.4378623330258
 20
-37.19254409476372
 10
139.7691554270742
 20
-37.48540651121589
 10
139.0673831452358
 20
-37.75123828433
 10
138.3358183879966
 20
-37.98879963761774
 10
137.577873000767
 20
-38.19698264088611
 10
136.7970818620975
 20
-38.37481637767741
 10
135.9970863977482
 20
-38.52147147344479
 10
135.1816175977462
 20
-38.63626396333103
 10
134.3544786163702
 20
-38.7186584823637
 10
133.5195270346256
 20
-38.76827076182618
 10
132.680656869812
 20
-38.7848694218304
 10
131.8417804145548
 20
-38.76837705002581
 10
131.0068099906841
 20
-38.71887056305432
 10
130.1796397033756
 20
-38.63658084750169
 10
129.3641272797906
 20
-38.52189168314196
 10
128.5640760774095
 20
-38.37533795315799
 10
127.7832173464387
 20
-38.19760314965964
 10
127.0251928277174
 20
-37.989516185764
 10
126.2935377689266
 20
-37.752047530028
 10
125.5916644366428
 20
-37.48630468029154
 10
124.9228462025392
 20
-37.19352699850793
 10
124.2902022771119
 20
-36.87507993071474
 10
123.6966831624157
 20
-36.53244863885562
 10
123.1450568915182
 20
-36.16723107459013
 10
122.6378961193959
 20
-35.78113052642847
 10
122.1775661242003
 20
-35.37594767622958
 10
121.7662137763919
 20
-34.95357220130054
 10
121.405757526421
 20
-34.51597396124423
 10
121.0978784570606
 20
-34.06519381092617
 10
120.8440124438472
 20
-33.60333408282126
 10
120.6453434578505
 20
-33.13254878159969
 10
120.6434831832569
 20
-33.12736902410206
  0
LWPOLYLINE
  5
153
330
70
100
AcDbEntity
  8
0
 62
     8
420
  8421504
370
    25
100
AcDbPolyline
 90
       49
 70
     0
 43
0.0
 10
120.5619439265133
 20
-31.26445742368375
 10
120.5513108456088
 20
-31.50330697873299
 10
120.5729868228477
 20
-31.98648168204548
 10
120.6523549339841
 20
-32.46764180642411
 10
120.7890369538338
 20
-32.94449440474773
 10
120.9823815303556
 20
-33.41476705720896
 10
121.2314672886045
 20
-33.87621870053866
 10
121.5351072214696
 20
-34.32665030742891
 10
121.8918543464451
 20
-34.7639153661418
 10
122.3000086009971
 20
-35.18593010962728
 10
122.7576249441862
 20
-35.59068344543196
 10
123.2625226257855
 20
-35.97624653950581
 10
123.8122955784002
 20
-36.34078200824241
 10
124.4043238835486
 20
-36.68255267400037
 10
125.0357862567388
 20
-36.99992984397451
 10
125.7036734922187
 20
-37.29140107143857
 10
126.4048028031393
 20
-37.55557736319457
 10
127.1358329890223
 20
-37.79119979895066
 10
127.8932803581449
 20
-37.99714553049154
 10
128.6735353288629
 20
-38.17243313267787
 10
129.4728796309074
 20
-38.31622728018473
 10
130.2875040247082
 20
-38.4278427283914
 10
131.1135264539716
 20
-38.50674757890495
 10
131.9470105456719
 20
-38.55256581423488
 10
132.78398436853
 20
-38.56507908952593
 10
133.6204593611932
 20
-38.54422777334196
 10
134.4524493393163
 20
-38.49011123172171
 10
135.2759894918429
 20
-38.40298735464724
 10
136.0871552748447
 20
-38.28327132708445
 10
136.8820811139947
 20
-38.13153365037463
 10
137.6569788256553
 20
-37.94849742361425
 10
138.4081556692941
 20
-37.73503489788896
 10
139.132031945298
 20
-37.49216331924522
 10
139.8251580534322
 20
-37.22104008139969
 10
140.4842309322
 20
-36.92295721004911
 10
141.1061097991679
 20
-36.59933520576874
 10
141.6878311182891
 20
-36.25171627490046
 10
142.2266227226875
 20
-35.88175697985089
 10
142.7199170249173
 20
-35.49122034522111
 10
143.1653632530491
 20
-35.08196745587164
 10
143.5608386528621
 20
-34.65594858815473
 10
143.9044586040438
 20
-34.2151939160806
 10
144.1945856010274
 20
-33.76180383631772
 10
144.4298370565137
 20
-33.29793895905787
 10
144.6090918902124
 20
-32.8258098117073
 10
144.73149587119
 20
-32.34766630470592
 10
144.796465688777
 20
-31.8657870094993
 10
144.8036917322088
 20
-31.38246830049684
 10
144.7966722113658
 20
-31.26445742368375
  0
LWPOLYLINE
  5
154
330
70
100
AcDbEntity
  8
0
 62
     8
420
  8421504
370
    25
100
AcDbPolyline
 90
       47
 70
     0
 43
0.0
 10
120.3207445622014
 20
-33.78787862731148
 10
120.3461930180747
 20
-34.24541143370182
 10
120.4296797197589
 20
-34.73298209119266
 10
120.5709361549569
 20
-35.21609522511801
 10
120.7692961528639
 20
-35.69247245467853
 10
121.023824239692
 20
-36.1598671660489
 10
121.3333200509972
 20
-36.61607510711201
 10
121.6963239921668
 20
-37.05894478315725
 10
122.1111241222004
 20
-37.48638760319538
 10
122.5757642273016
 20
-37.89638772993099
 10
123.0880530462199
 20
-38.28701158648817
 10
123.6455746045453
 20
-38.65641697527477
 10
124.2456996085256
 20
-39.00286176579161
 10
124.8855978448023
 20
-39.3247121106724
 10
125.5622515278524
 20
-39.62045015085475
 10
126.2724695320486
 20
-39.88868117405449
 10
127.0129024412006
 20
-40.12814019211853
 10
127.7800583441647
 20
-40.3376979067687
 10
128.5703193033465
 20
-40.51636603555226
 10
129.3799584166066
 20
-40.66330197252068
 10
130.2051573938729
 20
-40.77781276183034
 10
131.0420245638892
 20
-40.85935836612804
 10
131.8866132279204
 20
-40.90755421319467
 10
132.734940272334
 20
-40.92217300933985
 10
133.5830049530298
 20
-40.9031458117959
 10
134.4268077633264
 20
-40.85056235368633
 10
135.2623692957289
 20
-40.76467062051553
 10
136.0857490088636
 20
-40.64587568124389
 10
136.8930638112454
 20
-40.4947377774596
 10
137.6805063743265
 20
-40.31196968150751
 10
138.4443630876028
 20
-40.09843333502504
 10
139.1810315725862
 20
-39.85513578388602
 10
139.8870376714704
 20
-39.58322442899758
 10
140.5590518313982
 20
-39.28398161507417
 10
141.1939048069276
 20
-38.95881858313306
 10
141.788602606219
 20
-38.60926881495672
 10
142.3403406108896
 20
-38.23698080105424
 10
142.8465168025999
 20
-37.8437102666032
 10
143.3047440343317
 20
-37.43131189089086
 10
143.7128612881906
 20
-37.00173056121929
 10
144.0689438671235
 20
-36.55699220005833
 10
144.3713124714376
 20
-36.0991942111575
 10
144.6185411188861
 20
-35.63049558807937
 10
144.8094638693491
 20
-35.15310673217163
 10
144.9431803234854
 20
-34.66927902812126
 10
145.0190598692674
 20
-34.18129422664604
 10
145.0378715755475
 20
-33.78771170084477
  0
LWPOLYLINE
  5
155
330
70
100
AcDbEntity
  8
0
 62
     8
420
  8421504
370
    25
100
AcDbPolyline
 90
       41
 70
     0
 43
0.0
 10
120.6974761797656
 20
-37.47389819768979
 10
120.7606421815563
 20
-37.60895253182638
 10
121.0164233864605
 20
-38.07370752076862
 10
121.3265144744505
 20
-38.5273100636863
 10
121.689471462185
 20
-38.96764789565894
 10
122.1036041888108
 20
-39.39267052090322
 10
122.5669841863525
 20
-39.80039876107117
 10
123.0774536597678
 20
-40.18893397154669
 10
123.6326355353733
 20
-40.5564668828295
 10
124.229944529692
 20
-40.90128602556096
 10
124.8665991883202
 20
-41.2217857003042
 10
125.5396348382243
 20
-41.51647345473173
 10
126.2459173931007
 20
-41.78397703330429
 10
126.982157947602
 20
-42.02305076755762
 10
127.7449280927879
 20
-42.23258137662539
 10
128.5306758809135
 20
-42.41159315133388
 10
129.3357423654837
 20
-42.55925249792272
 10
130.1563786398074
 20
-42.67487181954762
 10
130.9887632942496
 20
-42.75791271844588
 10
131.8290202111325
 20
-42.80798850284078
 10
132.6732366144815
 20
-42.82486598771344
 10
133.5174812903863
 20
-42.80846658066599
 10
134.3578228933502
 20
-42.75886664779849
 10
135.1903482530952
 20
-42.67629715830453
 10
136.011180596679
 20
-42.56114260875526
 10
136.81649760143
 20
-42.41393923279749
 10
137.6025491941384
 20
-42.23537250375094
 10
138.3656750135133
 20
-42.02627394316869
 10
139.1023214556329
 20
-41.78761724812067
 10
139.809058221411
 20
-41.52051375761684
 10
140.4825942904314
 20
-41.22620727703749
 10
141.1197932462144
 20
-40.90606828638491
 10
141.7176878809858
 20
-40.5615875585229
 10
142.2734940132619
 20
-40.19436921691204
 10
142.7846234527014
 20
-39.8061232660956
 10
143.248696052241
 20
-39.39865762868544
 10
143.6635507918402
 20
-38.97386972632067
 10
144.0272558412117
 20
-38.53373764439657
 10
144.3381175561456
 20
-38.08031092064748
 10
144.5946883646329
 20
-37.61570100114224
 10
144.6425913592111
 20
-37.51466249025196
  0
LWPOLYLINE
  5
156
330
70
100
AcDbEntity
  8
0
 62
     8
420
  8421504
370
    25
100
AcDbPolyline
 90
       39
 70
     0
 43
0.0
 10
144.358139389548
 20
-30.89235340420395
 10
144.139557187677
 20
-31.2906761004891
 10
143.8355881387859
 20
-31.74159593112924
 10
143.4784543349126
 20
-32.1793349423793
 10
143.0698576811226
 20
-32.60180710849714
 10
142.6117453266621
 20
-33.00699915730545
 10
142.1063003854299
 20
-33.39298016400952
 10
141.5559315327391
 20
-33.75791075345401
 10
140.9632615268725
 20
-34.10005186513708
 10
140.3311147102871
 20
-34.41777304092922
 10
139.6625035504851
 20
-34.70956019464523
 10
138.9606142840454
 20
-34.97402282761823
 10
138.2287917330257
 20
-35.20990065504043
 10
137.4705233650809
 20
-35.41606961163861
 10
136.6894226743812
 20
-35.5915472083961
 10
135.8892119613868
 20
-35.73549721462571
 10
135.0737045945359
 20
-35.84723364308767
 10
134.2467868378211
 20
-35.92622401876343
 10
133.4123993310304
 20
-35.9720919165251
 10
132.5745183104514
 20
-35.98461875494929
 10
131.7371366608509
 20
-35.96374483800965
 10
130.9042448870003
 20
-35.90956963939504
 10
130.0798120976119
 20
-35.82235132858536
 10
129.267767090367
 20
-35.70250554052896
 10
128.4719796294068
 20
-35.55060339501546
 10
127.6962420045325
 20
-35.36736877493374
 10
126.9442509586956
 20
-35.15367487667106
 10
126.219590071773
 20
-34.91054004904588
 10
125.5257126827916
 20
-34.63912294017132
 10
124.8659254335864
 20
-34.34071697616312
 10
124.243372510856
 20
-34.01674419740853
 10
123.6610206627025
 20
-33.66874848158346
 10
123.1216450609552
 20
-33.29838818692206
 10
122.6278160760125
 20
-32.90742824879207
 10
122.1818870278149
 20
-32.49773176936008
 10
121.7859829714214
 20
-32.07125113894288
 10
121.4419905698213
 20
-31.63001873196108
 10
121.1515491035955
 20
-31.17613722172548
 10
120.9924323116526
 20
-30.87594199803194
  0
LWPOLYLINE
  5
157
330
70
100
AcDbEntity
  8
0
 62
     8
420
  8421504
370
    25
100
AcDbPolyline
 90
       39
 70
     0
 43
0.0
 10
144.3336120143565
 20
-33.27827206041215
 10
144.1154468318514
 20
-33.67584374955774
 10
143.8121172806018
 20
-34.12581492391986
 10
143.4557348236625
 20
-34.56263300903547
 10
143.0479977856287
 20
-34.98421636775564
 10
142.5908492192711
 20
-35.3885559634408
 10
142.0864676455942
 20
-35.77372493381774
 10
141.5372566725723
 20
-36.13788777326237
 10
140.9458335405208
 20
-36.47930907999237
 10
140.3150166500939
 20
-36.79636182609588
 10
139.6478121309329
 20
-37.08753511077405
 10
138.9473995165263
 20
-37.35144136069712
 10
138.2171165919007
 20
-37.58682294255582
 10
137.4604434877577
 20
-37.79255815572443
 10
136.6809860959941
 20
-37.96766657838312
 10
135.8824588860995
 20
-38.11131373905495
 10
135.0686672038519
 20
-38.22281509365369
 10
134.2434891372106
 20
-38.30163928736901
 10
133.4108570354468
 20
-38.34741068712537
 10
132.5747387697268
 20
-38.35991117130241
 10
131.739118824379
 20
-38.33908116947803
 10
130.9079793088691
 20
-38.28501994595918
 10
130.0852809816212
 20
-38.19798512716483
 10
129.2749443747124
 20
-38.0783914736424
 10
128.4808311111785
 20
-37.92680890360459
 10
127.7067255022627
 20
-37.743959777105
 10
126.9563165138662
 20
-37.53071545339597
 10
126.2331801864284
 20
-37.28809213877964
 10
125.5407625938952
 20
-37.01724604393246
 10
124.8823634214026
 20
-36.71946787381073
 10
124.2611202408901
 20
-36.39617667692357
 10
123.6799935589948
 20
-36.048913083181
 10
123.1417527090358
 20
-35.67933196167038
 10
122.6489626536943
 20
-35.2891945347252
 10
122.2039717620698
 20
-34.88035998489753
 10
121.8089006184142
 20
-34.45477659497189
 10
121.4656319166006
 20
-34.01447246363197
 10
121.1758014883257
 20
-33.56154584060288
 10
121.0097391786832
 20
-33.24699659518228
  0
LWPOLYLINE
  5
158
330
70
100
AcDbEntity
  8
0
 62
     8
420
  8421504
370
    25
100
AcDbPolyline
 90
       43
 70
     0
 43
0.0
 10
142.765787626603
 20
-58.23036845290245
 10
142.7439101412953
 20
-58.57542822584206
 10
142.6645928124068
 20
-59.01374035350587
 10
142.5280806768187
 20
-59.44733421663094
 10
142.3351556636408
 20
-59.87372622866747
 10
142.0869228298308
 20
-60.29047405484566
 10
141.7848040306568
 20
-60.69519060141812
 10
141.4305297751442
 20
-61.0855576886545
 10
141.0261293142494
 20
-61.45933932907693
 10
140.5739190171076
 20
-61.81439453548664
 10
140.076489103401
 20
-62.14868958371261
 10
139.5366888066433
 20
-62.46030966205763
 10
138.9576100539815
 20
-62.74746983886861
 10
138.3425697561115
 20
-63.00852528665156
 10
137.6950908081363
 20
-63.24198070352009
 10
137.0188819108921
 20
-63.44649887787669
 10
136.3178163276851
 20
-63.62090834825227
 10
135.5959096986507
 20
-63.76421011296141
 10
134.8572970395828
 20
-63.87558335244703
 10
134.1062090570076
 20
-63.95439013086432
 10
133.3469479147284
 20
-64.00017905018582
 10
132.5838625918942
 20
-64.01268783554527
 10
131.8213239720374
 20
-63.9918448378452
 10
131.0636998074846
 20
-63.93776944380197
 10
130.3153297006823
 20
-63.85077139245032
 10
129.5805002479373
 20
-63.73134900071331
 10
128.8634204857504
 20
-63.58018630922837
 10
128.1681977820514
 20
-63.39814916422272
 10
127.4988143095975
 20
-63.18628025795951
 10
126.859104236223
 20
-62.94579315636462
 10
126.2527317633505
 20
-62.67806534778785
 10
125.6831701375698
 20
-62.38463035284411
 10
125.1536817562796
 20
-62.06716894059184
 10
124.6672994809535
 20
-61.72749950128212
 10
124.2268092653561
 20
-61.36756763068999
 10
123.8347341973894
 20
-60.98943498606995
 10
123.4933200475685
 20
-60.59526747677149
 10
123.2045224053233
 20
-60.18732285877594
 10
122.9699954773222
 20
-59.76793780185042
 10
122.7910826125559
 20
-59.3395145055501
 10
122.6688086076963
 20
-58.90450693984065
 10
122.603873837239
 20
-58.46540678853836
 10
122.5928285112113
 20
-58.23036845290245
  0
INSERT
  5
15B
330
70
100
AcDbEntity
  8
CAPA_BASE
100
AcDbBlockReference
  2
Block_0
 10
0.0
 20
0.0
 30
0.0
  0
INSERT
  5
168
330
70
100
AcDbEntity
  8
CAPA_BASE
100
AcDbBlockReference
  2
Block_1
 10
0.0
 20
0.0
 30
0.0
  0
INSERT
  5
174
330
70
100
AcDbEntity
  8
CAPA_BASE
100
AcDbBlockReference
  2
Block_2
 10
0.0
 20
0.0
 30
0.0
  0
ENDSEC
  0
SECTION
  2
OBJECTS
  0
DICTIONARY
  5
C
330
0
100
AcDbDictionary
281
     1
  3
ACAD_COLOR
350
63
  3
ACAD_DETAILVIEWSTYLE
350
6A
  3
ACAD_GROUP
350
D
  3
ACAD_LAYOUT
350
62
  3
ACAD_MATERIAL
350
10
  3
ACAD_MLEADERSTYLE
350
66
  3
ACAD_MLINESTYLE
350
5F
  3
ACAD_PLOTSETTINGS
350
61
  3
ACAD_PLOTSTYLENAME
350
E
  3
ACAD_SCALELIST
350
42
  3
ACAD_SECTIONVIEWSTYLE
350
68
  3
ACAD_TABLESTYLE
350
64
  3
ACAD_VISUALSTYLE
350
29
  3
ACDB_RECOMPOSE_DATA
350
187
  3
AcDbVariableDictionary
350
17F
  0
DICTIONARY
  5
63
102
{ACAD_REACTORS
330
C
102
}
330
C
100
AcDbDictionary
281
     1
  0
DICTIONARY
  5
6A
102
{ACAD_REACTORS
330
C
102
}
330
C
100
AcDbDictionary
281
     1
  3
Imperial24
350
6B
  0
DICTIONARY
  5
D
102
{ACAD_REACTORS
330
C
102
}
330
C
100
AcDbDictionary
281
     1
  0
DICTIONARY
  5
62
102
{ACAD_REACTORS
330
C
102
}
330
C
100
AcDbDictionary
281
     1
  3
Layout1
350
6F
  3
Layout2
350
77
  3
Model
350
73
  0
DICTIONARY
  5
10
102
{ACAD_REACTORS
330
C
102
}
330
C
100
AcDbDictionary
281
     1
  3
ByBlock
350
19
  3
ByLayer
350
11
  3
Global
350
21
  0
DICTIONARY
  5
66
102
{ACAD_REACTORS
330
C
102
}
330
C
100
AcDbDictionary
281
     1
  3
Standard
350
67
  0
DICTIONARY
  5
5F
102
{ACAD_REACTORS
330
C
102
}
330
C
100
AcDbDictionary
281
     1
  3
Standard
350
60
  0
DICTIONARY
  5
61
102
{ACAD_REACTORS
330
C
102
}
330
C
100
AcDbDictionary
281
     1
  0
ACDBDICTIONARYWDFLT
  5
E
102
{ACAD_REACTORS
330
C
102
}
330
C
100
AcDbDictionary
281
     1
  3
Normal
350
F
100
AcDbDictionaryWithDefault
340
F
  0
DICTIONARY
  5
42
102
{ACAD_REACTORS
330
C
102
}
330
C
100
AcDbDictionary
281
     1
  3
A0
350
43
  3
A1
350
44
  3
A2
350
45
  3
A3
350
46
  3
A4
350
47
  3
A5
350
48
  3
A6
350
49
  3
A7
350
4A
  3
A8
350
4B
  3
A9
350
4C
  3
B0
350
4D
  3
B1
350
4E
  3
B2
350
4F
  3
B3
350
50
  3
B4
350
51
  3
B5
350
52
  3
B6
350
53
  0
DICTIONARY
  5
68
102
{ACAD_REACTORS
330
C
102
}
330
C
100
AcDbDictionary
281
     1
  3
Imperial24
350
69
  0
DICTIONARY
  5
64
102
{ACAD_REACTORS
330
C
102
}
330
C
100
AcDbDictionary
281
     1
  3
Standard
350
65
  0
DICTIONARY
  5
29
102
{ACAD_REACTORS
330
C
102
}
330
C
100
AcDbDictionary
281
     1
  3
2dWireframe
350
2F
  3
Basic
350
2E
  3
Brighten
350
35
  3
ColorChange
350
39
  3
Conceptual
350
32
  3
Dim
350
34
  3
EdgeColorOff
350
41
  3
Facepattern
350
38
  3
Flat
350
2A
  3
FlatWithEdges
350
2B
  3
Gouraud
350
2C
  3
GouraudWithEdges
350
2D
  3
Hidden
350
31
  3
JitterOff
350
3F
  3
Linepattern
350
37
  3
OverhangOff
350
40
  3
Realistic
350
33
  3
Shaded
350
3E
  3
Shaded with edges
350
3D
  3
Shades of Gray
350
3A
  3
Sketchy
350
3B
  3
Thicken
350
36
  3
Wireframe
350
30
  3
X-Ray
350
3C
  0
XRECORD
  5
187
102
{ACAD_REACTORS
330
C
102
}
330
C
100
AcDbXrecord
280
     1
 90
        1
330
65
  0
DICTIONARY
  5
17F
102
{ACAD_REACTORS
330
C
102
}
330
C
100
AcDbDictionary
281
     1
  3
CANNOSCALE
350
184
  3
CMLEADERSTYLE
350
181
  3
CTABLESTYLE
350
180
  3
CVIEWDETAILSTYLE
350
182
  3
CVIEWSECTIONSTYLE
350
183
  0
ACDBDETAILVIEWSTYLE
  5
6B
102
{ACAD_REACTORS
330
6A
102
}
330
6A
100
AcDbModelDocViewStyle
 70
     0
  3
Imperial24
290
     1
300
Imperial24
 90
        0
100
AcDbDetailViewStyle
 70
     0
 71
     0
 90
        3
 71
     1
340
55
 62
   256
 40
0.24
340
0
 62
   256
 40
0.24
300

 40
0.36
280
     3
 71
     2
340
5D
 90
       25
 62
   256
 71
     3
340
55
 62
   256
 40
0.24
 90
        1
 40
0.75
 90
        1
300
%<\AcVar ViewType \f "%tc1">% %<\AcVar ViewDetailId>%\PSCALE %<\AcVar ViewScale \f "%sn">%
 71
     4
340
5D
 90
       25
 62
   256
340
5D
 90
       25
 62
   256
280
     0
  0
LAYOUT
  5
6F
102
{ACAD_REACTORS
330
62
102
}
330
62
100
AcDbPlotSettings
  1

  2

  4

  6

 40
0.0
 41
0.0
 42
0.0
 43
0.0
 44
0.0
 45
0.0
 46
0.0
 47
0.0
 48
0.0
 49
0.0
140
0.0
141
0.0
142
1.0
143
1.0
 70
   688
 72
     0
 73
     0
 74
     5
  7

 75
    16
147
1.0
 76
     0
 77
     2
 78
   300
148
0.0
149
0.0
100
AcDbLayout
  1
Layout1
 70
     1
 71
     1
 10
0.0
 20
0.0
 11
12.0
 21
9.0
 12
0.0
 22
0.0
 32
0.0
 14
0.0
 24
0.0
 34
0.0
 15
0.0
 25
0.0
 35
0.0
146
0.0
 13
0.0
 23
0.0
 33
0.0
 16
1.0
 26
0.0
 36
0.0
 17
0.0
 27
1.0
 37
0.0
 76
     0
330
6C
  0
LAYOUT
  5
77
102
{ACAD_REACTORS
330
62
102
}
330
62
100
AcDbPlotSettings
  1

  2

  4

  6

 40
0.0
 41
0.0
 42
0.0
 43
0.0
 44
0.0
 45
0.0
 46
0.0
 47
0.0
 48
0.0
 49
0.0
140
0.0
141
0.0
142
1.0
143
1.0
 70
   688
 72
     0
 73
     0
 74
     5
  7

 75
    16
147
1.0
 76
     0
 77
     2
 78
   300
148
0.0
149
0.0
100
AcDbLayout
  1
Layout2
 70
     1
 71
     2
 10
0.0
 20
0.0
 11
12.0
 21
9.0
 12
0.0
 22
0.0
 32
0.0
 14
0.0
 24
0.0
 34
0.0
 15
0.0
 25
0.0
 35
0.0
146
0.0
 13
0.0
 23
0.0
 33
0.0
 16
1.0
 26
0.0
 36
0.0
 17
0.0
 27
1.0
 37
0.0
 76
     0
330
74
  0
LAYOUT
  5
73
102
{ACAD_REACTORS
330
62
102
}
330
62
100
AcDbPlotSettings
  1

  2

  4

  6

 40
0.0
 41
0.0
 42
0.0
 43
0.0
 44
0.0
 45
0.0
 46
0.0
 47
0.0
 48
0.0
 49
0.0
140
0.0
141
0.0
142
1.0
143
1.0
 70
  1712
 72
     0
 73
     0
 74
     0
  7

 75
     0
147
1.0
 76
     0
 77
     2
 78
   300
148
0.0
149
0.0
100
AcDbLayout
  1
Model
 70
     1
 71
     0
 10
0.0
 20
0.0
 11
12.0
 21
9.0
 12
0.0
 22
0.0
 32
0.0
 14
0.0
 24
0.0
 34
0.0
 15
0.0
 25
0.0
 35
0.0
146
0.0
 13
0.0
 23
0.0
 33
0.0
 16
1.0
 26
0.0
 36
0.0
 17
0.0
 27
1.0
 37
0.0
 76
     0
330
70
  0
MATERIAL
  5
19
102
{ACAD_XDICTIONARY
360
1A
102
}
102
{ACAD_REACTORS
330
10
102
}
330
10
100
AcDbMaterial
  1
ByBlock
 72
     0
 43
0.0208333333333333
 43
0.0
 43
0.0
 43
0.0
 43
0.0
 43
0.0208333333333333
 43
0.0
 43
0.0
 43
0.0
 43
0.0
 43
1.0
 43
0.0
 43
0.0
 43
0.0
 43
0.0
 43
1.0
 77
     0
 47
0.0208333333333333
 47
0.0
 47
0.0
 47
0.0
 47
0.0
 47
0.0208333333333333
 47
0.0
 47
0.0
 47
0.0
 47
0.0
 47
1.0
 47
0.0
 47
0.0
 47
0.0
 47
0.0
 47
1.0
171
     0
 49
0.0208333333333333
 49
0.0
 49
0.0
 49
0.0
 49
0.0
 49
0.0208333333333333
 49
0.0
 49
0.0
 49
0.0
 49
0.0
 49
1.0
 49
0.0
 49
0.0
 49
0.0
 49
0.0
 49
1.0
175
     0
142
0.0208333333333333
142
0.0
142
0.0
142
0.0
142
0.0
142
0.0208333333333333
142
0.0
142
0.0
142
0.0
142
0.0
142
1.0
142
0.0
142
0.0
142
0.0
142
0.0
142
1.0
179
     0
144
0.0208333333333333
144
0.0
144
0.0
144
0.0
144
0.0
144
0.0208333333333333
144
0.0
144
0.0
144
0.0
144
0.0
144
1.0
144
0.0
144
0.0
144
0.0
144
0.0
144
1.0
147
0.0208333333333333
147
0.0
147
0.0
147
0.0
147
0.0
147
0.0208333333333333
147
0.0
147
0.0
147
0.0
147
0.0
147
1.0
147
0.0
147
0.0
147
0.0
147
0.0
147
1.0
  0
MATERIAL
  5
11
102
{ACAD_XDICTIONARY
360
12
102
}
102
{ACAD_REACTORS
330
10
102
}
330
10
100
AcDbMaterial
  1
ByLayer
 72
     0
 43
0.0208333333333333
 43
0.0
 43
0.0
 43
0.0
 43
0.0
 43
0.0208333333333333
 43
0.0
 43
0.0
 43
0.0
 43
0.0
 43
1.0
 43
0.0
 43
0.0
 43
0.0
 43
0.0
 43
1.0
 77
     0
 47
0.0208333333333333
 47
0.0
 47
0.0
 47
0.0
 47
0.0
 47
0.0208333333333333
 47
0.0
 47
0.0
 47
0.0
 47
0.0
 47
1.0
 47
0.0
 47
0.0
 47
0.0
 47
0.0
 47
1.0
171
     0
 49
0.0208333333333333
 49
0.0
 49
0.0
 49
0.0
 49
0.0
 49
0.0208333333333333
 49
0.0
 49
0.0
 49
0.0
 49
0.0
 49
1.0
 49
0.0
 49
0.0
 49
0.0
 49
0.0
 49
1.0
175
     0
142
0.0208333333333333
142
0.0
142
0.0
142
0.0
142
0.0
142
0.0208333333333333
142
0.0
142
0.0
142
0.0
142
0.0
142
1.0
142
0.0
142
0.0
142
0.0
142
0.0
142
1.0
179
     0
144
0.0208333333333333
144
0.0
144
0.0
144
0.0
144
0.0
144
0.0208333333333333
144
0.0
144
0.0
144
0.0
144
0.0
144
1.0
144
0.0
144
0.0
144
0.0
144
0.0
144
1.0
147
0.0208333333333333
147
0.0
147
0.0
147
0.0
147
0.0
147
0.0208333333333333
147
0.0
147
0.0
147
0.0
147
0.0
147
1.0
147
0.0
147
0.0
147
0.0
147
0.0
147
1.0
  0
MATERIAL
  5
21
102
{ACAD_XDICTIONARY
360
22
102
}
102
{ACAD_REACTORS
330
10
102
}
330
10
100
AcDbMaterial
  1
Global
 72
     0
 43
0.0208333333333333
 43
0.0
 43
0.0
 43
0.0
 43
0.0
 43
0.0208333333333333
 43
0.0
 43
0.0
 43
0.0
 43
0.0
 43
1.0
 43
0.0
 43
0.0
 43
0.0
 43
0.0
 43
1.0
 77
     0
 47
0.0208333333333333
 47
0.0
 47
0.0
 47
0.0
 47
0.0
 47
0.0208333333333333
 47
0.0
 47
0.0
 47
0.0
 47
0.0
 47
1.0
 47
0.0
 47
0.0
 47
0.0
 47
0.0
 47
1.0
171
     0
 49
0.0208333333333333
 49
0.0
 49
0.0
 49
0.0
 49
0.0
 49
0.0208333333333333
 49
0.0
 49
0.0
 49
0.0
 49
0.0
 49
1.0
 49
0.0
 49
0.0
 49
0.0
 49
0.0
 49
1.0
175
     0
142
0.0208333333333333
142
0.0
142
0.0
142
0.0
142
0.0
142
0.0208333333333333
142
0.0
142
0.0
142
0.0
142
0.0
142
1.0
142
0.0
142
0.0
142
0.0
142
0.0
142
1.0
179
     0
144
0.0208333333333333
144
0.0
144
0.0
144
0.0
144
0.0
144
0.0208333333333333
144
0.0
144
0.0
144
0.0
144
0.0
144
1.0
144
0.0
144
0.0
144
0.0
144
0.0
144
1.0
147
0.0208333333333333
147
0.0
147
0.0
147
0.0
147
0.0
147
0.0208333333333333
147
0.0
147
0.0
147
0.0
147
0.0
147
1.0
147
0.0
147
0.0
147
0.0
147
0.0
147
1.0
  0
MLEADERSTYLE
  5
67
102
{ACAD_REACTORS
330
66
102
}
330
66
100
AcDbMLeaderStyle
179
     2
170
     2
171
     1
172
     0
 90
        2
 40
0.0
 41
0.0
173
     1
 91
-1056964608
340
5B
 92
       -2
290
     1
 42
0.09
291
     1
 43
0.36
  3
Standard
 44
0.18
300

342
55
174
     1
178
     6
175
     1
176
     0
 93
-1056964608
 45
0.18
292
     0
297
     0
 46
0.18
 94
-1056964608
 47
1.0
 49
1.0
140
1.0
293
     1
141
0.0
294
     1
177
     0
142
1.0
295
     1
296
     0
143
0.125
271
     0
272
     9
273
     9
298
     1
  0
MLINESTYLE
  5
60
102
{ACAD_REACTORS
330
5F
102
}
330
5F
100
AcDbMlineStyle
  2
STANDARD
 70
     0
  3

 62
   256
 51
90.0
 52
90.0
 71
     2
 49
0.5
 62
   256
  6
BYLAYER
 49
-0.5
 62
   256
  6
BYLAYER
  0
ACDBPLACEHOLDER
  5
F
102
{ACAD_REACTORS
330
E
102
}
330
E
  0
SCALE
  5
43
102
{ACAD_REACTORS
330
42
102
}
330
42
100
AcDbScale
 70
     0
300
1:1
140
1.0
141
1.0
290
     1
  0
SCALE
  5
44
102
{ACAD_REACTORS
330
42
102
}
330
42
100
AcDbScale
 70
     0
300
1/128" = 1'-0"
140
0.0078125
141
12.0
290
     0
  0
SCALE
  5
45
102
{ACAD_REACTORS
330
42
102
}
330
42
100
AcDbScale
 70
     0
300
1/64" = 1'-0"
140
0.015625
141
12.0
290
     0
  0
SCALE
  5
46
102
{ACAD_REACTORS
330
42
102
}
330
42
100
AcDbScale
 70
     0
300
1/32" = 1'-0"
140
0.03125
141
12.0
290
     0
  0
SCALE
  5
47
102
{ACAD_REACTORS
330
42
102
}
330
42
100
AcDbScale
 70
     0
300
1/16" = 1'-0"
140
0.0625
141
12.0
290
     0
  0
SCALE
  5
48
102
{ACAD_REACTORS
330
42
102
}
330
42
100
AcDbScale
 70
     0
300
3/32" = 1'-0"
140
0.09375
141
12.0
290
     0
  0
SCALE
  5
49
102
{ACAD_REACTORS
330
42
102
}
330
42
100
AcDbScale
 70
     0
300
1/8" = 1'-0"
140
0.125
141
12.0
290
     0
  0
SCALE
  5
4A
102
{ACAD_REACTORS
330
42
102
}
330
42
100
AcDbScale
 70
     0
300
3/16" = 1'-0"
140
0.1875
141
12.0
290
     0
  0
SCALE
  5
4B
102
{ACAD_REACTORS
330
42
102
}
330
42
100
AcDbScale
 70
     0
300
1/4" = 1'-0"
140
0.25
141
12.0
290
     0
  0
SCALE
  5
4C
102
{ACAD_REACTORS
330
42
102
}
330
42
100
AcDbScale
 70
     0
300
3/8" = 1'-0"
140
0.375
141
12.0
290
     0
  0
SCALE
  5
4D
102
{ACAD_REACTORS
330
42
102
}
330
42
100
AcDbScale
 70
     0
300
1/2" = 1'-0"
140
0.5
141
12.0
290
     0
  0
SCALE
  5
4E
102
{ACAD_REACTORS
330
42
102
}
330
42
100
AcDbScale
 70
     0
300
3/4" = 1'-0"
140
0.75
141
12.0
290
     0
  0
SCALE
  5
4F
102
{ACAD_REACTORS
330
42
102
}
330
42
100
AcDbScale
 70
     0
300
1" = 1'-0"
140
1.0
141
12.0
290
     0
  0
SCALE
  5
50
102
{ACAD_REACTORS
330
42
102
}
330
42
100
AcDbScale
 70
     0
300
1-1/2" = 1'-0"
140
1.5
141
12.0
290
     0
  0
SCALE
  5
51
102
{ACAD_REACTORS
330
42
102
}
330
42
100
AcDbScale
 70
     0
300
3" = 1'-0"
140
3.0
141
12.0
290
     0
  0
SCALE
  5
52
102
{ACAD_REACTORS
330
42
102
}
330
42
100
AcDbScale
 70
     0
300
6" = 1'-0"
140
6.0
141
12.0
290
     0
  0
SCALE
  5
53
102
{ACAD_REACTORS
330
42
102
}
330
42
100
AcDbScale
 70
     0
300
1'-0" = 1'-0"
140
12.0
141
12.0
290
     0
  0
ACDBSECTIONVIEWSTYLE
  5
69
102
{ACAD_REACTORS
330
68
102
}
330
68
100
AcDbModelDocViewStyle
 70
     0
  3
Imperial24
290
     1
300
Imperial24
 90
        0
100
AcDbSectionViewStyle
 70
     0
 71
     0
 90
       78
 71
     1
340
55
 62
   256
 40
0.24
340
0
340
0
 62
   256
 40
0.24
300
I, O, Q, S, X, Z
 40
0.48
 90
        3
 40
0.18
 90
        1
 71
     2
340
5D
 90
       25
 62
   256
340
5D
 90
       50
 62
   256
 40
0.24
 40
0.0
 40
0.24
 71
     3
340
55
 62
   256
 40
0.24
 90
        1
 40
0.75
 90
        1
300
%<\AcVar ViewType \f "%tc1">% %<\AcVar ViewSectionStartId>%-%<\AcVar ViewSectionEndId>%\PSCALE %<\AcVar ViewScale \f "%sn">%
 71
     4
 62
   256
 62
   257
300
ANSI31
 40
1.0
 90
        0
290
     0
290
     0
 90
        6
 40
0.0
 40
1.570796326794896
 40
0.2617993877991494
 40
1.308996938995747
 40
-0.2617993877991494
 40
1.832595714594046
  0
TABLESTYLE
  5
65
102
{ACAD_XDICTIONARY
360
185
102
}
102
{ACAD_REACTORS
330
64
102
}
330
64
100
AcDbTableStyle
280
     0
  3
Standard
 70
     0
 71
     0
 40
0.06
 41
0.06
280
     0
281
     0
  7
Standard
140
0.18
170
     2
 62
     0
 63
     7
283
     0
 90
      512
 91
        0
  1

274
    -2
284
     1
 64
     0
275
    -2
285
     1
 65
     0
276
    -2
286
     1
 66
     0
277
    -2
287
     1
 67
     0
278
    -2
288
     1
 68
     0
279
    -2
289
     1
 69
     0
  7
Standard
140
0.25
170
     5
 62
     0
 63
     7
283
     0
 90
      512
 91
        0
  1

274
    -2
284
     1
 64
     0
275
    -2
285
     1
 65
     0
276
    -2
286
     1
 66
     0
277
    -2
287
     1
 67
     0
278
    -2
288
     1
 68
     0
279
    -2
289
     1
 69
     0
  7
Standard
140
0.18
170
     5
 62
     0
 63
     7
283
     0
 90
      512
 91
        0
  1

274
    -2
284
     1
 64
     0
275
    -2
285
     1
 65
     0
276
    -2
286
     1
 66
     0
277
    -2
287
     1
 67
     0
278
    -2
288
     1
 68
     0
279
    -2
289
     1
 69
     0
  0
VISUALSTYLE
  5
2F
102
{ACAD_REACTORS
330
29
102
}
330
29
100
AcDbVisualStyle
  2
2dWireframe
 70
     4
177
     3
291
     0
 70
    58
 90
        0
176
     1
 90
        2
176
     1
 90
        0
176
     1
 90
        0
176
     1
 40
0.6
176
     1
 40
30.0
176
     1
 62
     7
420
 16777215
176
     1
 90
        1
176
     1
 90
        4
176
     1
 62
     7
176
     1
 62
   257
176
     1
 90
        1
176
     1
 90
        1
176
     1
 40
1.0
176
     1
 90
        0
176
     1
 62
   257
176
     1
 40
1.0
176
     1
 90
        1
176
     1
 90
        6
176
     1
 90
        2
176
     1
 62
     7
176
     1
 90
        5
176
     1
 90
        0
176
     1
 90
        0
176
     1
290
     0
176
     1
 90
        1
176
     1
 40
0.0
176
     1
 90
        0
176
     1
290
     1
176
     1
290
     1
176
     1
290
     0
176
     1
290
     0
176
     1
290
     0
176
     1
290
     0
176
     1
290
     0
176
     1
290
     0
176
     1
290
     0
176
     1
 90
       50
176
     1
 40
0.0
176
     1
 40
1.0
176
     1
 90
        0
176
     1
 62
    18
420
        0
176
     1
 90
       50
176
     1
 90
        3
176
     1
 62
     5
420
      255
176
     1
290
     0
176
     1
 90
       50
176
     1
 90
       50
176
     1
 90
       50
176
     1
290
     0
176
     1
 90
       50
176
     1
 62
   256
176
     0
 40
1.0
176
     0
 90
        2
176
     1
  1
strokes_ogs.tif
176
     1
290
     0
176
     1
 40
1.0
176
     1
 40
1.0
176
     1
  0
VISUALSTYLE
  5
2E
102
{ACAD_REACTORS
330
29
102
}
330
29
100
AcDbVisualStyle
  2
Basic
 70
     7
177
     3
291
     1
 70
    58
 90
        1
176
     1
 90
        0
176
     1
 90
        1
176
     1
 90
        0
176
     1
 40
0.6
176
     1
 40
30.0
176
     1
 62
     7
420
 16777215
176
     1
 90
        0
176
     1
 90
        4
176
     1
 62
     7
176
     1
 62
   257
176
     1
 90
        1
176
     1
 90
        1
176
     1
 40
1.0
176
     1
 90
        8
176
     1
 62
     7
176
     1
 40
1.0
176
     1
 90
        1
176
     1
 90
        6
176
     1
 90
        2
176
     1
 62
     7
176
     1
 90
        5
176
     1
 90
        0
176
     1
 90
        0
176
     1
290
     0
176
     1
 90
        1
176
     1
 40
0.0
176
     1
 90
        0
176
     1
290
     0
176
     1
290
     1
176
     1
290
     1
176
     1
290
     0
176
     1
290
     0
176
     1
290
     0
176
     1
290
     0
176
     1
290
     0
176
     1
290
     0
176
     1
 90
       50
176
     1
 40
0.0
176
     1
 40
1.0
176
     1
 90
        0
176
     1
 62
    18
420
        0
176
     1
 90
       50
176
     1
 90
        3
176
     1
 62
     5
420
      255
176
     1
290
     0
176
     1
 90
       50
176
     1
 90
       50
176
     1
 90
       50
176
     1
290
     0
176
     1
 90
       50
176
     1
 62
   256
176
     0
 40
1.0
176
     0
 90
        2
176
     1
  1
strokes_ogs.tif
176
     1
290
     0
176
     1
 40
1.0
176
     1
 40
1.0
176
     1
  0
VISUALSTYLE
  5
35
102
{ACAD_REACTORS
330
29
102
}
330
29
100
AcDbVisualStyle
  2
Brighten
 70
    12
177
     3
291
     1
 70
    58
 90
        2
176
     1
 90
        2
176
     1
 90
        0
176
     1
 90
        0
176
     1
 40
0.6
176
     1
 40
30.0
176
     1
 62
     7
420
 16777215
176
     1
 90
        1
176
     1
 90
        4
176
     1
 62
     7
176
     1
 62
   257
176
     1
 90
        1
176
     1
 90
        1
176
     1
 40
1.0
176
     1
 90
        8
176
     1
 62
     7
176
     1
 40
1.0
176
     1
 90
        1
176
     1
 90
        6
176
     1
 90
        2
176
     1
 62
     7
176
     1
 90
        5
176
     1
 90
        0
176
     1
 90
        0
176
     1
290
     0
176
     1
 90
        1
176
     1
 40
50.0
176
     1
 90
        0
176
     1
290
     0
176
     1
290
     1
176
     1
290
     1
176
     1
290
     0
176
     1
290
     0
176
     1
290
     0
176
     1
290
     0
176
     1
290
     0
176
     1
290
     0
176
     1
 90
       50
176
     1
 40
0.0
176
     1
 40
1.0
176
     1
 90
        0
176
     1
 62
    18
420
        0
176
     1
 90
       50
176
     1
 90
        3
176
     1
 62
     5
420
      255
176
     1
290
     0
176
     1
 90
       50
176
     1
 90
       50
176
     1
 90
       50
176
     1
290
     0
176
     1
 90
       50
176
     1
 62
   256
176
     0
 40
1.0
176
     0
 90
        2
176
     1
  1
strokes_ogs.tif
176
     1
290
     0
176
     1
 40
1.0
176
     1
 40
1.0
176
     1
  0
VISUALSTYLE
  5
39
102
{ACAD_REACTORS
330
29
102
}
330
29
100
AcDbVisualStyle
  2
ColorChange
 70
    16
177
     3
291
     1
 70
    58
 90
        2
176
     1
 90
        2
176
     1
 90
        3
176
     1
 90
        0
176
     1
 40
0.6
176
     1
 40
30.0
176
     1
 62
     8
420
  8421504
176
     1
 90
        1
176
     1
 90
        4
176
     1
 62
     7
176
     1
 62
   257
176
     1
 90
        1
176
     1
 90
        1
176
     1
 40
1.0
176
     1
 90
        8
176
     1
 62
     8
420
  8421504
176
     1
 40
1.0
176
     1
 90
        1
176
     1
 90
        6
176
     1
 90
        2
176
     1
 62
     7
176
     1
 90
        5
176
     1
 90
        0
176
     1
 90
        0
176
     1
290
     0
176
     1
 90
        1
176
     1
 40
0.0
176
     1
 90
        0
176
     1
290
     0
176
     1
290
     1
176
     1
290
     1
176
     1
290
     0
176
     1
290
     0
176
     1
290
     0
176
     1
290
     0
176
     1
290
     0
176
     1
290
     0
176
     1
 90
       50
176
     1
 40
0.0
176
     1
 40
1.0
176
     1
 90
        0
176
     1
 62
    18
420
        0
176
     1
 90
       50
176
     1
 90
        3
176
     1
 62
     5
420
      255
176
     1
290
     0
176
     1
 90
       50
176
     1
 90
       50
176
     1
 90
       50
176
     1
290
     0
176
     1
 90
       50
176
     1
 62
   256
176
     0
 40
1.0
176
     0
 90
        2
176
     1
  1
strokes_ogs.tif
176
     1
290
     0
176
     1
 40
1.0
176
     1
 40
1.0
176
     1
  0
VISUALSTYLE
  5
32
102
{ACAD_REACTORS
330
29
102
}
330
29
100
AcDbVisualStyle
  2
Conceptual
 70
     9
177
     3
291
     0
 70
    58
 90
        3
176
     1
 90
        2
176
     1
 90
        0
176
     1
 90
        0
176
     1
 40
0.6
176
     1
 40
30.0
176
     1
 62
     7
420
 16777215
176
     1
 90
        2
176
     1
 90
        2
176
     1
 62
     7
176
     1
 62
   257
176
     1
 90
        1
176
     1
 90
        1
176
     1
 40
179.0
176
     1
 90
        8
176
     1
 62
     7
176
     1
 40
1.0
176
     1
 90
        1
176
     1
 90
        6
176
     1
 90
        2
176
     1
 62
     7
176
     1
 90
        3
176
     1
 90
        0
176
     1
 90
        0
176
     1
290
     0
176
     1
 90
        1
176
     1
 40
0.0
176
     1
 90
        0
176
     1
290
     0
176
     1
290
     1
176
     1
290
     1
176
     1
290
     0
176
     1
290
     0
176
     1
290
     0
176
     1
290
     0
176
     1
290
     0
176
     1
290
     0
176
     1
 90
       50
176
     1
 40
0.0
176
     1
 40
1.0
176
     1
 90
        0
176
     1
 62
    18
420
        0
176
     1
 90
       50
176
     1
 90
        3
176
     1
 62
     5
420
      255
176
     1
290
     0
176
     1
 90
       50
176
     1
 90
       50
176
     1
 90
       50
176
     1
290
     0
176
     1
 90
       50
176
     1
 62
   256
176
     0
 40
1.0
176
     0
 90
        2
176
     1
  1
strokes_ogs.tif
176
     1
290
     0
176
     1
 40
1.0
176
     1
 40
1.0
176
     1
  0
VISUALSTYLE
  5
34
102
{ACAD_REACTORS
330
29
102
}
330
29
100
AcDbVisualStyle
  2
Dim
 70
    11
177
     3
291
     1
 70
    58
 90
        2
176
     1
 90
        2
176
     1
 90
        0
176
     1
 90
        0
176
     1
 40
0.6
176
     1
 40
30.0
176
     1
 62
     7
420
 16777215
176
     1
 90
        1
176
     1
 90
        4
176
     1
 62
     7
176
     1
 62
   257
176
     1
 90
        1
176
     1
 90
        1
176
     1
 40
1.0
176
     1
 90
        8
176
     1
 62
     7
176
     1
 40
1.0
176
     1
 90
        1
176
     1
 90
        6
176
     1
 90
        2
176
     1
 62
     7
176
     1
 90
        5
176
     1
 90
        0
176
     1
 90
        0
176
     1
290
     0
176
     1
 90
        1
176
     1
 40
-50.0
176
     1
 90
        0
176
     1
290
     0
176
     1
290
     1
176
     1
290
     1
176
     1
290
     0
176
     1
290
     0
176
     1
290
     0
176
     1
290
     0
176
     1
290
     0
176
     1
290
     0
176
     1
 90
       50
176
     1
 40
0.0
176
     1
 40
1.0
176
     1
 90
        0
176
     1
 62
    18
420
        0
176
     1
 90
       50
176
     1
 90
        3
176
     1
 62
     5
420
      255
176
     1
290
     0
176
     1
 90
       50
176
     1
 90
       50
176
     1
 90
       50
176
     1
290
     0
176
     1
 90
       50
176
     1
 62
   256
176
     0
 40
1.0
176
     0
 90
        2
176
     1
  1
strokes_ogs.tif
176
     1
290
     0
176
     1
 40
1.0
176
     1
 40
1.0
176
     1
  0
VISUALSTYLE
  5
41
102
{ACAD_REACTORS
330
29
102
}
330
29
100
AcDbVisualStyle
  2
EdgeColorOff
 70
    22
177
     3
291
     1
 70
    58
 90
        2
176
     0
 90
        2
176
     0
 90
        0
176
     0
 90
        0
176
     0
 40
0.6
176
     0
 40
30.0
176
     0
 62
     7
420
 16777215
176
     0
 90
        1
176
     0
 90
        4
176
     0
 62
     7
176
     0
 62
   257
176
     0
 90
        1
176
     0
 90
        1
176
     0
 40
1.0
176
     0
 90
        8
176
     2
 62
     7
176
     0
 40
1.0
176
     0
 90
        1
176
     0
 90
        6
176
     0
 90
        2
176
     0
 62
     7
176
     0
 90
        5
176
     0
 90
        0
176
     0
 90
        0
176
     0
290
     0
176
     0
 90
        1
176
     0
 40
0.0
176
     0
 90
        0
176
     0
290
     0
176
     0
290
     1
176
     0
290
     1
176
     0
290
     0
176
     0
290
     0
176
     0
290
     0
176
     0
290
     0
176
     0
290
     0
176
     0
290
     0
176
     0
 90
       50
176
     0
 40
0.0
176
     0
 40
1.0
176
     0
 90
        0
176
     0
 62
    18
420
        0
176
     0
 90
       50
176
     0
 90
        3
176
     0
 62
     5
420
      255
176
     0
290
     0
176
     0
 90
       50
176
     0
 90
       50
176
     0
 90
       50
176
     0
290
     0
176
     0
 90
       50
176
     0
 62
   256
176
     0
 40
1.0
176
     0
 90
        2
176
     0
  1
strokes_ogs.tif
176
     0
290
     0
176
     0
 40
1.0
176
     0
 40
1.0
176
     0
  0
VISUALSTYLE
  5
38
102
{ACAD_REACTORS
330
29
102
}
330
29
100
AcDbVisualStyle
  2
Facepattern
 70
    15
177
     3
291
     1
 70
    58
 90
        2
176
     1
 90
        2
176
     1
 90
        0
176
     1
 90
        0
176
     1
 40
0.6
176
     1
 40
30.0
176
     1
 62
     7
420
 16777215
176
     1
 90
        1
176
     1
 90
        4
176
     1
 62
     7
176
     1
 62
   257
176
     1
 90
        1
176
     1
 90
        1
176
     1
 40
1.0
176
     1
 90
        8
176
     1
 62
     7
176
     1
 40
1.0
176
     1
 90
        1
176
     1
 90
        6
176
     1
 90
        2
176
     1
 62
     7
176
     1
 90
        5
176
     1
 90
        0
176
     1
 90
        0
176
     1
290
     0
176
     1
 90
        1
176
     1
 40
0.0
176
     1
 90
        0
176
     1
290
     0
176
     1
290
     1
176
     1
290
     1
176
     1
290
     0
176
     1
290
     0
176
     1
290
     0
176
     1
290
     0
176
     1
290
     0
176
     1
290
     0
176
     1
 90
       50
176
     1
 40
0.0
176
     1
 40
1.0
176
     1
 90
        0
176
     1
 62
    18
420
        0
176
     1
 90
       50
176
     1
 90
        3
176
     1
 62
     5
420
      255
176
     1
290
     0
176
     1
 90
       50
176
     1
 90
       50
176
     1
 90
       50
176
     1
290
     0
176
     1
 90
       50
176
     1
 62
   256
176
     0
 40
1.0
176
     0
 90
        2
176
     1
  1
strokes_ogs.tif
176
     1
290
     0
176
     1
 40
1.0
176
     1
 40
1.0
176
     1
  0
VISUALSTYLE
  5
2A
102
{ACAD_REACTORS
330
29
102
}
330
29
100
AcDbVisualStyle
  2
Flat
 70
     0
177
     3
291
     1
 70
    58
 90
        2
176
     1
 90
        1
176
     1
 90
        1
176
     1
 90
        2
176
     1
 40
0.6
176
     1
 40
30.0
176
     1
 62
     7
420
 16777215
176
     1
 90
        0
176
     1
 90
        0
176
     1
 62
     7
176
     1
 62
   257
176
     1
 90
        1
176
     1
 90
        1
176
     1
 40
1.0
176
     1
 90
        8
176
     1
 62
     7
176
     1
 40
1.0
176
     1
 90
        1
176
     1
 90
        6
176
     1
 90
        2
176
     1
 62
     7
176
     1
 90
        5
176
     1
 90
        0
176
     1
 90
        0
176
     1
290
     0
176
     1
 90
       13
176
     1
 40
0.0
176
     1
 90
        0
176
     1
290
     0
176
     1
290
     1
176
     1
290
     1
176
     1
290
     0
176
     1
290
     0
176
     1
290
     0
176
     1
290
     0
176
     1
290
     0
176
     1
290
     0
176
     1
 90
       50
176
     1
 40
0.0
176
     1
 40
1.0
176
     1
 90
        0
176
     1
 62
    18
420
        0
176
     1
 90
       50
176
     1
 90
        3
176
     1
 62
     5
420
      255
176
     1
290
     0
176
     1
 90
       50
176
     1
 90
       50
176
     1
 90
       50
176
     1
290
     0
176
     1
 90
       50
176
     1
 62
   256
176
     0
 40
1.0
176
     0
 90
        2
176
     1
  1
strokes_ogs.tif
176
     1
290
     0
176
     1
 40
1.0
176
     1
 40
1.0
176
     1
  0
VISUALSTYLE
  5
2B
102
{ACAD_REACTORS
330
29
102
}
330
29
100
AcDbVisualStyle
  2
FlatWithEdges
 70
     1
177
     3
291
     1
 70
    58
 90
        2
176
     1
 90
        1
176
     1
 90
        1
176
     1
 90
        2
176
     1
 40
0.6
176
     1
 40
30.0
176
     1
 62
     7
420
 16777215
176
     1
 90
        1
176
     1
 90
        0
176
     1
 62
     7
176
     1
 62
   257
176
     1
 90
        1
176
     1
 90
        1
176
     1
 40
1.0
176
     1
 90
        0
176
     1
 62
   257
176
     1
 40
1.0
176
     1
 90
        1
176
     1
 90
        6
176
     1
 90
        2
176
     1
 62
     7
176
     1
 90
        5
176
     1
 90
        0
176
     1
 90
        0
176
     1
290
     0
176
     1
 90
       13
176
     1
 40
0.0
176
     1
 90
        0
176
     1
290
     0
176
     1
290
     1
176
     1
290
     1
176
     1
290
     0
176
     1
290
     0
176
     1
290
     0
176
     1
290
     0
176
     1
290
     0
176
     1
290
     0
176
     1
 90
       50
176
     1
 40
0.0
176
     1
 40
1.0
176
     1
 90
        0
176
     1
 62
    18
420
        0
176
     1
 90
       50
176
     1
 90
        3
176
     1
 62
     5
420
      255
176
     1
290
     0
176
     1
 90
       50
176
     1
 90
       50
176
     1
 90
       50
176
     1
290
     0
176
     1
 90
       50
176
     1
 62
   256
176
     0
 40
1.0
176
     0
 90
        2
176
     1
  1
strokes_ogs.tif
176
     1
290
     0
176
     1
 40
1.0
176
     1
 40
1.0
176
     1
  0
VISUALSTYLE
  5
2C
102
{ACAD_REACTORS
330
29
102
}
330
29
100
AcDbVisualStyle
  2
Gouraud
 70
     2
177
     3
291
     1
 70
    58
 90
        2
176
     1
 90
        2
176
     1
 90
        1
176
     1
 90
        2
176
     1
 40
0.6
176
     1
 40
30.0
176
     1
 62
     7
420
 16777215
176
     1
 90
        0
176
     1
 90
        0
176
     1
 62
     7
176
     1
 62
   257
176
     1
 90
        1
176
     1
 90
        1
176
     1
 40
1.0
176
     1
 90
        0
176
     1
 62
     7
176
     1
 40
1.0
176
     1
 90
        1
176
     1
 90
        6
176
     1
 90
        2
176
     1
 62
     7
176
     1
 90
        5
176
     1
 90
        0
176
     1
 90
        0
176
     1
290
     0
176
     1
 90
       13
176
     1
 40
0.0
176
     1
 90
        0
176
     1
290
     0
176
     1
290
     1
176
     1
290
     1
176
     1
290
     0
176
     1
290
     0
176
     1
290
     0
176
     1
290
     0
176
     1
290
     0
176
     1
290
     0
176
     1
 90
       50
176
     1
 40
0.0
176
     1
 40
1.0
176
     1
 90
        0
176
     1
 62
    18
420
        0
176
     1
 90
       50
176
     1
 90
        3
176
     1
 62
     5
420
      255
176
     1
290
     0
176
     1
 90
       50
176
     1
 90
       50
176
     1
 90
       50
176
     1
290
     0
176
     1
 90
       50
176
     1
 62
   256
176
     0
 40
1.0
176
     0
 90
        2
176
     1
  1
strokes_ogs.tif
176
     1
290
     0
176
     1
 40
1.0
176
     1
 40
1.0
176
     1
  0
VISUALSTYLE
  5
2D
102
{ACAD_REACTORS
330
29
102
}
330
29
100
AcDbVisualStyle
  2
GouraudWithEdges
 70
     3
177
     3
291
     1
 70
    58
 90
        2
176
     1
 90
        2
176
     1
 90
        1
176
     1
 90
        2
176
     1
 40
0.6
176
     1
 40
30.0
176
     1
 62
     7
420
 16777215
176
     1
 90
        1
176
     1
 90
        0
176
     1
 62
     7
176
     1
 62
   257
176
     1
 90
        1
176
     1
 90
        1
176
     1
 40
1.0
176
     1
 90
        0
176
     1
 62
   257
176
     1
 40
1.0
176
     1
 90
        1
176
     1
 90
        6
176
     1
 90
        2
176
     1
 62
     7
176
     1
 90
        5
176
     1
 90
        0
176
     1
 90
        0
176
     1
290
     0
176
     1
 90
       13
176
     1
 40
0.0
176
     1
 90
        0
176
     1
290
     0
176
     1
290
     1
176
     1
290
     1
176
     1
290
     0
176
     1
290
     0
176
     1
290
     0
176
     1
290
     0
176
     1
290
     0
176
     1
290
     0
176
     1
 90
       50
176
     1
 40
0.0
176
     1
 40
1.0
176
     1
 90
        0
176
     1
 62
    18
420
        0
176
     1
 90
       50
176
     1
 90
        3
176
     1
 62
     5
420
      255
176
     1
290
     0
176
     1
 90
       50
176
     1
 90
       50
176
     1
 90
       50
176
     1
290
     0
176
     1
 90
       50
176
     1
 62
   256
176
     0
 40
1.0
176
     0
 90
        2
176
     1
  1
strokes_ogs.tif
176
     1
290
     0
176
     1
 40
1.0
176
     1
 40
1.0
176
     1
  0
VISUALSTYLE
  5
31
102
{ACAD_REACTORS
330
29
102
}
330
29
100
AcDbVisualStyle
  2
Hidden
 70
     6
177
     3
291
     0
 70
    58
 90
        1
176
     1
 90
        2
176
     1
 90
        2
176
     1
 90
        0
176
     1
 40
0.6
176
     1
 40
30.0
176
     1
 62
     7
420
 16777215
176
     1
 90
        2
176
     1
 90
        2
176
     1
 62
     7
176
     1
 62
   257
176
     1
 90
        2
176
     1
 90
        1
176
     1
 40
40.0
176
     1
 90
        0
176
     1
 62
   257
176
     1
 40
1.0
176
     1
 90
        1
176
     1
 90
        6
176
     1
 90
        2
176
     1
 62
     7
176
     1
 90
        3
176
     1
 90
        0
176
     1
 90
        0
176
     1
290
     0
176
     1
 90
        1
176
     1
 40
0.0
176
     1
 90
        0
176
     1
290
     0
176
     1
290
     1
176
     1
290
     1
176
     1
290
     0
176
     1
290
     0
176
     1
290
     0
176
     1
290
     0
176
     1
290
     0
176
     1
290
     0
176
     1
 90
       50
176
     1
 40
0.0
176
     1
 40
1.0
176
     1
 90
        0
176
     1
 62
    18
420
        0
176
     1
 90
       50
176
     1
 90
        3
176
     1
 62
     5
420
      255
176
     1
290
     0
176
     1
 90
       50
176
     1
 90
       50
176
     1
 90
       50
176
     1
290
     0
176
     1
 90
       50
176
     1
 62
   256
176
     0
 40
1.0
176
     0
 90
        2
176
     1
  1
strokes_ogs.tif
176
     1
290
     0
176
     1
 40
1.0
176
     1
 40
1.0
176
     1
  0
VISUALSTYLE
  5
3F
102
{ACAD_REACTORS
330
29
102
}
330
29
100
AcDbVisualStyle
  2
JitterOff
 70
    20
177
     3
291
     1
 70
    58
 90
        2
176
     0
 90
        2
176
     0
 90
        0
176
     0
 90
        0
176
     0
 40
0.6
176
     0
 40
30.0
176
     0
 62
     7
420
 16777215
176
     0
 90
        1
176
     0
 90
        4
176
     0
 62
     7
176
     0
 62
   257
176
     0
 90
        1
176
     0
 90
        1
176
     0
 40
1.0
176
     0
 90
       10
176
     2
 62
     7
176
     0
 40
1.0
176
     0
 90
        1
176
     0
 90
        6
176
     0
 90
        2
176
     0
 62
     7
176
     0
 90
        5
176
     0
 90
        0
176
     0
 90
        0
176
     0
290
     0
176
     0
 90
        1
176
     0
 40
0.0
176
     0
 90
        0
176
     0
290
     0
176
     0
290
     1
176
     0
290
     1
176
     0
290
     0
176
     0
290
     0
176
     0
290
     0
176
     0
290
     0
176
     0
290
     0
176
     0
290
     0
176
     0
 90
       50
176
     0
 40
0.0
176
     0
 40
1.0
176
     0
 90
        0
176
     0
 62
    18
420
        0
176
     0
 90
       50
176
     0
 90
        3
176
     0
 62
     5
420
      255
176
     0
290
     0
176
     0
 90
       50
176
     0
 90
       50
176
     0
 90
       50
176
     0
290
     0
176
     0
 90
       50
176
     0
 62
   256
176
     0
 40
1.0
176
     0
 90
        2
176
     0
  1
strokes_ogs.tif
176
     0
290
     0
176
     0
 40
1.0
176
     0
 40
1.0
176
     0
  0
VISUALSTYLE
  5
37
102
{ACAD_REACTORS
330
29
102
}
330
29
100
AcDbVisualStyle
  2
Linepattern
 70
    14
177
     3
291
     1
 70
    58
 90
        2
176
     1
 90
        2
176
     1
 90
        0
176
     1
 90
        0
176
     1
 40
0.6
176
     1
 40
30.0
176
     1
 62
     7
420
 16777215
176
     1
 90
        1
176
     1
 90
        4
176
     1
 62
     7
176
     1
 62
   257
176
     1
 90
        7
176
     1
 90
        7
176
     1
 40
1.0
176
     1
 90
        8
176
     1
 62
     7
176
     1
 40
1.0
176
     1
 90
        1
176
     1
 90
        6
176
     1
 90
        2
176
     1
 62
     7
176
     1
 90
        5
176
     1
 90
        0
176
     1
 90
        0
176
     1
290
     0
176
     1
 90
        1
176
     1
 40
0.0
176
     1
 90
        0
176
     1
290
     0
176
     1
290
     1
176
     1
290
     1
176
     1
290
     0
176
     1
290
     0
176
     1
290
     0
176
     1
290
     0
176
     1
290
     0
176
     1
290
     0
176
     1
 90
       50
176
     1
 40
0.0
176
     1
 40
1.0
176
     1
 90
        0
176
     1
 62
    18
420
        0
176
     1
 90
       50
176
     1
 90
        3
176
     1
 62
     5
420
      255
176
     1
290
     0
176
     1
 90
       50
176
     1
 90
       50
176
     1
 90
       50
176
     1
290
     0
176
     1
 90
       50
176
     1
 62
   256
176
     0
 40
1.0
176
     0
 90
        2
176
     1
  1
strokes_ogs.tif
176
     1
290
     0
176
     1
 40
1.0
176
     1
 40
1.0
176
     1
  0
VISUALSTYLE
  5
40
102
{ACAD_REACTORS
330
29
102
}
330
29
100
AcDbVisualStyle
  2
OverhangOff
 70
    21
177
     3
291
     1
 70
    58
 90
        2
176
     0
 90
        2
176
     0
 90
        0
176
     0
 90
        0
176
     0
 40
0.6
176
     0
 40
30.0
176
     0
 62
     7
420
 16777215
176
     0
 90
        1
176
     0
 90
        4
176
     0
 62
     7
176
     0
 62
   257
176
     0
 90
        1
176
     0
 90
        1
176
     0
 40
1.0
176
     0
 90
        9
176
     2
 62
     7
176
     0
 40
1.0
176
     0
 90
        1
176
     0
 90
        6
176
     0
 90
        2
176
     0
 62
     7
176
     0
 90
        5
176
     0
 90
        0
176
     0
 90
        0
176
     0
290
     0
176
     0
 90
        1
176
     0
 40
0.0
176
     0
 90
        0
176
     0
290
     0
176
     0
290
     1
176
     0
290
     1
176
     0
290
     0
176
     0
290
     0
176
     0
290
     0
176
     0
290
     0
176
     0
290
     0
176
     0
290
     0
176
     0
 90
       50
176
     0
 40
0.0
176
     0
 40
1.0
176
     0
 90
        0
176
     0
 62
    18
420
        0
176
     0
 90
       50
176
     0
 90
        3
176
     0
 62
     5
420
      255
176
     0
290
     0
176
     0
 90
       50
176
     0
 90
       50
176
     0
 90
       50
176
     0
290
     0
176
     0
 90
       50
176
     0
 62
   256
176
     0
 40
1.0
176
     0
 90
        2
176
     0
  1
strokes_ogs.tif
176
     0
290
     0
176
     0
 40
1.0
176
     0
 40
1.0
176
     0
  0
VISUALSTYLE
  5
33
102
{ACAD_REACTORS
330
29
102
}
330
29
100
AcDbVisualStyle
  2
Realistic
 70
     8
177
     3
291
     0
 70
    58
 90
        2
176
     1
 90
        3
176
     1
 90
        0
176
     1
 90
        2
176
     1
 40
0.6
176
     1
 40
30.0
176
     1
 62
     7
420
 16777215
176
     1
 90
        0
176
     1
 90
        0
176
     1
 62
     7
176
     1
 62
   257
176
     1
 90
        1
176
     1
 90
        1
176
     1
 40
1.0
176
     1
 90
        8
176
     1
 62
   257
176
     1
 40
1.0
176
     1
 90
        1
176
     1
 90
        6
176
     1
 90
        2
176
     1
 62
     7
176
     1
 90
        3
176
     1
 90
        0
176
     1
 90
        0
176
     1
290
     0
176
     1
 90
       13
176
     1
 40
0.0
176
     1
 90
        0
176
     1
290
     0
176
     1
290
     1
176
     1
290
     1
176
     1
290
     0
176
     1
290
     0
176
     1
290
     0
176
     1
290
     0
176
     1
290
     0
176
     1
290
     0
176
     1
 90
       50
176
     1
 40
0.0
176
     1
 40
1.0
176
     1
 90
        0
176
     1
 62
    18
420
        0
176
     1
 90
       50
176
     1
 90
        3
176
     1
 62
     5
420
      255
176
     1
290
     0
176
     1
 90
       50
176
     1
 90
       50
176
     1
 90
       50
176
     1
290
     0
176
     1
 90
       50
176
     1
 62
   256
176
     0
 40
1.0
176
     0
 90
        2
176
     1
  1
strokes_ogs.tif
176
     1
290
     0
176
     1
 40
1.0
176
     1
 40
1.0
176
     1
  0
VISUALSTYLE
  5
3E
102
{ACAD_REACTORS
330
29
102
}
330
29
100
AcDbVisualStyle
  2
Shaded
 70
    27
177
     3
291
     0
 70
    58
 90
        2
176
     1
 90
        2
176
     1
 90
        1
176
     1
 90
        2
176
     1
 40
0.6
176
     1
 40
30.0
176
     1
 62
     7
420
 16777215
176
     1
 90
        0
176
     1
 90
        4
176
     1
 62
     7
176
     1
 62
   257
176
     1
 90
        1
176
     1
 90
        1
176
     1
 40
1.0
176
     1
 90
        8
176
     1
 62
   257
176
     1
 40
1.0
176
     1
 90
        1
176
     1
 90
        6
176
     1
 90
        2
176
     1
 62
     8
420
  7895160
176
     1
 90
        3
176
     1
 90
        0
176
     1
 90
        0
176
     1
290
     0
176
     1
 90
        5
176
     1
 40
0.0
176
     1
 90
        0
176
     1
290
     0
176
     1
290
     1
176
     1
290
     1
176
     1
290
     0
176
     1
290
     0
176
     1
290
     0
176
     1
290
     0
176
     1
290
     0
176
     1
290
     0
176
     1
 90
       50
176
     1
 40
0.0
176
     1
 40
1.0
176
     1
 90
        0
176
     1
 62
    18
420
        0
176
     1
 90
       50
176
     1
 90
        3
176
     1
 62
     5
420
      255
176
     1
290
     0
176
     1
 90
       50
176
     1
 90
       50
176
     1
 90
       50
176
     1
290
     0
176
     1
 90
       50
176
     1
 62
   256
176
     0
 40
1.0
176
     0
 90
        2
176
     1
  1
strokes_ogs.tif
176
     1
290
     0
176
     1
 40
1.0
176
     1
 40
1.0
176
     1
  0
VISUALSTYLE
  5
3D
102
{ACAD_REACTORS
330
29
102
}
330
29
100
AcDbVisualStyle
  2
Shaded with edges
 70
    26
177
     3
291
     0
 70
    58
 90
        2
176
     1
 90
        2
176
     1
 90
        1
176
     1
 90
        2
176
     1
 40
0.6
176
     1
 40
30.0
176
     1
 62
     7
420
 16777215
176
     1
 90
        1
176
     1
 90
        2
176
     1
 62
     7
176
     1
 62
   257
176
     1
 90
        2
176
     1
 90
        1
176
     1
 40
1.0
176
     1
 90
        8
176
     1
 62
   257
176
     1
 40
1.0
176
     1
 90
        1
176
     1
 90
        6
176
     1
 90
        2
176
     1
 62
     7
176
     1
 90
        3
176
     1
 90
        0
176
     1
 90
        0
176
     1
290
     0
176
     1
 90
        5
176
     1
 40
0.0
176
     1
 90
        0
176
     1
290
     0
176
     1
290
     1
176
     1
290
     1
176
     1
290
     0
176
     1
290
     0
176
     1
290
     0
176
     1
290
     0
176
     1
290
     0
176
     1
290
     0
176
     1
 90
       50
176
     1
 40
0.0
176
     1
 40
1.0
176
     1
 90
        0
176
     1
 62
    18
420
        0
176
     1
 90
       50
176
     1
 90
        3
176
     1
 62
     5
420
      255
176
     1
290
     0
176
     1
 90
       50
176
     1
 90
       50
176
     1
 90
       50
176
     1
290
     0
176
     1
 90
       50
176
     1
 62
   256
176
     0
 40
1.0
176
     0
 90
        2
176
     1
  1
strokes_ogs.tif
176
     1
290
     0
176
     1
 40
1.0
176
     1
 40
1.0
176
     1
  0
VISUALSTYLE
  5
3A
102
{ACAD_REACTORS
330
29
102
}
330
29
100
AcDbVisualStyle
  2
Shades of Gray
 70
    23
177
     3
291
     0
 70
    58
 90
        2
176
     1
 90
        2
176
     1
 90
        3
176
     1
 90
        0
176
     1
 40
0.6
176
     1
 40
30.0
176
     1
 62
     7
420
 16777215
176
     1
 90
        2
176
     1
 90
        2
176
     1
 62
     7
176
     1
 62
     7
176
     1
 90
        1
176
     1
 90
        1
176
     1
 40
40.0
176
     1
 90
        8
176
     1
 62
     7
176
     1
 40
1.0
176
     1
 90
        1
176
     1
 90
        6
176
     1
 90
        2
176
     1
 62
     7
176
     1
 90
        3
176
     1
 90
        0
176
     1
 90
        0
176
     1
290
     0
176
     1
 90
        1
176
     1
 40
0.0
176
     1
 90
        0
176
     1
290
     0
176
     1
290
     1
176
     1
290
     1
176
     1
290
     0
176
     1
290
     0
176
     1
290
     0
176
     1
290
     0
176
     1
290
     0
176
     1
290
     0
176
     1
 90
       50
176
     1
 40
0.0
176
     1
 40
1.0
176
     1
 90
        0
176
     1
 62
    18
420
        0
176
     1
 90
       50
176
     1
 90
        3
176
     1
 62
     5
420
      255
176
     1
290
     0
176
     1
 90
       50
176
     1
 90
       50
176
     1
 90
       50
176
     1
290
     0
176
     1
 90
       50
176
     1
 62
   256
176
     0
 40
1.0
176
     0
 90
        2
176
     1
  1
strokes_ogs.tif
176
     1
290
     0
176
     1
 40
1.0
176
     1
 40
1.0
176
     1
  0
VISUALSTYLE
  5
3B
102
{ACAD_REACTORS
330
29
102
}
330
29
100
AcDbVisualStyle
  2
Sketchy
 70
    24
177
     3
291
     0
 70
    58
 90
        1
176
     1
 90
        2
176
     1
 90
        2
176
     1
 90
        0
176
     1
 40
0.6
176
     1
 40
30.0
176
     1
 62
     7
420
 16777215
176
     1
 90
        2
176
     1
 90
        2
176
     1
 62
     7
176
     1
 62
     7
176
     1
 90
        1
176
     1
 90
        1
176
     1
 40
40.0
176
     1
 90
       11
176
     1
 62
     7
176
     1
 40
1.0
176
     1
 90
        1
176
     1
 90
        6
176
     1
 90
        2
176
     1
 62
     7
176
     1
 90
        6
176
     1
 90
        0
176
     1
 90
        0
176
     1
290
     0
176
     1
 90
        1
176
     1
 40
0.0
176
     1
 90
        0
176
     1
290
     0
176
     1
290
     1
176
     1
290
     1
176
     1
290
     0
176
     1
290
     0
176
     1
290
     0
176
     1
290
     0
176
     1
290
     0
176
     1
290
     0
176
     1
 90
       50
176
     1
 40
0.0
176
     1
 40
1.0
176
     1
 90
        0
176
     1
 62
    18
420
        0
176
     1
 90
       50
176
     1
 90
        3
176
     1
 62
     5
420
      255
176
     1
290
     0
176
     1
 90
       50
176
     1
 90
       50
176
     1
 90
       50
176
     1
290
     0
176
     1
 90
       50
176
     1
 62
   256
176
     0
 40
1.0
176
     0
 90
        2
176
     1
  1
strokes_ogs.tif
176
     1
290
     0
176
     1
 40
1.0
176
     1
 40
1.0
176
     1
  0
VISUALSTYLE
  5
36
102
{ACAD_REACTORS
330
29
102
}
330
29
100
AcDbVisualStyle
  2
Thicken
 70
    13
177
     3
291
     1
 70
    58
 90
        2
176
     1
 90
        2
176
     1
 90
        0
176
     1
 90
        0
176
     1
 40
0.6
176
     1
 40
30.0
176
     1
 62
     7
420
 16777215
176
     1
 90
        1
176
     1
 90
        4
176
     1
 62
     7
176
     1
 62
   257
176
     1
 90
        1
176
     1
 90
        1
176
     1
 40
1.0
176
     1
 90
       12
176
     1
 62
     7
176
     1
 40
1.0
176
     1
 90
        1
176
     1
 90
        6
176
     1
 90
        2
176
     1
 62
     7
176
     1
 90
        5
176
     1
 90
        0
176
     1
 90
        0
176
     1
290
     0
176
     1
 90
        1
176
     1
 40
0.0
176
     1
 90
        0
176
     1
290
     0
176
     1
290
     1
176
     1
290
     1
176
     1
290
     0
176
     1
290
     0
176
     1
290
     0
176
     1
290
     0
176
     1
290
     0
176
     1
290
     0
176
     1
 90
       50
176
     1
 40
0.0
176
     1
 40
1.0
176
     1
 90
        0
176
     1
 62
    18
420
        0
176
     1
 90
       50
176
     1
 90
        3
176
     1
 62
     5
420
      255
176
     1
290
     0
176
     1
 90
       50
176
     1
 90
       50
176
     1
 90
       50
176
     1
290
     0
176
     1
 90
       50
176
     1
 62
   256
176
     0
 40
1.0
176
     0
 90
        2
176
     1
  1
strokes_ogs.tif
176
     1
290
     0
176
     1
 40
1.0
176
     1
 40
1.0
176
     1
  0
VISUALSTYLE
  5
30
102
{ACAD_REACTORS
330
29
102
}
330
29
100
AcDbVisualStyle
  2
Wireframe
 70
     5
177
     3
291
     0
 70
    58
 90
        0
176
     1
 90
        2
176
     1
 90
        0
176
     1
 90
        0
176
     1
 40
0.6
176
     1
 40
30.0
176
     1
 62
     7
420
 16777215
176
     1
 90
        1
176
     1
 90
        4
176
     1
 62
     7
176
     1
 62
   257
176
     1
 90
        1
176
     1
 90
        1
176
     1
 40
1.0
176
     1
 90
        0
176
     1
 62
   257
176
     1
 40
1.0
176
     1
 90
        1
176
     1
 90
        6
176
     1
 90
        2
176
     1
 62
     7
176
     1
 90
        3
176
     1
 90
        0
176
     1
 90
        0
176
     1
290
     0
176
     1
 90
        1
176
     1
 40
0.0
176
     1
 90
        0
176
     1
290
     0
176
     1
290
     1
176
     1
290
     1
176
     1
290
     0
176
     1
290
     0
176
     1
290
     0
176
     1
290
     0
176
     1
290
     0
176
     1
290
     0
176
     1
 90
       50
176
     1
 40
0.0
176
     1
 40
1.0
176
     1
 90
        0
176
     1
 62
    18
420
        0
176
     1
 90
       50
176
     1
 90
        3
176
     1
 62
     5
420
      255
176
     1
290
     0
176
     1
 90
       50
176
     1
 90
       50
176
     1
 90
       50
176
     1
290
     0
176
     1
 90
       50
176
     1
 62
   256
176
     0
 40
1.0
176
     0
 90
        2
176
     1
  1
strokes_ogs.tif
176
     1
290
     0
176
     1
 40
1.0
176
     1
 40
1.0
176
     1
  0
VISUALSTYLE
  5
3C
102
{ACAD_REACTORS
330
29
102
}
330
29
100
AcDbVisualStyle
  2
X-Ray
 70
    25
177
     3
291
     0
 70
    58
 90
        2
176
     1
 90
        2
176
     1
 90
        1
176
     1
 90
        1
176
     1
 40
0.5
176
     1
 40
30.0
176
     1
 62
     7
420
 16777215
176
     1
 90
        1
176
     1
 90
        0
176
     1
 62
     7
176
     1
 62
   257
176
     1
 90
        1
176
     1
 90
        1
176
     1
 40
1.0
176
     1
 90
        8
176
     1
 62
     7
176
     1
 40
1.0
176
     1
 90
        1
176
     1
 90
        6
176
     1
 90
        2
176
     1
 62
     7
176
     1
 90
        3
176
     1
 90
        0
176
     1
 90
        0
176
     1
290
     0
176
     1
 90
       13
176
     1
 40
0.0
176
     1
 90
        0
176
     1
290
     0
176
     1
290
     1
176
     1
290
     1
176
     1
290
     0
176
     1
290
     0
176
     1
290
     0
176
     1
290
     0
176
     1
290
     0
176
     1
290
     0
176
     1
 90
       50
176
     1
 40
0.0
176
     1
 40
1.0
176
     1
 90
        0
176
     1
 62
    18
420
        0
176
     1
 90
       50
176
     1
 90
        3
176
     1
 62
     5
420
      255
176
     1
290
     0
176
     1
 90
       50
176
     1
 90
       50
176
     1
 90
       50
176
     1
290
     0
176
     1
 90
       50
176
     1
 62
   256
176
     0
 40
1.0
176
     0
 90
        2
176
     1
  1
strokes_ogs.tif
176
     1
290
     0
176
     1
 40
1.0
176
     1
 40
1.0
176
     1
  0
DICTIONARYVAR
  5
184
102
{ACAD_REACTORS
330
17F
102
}
330
17F
100
DictionaryVariables
280
     0
  1
1:1
  0
DICTIONARYVAR
  5
181
102
{ACAD_REACTORS
330
17F
102
}
330
17F
100
DictionaryVariables
280
     0
  1
STANDARD
  0
DICTIONARYVAR
  5
180
102
{ACAD_REACTORS
330
17F
102
}
330
17F
100
DictionaryVariables
280
     0
  1
STANDARD
  0
DICTIONARYVAR
  5
182
102
{ACAD_REACTORS
330
17F
102
}
330
17F
100
DictionaryVariables
280
     0
  1
Imperial24
  0
DICTIONARYVAR
  5
183
102
{ACAD_REACTORS
330
17F
102
}
330
17F
100
DictionaryVariables
280
     0
  1
Imperial24
  0
DICTIONARY
  5
1A
330
19
100
AcDbDictionary
280
     1
281
     1
  3
BUMPTILE
360
1C
  3
DIFFUSETILE
360
1B
  3
OPACITYTILE
360
1F
  3
REFLECTIONTILE
360
1E
  3
REFRACTIONTILE
360
20
  3
SPECULARTILE
360
1D
  0
DICTIONARY
  5
12
330
11
100
AcDbDictionary
280
     1
281
     1
  3
BUMPTILE
360
14
  3
DIFFUSETILE
360
13
  3
OPACITYTILE
360
17
  3
REFLECTIONTILE
360
16
  3
REFRACTIONTILE
360
18
  3
SPECULARTILE
360
15
  0
DICTIONARY
  5
22
330
21
100
AcDbDictionary
280
     1
281
     1
  3
BUMPTILE
360
24
  3
DIFFUSETILE
360
23
  3
OPACITYTILE
360
27
  3
REFLECTIONTILE
360
26
  3
REFRACTIONTILE
360
28
  3
SPECULARTILE
360
25
  0
DICTIONARY
  5
185
330
65
100
AcDbDictionary
280
     1
281
     1
  3
ACAD_ROUNDTRIP_2008_TABLESTYLE_CELLSTYLEMAP
360
186
  0
XRECORD
  5
1C
102
{ACAD_REACTORS
330
1A
102
}
330
1A
100
AcDbXrecord
280
     1
270
     1
271
     1
  0
XRECORD
  5
1B
102
{ACAD_REACTORS
330
1A
102
}
330
1A
100
AcDbXrecord
280
     1
270
     1
271
     1
  0
XRECORD
  5
1F
102
{ACAD_REACTORS
330
1A
102
}
330
1A
100
AcDbXrecord
280
     1
270
     1
271
     1
  0
XRECORD
  5
1E
102
{ACAD_REACTORS
330
1A
102
}
330
1A
100
AcDbXrecord
280
     1
270
     1
271
     1
  0
XRECORD
  5
20
102
{ACAD_REACTORS
330
1A
102
}
330
1A
100
AcDbXrecord
280
     1
270
     1
271
     1
  0
XRECORD
  5
1D
102
{ACAD_REACTORS
330
1A
102
}
330
1A
100
AcDbXrecord
280
     1
270
     1
271
     1
  0
XRECORD
  5
14
102
{ACAD_REACTORS
330
12
102
}
330
12
100
AcDbXrecord
280
     1
270
     1
271
     1
  0
XRECORD
  5
13
102
{ACAD_REACTORS
330
12
102
}
330
12
100
AcDbXrecord
280
     1
270
     1
271
     1
  0
XRECORD
  5
17
102
{ACAD_REACTORS
330
12
102
}
330
12
100
AcDbXrecord
280
     1
270
     1
271
     1
  0
XRECORD
  5
16
102
{ACAD_REACTORS
330
12
102
}
330
12
100
AcDbXrecord
280
     1
270
     1
271
     1
  0
XRECORD
  5
18
102
{ACAD_REACTORS
330
12
102
}
330
12
100
AcDbXrecord
280
     1
270
     1
271
     1
  0
XRECORD
  5
15
102
{ACAD_REACTORS
330
12
102
}
330
12
100
AcDbXrecord
280
     1
270
     1
271
     1
  0
XRECORD
  5
24
102
{ACAD_REACTORS
330
22
102
}
330
22
100
AcDbXrecord
280
     1
270
     1
271
     1
  0
XRECORD
  5
23
102
{ACAD_REACTORS
330
22
102
}
330
22
100
AcDbXrecord
280
     1
270
     1
271
     1
  0
XRECORD
  5
27
102
{ACAD_REACTORS
330
22
102
}
330
22
100
AcDbXrecord
280
     1
270
     1
271
     1
  0
XRECORD
  5
26
102
{ACAD_REACTORS
330
22
102
}
330
22
100
AcDbXrecord
280
     1
270
     1
271
     1
  0
XRECORD
  5
28
102
{ACAD_REACTORS
330
22
102
}
330
22
100
AcDbXrecord
280
     1
270
     1
271
     1
  0
XRECORD
  5
25
102
{ACAD_REACTORS
330
22
102
}
330
22
100
AcDbXrecord
280
     1
270
     1
271
     1
  0
CELLSTYLEMAP
  5
186
102
{ACAD_REACTORS
330
185
102
}
330
185
100
AcDbCellStyleMap
 90
        3
300
CELLSTYLE
  1
TABLEFORMAT_BEGIN
 90
        5
170
     1
 91
        0
 92
    32768
 62
   257
 93
        1
300
CONTENTFORMAT
  1
CONTENTFORMAT_BEGIN
 90
        0
 91
        0
 92
      512
 93
        0
300

 40
0.0
140
1.0
 94
        5
 62
     0
340
55
144
0.25
309
CONTENTFORMAT_END
171
     0
 94
        0
309
TABLEFORMAT_END
  1
CELLSTYLE_BEGIN
 90
        1
 91
        1
300
_TITLE
309
CELLSTYLE_END
300
CELLSTYLE
  1
TABLEFORMAT_BEGIN
 90
        5
170
     1
 91
        0
 92
        0
 62
   257
 93
        1
300
CONTENTFORMAT
  1
CONTENTFORMAT_BEGIN
 90
        0
 91
        0
 92
      512
 93
        0
300

 40
0.0
140
1.0
 94
        5
 62
     0
340
55
144
0.18
309
CONTENTFORMAT_END
171
     0
 94
        0
309
TABLEFORMAT_END
  1
CELLSTYLE_BEGIN
 90
        2
 91
        1
300
_HEADER
309
CELLSTYLE_END
300
CELLSTYLE
  1
TABLEFORMAT_BEGIN
 90
        5
170
     1
 91
        0
 92
        0
 62
   257
 93
        1
300
CONTENTFORMAT
  1
CONTENTFORMAT_BEGIN
 90
        0
 91
        0
 92
      512
 93
        0
300

 40
0.0
140
1.0
 94
        2
 62
     0
340
55
144
0.18
309
CONTENTFORMAT_END
171
     0
 94
        0
309
TABLEFORMAT_END
  1
CELLSTYLE_BEGIN
 90
        3
 91
        2
300
_DATA
309
CELLSTYLE_END
  0
ENDSEC
  0
EOF
