  0
SECTION
  2
HEADER
  9
$ACADVER
  1
AC1032
  9
$ACADMAINTVER
 90
      251
  9
$DWGCODEPAGE
  3
ANSI_1252
  9
$REQUIREDVERSIONS
160
                 0
  9
$INSBASE
 10
0.0
 20
0.0
 30
0.0
  9
$EXTMIN
 10
1.000000000000000E+20
 20
1.000000000000000E+20
 30
1.000000000000000E+20
  9
$EXTMAX
 10
-1.000000000000000E+20
 20
-1.000000000000000E+20
 30
-1.000000000000000E+20
  9
$LIMMIN
 10
0.0
 20
0.0
  9
$LIMMAX
 10
12.0
 20
9.0
  9
$ORTHOMODE
 70
     0
  9
$REGENMODE
 70
     1
  9
$FILLMODE
 70
     1
  9
$QTEXTMODE
 70
     0
  9
$MIRRTEXT
 70
     0
  9
$LTSCALE
 40
1.0
  9
$ATTMODE
 70
     1
  9
$TEXTSIZE
 40
0.2
  9
$TRACEWID
 40
0.05
  9
$TEXTSTYLE
  7
Standard
  9
$CLAYER
  8
0
  9
$CELTYPE
  6
ByLayer
  9
$CECOLOR
 62
   256
  9
$CELTSCALE
 40
1.0
  9
$DISPSILH
 70
     0
  9
$DIMSCALE
 40
1.0
  9
$DIMASZ
 40
0.18
  9
$DIMEXO
 40
0.0625
  9
$DIMDLI
 40
0.38
  9
$DIMRND
 40
0.0
  9
$DIMDLE
 40
0.0
  9
$DIMEXE
 40
0.18
  9
$DIMTP
 40
0.0
  9
$DIMTM
 40
0.0
  9
$DIMTXT
 40
0.18
  9
$DIMCEN
 40
0.09
  9
$DIMTSZ
 40
0.0
  9
$DIMTOL
 70
     0
  9
$DIMLIM
 70
     0
  9
$DIMTIH
 70
     1
  9
$DIMTOH
 70
     1
  9
$DIMSE1
 70
     0
  9
$DIMSE2
 70
     0
  9
$DIMTAD
 70
     0
  9
$DIMZIN
 70
     0
  9
$DIMBLK
  1

  9
$DIMASO
 70
     1
  9
$DIMSHO
 70
     1
  9
$DIMPOST
  1

  9
$DIMAPOST
  1

  9
$DIMALT
 70
     0
  9
$DIMALTD
 70
     2
  9
$DIMALTF
 40
25.4
  9
$DIMLFAC
 40
1.0
  9
$DIMTOFL
 70
     0
  9
$DIMTVP
 40
0.0
  9
$DIMTIX
 70
     0
  9
$DIMSOXD
 70
     0
  9
$DIMSAH
 70
     0
  9
$DIMBLK1
  1

  9
$DIMBLK2
  1

  9
$DIMSTYLE
  2
Standard
  9
$DIMCLRD
 70
     0
  9
$DIMCLRE
 70
     0
  9
$DIMCLRT
 70
     0
  9
$DIMTFAC
 40
1.0
  9
$DIMGAP
 40
0.09
  9
$DIMJUST
 70
     0
  9
$DIMSD1
 70
     0
  9
$DIMSD2
 70
     0
  9
$DIMTOLJ
 70
     1
  9
$DIMTZIN
 70
     0
  9
$DIMALTZ
 70
     0
  9
$DIMALTTZ
 70
     0
  9
$DIMUPT
 70
     0
  9
$DIMDEC
 70
     4
  9
$DIMTDEC
 70
     4
  9
$DIMALTU
 70
     2
  9
$DIMALTTD
 70
     2
  9
$DIMTXSTY
  7
Standard
  9
$DIMAUNIT
 70
     0
  9
$DIMADEC
 70
     0
  9
$DIMALTRND
 40
0.0
  9
$DIMAZIN
 70
     0
  9
$DIMDSEP
 70
    46
  9
$DIMATFIT
 70
     3
  9
$DIMFRAC
 70
     0
  9
$DIMLDRBLK
  1

  9
$DIMLUNIT
 70
     2
  9
$DIMLWD
 70
    -2
  9
$DIMLWE
 70
    -2
  9
$DIMTMOVE
 70
     0
  9
$DIMFXL
 40
1.0
  9
$DIMFXLON
 70
     0
  9
$DIMJOGANG
 40
0.7853981633974483
  9
$DIMTFILL
 70
     0
  9
$DIMTFILLCLR
 70
     0
  9
$DIMARCSYM
 70
     0
  9
$DIMLTYPE
  6

  9
$DIMLTEX1
  6

  9
$DIMLTEX2
  6

  9
$DIMTXTDIRECTION
 70
     0
  9
$LUNITS
 70
     2
  9
$LUPREC
 70
     4
  9
$SKETCHINC
 40
0.1
  9
$FILLETRAD
 40
0.0
  9
$AUNITS
 70
     0
  9
$AUPREC
 70
     0
  9
$MENU
  1
.
  9
$ELEVATION
 40
0.0
  9
$PELEVATION
 40
0.0
  9
$THICKNESS
 40
0.0
  9
$LIMCHECK
 70
     0
  9
$CHAMFERA
 40
0.0
  9
$CHAMFERB
 40
0.0
  9
$CHAMFERC
 40
0.0
  9
$CHAMFERD
 40
0.0
  9
$SKPOLY
 70
     0
  9
$TDCREATE
 40
2460038.427187500
  9
$TDUCREATE
 40
2460038.343854167
  9
$TDUPDATE
 40
2460038.427187500
  9
$TDUUPDATE
 40
2460038.343854167
  9
$TDINDWG
 40
0.0000000000
  9
$TDUSRTIMER
 40
0.0000000000
  9
$USRTIMER
 70
     1
  9
$ANGBASE
 50
0.0
  9
$ANGDIR
 70
     0
  9
$PDMODE
 70
     0
  9
$PDSIZE
 40
0.0
  9
$PLINEWID
 40
0.0
  9
$SPLFRAME
 70
     0
  9
$SPLINETYPE
 70
     6
  9
$SPLINESEGS
 70
     8
  9
$HANDSEED
  5
261
  9
$SURFTAB1
 70
     6
  9
$SURFTAB2
 70
     6
  9
$SURFTYPE
 70
     6
  9
$SURFU
 70
     6
  9
$SURFV
 70
     6
  9
$UCSBASE
  2

  9
$UCSNAME
  2

  9
$UCSORG
 10
0.0
 20
0.0
 30
0.0
  9
$UCSXDIR
 10
1.0
 20
0.0
 30
0.0
  9
$UCSYDIR
 10
0.0
 20
1.0
 30
0.0
  9
$UCSORTHOREF
  2

  9
$UCSORTHOVIEW
 70
     0
  9
$UCSORGTOP
 10
0.0
 20
0.0
 30
0.0
  9
$UCSORGBOTTOM
 10
0.0
 20
0.0
 30
0.0
  9
$UCSORGLEFT
 10
0.0
 20
0.0
 30
0.0
  9
$UCSORGRIGHT
 10
0.0
 20
0.0
 30
0.0
  9
$UCSORGFRONT
 10
0.0
 20
0.0
 30
0.0
  9
$UCSORGBACK
 10
0.0
 20
0.0
 30
0.0
  9
$PUCSBASE
  2

  9
$PUCSNAME
  2

  9
$PUCSORG
 10
0.0
 20
0.0
 30
0.0
  9
$PUCSXDIR
 10
1.0
 20
0.0
 30
0.0
  9
$PUCSYDIR
 10
0.0
 20
1.0
 30
0.0
  9
$PUCSORTHOREF
  2

  9
$PUCSORTHOVIEW
 70
     0
  9
$PUCSORGTOP
 10
0.0
 20
0.0
 30
0.0
  9
$PUCSORGBOTTOM
 10
0.0
 20
0.0
 30
0.0
  9
$PUCSORGLEFT
 10
0.0
 20
0.0
 30
0.0
  9
$PUCSORGRIGHT
 10
0.0
 20
0.0
 30
0.0
  9
$PUCSORGFRONT
 10
0.0
 20
0.0
 30
0.0
  9
$PUCSORGBACK
 10
0.0
 20
0.0
 30
0.0
  9
$USERI1
 70
     0
  9
$USERI2
 70
     0
  9
$USERI3
 70
     0
  9
$USERI4
 70
     0
  9
$USERI5
 70
     0
  9
$USERR1
 40
0.0
  9
$USERR2
 40
0.0
  9
$USERR3
 40
0.0
  9
$USERR4
 40
0.0
  9
$USERR5
 40
0.0
  9
$WORLDVIEW
 70
     1
  9
$SHADEDGE
 70
     3
  9
$SHADEDIF
 70
    70
  9
$TILEMODE
 70
     1
  9
$MAXACTVP
 70
    64
  9
$PINSBASE
 10
0.0
 20
0.0
 30
0.0
  9
$PLIMCHECK
 70
     0
  9
$PEXTMIN
 10
1.000000000000000E+20
 20
1.000000000000000E+20
 30
1.000000000000000E+20
  9
$PEXTMAX
 10
-1.000000000000000E+20
 20
-1.000000000000000E+20
 30
-1.000000000000000E+20
  9
$PLIMMIN
 10
0.0
 20
0.0
  9
$PLIMMAX
 10
12.0
 20
9.0
  9
$UNITMODE
 70
     0
  9
$VISRETAIN
 70
     1
  9
$PLINEGEN
 70
     0
  9
$PSLTSCALE
 70
     1
  9
$TREEDEPTH
 70
  3020
  9
$CMLSTYLE
  2
Standard
  9
$CMLJUST
 70
     0
  9
$CMLSCALE
 40
1.0
  9
$PROXYGRAPHICS
 70
     1
  9
$MEASUREMENT
 70
     0
  9
$CELWEIGHT
370
    -1
  9
$ENDCAPS
280
     0
  9
$JOINSTYLE
280
     0
  9
$LWDISPLAY
290
     1
  9
$INSUNITS
 70
     4
  9
$HYPERLINKBASE
  1

  9
$STYLESHEET
  1

  9
$XEDIT
290
     1
  9
$CEPSNTYPE
380
     0
  9
$PSTYLEMODE
290
     1
  9
$FINGERPRINTGUID
  2
{6A7BE4D9-FC75-704A-B38A-314B3AF052A0}
  9
$VERSIONGUID
  2
{F3A11C91-5DCA-DE48-A34D-AC460CF98A50}
  9
$EXTNAMES
290
     1
  9
$PSVPSCALE
 40
0.0
  9
$OLESTARTUP
290
     0
  9
$SORTENTS
280
   127
  9
$INDEXCTL
280
     0
  9
$HIDETEXT
280
     1
  9
$XCLIPFRAME
280
     2
  9
$HALOGAP
280
     0
  9
$OBSCOLOR
 70
   257
  9
$OBSLTYPE
280
     0
  9
$INTERSECTIONDISPLAY
280
     0
  9
$INTERSECTIONCOLOR
 70
   257
  9
$DIMASSOC
280
     2
  9
$PROJECTNAME
  1

  9
$CAMERADISPLAY
290
     0
  9
$LENSLENGTH
 40
50.0
  9
$CAMERAHEIGHT
 40
0.0
  9
$STEPSPERSEC
 40
2.0
  9
$STEPSIZE
 40
6.0
  9
$3DDWFPREC
 40
2.0
  9
$PSOLWIDTH
 40
0.25
  9
$PSOLHEIGHT
 40
4.0
  9
$LOFTANG1
 40
1.570796326794896
  9
$LOFTANG2
 40
1.570796326794896
  9
$LOFTMAG1
 40
0.0
  9
$LOFTMAG2
 40
0.0
  9
$LOFTPARAM
 70
     7
  9
$LOFTNORMALS
280
     1
  9
$LATITUDE
 40
37.795
  9
$LONGITUDE
 40
-122.394
  9
$NORTHDIRECTION
 40
0.0
  9
$TIMEZONE
 70
 -8000
  9
$LIGHTGLYPHDISPLAY
280
     1
  9
$TILEMODELIGHTSYNCH
280
     1
  9
$CMATERIAL
347
11
  9
$SOLIDHIST
280
     0
  9
$SHOWHIST
280
     1
  9
$DWFFRAME
280
     2
  9
$DGNFRAME
280
     0
  9
$REALWORLDSCALE
290
     1
  9
$INTERFERECOLOR
 62
     1
  9
$INTERFEREOBJVS
345
33
  9
$INTERFEREVPVS
346
30
  9
$CSHADOW
280
     0
  9
$SHADOWPLANELOCATION
 40
0.0
  0
ENDSEC
  0
SECTION
  2
CLASSES
  0
CLASS
  1
ACDBDICTIONARYWDFLT
  2
AcDbDictionaryWithDefault
  3
ObjectDBX Classes
 90
        0
 91
        1
280
     0
281
     0
  0
CLASS
  1
MATERIAL
  2
AcDbMaterial
  3
ObjectDBX Classes
 90
     1153
 91
        3
280
     0
281
     0
  0
CLASS
  1
VISUALSTYLE
  2
AcDbVisualStyle
  3
ObjectDBX Classes
 90
     4095
 91
       24
280
     0
281
     0
  0
CLASS
  1
SCALE
  2
AcDbScale
  3
ObjectDBX Classes
 90
     1153
 91
       17
280
     0
281
     0
  0
CLASS
  1
TABLESTYLE
  2
AcDbTableStyle
  3
ObjectDBX Classes
 90
     4095
 91
        1
280
     0
281
     0
  0
CLASS
  1
MLEADERSTYLE
  2
AcDbMLeaderStyle
  3
ACDB_MLEADERSTYLE_CLASS
 90
     4095
 91
        1
280
     0
281
     0
  0
CLASS
  1
ACDBSECTIONVIEWSTYLE
  2
AcDbSectionViewStyle
  3
ObjectDBX Classes
 90
     1025
 91
        1
280
     0
281
     0
  0
CLASS
  1
ACDBDETAILVIEWSTYLE
  2
AcDbDetailViewStyle
  3
ObjectDBX Classes
 90
     1025
 91
        1
280
     0
281
     0
  0
CLASS
  1
DICTIONARYVAR
  2
AcDbDictionaryVar
  3
ObjectDBX Classes
 90
        0
 91
        5
280
     0
281
     0
  0
CLASS
  1
CELLSTYLEMAP
  2
AcDbCellStyleMap
  3
ObjectDBX Classes
 90
     1152
 91
        1
280
     0
281
     0
  0
ENDSEC
  0
SECTION
  2
TABLES
  0
TABLE
  2
VPORT
  5
8
330
0
100
AcDbSymbolTable
 70
     1
  0
VPORT
  5
57
330
8
100
AcDbSymbolTableRecord
100
AcDbViewportTableRecord
  2
*Active
 70
     0
 10
0.0
 20
0.0
 11
1.0
 21
1.0
 12
0.0
 22
0.0
 13
0.0
 23
0.0
 14
1.0
 24
1.0
 15
0.0
 25
0.0
 16
0.0
 26
0.0
 36
1.0
 17
104.9999999737499
 27
-43.49999998912136
 37
0.0
 40
302.9399999242646
 41
0.7070707070707073
 42
50.0
 43
0.0
 44
0.0
 50
0.0
 51
0.0
 71
     0
 72
   100
 73
     1
 74
     1
 75
     0
 76
     0
 77
     0
 78
     0
281
     0
 65
     1
110
0.0
120
0.0
130
0.0
111
1.0
121
0.0
131
0.0
112
0.0
122
1.0
132
0.0
 79
     0
146
0.0
 60
     3
 61
     5
292
     1
282
     1
141
0.0
142
0.0
 63
   250
421
  3355443
  0
ENDTAB
  0
TABLE
  2
LTYPE
  5
5
330
0
100
AcDbSymbolTable
 70
     1
  0
LTYPE
  5
5B
330
5
100
AcDbSymbolTableRecord
100
AcDbLinetypeTableRecord
  2
ByBlock
 70
     0
  3

 72
    65
 73
     0
 40
0.0
  0
LTYPE
  5
5C
330
5
100
AcDbSymbolTableRecord
100
AcDbLinetypeTableRecord
  2
ByLayer
 70
     0
  3

 72
    65
 73
     0
 40
0.0
  0
LTYPE
  5
5D
330
5
100
AcDbSymbolTableRecord
100
AcDbLinetypeTableRecord
  2
Continuous
 70
     0
  3
Solid line
 72
    65
 73
     0
 40
0.0
  0
ENDTAB
  0
TABLE
  2
LAYER
  5
2
330
0
100
AcDbSymbolTable
 70
     2
  0
LAYER
  5
54
330
2
100
AcDbSymbolTableRecord
100
AcDbLayerTableRecord
  2
0
 70
     0
 62
     7
  6
Continuous
370
     0
390
F
347
21
348
0
  0
LAYER
  5
233
330
2
100
AcDbSymbolTableRecord
100
AcDbLayerTableRecord
  2
CAPA_BASE
 70
     0
 62
     7
  6
Continuous
370
     0
390
F
347
21
348
0
  0
ENDTAB
  0
TABLE
  2
STYLE
  5
3
330
0
100
AcDbSymbolTable
 70
     2
  0
STYLE
  5
55
330
3
100
AcDbSymbolTableRecord
100
AcDbTextStyleTableRecord
  2
Standard
 70
     0
 40
0.0
 41
1.0
 50
0.0
 71
     0
 42
0.2
  3
txt
  4

  0
STYLE
  5
5A
330
3
100
AcDbSymbolTableRecord
100
AcDbTextStyleTableRecord
  2
Annotative
 70
     0
 40
0.0
 41
1.0
 50
0.0
 71
     0
 42
0.2
  3
txt
  4

1001
AcadAnnotative
1000
AnnotativeData
1002
{
1070
     1
1070
     1
1002
}
  0
ENDTAB
  0
TABLE
  2
VIEW
  5
6
330
0
100
AcDbSymbolTable
 70
     0
  0
ENDTAB
  0
TABLE
  2
UCS
  5
7
330
0
100
AcDbSymbolTable
 70
     0
  0
ENDTAB
  0
TABLE
  2
APPID
  5
9
330
0
100
AcDbSymbolTable
 70
     2
  0
APPID
  5
56
330
9
100
AcDbSymbolTableRecord
100
AcDbRegAppTableRecord
  2
ACAD
 70
     0
  0
APPID
  5
5E
330
9
100
AcDbSymbolTableRecord
100
AcDbRegAppTableRecord
  2
AcadAnnotative
 70
     0
  0
ENDTAB
  0
TABLE
  2
DIMSTYLE
  5
A
330
0
100
AcDbSymbolTable
 70
     2
100
AcDbDimStyleTable
 71
     0
  0
DIMSTYLE
105
58
330
A
100
AcDbSymbolTableRecord
100
AcDbDimStyleTableRecord
  2
Standard
 70
     0
340
55
  0
DIMSTYLE
105
59
330
A
100
AcDbSymbolTableRecord
100
AcDbDimStyleTableRecord
  2
Annotative
 70
     0
340
55
1001
AcadAnnotative
1000
AnnotativeData
1002
{
1070
     1
1070
     1
1002
}
  0
ENDTAB
  0
TABLE
  2
BLOCK_RECORD
  5
1
330
0
100
AcDbSymbolTable
 70
     4
  0
BLOCK_RECORD
  5
70
330
1
100
AcDbSymbolTableRecord
100
AcDbBlockTableRecord
  2
*Model_Space
340
73
 70
     0
280
     1
281
     0
  0
BLOCK_RECORD
  5
6C
330
1
100
AcDbSymbolTableRecord
100
AcDbBlockTableRecord
  2
*Paper_Space
340
6F
 70
     0
280
     1
281
     0
  0
BLOCK_RECORD
  5
74
330
1
100
AcDbSymbolTableRecord
100
AcDbBlockTableRecord
  2
*Paper_Space0
340
77
 70
     0
280
     1
281
     0
  0
BLOCK_RECORD
  5
234
330
1
100
AcDbSymbolTableRecord
100
AcDbBlockTableRecord
  2
Block_0
340
0
102
{BLKREFS
331
235
102
}
 70
     0
280
     1
281
     0
  0
BLOCK_RECORD
  5
240
330
1
100
AcDbSymbolTableRecord
100
AcDbBlockTableRecord
  2
Block_1
340
0
102
{BLKREFS
331
241
102
}
 70
     0
280
     1
281
     0
  0
BLOCK_RECORD
  5
24C
330
1
100
AcDbSymbolTableRecord
100
AcDbBlockTableRecord
  2
Block_2
340
0
102
{BLKREFS
331
24D
102
}
 70
     0
280
     1
281
     0
  0
ENDTAB
  0
ENDSEC
  0
SECTION
  2
BLOCKS
  0
BLOCK
  5
71
330
70
100
AcDbEntity
  8
0
100
AcDbBlockBegin
  2
*Model_Space
 70
     0
 10
0.0
 20
0.0
 30
0.0
  3
*Model_Space
  1

  0
ENDBLK
  5
72
330
70
100
AcDbEntity
  8
0
100
AcDbBlockEnd
  0
BLOCK
  5
6D
330
6C
100
AcDbEntity
 67
     1
  8
0
100
AcDbBlockBegin
  2
*Paper_Space
 70
     0
 10
0.0
 20
0.0
 30
0.0
  3
*Paper_Space
  1

  0
ENDBLK
  5
6E
330
6C
100
AcDbEntity
 67
     1
  8
0
100
AcDbBlockEnd
  0
BLOCK
  5
75
330
74
100
AcDbEntity
 67
     1
  8
0
100
AcDbBlockBegin
  2
*Paper_Space0
 70
     0
 10
0.0
 20
0.0
 30
0.0
  3
*Paper_Space0
  1

  0
ENDBLK
  5
76
330
74
100
AcDbEntity
 67
     1
  8
0
100
AcDbBlockEnd
  0
BLOCK
  5
236
330
234
100
AcDbEntity
  8
0
100
AcDbBlockBegin
  2
Block_0
 70
     0
 10
0.0
 20
0.0
 30
0.0
  3
Block_0
  1

  0
LWPOLYLINE
  5
238
330
234
100
AcDbEntity
  8
CAPA_BASE
100
AcDbPolyline
 90
        4
 70
     1
 43
0.0
 10
116.5290354668878
 20
-15.84492410221389
 10
115.0974944905185
 20
-15.66741302114414
 10
115.0974944905185
 20
-16.02243518328364
 10
115.0974944905185
 20
-16.02243518328364
  0
HATCH
  5
239
330
234
100
AcDbEntity
  8
CAPA_BASE
 62
    18
420
        0
440
 33554687
100
AcDbHatch
 10
0.0
 20
0.0
 30
0.0
210
0.0
220
0.0
230
1.0
  2
SOLID
 70
     1
 71
     1
 91
        1
 92
        1
 93
        3
 72
     1
 10
116.5290354668878
 20
-15.84492410221389
 11
115.0974944905185
 21
-15.66741302114414
 72
     1
 10
115.0974944905185
 20
-15.66741302114414
 11
115.0974944905185
 21
-16.02243518328364
 72
     1
 10
115.0974944905185
 20
-16.02243518328364
 11
116.5290354668878
 21
-15.84492410221389
 97
        1
330
238
 75
     2
 76
     1
 98
        1
 10
0.0
 20
0.0
450
        0
451
        0
460
0.0
461
0.0
452
        0
462
0.0
453
        0
470

  0
LWPOLYLINE
  5
23A
330
234
100
AcDbEntity
  8
CAPA_BASE
100
AcDbPolyline
 90
        4
 70
     1
 43
0.0
 10
58.58958765940244
 20
-15.84492410221389
 10
60.021128635772
 20
-16.02243518328364
 10
60.021128635772
 20
-15.66741302114414
 10
60.021128635772
 20
-15.66741302114414
  0
HATCH
  5
23B
330
234
100
AcDbEntity
  8
CAPA_BASE
 62
    18
420
        0
440
 33554687
100
AcDbHatch
 10
0.0
 20
0.0
 30
0.0
210
0.0
220
0.0
230
1.0
  2
SOLID
 70
     1
 71
     1
 91
        1
 92
        1
 93
        3
 72
     1
 10
58.58958765940244
 20
-15.84492410221389
 11
60.021128635772
 21
-16.02243518328364
 72
     1
 10
60.021128635772
 20
-16.02243518328364
 11
60.021128635772
 21
-15.66741302114414
 72
     1
 10
60.021128635772
 20
-15.66741302114414
 11
58.58958765940244
 21
-15.84492410221389
 97
        1
330
23A
 75
     2
 76
     1
 98
        1
 10
0.0
 20
0.0
450
        0
451
        0
460
0.0
461
0.0
452
        0
462
0.0
453
        0
470

  0
LINE
  5
23C
330
234
100
AcDbEntity
  8
CAPA_BASE
 62
    18
420
        0
370
    25
100
AcDbLine
 10
116.5290354668878
 20
-6.7738310069644
 30
0.0
 11
116.5290354668878
 21
-16.41754049276197
 31
0.0
  0
LINE
  5
23D
330
234
100
AcDbEntity
  8
CAPA_BASE
 62
    18
420
        0
370
    25
100
AcDbLine
 10
58.58958765940244
 20
-6.7738310069644
 30
0.0
 11
58.58958765940244
 21
-16.41754049276197
 31
0.0
  0
LINE
  5
23E
330
234
100
AcDbEntity
  8
CAPA_BASE
 62
    18
420
        0
370
    25
100
AcDbLine
 10
116.5290354668878
 20
-15.84492410221389
 30
0.0
 11
58.58958765940244
 21
-15.84492410221389
 31
0.0
  0
MTEXT
  5
23F
330
234
100
AcDbEntity
  8
CAPA_BASE
100
AcDbMText
 10
86.0442634367409
 20
-15.39041098103941
 30
0.0
 40
0.2
 41
0.0
 46
0.0
 71
     7
 72
     1
  1
\C18;\c0;\FArial Bold|b1|i0|c1;\H2.997200;\W0.700000;304
 73
     1
 44
1.0
  0
ENDBLK
  5
237
330
234
100
AcDbEntity
  8
0
100
AcDbBlockEnd
  0
BLOCK
  5
242
330
240
100
AcDbEntity
  8
0
100
AcDbBlockBegin
  2
Block_1
 70
     0
 10
0.0
 20
0.0
 30
0.0
  3
Block_1
  1

  0
LWPOLYLINE
  5
244
330
240
100
AcDbEntity
  8
CAPA_BASE
100
AcDbPolyline
 90
        4
 70
     1
 43
0.0
 10
131.4287324098268
 20
9.063888886617727
 10
131.2512213287571
 20
7.632347910247843
 10
131.6062434908966
 20
7.632347910247843
 10
131.6062434908966
 20
7.632347910247843
  0
HATCH
  5
245
330
240
100
AcDbEntity
  8
CAPA_BASE
 62
    18
420
        0
440
 33554687
100
AcDbHatch
 10
0.0
 20
0.0
 30
0.0
210
0.0
220
0.0
230
1.0
  2
SOLID
 70
     1
 71
     1
 91
        1
 92
        1
 93
        3
 72
     1
 10
131.4287324098268
 20
9.063888886617727
 11
131.2512213287571
 21
7.632347910247843
 72
     1
 10
131.2512213287571
 20
7.632347910247843
 11
131.6062434908966
 21
7.632347910247843
 72
     1
 10
131.6062434908966
 20
7.632347910247843
 11
131.4287324098268
 21
9.063888886617727
 97
        1
330
244
 75
     2
 76
     1
 98
        1
 10
0.0
 20
0.0
450
        0
451
        0
460
0.0
461
0.0
452
        0
462
0.0
453
        0
470

  0
LWPOLYLINE
  5
246
330
240
100
AcDbEntity
  8
CAPA_BASE
100
AcDbPolyline
 90
        4
 70
     1
 43
0.0
 10
131.4287324098268
 20
-10.11876019673564
 10
131.6062434908966
 20
-8.687219220366396
 10
131.2512213287571
 20
-8.687219220366396
 10
131.2512213287571
 20
-8.687219220366396
  0
HATCH
  5
247
330
240
100
AcDbEntity
  8
CAPA_BASE
 62
    18
420
        0
440
 33554687
100
AcDbHatch
 10
0.0
 20
0.0
 30
0.0
210
0.0
220
0.0
230
1.0
  2
SOLID
 70
     1
 71
     1
 91
        1
 92
        1
 93
        3
 72
     1
 10
131.4287324098268
 20
-10.11876019673564
 11
131.6062434908966
 21
-8.687219220366396
 72
     1
 10
131.6062434908966
 20
-8.687219220366396
 11
131.2512213287571
 21
-8.687219220366396
 72
     1
 10
131.2512213287571
 20
-8.687219220366396
 11
131.4287324098268
 21
-10.11876019673564
 97
        1
330
246
 75
     2
 76
     1
 98
        1
 10
0.0
 20
0.0
450
        0
451
        0
460
0.0
461
0.0
452
        0
462
0.0
453
        0
470

  0
LINE
  5
248
330
240
100
AcDbEntity
  8
CAPA_BASE
 62
    18
420
        0
370
    25
100
AcDbLine
 10
136.5822799247576
 20
9.063888886617727
 30
0.0
 11
130.8561160192788
 21
9.063888886617727
 31
0.0
  0
LINE
  5
249
330
240
100
AcDbEntity
  8
CAPA_BASE
 62
    18
420
        0
370
    25
100
AcDbLine
 10
140.9723389189765
 20
-10.11876019673564
 30
0.0
 11
130.8561160192788
 21
-10.11876019673564
 31
0.0
  0
LINE
  5
24A
330
240
100
AcDbEntity
  8
CAPA_BASE
 62
    18
420
        0
370
    25
100
AcDbLine
 10
131.4287324098268
 20
9.063888886617727
 30
0.0
 11
131.4287324098268
 21
-10.11876019673564
 31
0.0
  0
MTEXT
  5
24B
330
240
100
AcDbEntity
  8
CAPA_BASE
100
AcDbMText
 10
130.9742190563413
 20
-2.042252603656745
 30
0.0
 40
0.2
 41
0.0
 46
0.0
 71
     7
 72
     1
  1
\C18;\c0;\FArial Bold|b1|i0|c1;\H2.997200;\W0.700000;101
 11
0.0000000000000003
 21
1.0
 31
0.0
 73
     1
 44
1.0
  0
ENDBLK
  5
243
330
240
100
AcDbEntity
  8
0
100
AcDbBlockEnd
  0
BLOCK
  5
24E
330
24C
100
AcDbEntity
  8
0
100
AcDbBlockBegin
  2
Block_2
 70
     0
 10
0.0
 20
0.0
 30
0.0
  3
Block_2
  1

  0
LWPOLYLINE
  5
250
330
24C
100
AcDbEntity
  8
CAPA_BASE
100
AcDbPolyline
 90
        4
 70
     1
 43
0.0
 10
122.2980392563725
 20
-24.69622720777358
 10
122.1205281753028
 20
-26.12776818414347
 10
122.4755503374423
 20
-26.12776818414347
 10
122.4755503374423
 20
-26.12776818414347
  0
HATCH
  5
251
330
24C
100
AcDbEntity
  8
CAPA_BASE
 62
    18
420
        0
440
 33554687
100
AcDbHatch
 10
0.0
 20
0.0
 30
0.0
210
0.0
220
0.0
230
1.0
  2
SOLID
 70
     1
 71
     1
 91
        1
 92
        1
 93
        3
 72
     1
 10
122.2980392563725
 20
-24.69622720777358
 11
122.1205281753028
 21
-26.12776818414347
 72
     1
 10
122.1205281753028
 20
-26.12776818414347
 11
122.4755503374423
 21
-26.12776818414347
 72
     1
 10
122.4755503374423
 20
-26.12776818414347
 11
122.2980392563725
 21
-24.69622720777358
 97
        1
330
250
 75
     2
 76
     1
 98
        1
 10
0.0
 20
0.0
450
        0
451
        0
460
0.0
461
0.0
452
        0
462
0.0
453
        0
470

  0
LWPOLYLINE
  5
252
330
24C
100
AcDbEntity
  8
CAPA_BASE
100
AcDbPolyline
 90
        4
 70
     1
 43
0.0
 10
122.2980392563725
 20
-47.21913856930366
 10
122.4755503374423
 20
-45.78759759293378
 10
122.1205281753028
 20
-45.78759759293378
 10
122.1205281753028
 20
-45.78759759293378
  0
HATCH
  5
253
330
24C
100
AcDbEntity
  8
CAPA_BASE
 62
    18
420
        0
440
 33554687
100
AcDbHatch
 10
0.0
 20
0.0
 30
0.0
210
0.0
220
0.0
230
1.0
  2
SOLID
 70
     1
 71
     1
 91
        1
 92
        1
 93
        3
 72
     1
 10
122.2980392563725
 20
-47.21913856930366
 11
122.4755503374423
 21
-45.78759759293378
 72
     1
 10
122.4755503374423
 20
-45.78759759293378
 11
122.1205281753028
 21
-45.78759759293378
 72
     1
 10
122.1205281753028
 20
-45.78759759293378
 11
122.2980392563725
 21
-47.21913856930366
 97
        1
330
252
 75
     2
 76
     1
 98
        1
 10
0.0
 20
0.0
450
        0
451
        0
460
0.0
461
0.0
452
        0
462
0.0
453
        0
470

  0
LINE
  5
254
330
24C
100
AcDbEntity
  8
CAPA_BASE
 62
    18
420
        0
370
    25
100
AcDbLine
 10
117.1063187689726
 20
-24.69622720777358
 30
0.0
 11
122.8706556469199
 21
-24.69622720777358
 31
0.0
  0
LINE
  5
255
330
24C
100
AcDbEntity
  8
CAPA_BASE
 62
    18
420
        0
370
    25
100
AcDbLine
 10
113.804229463265
 20
-47.21913856930366
 30
0.0
 11
122.8706556469199
 21
-47.21913856930366
 31
0.0
  0
LINE
  5
256
330
24C
100
AcDbEntity
  8
CAPA_BASE
 62
    18
420
        0
370
    25
100
AcDbLine
 10
122.2980392563725
 20
-24.69622720777358
 30
0.0
 11
122.2980392563725
 21
-47.21913856930366
 31
0.0
  0
MTEXT
  5
257
330
24C
100
AcDbEntity
  8
CAPA_BASE
100
AcDbMText
 10
121.8435263858945
 20
-37.47264810261165
 30
0.0
 40
0.2
 41
0.0
 46
0.0
 71
     7
 72
     1
  1
\C18;\c0;\FArial Bold|b1|i0|c1;\H2.997200;\W0.700000;118
 11
0.0000000000000003
 21
1.0
 31
0.0
 73
     1
 44
1.0
  0
ENDBLK
  5
24F
330
24C
100
AcDbEntity
  8
0
100
AcDbBlockEnd
  0
ENDSEC
  0
SECTION
  2
ENTITIES
  0
LINE
  5
78
330
70
100
AcDbEntity
  8
0
 62
    18
420
        0
370
    25
100
AcDbLine
 10
112.2772524217846
 20
5.72362660844101
 30
0.0
 11
62.84137070450561
 21
5.72362660844101
 31
0.0
  0
LINE
  5
79
330
70
100
AcDbEntity
  8
0
 62
    18
420
        0
370
    25
100
AcDbLine
 10
102.7297717828792
 20
3.814905306634177
 30
0.0
 11
112.2772524217846
 21
3.814905306634177
 31
0.0
  0
LINE
  5
7A
330
70
100
AcDbEntity
  8
0
 62
    18
420
        0
370
    25
100
AcDbLine
 10
72.95371947439051
 20
3.814905306634177
 30
0.0
 11
102.1610295221443
 21
3.814905306634177
 31
0.0
  0
LINE
  5
7B
330
70
100
AcDbEntity
  8
0
 62
    18
420
        0
370
    25
100
AcDbLine
 10
62.84137070450561
 20
3.814905306634177
 30
0.0
 11
72.3849772136556
 21
3.814905306634177
 31
0.0
  0
LINE
  5
7C
330
70
100
AcDbEntity
  8
0
 62
    18
420
        0
370
    25
100
AcDbLine
 10
101.1112328061018
 20
-3.533671705435582
 30
0.0
 11
74.00739032018903
 21
-3.533671705435582
 31
0.0
  0
LINE
  5
7D
330
70
100
AcDbEntity
  8
0
 62
    18
420
        0
370
    25
100
AcDbLine
 10
74.00739032018903
 20
-4.106288095983023
 30
0.0
 11
101.1112328061018
 21
-4.106288095983023
 31
0.0
  0
SPLINE
  5
7E
330
70
100
AcDbEntity
  8
0
 62
    18
420
        0
370
    25
100
AcDbSpline
210
0.0
220
0.0
230
1.0
 70
     8
 71
     3
 72
     8
 73
     4
 74
     0
 42
0.0000000001
 43
0.0000000001
 40
0.0
 40
0.0
 40
0.0
 40
0.0
 40
1.0
 40
1.0
 40
1.0
 40
1.0
 10
72.95759360418442
 20
-2.483874989392798
 30
0.0
 10
72.95759360418442
 20
-3.063661706064447
 30
0.0
 10
73.42760360351738
 20
-3.533671705397081
 30
0.0
 10
74.00739032018903
 20
-3.533671705397081
 30
0.0
  0
SPLINE
  5
7F
330
70
100
AcDbEntity
  8
0
 62
    18
420
        0
370
    25
100
AcDbSpline
210
0.0
220
0.0
230
1.0
 70
     8
 71
     3
 72
     8
 73
     4
 74
     0
 42
0.0000000001
 43
0.0000000001
 40
0.0
 40
0.0
 40
0.0
 40
0.0
 40
1.0
 40
1.0
 40
1.0
 40
1.0
 10
72.38497721363668
 20
-2.483874989392798
 30
0.0
 10
72.38497721363668
 20
-3.379909006066872
 30
0.0
 10
73.11135630351464
 20
-4.10628809594452
 30
0.0
 10
74.00739032018903
 20
-4.10628809594452
 30
0.0
  0
LINE
  5
80
330
70
100
AcDbEntity
  8
0
 62
    18
420
        0
370
    25
100
AcDbLine
 10
102.1610295221443
 20
3.814905306634177
 30
0.0
 11
102.1610295221443
 21
-2.483874989392798
 31
0.0
  0
LINE
  5
81
330
70
100
AcDbEntity
  8
0
 62
    18
420
        0
370
    25
100
AcDbLine
 10
102.733645912692
 20
-2.483874989392798
 30
0.0
 11
102.733645912692
 21
3.816059812365048
 31
0.0
  0
LINE
  5
82
330
70
100
AcDbEntity
  8
0
 62
    18
420
        0
370
    25
100
AcDbLine
 10
72.3849772136556
 20
3.814905306634177
 30
0.0
 11
72.3849772136556
 21
-2.483874989392798
 31
0.0
  0
LINE
  5
83
330
70
100
AcDbEntity
  8
0
 62
    18
420
        0
370
    25
100
AcDbLine
 10
72.95759360420368
 20
-2.483874989392798
 30
0.0
 11
72.95759360420368
 21
3.816059812365048
 31
0.0
  0
SPLINE
  5
84
330
70
100
AcDbEntity
  8
0
 62
    18
420
        0
370
    25
100
AcDbSpline
210
0.0
220
0.0
230
1.0
 70
     8
 71
     3
 72
     8
 73
     4
 74
     0
 42
0.0000000001
 43
0.0000000001
 40
0.0
 40
0.0
 40
0.0
 40
0.0
 40
1.0
 40
1.0
 40
1.0
 40
1.0
 10
101.1112328061018
 20
-3.533671705397081
 30
0.0
 10
101.6910195227735
 20
-3.533671705397081
 30
0.0
 10
102.1610295221061
 20
-3.063661706064447
 30
0.0
 10
102.1610295221061
 20
-2.483874989392798
 30
0.0
  0
SPLINE
  5
85
330
70
100
AcDbEntity
  8
0
 62
    18
420
        0
370
    25
100
AcDbSpline
210
0.0
220
0.0
230
1.0
 70
     8
 71
     3
 72
     8
 73
     4
 74
     0
 42
0.0000000001
 43
0.0000000001
 40
0.0
 40
0.0
 40
0.0
 40
0.0
 40
1.0
 40
1.0
 40
1.0
 40
1.0
 10
101.1112328061018
 20
-4.10628809594452
 30
0.0
 10
102.0072668227762
 20
-4.10628809594452
 30
0.0
 10
102.7336459126539
 20
-3.379909006066872
 30
0.0
 10
102.7336459126539
 20
-2.483874989392798
 30
0.0
  0
SPLINE
  5
86
330
70
100
AcDbEntity
  8
0
 62
    18
420
        0
370
    25
100
AcDbSpline
210
0.0
220
0.0
230
1.0
 70
     8
 71
     3
 72
     8
 73
     4
 74
     0
 42
0.0000000001
 43
0.0000000001
 40
0.0
 40
0.0
 40
0.0
 40
0.0
 40
1.0
 40
1.0
 40
1.0
 40
1.0
 10
63.1276788997604
 20
-8.496347090145413
 30
0.0
 10
63.1276788997604
 20
-9.07613380681642
 30
0.0
 10
63.59768889909335
 20
-9.546143806149695
 30
0.0
 10
64.17747561576501
 20
-9.546143806149695
 30
0.0
  0
SPLINE
  5
87
330
70
100
AcDbEntity
  8
0
 62
    18
420
        0
370
    25
100
AcDbSpline
210
0.0
220
0.0
230
1.0
 70
     8
 71
     3
 72
     8
 73
     4
 74
     0
 42
0.0000000001
 43
0.0000000001
 40
0.0
 40
0.0
 40
0.0
 40
0.0
 40
1.0
 40
1.0
 40
1.0
 40
1.0
 10
62.55506250921263
 20
-8.496347090145413
 30
0.0
 10
62.55506250921263
 20
-9.392381106819486
 30
0.0
 10
63.28144159909061
 20
-10.11876019669713
 30
0.0
 10
64.17747561576501
 20
-10.11876019669713
 30
0.0
  0
LINE
  5
88
330
70
100
AcDbEntity
  8
0
 62
    18
420
        0
370
    25
100
AcDbLine
 10
110.9411475105259
 20
-9.546143806188197
 30
0.0
 11
64.17747561576501
 21
-9.546143806188197
 31
0.0
  0
LINE
  5
89
330
70
100
AcDbEntity
  8
0
 62
    18
420
        0
370
    25
100
AcDbLine
 10
64.17747561576501
 20
-10.11876019673564
 30
0.0
 11
110.9411475105259
 21
-10.11876019673564
 31
0.0
  0
SPLINE
  5
8A
330
70
100
AcDbEntity
  8
0
 62
    18
420
        0
370
    25
100
AcDbSpline
210
0.0
220
0.0
230
1.0
 70
     8
 71
     3
 72
     8
 73
     4
 74
     0
 42
0.0000000001
 43
0.0000000001
 40
0.0
 40
0.0
 40
0.0
 40
0.0
 40
1.0
 40
1.0
 40
1.0
 40
1.0
 10
110.9411475105259
 20
-9.546143806149695
 30
0.0
 10
111.5209342271975
 20
-9.546143806149695
 30
0.0
 10
111.9909442265301
 20
-9.07613380681642
 30
0.0
 10
111.9909442265301
 20
-8.496347090145413
 30
0.0
  0
SPLINE
  5
8B
330
70
100
AcDbEntity
  8
0
 62
    18
420
        0
370
    25
100
AcDbSpline
210
0.0
220
0.0
230
1.0
 70
     8
 71
     3
 72
     8
 73
     4
 74
     0
 42
0.0000000001
 43
0.0000000001
 40
0.0
 40
0.0
 40
0.0
 40
0.0
 40
1.0
 40
1.0
 40
1.0
 40
1.0
 10
110.9411475105259
 20
-10.11876019669713
 30
0.0
 10
111.8371815271999
 20
-10.11876019669713
 30
0.0
 10
112.5635606170782
 20
-9.392381106819486
 30
0.0
 10
112.5635606170782
 20
-8.496347090145413
 30
0.0
  0
LINE
  5
8C
330
70
100
AcDbEntity
  8
0
 62
    18
420
        0
370
    25
100
AcDbLine
 10
111.9909442265109
 20
3.814905306634177
 30
0.0
 11
111.9909442265109
 21
-8.496347090145413
 31
0.0
  0
LINE
  5
8D
330
70
100
AcDbEntity
  8
0
 62
    18
420
        0
370
    25
100
AcDbLine
 10
112.563560617059
 20
-8.496347090145413
 30
0.0
 11
112.563560617059
 21
3.858863920329466
 31
0.0
  0
LINE
  5
8E
330
70
100
AcDbEntity
  8
0
 62
    18
420
        0
370
    25
100
AcDbLine
 10
62.55506250923189
 20
3.857657010578298
 30
0.0
 11
62.55506250923189
 21
-8.496347090145413
 31
0.0
  0
LINE
  5
8F
330
70
100
AcDbEntity
  8
0
 62
    18
420
        0
370
    25
100
AcDbLine
 10
63.12767889977965
 20
-8.496347090145413
 30
0.0
 11
63.12767889977965
 21
3.814905306634177
 31
0.0
  0
SPLINE
  5
90
330
70
100
AcDbEntity
  8
0
 62
    18
420
        0
370
    25
100
AcDbSpline
210
0.0
220
0.0
230
1.0
 70
     8
 71
     3
 72
     8
 73
     4
 74
     0
 42
0.0000000001
 43
0.0000000001
 40
0.0
 40
0.0
 40
0.0
 40
0.0
 40
1.0
 40
1.0
 40
1.0
 40
1.0
 10
102.7297717829017
 20
3.816060095731644
 30
0.0
 10
102.5442975209786
 20
3.872262554895881
 30
0.0
 10
102.3462740258377
 20
3.871860482834896
 30
0.0
 10
102.1610295221241
 20
3.81490530663546
 30
0.0
  0
LWPOLYLINE
  5
91
330
70
100
AcDbEntity
  8
0
 62
    18
420
        0
370
    25
100
AcDbPolyline
 90
       11
 70
     0
 43
0.0
 10
72.3849772136556
 20
3.814905306634177
 10
72.40030853313657
 20
3.81939210454769
 10
72.4442251754817
 20
3.830975906971904
 10
72.51384582342677
 20
3.845350868152928
 10
72.60336935196834
 20
3.856334163759671
 10
72.69858433624635
 20
3.858454725278237
 10
72.78738474608562
 20
3.851490971236357
 10
72.86473838088941
 20
3.838537252869733
 10
72.92374516333395
 20
3.824507894882981
 10
72.95441912996486
 20
3.815852839655251
 10
72.95371947439051
 20
3.816060095695709
  0
LWPOLYLINE
  5
92
330
70
100
AcDbEntity
  8
0
 62
    18
420
        0
370
    25
100
AcDbPolyline
 90
       20
 70
     0
 43
0.0
 10
62.84137070450561
 20
3.814905306634177
 10
62.67564771666317
 20
3.829404189331407
 10
62.51496013790145
 20
3.87246029632094
 10
62.36419037906833
 20
3.942765389488228
 10
62.22791950293277
 20
4.038183284163372
 10
62.11028803116025
 20
4.155814755935562
 10
62.014870136428
 20
4.292085632071126
 10
61.94456504326072
 20
4.44285539090392
 10
61.90150893632829
 20
4.603542969666285
 10
61.88701005357363
 20
4.769265957508717
 10
61.90150893632829
 20
4.934988945408261
 10
61.94456504326072
 20
5.095676524112873
 10
62.014870136428
 20
5.246446283003419
 10
62.11028803116025
 20
5.382717159081872
 10
62.22791950293245
 20
5.500348630911172
 10
62.36419037906833
 20
5.595766525586959
 10
62.51496013790145
 20
5.666071618753606
 10
62.67564771666317
 20
5.709127725743138
 10
62.84137070450561
 20
5.72362660844101
 10
62.84137070450561
 20
5.72362660844101
  0
SPLINE
  5
93
330
70
100
AcDbEntity
  8
0
 62
    18
420
        0
370
    25
100
AcDbSpline
210
0.0
220
0.0
230
1.0
 70
     8
 71
     3
 72
     8
 73
     4
 74
     0
 42
0.0000000001
 43
0.0000000001
 40
0.0
 40
0.0
 40
0.0
 40
0.0
 40
1.0
 40
1.0
 40
1.0
 40
1.0
 10
112.2772524217846
 20
3.814905306595675
 30
0.0
 10
112.8043312551231
 20
3.814905306595675
 30
0.0
 10
113.2316130726983
 20
4.242187124170913
 30
0.0
 10
113.2316130726983
 20
4.769265957508717
 30
0.0
  0
SPLINE
  5
94
330
70
100
AcDbEntity
  8
0
 62
    18
420
        0
370
    25
100
AcDbSpline
210
0.0
220
0.0
230
1.0
 70
     8
 71
     3
 72
     8
 73
     4
 74
     0
 42
0.0000000001
 43
0.0000000001
 40
0.0
 40
0.0
 40
0.0
 40
0.0
 40
1.0
 40
1.0
 40
1.0
 40
1.0
 10
113.2316130726983
 20
4.769265957508717
 30
0.0
 10
113.2316130726983
 20
5.296344790846521
 30
0.0
 10
112.8043312551231
 20
5.723626608421759
 30
0.0
 10
112.2772524217846
 20
5.723626608421759
 30
0.0
  0
LINE
  5
95
330
70
100
AcDbEntity
  8
0
 62
    18
420
        0
370
    25
100
AcDbLine
 10
58.58958765940244
 20
9.05922197508096
 30
0.0
 11
58.58958765940244
 21
9.021049002611887
 31
0.0
  0
LINE
  5
96
330
70
100
AcDbEntity
  8
0
 62
    18
420
        0
370
    25
100
AcDbLine
 10
58.55141468693368
 20
9.021049002611887
 30
0.0
 11
58.58958765940244
 21
9.021049002611887
 31
0.0
  0
SPLINE
  5
97
330
70
100
AcDbEntity
  8
0
 62
    18
420
        0
370
    25
100
AcDbSpline
210
0.0
220
0.0
230
1.0
 70
     8
 71
     3
 72
     8
 73
     4
 74
     0
 42
0.0000000001
 43
0.0000000001
 40
0.0
 40
0.0
 40
0.0
 40
0.0
 40
1.0
 40
1.0
 40
1.0
 40
1.0
 10
58.58958765939505
 20
9.059221975091226
 30
0.0
 10
58.56850608771194
 20
9.059220094854005
 30
0.0
 10
58.55141656716032
 20
9.04213057430206
 30
0.0
 10
58.55141468692373
 20
9.021049002619587
 30
0.0
  0
LINE
  5
98
330
70
100
AcDbEntity
  8
0
 62
    18
420
        0
370
    25
100
AcDbLine
 10
58.58958765940244
 20
-6.163041643947886
 30
0.0
 11
58.58958765940244
 21
-6.201214616416959
 31
0.0
  0
SPLINE
  5
99
330
70
100
AcDbEntity
  8
0
 62
    18
420
        0
370
    25
100
AcDbSpline
210
0.0
220
0.0
230
1.0
 70
     8
 71
     3
 72
     8
 73
     4
 74
     0
 42
0.0000000001
 43
0.0000000001
 40
0.0
 40
0.0
 40
0.0
 40
0.0
 40
1.0
 40
1.0
 40
1.0
 40
1.0
 10
58.55141468692341
 20
-6.163041643955587
 30
0.0
 10
58.55141656716032
 20
-6.184123215638702
 30
0.0
 10
58.56850608771194
 20
-6.201212736190004
 30
0.0
 10
58.58958765939505
 20
-6.201214616427226
 30
0.0
  0
LINE
  5
9A
330
70
100
AcDbEntity
  8
0
 62
    18
420
        0
370
    25
100
AcDbLine
 10
58.58958765940244
 20
-6.163041643947886
 30
0.0
 11
58.55141468693368
 21
-6.163041643947886
 31
0.0
  0
LINE
  5
9B
330
70
100
AcDbEntity
  8
0
 62
    18
420
        0
370
    25
100
AcDbLine
 10
58.58958765940244
 20
9.021049002611887
 30
0.0
 11
58.58958765940244
 21
-6.163041643947886
 31
0.0
  0
LINE
  5
9C
330
70
100
AcDbEntity
  8
0
 62
    18
420
        0
370
    25
100
AcDbLine
 10
67.09315374960877
 20
9.021049002611887
 30
0.0
 11
58.58958765940244
 21
9.021049002611887
 31
0.0
  0
LINE
  5
9D
330
70
100
AcDbEntity
  8
0
 62
    18
420
        0
370
    25
100
AcDbLine
 10
58.55141468693368
 20
-6.163041643947886
 30
0.0
 11
58.55141468693368
 21
9.021049002611887
 31
0.0
  0
LINE
  5
9E
330
70
100
AcDbEntity
  8
0
 62
    18
420
        0
370
    25
100
AcDbLine
 10
67.13132672207784
 20
9.021049002611887
 30
0.0
 11
67.09315374960877
 21
9.021049002611887
 31
0.0
  0
LINE
  5
9F
330
70
100
AcDbEntity
  8
0
 62
    18
420
        0
370
    25
100
AcDbLine
 10
67.09315374960877
 20
9.05922197508096
 30
0.0
 11
67.09315374960877
 21
9.021049002611887
 31
0.0
  0
SPLINE
  5
A0
330
70
100
AcDbEntity
  8
0
 62
    18
420
        0
370
    25
100
AcDbSpline
210
0.0
220
0.0
230
1.0
 70
     8
 71
     3
 72
     8
 73
     4
 74
     0
 42
0.0000000001
 43
0.0000000001
 40
0.0
 40
0.0
 40
0.0
 40
0.0
 40
1.0
 40
1.0
 40
1.0
 40
1.0
 10
67.13132672208779
 20
9.021049002619587
 30
0.0
 10
67.13132484185121
 20
9.04213057430206
 30
0.0
 10
67.11423532129959
 20
9.059220094854005
 30
0.0
 10
67.09315374961647
 20
9.059221975091226
 30
0.0
  0
LINE
  5
A1
330
70
100
AcDbEntity
  8
0
 62
    18
420
        0
370
    25
100
AcDbLine
 10
58.58958765940244
 20
9.05922197508096
 30
0.0
 11
67.09315374960877
 21
9.05922197508096
 31
0.0
  0
LINE
  5
A2
330
70
100
AcDbEntity
  8
0
 62
    18
420
        0
370
    25
100
AcDbLine
 10
67.09315374960877
 20
-6.163041643947886
 30
0.0
 11
67.09315374960877
 21
-6.201214616416959
 31
0.0
  0
LINE
  5
A3
330
70
100
AcDbEntity
  8
0
 62
    18
420
        0
370
    25
100
AcDbLine
 10
67.09315374960877
 20
-6.163041643947886
 30
0.0
 11
67.13132672207784
 21
-6.163041643947886
 31
0.0
  0
SPLINE
  5
A4
330
70
100
AcDbEntity
  8
0
 62
    18
420
        0
370
    25
100
AcDbSpline
210
0.0
220
0.0
230
1.0
 70
     8
 71
     3
 72
     8
 73
     4
 74
     0
 42
0.0000000001
 43
0.0000000001
 40
0.0
 40
0.0
 40
0.0
 40
0.0
 40
1.0
 40
1.0
 40
1.0
 40
1.0
 10
67.09315374961647
 20
-6.201214616427226
 30
0.0
 10
67.11423532129959
 20
-6.201212736190004
 30
0.0
 10
67.13132484185121
 20
-6.184123215638702
 30
0.0
 10
67.13132672208779
 20
-6.163041643955587
 30
0.0
  0
LINE
  5
A5
330
70
100
AcDbEntity
  8
0
 62
    18
420
        0
370
    25
100
AcDbLine
 10
67.13599363361462
 20
9.025715914148655
 30
0.0
 11
67.13132672207784
 21
9.021049002611887
 31
0.0
  0
LINE
  5
A6
330
70
100
AcDbEntity
  8
0
 62
    18
420
        0
370
    25
100
AcDbLine
 10
67.09315374960877
 20
9.05922197508096
 30
0.0
 11
67.09782066114586
 21
9.063888886617727
 31
0.0
  0
SPLINE
  5
A7
330
70
100
AcDbEntity
  8
0
 62
    18
420
        0
370
    25
100
AcDbSpline
210
0.0
220
0.0
230
1.0
 70
     8
 71
     3
 72
    11
 73
     7
 74
     0
 42
0.0000000001
 43
0.0000000001
 40
0.0
 40
0.0
 40
0.0
 40
0.0
 40
1.0
 40
1.0
 40
1.0
 40
2.0
 40
2.0
 40
2.0
 40
2.0
 10
67.13599363362168
 20
9.025715914153147
 30
0.0
 10
67.13599390850117
 20
9.046797989825403
 30
0.0
 10
67.11890373224959
 20
9.063888611745301
 30
0.0
 10
67.09782165657732
 20
9.063888886624786
 30
0.0
 10
67.09782132476823
 20
9.063888886628637
 30
0.0
 10
67.09782099295946
 20
9.063888886628637
 30
0.0
 10
67.09782066115035
 20
9.063888886624786
 30
0.0
  0
LINE
  5
A8
330
70
100
AcDbEntity
  8
0
 62
    18
420
        0
370
    25
100
AcDbLine
 10
67.09782066114586
 20
-6.205881527953727
 30
0.0
 11
67.09315374960877
 21
-6.201214616416959
 31
0.0
  0
LINE
  5
A9
330
70
100
AcDbEntity
  8
0
 62
    18
420
        0
370
    25
100
AcDbLine
 10
67.13132672207784
 20
-6.163041643947886
 30
0.0
 11
67.13599363361462
 21
-6.167708555485297
 31
0.0
  0
SPLINE
  5
AA
330
70
100
AcDbEntity
  8
0
 62
    18
420
        0
370
    25
100
AcDbSpline
210
0.0
220
0.0
230
1.0
 70
     8
 71
     3
 72
    11
 73
     7
 74
     0
 42
0.0000000001
 43
0.0000000001
 40
0.0
 40
0.0
 40
0.0
 40
0.0
 40
1.0
 40
1.0
 40
1.0
 40
2.0
 40
2.0
 40
2.0
 40
2.0
 10
67.09782066115035
 20
-6.205881527960785
 30
0.0
 10
67.11890273682262
 20
-6.205881802840269
 30
0.0
 10
67.1359933587422
 20
-6.188791626588695
 30
0.0
 10
67.13599363362168
 20
-6.167709550916439
 30
0.0
 10
67.13599363362617
 20
-6.167709219107342
 30
0.0
 10
67.13599363362617
 20
-6.167708887298886
 30
0.0
 10
67.13599363362168
 20
-6.167708555489146
 30
0.0
  0
LINE
  5
AB
330
70
100
AcDbEntity
  8
0
 62
    18
420
        0
370
    25
100
AcDbLine
 10
58.54674777539692
 20
-6.167708555485297
 30
0.0
 11
58.55141468693368
 21
-6.163041643947886
 31
0.0
  0
LINE
  5
AC
330
70
100
AcDbEntity
  8
0
 62
    18
420
        0
370
    25
100
AcDbLine
 10
58.58958765940244
 20
-6.201214616416959
 30
0.0
 11
58.58492074786567
 21
-6.205881527953727
 31
0.0
  0
SPLINE
  5
AD
330
70
100
AcDbEntity
  8
0
 62
    18
420
        0
370
    25
100
AcDbSpline
210
0.0
220
0.0
230
1.0
 70
     8
 71
     3
 72
    11
 73
     7
 74
     0
 42
0.0000000001
 43
0.0000000001
 40
0.0
 40
0.0
 40
0.0
 40
0.0
 40
1.0
 40
1.0
 40
1.0
 40
2.0
 40
2.0
 40
2.0
 40
2.0
 10
58.54674777538953
 20
-6.167708555489146
 30
0.0
 10
58.54674750051005
 20
-6.188790631162045
 30
0.0
 10
58.56383767676195
 20
-6.205881253081302
 30
0.0
 10
58.58491975243389
 20
-6.205881527960785
 30
0.0
 10
58.58492008424298
 20
-6.205881527965278
 30
0.0
 10
58.58492041605208
 20
-6.205881527965278
 30
0.0
 10
58.58492074786085
 20
-6.205881527960785
 30
0.0
  0
LINE
  5
AE
330
70
100
AcDbEntity
  8
0
 62
    18
420
        0
370
    25
100
AcDbLine
 10
58.58492074786567
 20
9.063888886617727
 30
0.0
 11
58.58958765940244
 21
9.05922197508096
 31
0.0
  0
LINE
  5
AF
330
70
100
AcDbEntity
  8
0
 62
    18
420
        0
370
    25
100
AcDbLine
 10
58.55141468693368
 20
9.021049002611887
 30
0.0
 11
58.54674777539692
 21
9.025715914148655
 31
0.0
  0
SPLINE
  5
B0
330
70
100
AcDbEntity
  8
0
 62
    18
420
        0
370
    25
100
AcDbSpline
210
0.0
220
0.0
230
1.0
 70
     8
 71
     3
 72
    11
 73
     7
 74
     0
 42
0.0000000001
 43
0.0000000001
 40
0.0
 40
0.0
 40
0.0
 40
0.0
 40
1.0
 40
1.0
 40
1.0
 40
2.0
 40
2.0
 40
2.0
 40
2.0
 10
58.58492074786085
 20
9.063888886624786
 30
0.0
 10
58.56383867218892
 20
9.06388916150427
 30
0.0
 10
58.54674805026903
 20
9.046798985252696
 30
0.0
 10
58.54674777538953
 20
9.02571690958044
 30
0.0
 10
58.54674777538536
 20
9.025716577771342
 30
0.0
 10
58.54674777538536
 20
9.025716245962245
 30
0.0
 10
58.54674777538953
 20
9.025715914153147
 30
0.0
  0
LINE
  5
B1
330
70
100
AcDbEntity
  8
0
 62
    18
420
        0
370
    25
100
AcDbLine
 10
67.09782066114586
 20
-6.205881527953727
 30
0.0
 11
63.12767889977965
 21
-6.205881527953727
 31
0.0
  0
LINE
  5
B2
330
70
100
AcDbEntity
  8
0
 62
    18
420
        0
370
    25
100
AcDbLine
 10
62.55506250923189
 20
-6.205881527953727
 30
0.0
 11
58.58492074786567
 21
-6.205881527953727
 31
0.0
  0
LINE
  5
B3
330
70
100
AcDbEntity
  8
0
 62
    18
420
        0
370
    25
100
AcDbLine
 10
58.54674777539692
 20
-6.167708555485297
 30
0.0
 11
58.54674777539692
 21
9.025715914148655
 31
0.0
  0
LINE
  5
B4
330
70
100
AcDbEntity
  8
0
 62
    18
420
        0
370
    25
100
AcDbLine
 10
58.58492074786567
 20
9.063888886617727
 30
0.0
 11
67.09782066114586
 21
9.063888886617727
 31
0.0
  0
LINE
  5
B5
330
70
100
AcDbEntity
  8
0
 62
    18
420
        0
370
    25
100
AcDbLine
 10
67.13599363361462
 20
9.025715914148655
 30
0.0
 11
67.13599363361462
 21
5.72362660844101
 31
0.0
  0
LINE
  5
B6
330
70
100
AcDbEntity
  8
0
 62
    18
420
        0
370
    25
100
AcDbLine
 10
67.13599363361462
 20
3.814905306634177
 30
0.0
 11
67.13599363361462
 21
-6.167708555485297
 31
0.0
  0
LINE
  5
B7
330
70
100
AcDbEntity
  8
0
 62
    18
420
        0
370
    25
100
AcDbLine
 10
116.5290354668878
 20
9.021049002611887
 30
0.0
 11
108.0254693767389
 21
9.021049002611887
 31
0.0
  0
LINE
  5
B8
330
70
100
AcDbEntity
  8
0
 62
    18
420
        0
370
    25
100
AcDbLine
 10
116.5290354668878
 20
-6.163041643947886
 30
0.0
 11
116.5290354668878
 21
9.021049002611887
 31
0.0
  0
LINE
  5
B9
330
70
100
AcDbEntity
  8
0
 62
    18
420
        0
370
    25
100
AcDbLine
 10
116.5290354668878
 20
-6.163041643947886
 30
0.0
 11
116.5672084393569
 21
-6.163041643947886
 31
0.0
  0
SPLINE
  5
BA
330
70
100
AcDbEntity
  8
0
 62
    18
420
        0
370
    25
100
AcDbSpline
210
0.0
220
0.0
230
1.0
 70
     8
 71
     3
 72
     8
 73
     4
 74
     0
 42
0.0000000001
 43
0.0000000001
 40
0.0
 40
0.0
 40
0.0
 40
0.0
 40
1.0
 40
1.0
 40
1.0
 40
1.0
 10
116.5290354668955
 20
-6.201214616427226
 30
0.0
 10
116.5501170385786
 20
-6.201212736190004
 30
0.0
 10
116.5672065591305
 20
-6.184123215638702
 30
0.0
 10
116.5672084393671
 20
-6.163041643955587
 30
0.0
  0
LINE
  5
BB
330
70
100
AcDbEntity
  8
0
 62
    18
420
        0
370
    25
100
AcDbLine
 10
116.5290354668878
 20
-6.163041643947886
 30
0.0
 11
116.5290354668878
 21
-6.201214616416959
 31
0.0
  0
LINE
  5
BC
330
70
100
AcDbEntity
  8
0
 62
    18
420
        0
370
    25
100
AcDbLine
 10
108.0254693767389
 20
-6.163041643947886
 30
0.0
 11
107.9872964042701
 21
-6.163041643947886
 31
0.0
  0
LINE
  5
BD
330
70
100
AcDbEntity
  8
0
 62
    18
420
        0
370
    25
100
AcDbLine
 10
107.9872964042701
 20
9.021049002611887
 30
0.0
 11
108.0254693767389
 21
9.021049002611887
 31
0.0
  0
LINE
  5
BE
330
70
100
AcDbEntity
  8
0
 62
    18
420
        0
370
    25
100
AcDbLine
 10
108.0254693767389
 20
9.05922197508096
 30
0.0
 11
108.0254693767389
 21
9.021049002611887
 31
0.0
  0
SPLINE
  5
BF
330
70
100
AcDbEntity
  8
0
 62
    18
420
        0
370
    25
100
AcDbSpline
210
0.0
220
0.0
230
1.0
 70
     8
 71
     3
 72
     8
 73
     4
 74
     0
 42
0.0000000001
 43
0.0000000001
 40
0.0
 40
0.0
 40
0.0
 40
0.0
 40
1.0
 40
1.0
 40
1.0
 40
1.0
 10
108.0254693767315
 20
9.059221975090585
 30
0.0
 10
108.0043878050484
 20
9.059220094854005
 30
0.0
 10
107.9872982844968
 20
9.04213057430206
 30
0.0
 10
107.9872964042602
 20
9.021049002619587
 30
0.0
  0
LINE
  5
C0
330
70
100
AcDbEntity
  8
0
 62
    18
420
        0
370
    25
100
AcDbLine
 10
108.0254693767389
 20
-6.163041643947886
 30
0.0
 11
108.0254693767389
 21
-6.201214616416959
 31
0.0
  0
SPLINE
  5
C1
330
70
100
AcDbEntity
  8
0
 62
    18
420
        0
370
    25
100
AcDbSpline
210
0.0
220
0.0
230
1.0
 70
     8
 71
     3
 72
     8
 73
     4
 74
     0
 42
0.0000000001
 43
0.0000000001
 40
0.0
 40
0.0
 40
0.0
 40
0.0
 40
1.0
 40
1.0
 40
1.0
 40
1.0
 10
107.9872964042602
 20
-6.163041643955587
 30
0.0
 10
107.9872982844968
 20
-6.184123215638702
 30
0.0
 10
108.0043878050484
 20
-6.201212736190004
 30
0.0
 10
108.0254693767315
 20
-6.201214616427226
 30
0.0
  0
LINE
  5
C2
330
70
100
AcDbEntity
  8
0
 62
    18
420
        0
370
    25
100
AcDbLine
 10
108.0254693767389
 20
9.05922197508096
 30
0.0
 11
116.5290354668878
 21
9.05922197508096
 31
0.0
  0
LINE
  5
C3
330
70
100
AcDbEntity
  8
0
 62
    18
420
        0
370
    25
100
AcDbLine
 10
116.5290354668878
 20
9.05922197508096
 30
0.0
 11
116.5290354668878
 21
9.021049002611887
 31
0.0
  0
LINE
  5
C4
330
70
100
AcDbEntity
  8
0
 62
    18
420
        0
370
    25
100
AcDbLine
 10
116.5672084393569
 20
9.021049002611887
 30
0.0
 11
116.5290354668878
 21
9.021049002611887
 31
0.0
  0
SPLINE
  5
C5
330
70
100
AcDbEntity
  8
0
 62
    18
420
        0
370
    25
100
AcDbSpline
210
0.0
220
0.0
230
1.0
 70
     8
 71
     3
 72
     8
 73
     4
 74
     0
 42
0.0000000001
 43
0.0000000001
 40
0.0
 40
0.0
 40
0.0
 40
0.0
 40
1.0
 40
1.0
 40
1.0
 40
1.0
 10
116.5672084393671
 20
9.021049002619587
 30
0.0
 10
116.5672065591305
 20
9.04213057430206
 30
0.0
 10
116.5501170385786
 20
9.059220094854005
 30
0.0
 10
116.5290354668955
 20
9.059221975090585
 30
0.0
  0
LINE
  5
C6
330
70
100
AcDbEntity
  8
0
 62
    18
420
        0
370
    25
100
AcDbLine
 10
116.5672084393569
 20
9.021049002611887
 30
0.0
 11
116.5672084393569
 21
-6.163041643947886
 31
0.0
  0
LINE
  5
C7
330
70
100
AcDbEntity
  8
0
 62
    18
420
        0
370
    25
100
AcDbLine
 10
116.5718753508936
 20
9.025715914148655
 30
0.0
 11
116.5672084393569
 21
9.021049002611887
 31
0.0
  0
LINE
  5
C8
330
70
100
AcDbEntity
  8
0
 62
    18
420
        0
370
    25
100
AcDbLine
 10
116.5290354668878
 20
9.05922197508096
 30
0.0
 11
116.5337023784252
 21
9.063888886617727
 31
0.0
  0
SPLINE
  5
C9
330
70
100
AcDbEntity
  8
0
 62
    18
420
        0
370
    25
100
AcDbSpline
210
0.0
220
0.0
230
1.0
 70
     8
 71
     3
 72
    11
 73
     7
 74
     0
 42
0.0000000001
 43
0.0000000001
 40
0.0
 40
0.0
 40
0.0
 40
0.0
 40
1.0
 40
1.0
 40
1.0
 40
2.0
 40
2.0
 40
2.0
 40
2.0
 10
116.5718753509007
 20
9.025715914153147
 30
0.0
 10
116.5718756257808
 20
9.046797989825403
 30
0.0
 10
116.5547854495286
 20
9.063888611745301
 30
0.0
 10
116.5337033738563
 20
9.063888886624786
 30
0.0
 10
116.5337030420472
 20
9.063888886628637
 30
0.0
 10
116.5337027102388
 20
9.063888886628637
 30
0.0
 10
116.5337023784297
 20
9.063888886624786
 30
0.0
  0
LINE
  5
CA
330
70
100
AcDbEntity
  8
0
 62
    18
420
        0
370
    25
100
AcDbLine
 10
116.5337023784252
 20
-6.205881527953727
 30
0.0
 11
116.5290354668878
 21
-6.201214616416959
 31
0.0
  0
LINE
  5
CB
330
70
100
AcDbEntity
  8
0
 62
    18
420
        0
370
    25
100
AcDbLine
 10
116.5672084393569
 20
-6.163041643947886
 30
0.0
 11
116.5718753508936
 21
-6.167708555485297
 31
0.0
  0
SPLINE
  5
CC
330
70
100
AcDbEntity
  8
0
 62
    18
420
        0
370
    25
100
AcDbSpline
210
0.0
220
0.0
230
1.0
 70
     8
 71
     3
 72
    11
 73
     7
 74
     0
 42
0.0000000001
 43
0.0000000001
 40
0.0
 40
0.0
 40
0.0
 40
0.0
 40
1.0
 40
1.0
 40
1.0
 40
2.0
 40
2.0
 40
2.0
 40
2.0
 10
116.5337023784297
 20
-6.205881527960785
 30
0.0
 10
116.5547844541019
 20
-6.205881802840269
 30
0.0
 10
116.5718750760212
 20
-6.188791626588695
 30
0.0
 10
116.5718753509007
 20
-6.167709550916439
 30
0.0
 10
116.5718753509052
 20
-6.167709219107342
 30
0.0
 10
116.5718753509052
 20
-6.167708887298886
 30
0.0
 10
116.5718753509007
 20
-6.167708555489146
 30
0.0
  0
LINE
  5
CD
330
70
100
AcDbEntity
  8
0
 62
    18
420
        0
370
    25
100
AcDbLine
 10
108.020802465145
 20
9.063888886617727
 30
0.0
 11
108.0254693767389
 21
9.05922197508096
 31
0.0
  0
LINE
  5
CE
330
70
100
AcDbEntity
  8
0
 62
    18
420
        0
370
    25
100
AcDbLine
 10
107.9872964042701
 20
9.021049002611887
 30
0.0
 11
107.9826294926759
 21
9.025715914148655
 31
0.0
  0
SPLINE
  5
CF
330
70
100
AcDbEntity
  8
0
 62
    18
420
        0
370
    25
100
AcDbSpline
210
0.0
220
0.0
230
1.0
 70
     8
 71
     3
 72
    11
 73
     7
 74
     0
 42
0.0000000001
 43
0.0000000001
 40
0.0
 40
0.0
 40
0.0
 40
0.0
 40
1.0
 40
1.0
 40
1.0
 40
2.0
 40
2.0
 40
2.0
 40
2.0
 10
108.0208024651402
 20
9.063888886624786
 30
0.0
 10
107.9997203894683
 20
9.06388916150427
 30
0.0
 10
107.9826297675483
 20
9.046798985252696
 30
0.0
 10
107.9826294926689
 20
9.02571690958044
 30
0.0
 10
107.9826294926647
 20
9.025716577771342
 30
0.0
 10
107.9826294926647
 20
9.025716245962245
 30
0.0
 10
107.9826294926689
 20
9.025715914153147
 30
0.0
  0
LINE
  5
D0
330
70
100
AcDbEntity
  8
0
 62
    18
420
        0
370
    25
100
AcDbLine
 10
107.9826294926759
 20
-6.167708555485297
 30
0.0
 11
107.9872964042701
 21
-6.163041643947886
 31
0.0
  0
LINE
  5
D1
330
70
100
AcDbEntity
  8
0
 62
    18
420
        0
370
    25
100
AcDbLine
 10
108.0254693767389
 20
-6.201214616416959
 30
0.0
 11
108.020802465145
 21
-6.205881527953727
 31
0.0
  0
SPLINE
  5
D2
330
70
100
AcDbEntity
  8
0
 62
    18
420
        0
370
    25
100
AcDbSpline
210
0.0
220
0.0
230
1.0
 70
     8
 71
     3
 72
    11
 73
     7
 74
     0
 42
0.0000000001
 43
0.0000000001
 40
0.0
 40
0.0
 40
0.0
 40
0.0
 40
1.0
 40
1.0
 40
1.0
 40
2.0
 40
2.0
 40
2.0
 40
2.0
 10
107.9826294926689
 20
-6.167708555489146
 30
0.0
 10
107.9826292177894
 20
-6.188790631162045
 30
0.0
 10
107.9997193940413
 20
-6.205881253081302
 30
0.0
 10
108.0208014697132
 20
-6.205881527960785
 30
0.0
 10
108.0208018015223
 20
-6.205881527965278
 30
0.0
 10
108.0208021333311
 20
-6.205881527965278
 30
0.0
 10
108.0208024651402
 20
-6.205881527960785
 30
0.0
  0
LINE
  5
D3
330
70
100
AcDbEntity
  8
0
 62
    18
420
        0
370
    25
100
AcDbLine
 10
107.9826294926759
 20
-6.167708555485297
 30
0.0
 11
107.9826294926759
 21
3.814905306634177
 31
0.0
  0
LINE
  5
D4
330
70
100
AcDbEntity
  8
0
 62
    18
420
        0
370
    25
100
AcDbLine
 10
107.9826294926759
 20
5.72362660844101
 30
0.0
 11
107.9826294926759
 21
9.025715914148655
 31
0.0
  0
LINE
  5
D5
330
70
100
AcDbEntity
  8
0
 62
    18
420
        0
370
    25
100
AcDbLine
 10
108.020802465145
 20
9.063888886617727
 30
0.0
 11
116.5337023784252
 21
9.063888886617727
 31
0.0
  0
LINE
  5
D6
330
70
100
AcDbEntity
  8
0
 62
    18
420
        0
370
    25
100
AcDbLine
 10
116.5718753508936
 20
9.025715914148655
 30
0.0
 11
116.5718753508936
 21
-6.167708555485297
 31
0.0
  0
LINE
  5
D7
330
70
100
AcDbEntity
  8
0
 62
    18
420
        0
370
    25
100
AcDbLine
 10
116.5337023784252
 20
-6.205881527953727
 30
0.0
 11
112.563560617059
 21
-6.205881527953727
 31
0.0
  0
LINE
  5
D8
330
70
100
AcDbEntity
  8
0
 62
    18
420
        0
370
    25
100
AcDbLine
 10
111.9909442265109
 20
-6.205881527953727
 30
0.0
 11
108.020802465145
 21
-6.205881527953727
 31
0.0
  0
LINE
  5
D9
330
70
100
AcDbEntity
  8
0
 62
     8
420
  8421504
370
    25
100
AcDbLine
 10
101.1112328061018
 20
-4.106288095983023
 30
0.0
 11
101.1112328061018
 21
-3.533671705435582
 31
0.0
  0
LINE
  5
DA
330
70
100
AcDbEntity
  8
0
 62
     8
420
  8421504
370
    25
100
AcDbLine
 10
74.00739032018903
 20
-4.106288095983023
 30
0.0
 11
74.00739032018903
 21
-3.533671705435582
 31
0.0
  0
LINE
  5
DB
330
70
100
AcDbEntity
  8
0
 62
     8
420
  8421504
370
    25
100
AcDbLine
 10
72.3849772136556
 20
-2.483874989392798
 30
0.0
 11
72.95759360420368
 21
-2.483874989392798
 31
0.0
  0
LINE
  5
DC
330
70
100
AcDbEntity
  8
0
 62
     8
420
  8421504
370
    25
100
AcDbLine
 10
102.733645912692
 20
-2.483874989392798
 30
0.0
 11
102.1610295221443
 21
-2.483874989392798
 31
0.0
  0
LINE
  5
DD
330
70
100
AcDbEntity
  8
0
 62
     8
420
  8421504
370
    25
100
AcDbLine
 10
64.17747561576501
 20
-10.11876019673564
 30
0.0
 11
64.17747561576501
 21
-9.546143806188197
 31
0.0
  0
LINE
  5
DE
330
70
100
AcDbEntity
  8
0
 62
     8
420
  8421504
370
    25
100
AcDbLine
 10
62.55506250923189
 20
-8.496347090145413
 30
0.0
 11
63.12767889977965
 21
-8.496347090145413
 31
0.0
  0
LINE
  5
DF
330
70
100
AcDbEntity
  8
0
 62
     8
420
  8421504
370
    25
100
AcDbLine
 10
110.9411475105259
 20
-10.11876019673564
 30
0.0
 11
110.9411475105259
 21
-9.546143806188197
 31
0.0
  0
LINE
  5
E0
330
70
100
AcDbEntity
  8
0
 62
     8
420
  8421504
370
    25
100
AcDbLine
 10
112.563560617059
 20
-8.496347090145413
 30
0.0
 11
111.9909442265109
 21
-8.496347090145413
 31
0.0
  0
LINE
  5
E1
330
70
100
AcDbEntity
  8
0
 62
     8
420
  8421504
370
    25
100
AcDbLine
 10
67.09315374960877
 20
-6.163041643947886
 30
0.0
 11
67.09315374960877
 21
3.814905306634177
 31
0.0
  0
LINE
  5
E2
330
70
100
AcDbEntity
  8
0
 62
     8
420
  8421504
370
    25
100
AcDbLine
 10
67.09315374960877
 20
5.72362660844101
 30
0.0
 11
67.09315374960877
 21
9.021049002611887
 31
0.0
  0
LINE
  5
E3
330
70
100
AcDbEntity
  8
0
 62
     8
420
  8421504
370
    25
100
AcDbLine
 10
58.58958765940244
 20
-6.163041643947886
 30
0.0
 11
62.55506250923189
 21
-6.163041643947886
 31
0.0
  0
LINE
  5
E4
330
70
100
AcDbEntity
  8
0
 62
     8
420
  8421504
370
    25
100
AcDbLine
 10
63.12767889977965
 20
-6.163041643947886
 30
0.0
 11
67.09315374960877
 21
-6.163041643947886
 31
0.0
  0
LINE
  5
E5
330
70
100
AcDbEntity
  8
0
 62
     8
420
  8421504
370
    25
100
AcDbLine
 10
67.09315374960877
 20
-6.201214616416959
 30
0.0
 11
63.12767889977965
 21
-6.201214616416959
 31
0.0
  0
LINE
  5
E6
330
70
100
AcDbEntity
  8
0
 62
     8
420
  8421504
370
    25
100
AcDbLine
 10
62.55506250923189
 20
-6.201214616416959
 30
0.0
 11
58.58958765940244
 21
-6.201214616416959
 31
0.0
  0
LINE
  5
E7
330
70
100
AcDbEntity
  8
0
 62
     8
420
  8421504
370
    25
100
AcDbLine
 10
67.13132672207784
 20
9.021049002611887
 30
0.0
 11
67.13132672207784
 21
5.72362660844101
 31
0.0
  0
LINE
  5
E8
330
70
100
AcDbEntity
  8
0
 62
     8
420
  8421504
370
    25
100
AcDbLine
 10
67.13132672207784
 20
3.814905306634177
 30
0.0
 11
67.13132672207784
 21
-6.163041643947886
 31
0.0
  0
LINE
  5
E9
330
70
100
AcDbEntity
  8
0
 62
     8
420
  8421504
370
    25
100
AcDbLine
 10
108.0254693767389
 20
9.021049002611887
 30
0.0
 11
108.0254693767389
 21
5.72362660844101
 31
0.0
  0
LINE
  5
EA
330
70
100
AcDbEntity
  8
0
 62
     8
420
  8421504
370
    25
100
AcDbLine
 10
108.0254693767389
 20
3.814905306634177
 30
0.0
 11
108.0254693767389
 21
-6.163041643947886
 31
0.0
  0
LINE
  5
EB
330
70
100
AcDbEntity
  8
0
 62
     8
420
  8421504
370
    25
100
AcDbLine
 10
108.0254693767389
 20
-6.163041643947886
 30
0.0
 11
111.9909442265109
 21
-6.163041643947886
 31
0.0
  0
LINE
  5
EC
330
70
100
AcDbEntity
  8
0
 62
     8
420
  8421504
370
    25
100
AcDbLine
 10
112.563560617059
 20
-6.163041643947886
 30
0.0
 11
116.5290354668878
 21
-6.163041643947886
 31
0.0
  0
LINE
  5
ED
330
70
100
AcDbEntity
  8
0
 62
     8
420
  8421504
370
    25
100
AcDbLine
 10
107.9872964042701
 20
-6.163041643947886
 30
0.0
 11
107.9872964042701
 21
3.814905306634177
 31
0.0
  0
LINE
  5
EE
330
70
100
AcDbEntity
  8
0
 62
     8
420
  8421504
370
    25
100
AcDbLine
 10
107.9872964042701
 20
5.72362660844101
 30
0.0
 11
107.9872964042701
 21
9.021049002611887
 31
0.0
  0
LINE
  5
EF
330
70
100
AcDbEntity
  8
0
 62
     8
420
  8421504
370
    25
100
AcDbLine
 10
116.5290354668878
 20
-6.201214616416959
 30
0.0
 11
112.563560617059
 21
-6.201214616416959
 31
0.0
  0
LINE
  5
F0
330
70
100
AcDbEntity
  8
0
 62
     8
420
  8421504
370
    25
100
AcDbLine
 10
111.9909442265109
 20
-6.201214616416959
 30
0.0
 11
108.0254693767389
 21
-6.201214616416959
 31
0.0
  0
LINE
  5
F1
330
70
100
AcDbEntity
  8
0
 62
    18
420
        0
370
    25
100
AcDbLine
 10
154.4255713979454
 20
3.814905306634177
 30
0.0
 11
158.72344702596
 21
3.814905306634177
 31
0.0
  0
LINE
  5
F2
330
70
100
AcDbEntity
  8
0
 62
    18
420
        0
370
    25
100
AcDbLine
 10
150.2263845339468
 20
3.814905306634177
 30
0.0
 11
153.8584793602149
 21
3.814905306634177
 31
0.0
  0
LINE
  5
F3
330
70
100
AcDbEntity
  8
0
 62
    18
420
        0
370
    25
100
AcDbLine
 10
146.0271976698912
 20
3.814905306634177
 30
0.0
 11
149.6592924961592
 21
3.814905306634177
 31
0.0
  0
LINE
  5
F4
330
70
100
AcDbEntity
  8
0
 62
    18
420
        0
370
    25
100
AcDbLine
 10
141.8280108058927
 20
3.814905306634177
 30
0.0
 11
145.4601056321607
 21
3.814905306634177
 31
0.0
  0
LINE
  5
F5
330
70
100
AcDbEntity
  8
0
 62
    18
420
        0
370
    25
100
AcDbLine
 10
137.7275127058532
 20
3.814905306634177
 30
0.0
 11
141.2609187681615
 21
3.814905306634177
 31
0.0
  0
LINE
  5
F6
330
70
100
AcDbEntity
  8
0
 62
    18
420
        0
370
    25
100
AcDbLine
 10
158.72344702596
 20
5.72362660844101
 30
0.0
 11
137.7275127058532
 21
5.72362660844101
 31
0.0
  0
LINE
  5
F7
330
70
100
AcDbEntity
  8
0
 62
    18
420
        0
370
    25
100
AcDbLine
 10
141.2586471142509
 20
-8.496347090145413
 30
0.0
 11
141.2586471142509
 21
-9.832452001461275
 31
0.0
  0
LINE
  5
F8
330
70
100
AcDbEntity
  8
0
 62
    18
420
        0
370
    25
100
AcDbLine
 10
141.8312635047983
 20
-9.832452001461275
 30
0.0
 11
141.8312635047983
 21
-8.496347090145413
 31
0.0
  0
LINE
  5
F9
330
70
100
AcDbEntity
  8
0
 62
    18
420
        0
370
    25
100
AcDbLine
 10
141.2586471142509
 20
3.81557087131947
 30
0.0
 11
141.2586471142509
 21
-8.496347090145413
 31
0.0
  0
LINE
  5
FA
330
70
100
AcDbEntity
  8
0
 62
    18
420
        0
370
    25
100
AcDbLine
 10
141.8312635047983
 20
-8.496347090145413
 30
0.0
 11
141.8312635047983
 21
3.815866792082814
 31
0.0
  0
LINE
  5
FB
330
70
100
AcDbEntity
  8
0
 62
    18
420
        0
370
    25
100
AcDbLine
 10
145.4578339782494
 20
-8.496347090145413
 30
0.0
 11
145.4578339782494
 21
-9.832452001461275
 31
0.0
  0
LINE
  5
FC
330
70
100
AcDbEntity
  8
0
 62
    18
420
        0
370
    25
100
AcDbLine
 10
146.0304503687968
 20
-9.832452001461275
 30
0.0
 11
146.0304503687968
 21
-8.496347090145413
 31
0.0
  0
LINE
  5
FD
330
70
100
AcDbEntity
  8
0
 62
    18
420
        0
370
    25
100
AcDbLine
 10
145.4578339782494
 20
3.81557087131947
 30
0.0
 11
145.4578339782494
 21
-8.496347090145413
 31
0.0
  0
LINE
  5
FE
330
70
100
AcDbEntity
  8
0
 62
    18
420
        0
370
    25
100
AcDbLine
 10
146.0304503687968
 20
-8.496347090145413
 30
0.0
 11
146.0304503687968
 21
3.815866792082814
 31
0.0
  0
LINE
  5
FF
330
70
100
AcDbEntity
  8
0
 62
    18
420
        0
370
    25
100
AcDbLine
 10
149.6570208422479
 20
-8.496347090145413
 30
0.0
 11
149.6570208422479
 21
-9.832452001461275
 31
0.0
  0
LINE
  5
100
330
70
100
AcDbEntity
  8
0
 62
    18
420
        0
370
    25
100
AcDbLine
 10
150.2296372327953
 20
-9.832452001461275
 30
0.0
 11
150.2296372327953
 21
-8.496347090145413
 31
0.0
  0
LINE
  5
101
330
70
100
AcDbEntity
  8
0
 62
    18
420
        0
370
    25
100
AcDbLine
 10
149.6570208422479
 20
3.81557087131947
 30
0.0
 11
149.6570208422479
 21
-8.496347090145413
 31
0.0
  0
LINE
  5
102
330
70
100
AcDbEntity
  8
0
 62
    18
420
        0
370
    25
100
AcDbLine
 10
150.2296372327953
 20
-8.496347090145413
 30
0.0
 11
150.2296372327953
 21
3.815866792082814
 31
0.0
  0
LINE
  5
103
330
70
100
AcDbEntity
  8
0
 62
    18
420
        0
370
    25
100
AcDbLine
 10
153.8562077063035
 20
3.81557087131947
 30
0.0
 11
153.8562077063035
 21
-8.496347090145413
 31
0.0
  0
LINE
  5
104
330
70
100
AcDbEntity
  8
0
 62
    18
420
        0
370
    25
100
AcDbLine
 10
154.4288240968516
 20
-8.496347090145413
 30
0.0
 11
154.4288240968516
 21
3.815866792082814
 31
0.0
  0
LINE
  5
105
330
70
100
AcDbEntity
  8
0
 62
    18
420
        0
370
    25
100
AcDbLine
 10
153.8562077063035
 20
-8.496347090145413
 30
0.0
 11
153.8562077063035
 21
-9.832452001461275
 31
0.0
  0
LINE
  5
106
330
70
100
AcDbEntity
  8
0
 62
    18
420
        0
370
    25
100
AcDbLine
 10
154.4288240968516
 20
-9.832452001461275
 30
0.0
 11
154.4288240968516
 21
-8.496347090145413
 31
0.0
  0
LINE
  5
107
330
70
100
AcDbEntity
  8
0
 62
    18
420
        0
370
    25
100
AcDbLine
 10
158.4371388306863
 20
-2.483874989392798
 30
0.0
 11
158.4371388306863
 21
-3.819979900709303
 31
0.0
  0
LINE
  5
108
330
70
100
AcDbEntity
  8
0
 62
    18
420
        0
370
    25
100
AcDbLine
 10
159.0097552212343
 20
-3.819979900709303
 30
0.0
 11
159.0097552212343
 21
-2.483874989392798
 31
0.0
  0
LINE
  5
109
330
70
100
AcDbEntity
  8
0
 62
    18
420
        0
370
    25
100
AcDbLine
 10
158.4371388306863
 20
3.814905306634177
 30
0.0
 11
158.4371388306863
 21
-2.483874989392798
 31
0.0
  0
LINE
  5
10A
330
70
100
AcDbEntity
  8
0
 62
    18
420
        0
370
    25
100
AcDbLine
 10
159.0097552212343
 20
-2.483874989392798
 30
0.0
 11
159.0097552212343
 21
3.858793253511514
 31
0.0
  0
LWPOLYLINE
  5
10B
330
70
100
AcDbEntity
  8
0
 62
    18
420
        0
370
    25
100
AcDbPolyline
 90
       20
 70
     0
 43
0.0
 10
158.72344702596
 20
3.814905306634177
 10
158.8891700138024
 20
3.829404189331407
 10
159.0498575925648
 20
3.87246029632094
 10
159.2006273513976
 20
3.942765389488228
 10
159.3368982275331
 20
4.038183284163372
 10
159.4545296993054
 20
4.155814755935562
 10
159.5499475939811
 20
4.292085632071126
 10
159.6202526872049
 20
4.44285539090392
 10
159.6633087941373
 20
4.603542969666285
 10
159.6778076768352
 20
4.769265957508717
 10
159.6633087941373
 20
4.934988945408261
 10
159.6202526872049
 20
5.095676524112873
 10
159.5499475939811
 20
5.246446283003419
 10
159.4545296993054
 20
5.382717159081872
 10
159.3368982275331
 20
5.500348630911172
 10
159.2006273513976
 20
5.595766525586959
 10
159.0498575925648
 20
5.666071618753606
 10
158.8891700138024
 20
5.709127725743138
 10
158.72344702596
 20
5.72362660844101
 10
158.72344702596
 20
5.72362660844101
  0
LWPOLYLINE
  5
10C
330
70
100
AcDbEntity
  8
0
 62
    18
420
        0
370
    25
100
AcDbPolyline
 90
       12
 70
     0
 43
0.0
 10
141.8280108058927
 20
3.815871403935308
 10
141.8299791607062
 20
3.815289823063323
 10
141.8066145452419
 20
3.82200811249178
 10
141.7558220836076
 20
3.834762524795261
 10
141.6798990610537
 20
3.848917281533685
 10
141.5872710244948
 20
3.857881028360436
 10
141.4929721446148
 20
3.85738103123762
 10
141.4068347836708
 20
3.848446133168062
 10
141.3334842413972
 20
3.834625982985331
 10
141.2811607789833
 20
3.821416062416755
 10
141.2591454322905
 20
3.815054683640274
 10
141.2609187681615
 20
3.815577557589241
  0
LWPOLYLINE
  5
10D
330
70
100
AcDbEntity
  8
0
 62
    18
420
        0
370
    25
100
AcDbPolyline
 90
       12
 70
     0
 43
0.0
 10
146.0271976698912
 20
3.815871403935308
 10
146.0291660247618
 20
3.815289823063323
 10
146.0058014092405
 20
3.82200811249178
 10
145.9550089476632
 20
3.834762524795261
 10
145.8790859251093
 20
3.848917281533685
 10
145.7864578885505
 20
3.857881028360436
 10
145.6921590086133
 20
3.85738103123762
 10
145.6060216477271
 20
3.848446133168062
 10
145.5326711054529
 20
3.834625982985331
 10
145.4803476429819
 20
3.821416062416755
 10
145.4583322963461
 20
3.815054683640274
 10
145.4601056321607
 20
3.815577557589241
  0
LWPOLYLINE
  5
10E
330
70
100
AcDbEntity
  8
0
 62
    18
420
        0
370
    25
100
AcDbPolyline
 90
       12
 70
     0
 43
0.0
 10
150.2263845339468
 20
3.815871403935308
 10
150.2283528887604
 20
3.815289823063323
 10
150.2049882732967
 20
3.82200811249178
 10
150.1541958116618
 20
3.834762524795261
 10
150.0782727891079
 20
3.848917281533685
 10
149.985644752549
 20
3.857881028360436
 10
149.8913458726689
 20
3.85738103123762
 10
149.8052085117256
 20
3.848446133168062
 10
149.7318579694514
 20
3.834625982985331
 10
149.6795345070381
 20
3.821416062416755
 10
149.6575191603447
 20
3.815054683640274
 10
149.6592924961592
 20
3.815577557589241
  0
LWPOLYLINE
  5
10F
330
70
100
AcDbEntity
  8
0
 62
    18
420
        0
370
    25
100
AcDbPolyline
 90
       12
 70
     0
 43
0.0
 10
154.4255713979454
 20
3.815871403935308
 10
154.4275397527589
 20
3.815289823063323
 10
154.4041751372953
 20
3.82200811249178
 10
154.3533826756603
 20
3.834762524795261
 10
154.2774596531064
 20
3.848917281533685
 10
154.1848316165475
 20
3.857881028360436
 10
154.0905327366674
 20
3.85738103123762
 10
154.0043953757241
 20
3.848446133168062
 10
153.9310448334499
 20
3.834625982985331
 10
153.8787213710367
 20
3.821416062416755
 10
153.8567060243432
 20
3.815054683640274
 10
153.8584793602149
 20
3.815577557589241
  0
SPLINE
  5
110
330
70
100
AcDbEntity
  8
0
 62
    18
420
        0
370
    25
100
AcDbSpline
210
0.0
220
0.0
230
1.0
 70
     8
 71
     3
 72
    11
 73
     7
 74
     0
 42
0.0000000001
 43
0.0000000001
 40
0.0
 40
0.0
 40
0.0
 40
0.0
 40
1.0
 40
1.0
 40
1.0
 40
2.0
 40
2.0
 40
2.0
 40
2.0
 10
141.2586471142509
 20
-9.832452001461275
 30
0.0
 10
141.2586471142509
 20
-9.990575651462808
 30
0.0
 10
141.3868316595231
 20
-10.11876019673564
 30
0.0
 10
141.5449553095246
 20
-10.11876019673564
 30
0.0
 10
141.7030789595261
 20
-10.11876019673564
 30
0.0
 10
141.8312635047983
 20
-9.990575651462808
 30
0.0
 10
141.8312635047983
 20
-9.832452001461275
 30
0.0
  0
SPLINE
  5
111
330
70
100
AcDbEntity
  8
0
 62
    18
420
        0
370
    25
100
AcDbSpline
210
0.0
220
0.0
230
1.0
 70
     8
 71
     3
 72
    11
 73
     7
 74
     0
 42
0.0000000001
 43
0.0000000001
 40
0.0
 40
0.0
 40
0.0
 40
0.0
 40
1.0
 40
1.0
 40
1.0
 40
2.0
 40
2.0
 40
2.0
 40
2.0
 10
145.4578339782494
 20
-9.832452001461275
 30
0.0
 10
145.4578339782494
 20
-9.990575651462808
 30
0.0
 10
145.5860185235216
 20
-10.11876019673564
 30
0.0
 10
145.7441421735231
 20
-10.11876019673564
 30
0.0
 10
145.9022658235246
 20
-10.11876019673564
 30
0.0
 10
146.0304503687968
 20
-9.990575651462808
 30
0.0
 10
146.0304503687968
 20
-9.832452001461275
 30
0.0
  0
SPLINE
  5
112
330
70
100
AcDbEntity
  8
0
 62
    18
420
        0
370
    25
100
AcDbSpline
210
0.0
220
0.0
230
1.0
 70
     8
 71
     3
 72
    11
 73
     7
 74
     0
 42
0.0000000001
 43
0.0000000001
 40
0.0
 40
0.0
 40
0.0
 40
0.0
 40
1.0
 40
1.0
 40
1.0
 40
2.0
 40
2.0
 40
2.0
 40
2.0
 10
149.6570208422479
 20
-9.832452001461275
 30
0.0
 10
149.6570208422479
 20
-9.990575651462808
 30
0.0
 10
149.7852053875201
 20
-10.11876019673564
 30
0.0
 10
149.9433290375216
 20
-10.11876019673564
 30
0.0
 10
150.1014526875232
 20
-10.11876019673564
 30
0.0
 10
150.2296372327953
 20
-9.990575651462808
 30
0.0
 10
150.2296372327953
 20
-9.832452001461275
 30
0.0
  0
SPLINE
  5
113
330
70
100
AcDbEntity
  8
0
 62
    18
420
        0
370
    25
100
AcDbSpline
210
0.0
220
0.0
230
1.0
 70
     8
 71
     3
 72
    11
 73
     7
 74
     0
 42
0.0000000001
 43
0.0000000001
 40
0.0
 40
0.0
 40
0.0
 40
0.0
 40
1.0
 40
1.0
 40
1.0
 40
2.0
 40
2.0
 40
2.0
 40
2.0
 10
153.8562077063035
 20
-9.832452001461275
 30
0.0
 10
153.8562077063035
 20
-9.990575651462808
 30
0.0
 10
153.9843922515757
 20
-10.11876019673564
 30
0.0
 10
154.1425159015773
 20
-10.11876019673564
 30
0.0
 10
154.3006395515788
 20
-10.11876019673564
 30
0.0
 10
154.428824096851
 20
-9.990575651462808
 30
0.0
 10
154.428824096851
 20
-9.832452001461275
 30
0.0
  0
SPLINE
  5
114
330
70
100
AcDbEntity
  8
0
 62
    18
420
        0
370
    25
100
AcDbSpline
210
0.0
220
0.0
230
1.0
 70
     8
 71
     3
 72
    11
 73
     7
 74
     0
 42
0.0000000001
 43
0.0000000001
 40
0.0
 40
0.0
 40
0.0
 40
0.0
 40
1.0
 40
1.0
 40
1.0
 40
2.0
 40
2.0
 40
2.0
 40
2.0
 10
158.4371388306863
 20
-3.819979900709303
 30
0.0
 10
158.4371388306863
 20
-3.978103550710195
 30
0.0
 10
158.5653233759591
 20
-4.106288095983023
 30
0.0
 10
158.72344702596
 20
-4.106288095983023
 30
0.0
 10
158.8815706759615
 20
-4.106288095983023
 30
0.0
 10
159.0097552212343
 20
-3.978103550710195
 30
0.0
 10
159.0097552212343
 20
-3.819979900709303
 30
0.0
  0
LINE
  5
115
330
70
100
AcDbEntity
  8
0
 62
    18
420
        0
370
    25
100
AcDbLine
 10
137.1548963153051
 20
-6.167708555485297
 30
0.0
 11
137.6896714103199
 21
-6.163041643947886
 31
0.0
  0
SPLINE
  5
116
330
70
100
AcDbEntity
  8
0
 62
    18
420
        0
370
    25
100
AcDbSpline
210
0.0
220
0.0
230
1.0
 70
     8
 71
     3
 72
     8
 73
     4
 74
     0
 42
0.0000000001
 43
0.0000000001
 40
0.0
 40
0.0
 40
0.0
 40
0.0
 40
1.0
 40
1.0
 40
1.0
 40
1.0
 10
137.6896714102968
 20
-6.2012146164176
 30
0.0
 10
137.6898934523486
 20
-6.188491260930756
 30
0.0
 10
137.6898934523486
 20
-6.175764999434732
 30
0.0
 10
137.6896714102968
 20
-6.163041643947886
 30
0.0
  0
LINE
  5
117
330
70
100
AcDbEntity
  8
0
 62
    18
420
        0
370
    25
100
AcDbLine
 10
137.6896714103199
 20
-6.201214616416959
 30
0.0
 11
137.1548963153051
 21
-6.205881527953727
 31
0.0
  0
LINE
  5
118
330
70
100
AcDbEntity
  8
0
 62
    18
420
        0
370
    25
100
AcDbLine
 10
137.1548963153051
 20
-6.205881527953727
 30
0.0
 11
137.1548963153051
 21
-6.167708555485297
 31
0.0
  0
LINE
  5
119
330
70
100
AcDbEntity
  8
0
 62
    18
420
        0
370
    25
100
AcDbLine
 10
137.6896714103199
 20
9.021049002611887
 30
0.0
 11
137.1548963153051
 21
9.025715914148655
 31
0.0
  0
LINE
  5
11A
330
70
100
AcDbEntity
  8
0
 62
    18
420
        0
370
    25
100
AcDbLine
 10
137.6896714103199
 20
-6.163041643947886
 30
0.0
 11
137.6896714103199
 21
9.021049002611887
 31
0.0
  0
LINE
  5
11B
330
70
100
AcDbEntity
  8
0
 62
    18
420
        0
370
    25
100
AcDbLine
 10
137.1548963153051
 20
-6.167708555485297
 30
0.0
 11
137.1548963153051
 21
9.025715914148655
 31
0.0
  0
LINE
  5
11C
330
70
100
AcDbEntity
  8
0
 62
    18
420
        0
370
    25
100
AcDbLine
 10
137.1548963153051
 20
9.063888886617727
 30
0.0
 11
137.6896714103199
 21
9.05922197508096
 31
0.0
  0
SPLINE
  5
11D
330
70
100
AcDbEntity
  8
0
 62
    18
420
        0
370
    25
100
AcDbSpline
210
0.0
220
0.0
230
1.0
 70
     8
 71
     3
 72
     8
 73
     4
 74
     0
 42
0.0000000001
 43
0.0000000001
 40
0.0
 40
0.0
 40
0.0
 40
0.0
 40
1.0
 40
1.0
 40
1.0
 40
1.0
 10
137.6896714102943
 20
9.021049002611245
 30
0.0
 10
137.6898934523467
 20
9.03377235809809
 30
0.0
 10
137.6898934523467
 20
9.046498619594114
 30
0.0
 10
137.6896714102943
 20
9.05922197508096
 30
0.0
  0
LINE
  5
11E
330
70
100
AcDbEntity
  8
0
 62
    18
420
        0
370
    25
100
AcDbLine
 10
137.1548963153051
 20
9.025715914148655
 30
0.0
 11
137.1548963153051
 21
9.063888886617727
 31
0.0
  0
LINE
  5
11F
330
70
100
AcDbEntity
  8
0
 62
    18
420
        0
370
    25
100
AcDbLine
 10
137.7275127058532
 20
9.021049002611887
 30
0.0
 11
137.7275127058532
 21
-6.163041643947886
 31
0.0
  0
LINE
  5
120
330
70
100
AcDbEntity
  8
0
 62
    18
420
        0
370
    25
100
AcDbLine
 10
137.7275127058532
 20
-6.163041643947886
 30
0.0
 11
137.6896714103199
 21
-6.163041643947886
 31
0.0
  0
LINE
  5
121
330
70
100
AcDbEntity
  8
0
 62
    18
420
        0
370
    25
100
AcDbLine
 10
137.6896714103199
 20
9.021049002611887
 30
0.0
 11
137.7275127058532
 21
9.021049002611887
 31
0.0
  0
SPLINE
  5
122
330
70
100
AcDbEntity
  8
0
 62
    18
420
        0
370
    25
100
AcDbSpline
210
0.0
220
0.0
230
1.0
 70
     8
 71
     3
 72
     8
 73
     4
 74
     0
 42
0.0000000001
 43
0.0000000001
 40
0.0
 40
0.0
 40
0.0
 40
0.0
 40
1.0
 40
1.0
 40
1.0
 40
1.0
 10
137.6896714102815
 20
-6.201214616419526
 30
0.0
 10
137.7106237858382
 20
-6.201031767807586
 30
0.0
 10
137.7275127058339
 20
-6.183994817337382
 30
0.0
 10
137.7275127058339
 20
-6.163041643947886
 30
0.0
  0
SPLINE
  5
123
330
70
100
AcDbEntity
  8
0
 62
    18
420
        0
370
    25
100
AcDbSpline
210
0.0
220
0.0
230
1.0
 70
     8
 71
     3
 72
     8
 73
     4
 74
     0
 42
0.0000000001
 43
0.0000000001
 40
0.0
 40
0.0
 40
0.0
 40
0.0
 40
1.0
 40
1.0
 40
1.0
 40
1.0
 10
137.7275127058339
 20
9.021049002611887
 30
0.0
 10
137.7275127058339
 20
9.042002176000741
 30
0.0
 10
137.7106237858382
 20
9.059039126471587
 30
0.0
 10
137.6896714102815
 20
9.059221975083527
 30
0.0
  0
LINE
  5
124
330
70
100
AcDbEntity
  8
0
 62
     8
420
  8421504
370
    25
100
AcDbLine
 10
141.2586471142509
 20
-8.496347090145413
 30
0.0
 11
141.8312635047983
 21
-8.496347090145413
 31
0.0
  0
LINE
  5
125
330
70
100
AcDbEntity
  8
0
 62
     8
420
  8421504
370
    25
100
AcDbLine
 10
145.4578339782494
 20
-8.496347090145413
 30
0.0
 11
146.0304503687968
 21
-8.496347090145413
 31
0.0
  0
LINE
  5
126
330
70
100
AcDbEntity
  8
0
 62
     8
420
  8421504
370
    25
100
AcDbLine
 10
149.6570208422479
 20
-8.496347090145413
 30
0.0
 11
150.2296372327953
 21
-8.496347090145413
 31
0.0
  0
LINE
  5
127
330
70
100
AcDbEntity
  8
0
 62
     8
420
  8421504
370
    25
100
AcDbLine
 10
153.8562077063035
 20
-8.496347090145413
 30
0.0
 11
154.4288240968516
 21
-8.496347090145413
 31
0.0
  0
LINE
  5
128
330
70
100
AcDbEntity
  8
0
 62
     8
420
  8421504
370
    25
100
AcDbLine
 10
158.4371388306863
 20
-2.483874989392798
 30
0.0
 11
159.0097552212343
 21
-2.483874989392798
 31
0.0
  0
LINE
  5
129
330
70
100
AcDbEntity
  8
0
 62
    18
420
        0
370
    25
100
AcDbLine
 10
61.88701005357363
 20
-25.26884359832167
 30
0.0
 11
61.88701005357363
 21
-47.21913856930366
 31
0.0
  0
LINE
  5
12A
330
70
100
AcDbEntity
  8
0
 62
    18
420
        0
370
    25
100
AcDbLine
 10
63.7957313554379
 20
-45.31041726749683
 30
0.0
 11
63.7957313554379
 21
-25.26884359832167
 31
0.0
  0
LINE
  5
12B
330
70
100
AcDbEntity
  8
0
 62
    18
420
        0
370
    25
100
AcDbLine
 10
111.3228917709101
 20
-25.26884359832167
 30
0.0
 11
111.3228917709101
 21
-45.31041726749683
 31
0.0
  0
LINE
  5
12C
330
70
100
AcDbEntity
  8
0
 62
    18
420
        0
370
    25
100
AcDbLine
 10
113.2316130727169
 20
-47.21913856930366
 30
0.0
 11
113.2316130727169
 21
-25.26884359832167
 31
0.0
  0
LINE
  5
12D
330
70
100
AcDbEntity
  8
0
 62
    18
420
        0
370
    25
100
AcDbLine
 10
111.3228917709101
 20
-45.31041726749683
 30
0.0
 11
63.7957313554379
 21
-45.31041726749683
 31
0.0
  0
LINE
  5
12E
330
70
100
AcDbEntity
  8
0
 62
    18
420
        0
370
    25
100
AcDbLine
 10
61.88701005357363
 20
-47.21913856930366
 30
0.0
 11
113.2316130727169
 21
-47.21913856930366
 31
0.0
  0
LINE
  5
12F
330
70
100
AcDbEntity
  8
0
 62
    18
420
        0
370
    25
100
AcDbLine
 10
64.17747561576501
 20
-28.79997800666225
 30
0.0
 11
63.7957313554379
 21
-28.79997800666225
 31
0.0
  0
LINE
  5
130
330
70
100
AcDbEntity
  8
0
 62
    18
420
        0
370
    25
100
AcDbLine
 10
63.7957313554379
 20
-29.37259439720969
 30
0.0
 11
64.17747561576501
 21
-29.37259439720969
 31
0.0
  0
LINE
  5
131
330
70
100
AcDbEntity
  8
0
 62
    18
420
        0
370
    25
100
AcDbLine
 10
111.3228917709101
 20
-28.79997800666225
 30
0.0
 11
110.9411475105259
 21
-28.79997800666225
 31
0.0
  0
LINE
  5
132
330
70
100
AcDbEntity
  8
0
 62
    18
420
        0
370
    25
100
AcDbLine
 10
110.9411475105259
 20
-29.37259439720969
 30
0.0
 11
111.3228917709101
 21
-29.37259439720969
 31
0.0
  0
LINE
  5
133
330
70
100
AcDbEntity
  8
0
 62
    18
420
        0
370
    25
100
AcDbLine
 10
64.17747561576501
 20
-32.99916487071789
 30
0.0
 11
63.7957313554379
 21
-32.99916487071789
 31
0.0
  0
LINE
  5
134
330
70
100
AcDbEntity
  8
0
 62
    18
420
        0
370
    25
100
AcDbLine
 10
63.7957313554379
 20
-33.57178126126532
 30
0.0
 11
64.17747561576501
 21
-33.57178126126532
 31
0.0
  0
LINE
  5
135
330
70
100
AcDbEntity
  8
0
 62
    18
420
        0
370
    25
100
AcDbLine
 10
111.3228917709101
 20
-32.99916487071789
 30
0.0
 11
110.9411475105259
 21
-32.99916487071789
 31
0.0
  0
LINE
  5
136
330
70
100
AcDbEntity
  8
0
 62
    18
420
        0
370
    25
100
AcDbLine
 10
110.9411475105259
 20
-33.57178126126532
 30
0.0
 11
111.3228917709101
 21
-33.57178126126532
 31
0.0
  0
LINE
  5
137
330
70
100
AcDbEntity
  8
0
 62
    18
420
        0
370
    25
100
AcDbLine
 10
64.17747561576501
 20
-37.19835173471576
 30
0.0
 11
63.7957313554379
 21
-37.19835173471576
 31
0.0
  0
LINE
  5
138
330
70
100
AcDbEntity
  8
0
 62
    18
420
        0
370
    25
100
AcDbLine
 10
63.7957313554379
 20
-37.77096812526384
 30
0.0
 11
64.17747561576501
 21
-37.77096812526384
 31
0.0
  0
LINE
  5
139
330
70
100
AcDbEntity
  8
0
 62
    18
420
        0
370
    25
100
AcDbLine
 10
111.3228917709101
 20
-37.19835173471576
 30
0.0
 11
110.9411475105259
 21
-37.19835173471576
 31
0.0
  0
LINE
  5
13A
330
70
100
AcDbEntity
  8
0
 62
    18
420
        0
370
    25
100
AcDbLine
 10
110.9411475105259
 20
-37.77096812526384
 30
0.0
 11
111.3228917709101
 21
-37.77096812526384
 31
0.0
  0
LINE
  5
13B
330
70
100
AcDbEntity
  8
0
 62
    18
420
        0
370
    25
100
AcDbLine
 10
64.17747561576501
 20
-41.39753859871492
 30
0.0
 11
63.7957313554379
 21
-41.39753859871492
 31
0.0
  0
LINE
  5
13C
330
70
100
AcDbEntity
  8
0
 62
    18
420
        0
370
    25
100
AcDbLine
 10
63.7957313554379
 20
-41.97015498926236
 30
0.0
 11
64.17747561576501
 21
-41.97015498926236
 31
0.0
  0
LINE
  5
13D
330
70
100
AcDbEntity
  8
0
 62
    18
420
        0
370
    25
100
AcDbLine
 10
111.3228917709101
 20
-41.39753859871492
 30
0.0
 11
110.9411475105259
 21
-41.39753859871492
 31
0.0
  0
LINE
  5
13E
330
70
100
AcDbEntity
  8
0
 62
    18
420
        0
370
    25
100
AcDbLine
 10
110.9411475105259
 20
-41.97015498926236
 30
0.0
 11
111.3228917709101
 21
-41.97015498926236
 31
0.0
  0
LINE
  5
13F
330
70
100
AcDbEntity
  8
0
 62
    18
420
        0
370
    25
100
AcDbLine
 10
110.9411475105259
 20
-28.79997800666225
 30
0.0
 11
64.17747561576501
 21
-28.79997800666225
 31
0.0
  0
LINE
  5
140
330
70
100
AcDbEntity
  8
0
 62
    18
420
        0
370
    25
100
AcDbLine
 10
64.17747561576501
 20
-29.37259439720969
 30
0.0
 11
110.9411475105259
 21
-29.37259439720969
 31
0.0
  0
LINE
  5
141
330
70
100
AcDbEntity
  8
0
 62
    18
420
        0
370
    25
100
AcDbLine
 10
110.9411475105259
 20
-32.99916487071789
 30
0.0
 11
64.17747561576501
 21
-32.99916487071789
 31
0.0
  0
LINE
  5
142
330
70
100
AcDbEntity
  8
0
 62
    18
420
        0
370
    25
100
AcDbLine
 10
64.17747561576501
 20
-33.57178126126532
 30
0.0
 11
110.9411475105259
 21
-33.57178126126532
 31
0.0
  0
LINE
  5
143
330
70
100
AcDbEntity
  8
0
 62
    18
420
        0
370
    25
100
AcDbLine
 10
110.9411475105259
 20
-37.19835173471576
 30
0.0
 11
64.17747561576501
 21
-37.19835173471576
 31
0.0
  0
LINE
  5
144
330
70
100
AcDbEntity
  8
0
 62
    18
420
        0
370
    25
100
AcDbLine
 10
64.17747561576501
 20
-37.77096812526384
 30
0.0
 11
110.9411475105259
 21
-37.77096812526384
 31
0.0
  0
LINE
  5
145
330
70
100
AcDbEntity
  8
0
 62
    18
420
        0
370
    25
100
AcDbLine
 10
110.9411475105259
 20
-41.39753859871492
 30
0.0
 11
64.17747561576501
 21
-41.39753859871492
 31
0.0
  0
LINE
  5
146
330
70
100
AcDbEntity
  8
0
 62
    18
420
        0
370
    25
100
AcDbLine
 10
64.17747561576501
 20
-41.97015498926236
 30
0.0
 11
110.9411475105259
 21
-41.97015498926236
 31
0.0
  0
LINE
  5
147
330
70
100
AcDbEntity
  8
0
 62
    18
420
        0
370
    25
100
AcDbLine
 10
61.88701005357363
 20
-47.21913856930366
 30
0.0
 11
63.7957313554379
 21
-45.31041726749683
 31
0.0
  0
LINE
  5
148
330
70
100
AcDbEntity
  8
0
 62
    18
420
        0
370
    25
100
AcDbLine
 10
111.3228917709101
 20
-45.31041726749683
 30
0.0
 11
113.2316130727169
 21
-47.21913856930366
 31
0.0
  0
LINE
  5
149
330
70
100
AcDbEntity
  8
0
 62
    18
420
        0
370
    25
100
AcDbLine
 10
58.58492074786567
 20
-24.69622720777358
 30
0.0
 11
58.58958765940244
 21
-25.23100230273068
 31
0.0
  0
SPLINE
  5
14A
330
70
100
AcDbEntity
  8
0
 62
    18
420
        0
370
    25
100
AcDbSpline
210
0.0
220
0.0
230
1.0
 70
     8
 71
     3
 72
     8
 73
     4
 74
     0
 42
0.0000000001
 43
0.0000000001
 40
0.0
 40
0.0
 40
0.0
 40
0.0
 40
1.0
 40
1.0
 40
1.0
 40
1.0
 10
58.55141468693176
 20
-25.23100230277816
 30
0.0
 10
58.56413804241956
 20
-25.23122434482992
 30
0.0
 10
58.57686430391655
 20
-25.23122434482992
 30
0.0
 10
58.58958765940403
 20
-25.23100230277816
 30
0.0
  0
LINE
  5
14B
330
70
100
AcDbEntity
  8
0
 62
    18
420
        0
370
    25
100
AcDbLine
 10
58.55141468693368
 20
-25.23100230273068
 30
0.0
 11
58.54674777539692
 21
-24.69622720777358
 31
0.0
  0
LINE
  5
14C
330
70
100
AcDbEntity
  8
0
 62
    18
420
        0
370
    25
100
AcDbLine
 10
58.54674777539692
 20
-24.69622720777358
 30
0.0
 11
58.58492074786567
 21
-24.69622720777358
 31
0.0
  0
LINE
  5
14D
330
70
100
AcDbEntity
  8
0
 62
    18
420
        0
370
    25
100
AcDbLine
 10
67.09315374960877
 20
-25.23100230273068
 30
0.0
 11
67.09782066114586
 21
-24.69622720777358
 31
0.0
  0
LINE
  5
14E
330
70
100
AcDbEntity
  8
0
 62
    18
420
        0
370
    25
100
AcDbLine
 10
58.58958765940244
 20
-25.23100230273068
 30
0.0
 11
67.09315374960877
 21
-25.23100230273068
 31
0.0
  0
LINE
  5
14F
330
70
100
AcDbEntity
  8
0
 62
    18
420
        0
370
    25
100
AcDbLine
 10
58.58492074786567
 20
-24.69622720777358
 30
0.0
 11
67.09782066114586
 21
-24.69622720777358
 31
0.0
  0
LINE
  5
150
330
70
100
AcDbEntity
  8
0
 62
    18
420
        0
370
    25
100
AcDbLine
 10
67.13599363361462
 20
-24.69622720777358
 30
0.0
 11
67.13132672207784
 21
-25.23100230273068
 31
0.0
  0
SPLINE
  5
151
330
70
100
AcDbEntity
  8
0
 62
    18
420
        0
370
    25
100
AcDbSpline
210
0.0
220
0.0
230
1.0
 70
     8
 71
     3
 72
     8
 73
     4
 74
     0
 42
0.0000000001
 43
0.0000000001
 40
0.0
 40
0.0
 40
0.0
 40
0.0
 40
1.0
 40
1.0
 40
1.0
 40
1.0
 10
67.09315374960716
 20
-25.23100230277816
 30
0.0
 10
67.10587710509497
 20
-25.23122434482992
 30
0.0
 10
67.11860336659197
 20
-25.23122434482992
 30
0.0
 10
67.13132672207945
 20
-25.23100230277816
 30
0.0
  0
LINE
  5
152
330
70
100
AcDbEntity
  8
0
 62
    18
420
        0
370
    25
100
AcDbLine
 10
67.09782066114586
 20
-24.69622720777358
 30
0.0
 11
67.13599363361462
 21
-24.69622720777358
 31
0.0
  0
LINE
  5
153
330
70
100
AcDbEntity
  8
0
 62
    18
420
        0
370
    25
100
AcDbLine
 10
58.58958765940244
 20
-25.23100230273068
 30
0.0
 11
58.58958765940244
 21
-25.26884359832167
 31
0.0
  0
SPLINE
  5
154
330
70
100
AcDbEntity
  8
0
 62
    18
420
        0
370
    25
100
AcDbSpline
210
0.0
220
0.0
230
1.0
 70
     8
 71
     3
 72
     8
 73
     4
 74
     0
 42
0.0000000001
 43
0.0000000001
 40
0.0
 40
0.0
 40
0.0
 40
0.0
 40
1.0
 40
1.0
 40
1.0
 40
1.0
 10
58.55141468693112
 20
-25.23100230274993
 30
0.0
 10
58.55159753554241
 20
-25.25195467830667
 30
0.0
 10
58.56863448601326
 20
-25.26884359830241
 30
0.0
 10
58.58958765940244
 20
-25.26884359830241
 30
0.0
  0
LINE
  5
155
330
70
100
AcDbEntity
  8
0
 62
    18
420
        0
370
    25
100
AcDbLine
 10
67.09315374960877
 20
-25.23100230273068
 30
0.0
 11
67.09315374960877
 21
-25.26884359832167
 31
0.0
  0
LINE
  5
156
330
70
100
AcDbEntity
  8
0
 62
    18
420
        0
370
    25
100
AcDbLine
 10
67.09315374960877
 20
-25.26884359832167
 30
0.0
 11
58.58958765940244
 21
-25.26884359832167
 31
0.0
  0
SPLINE
  5
157
330
70
100
AcDbEntity
  8
0
 62
    18
420
        0
370
    25
100
AcDbSpline
210
0.0
220
0.0
230
1.0
 70
     8
 71
     3
 72
     8
 73
     4
 74
     0
 42
0.0000000001
 43
0.0000000001
 40
0.0
 40
0.0
 40
0.0
 40
0.0
 40
1.0
 40
1.0
 40
1.0
 40
1.0
 10
67.09315374960877
 20
-25.26884359830241
 30
0.0
 10
67.11410692299795
 20
-25.26884359830241
 30
0.0
 10
67.1311438734688
 20
-25.25195467830667
 30
0.0
 10
67.13132672208009
 20
-25.23100230274993
 30
0.0
  0
LINE
  5
158
330
70
100
AcDbEntity
  8
0
 62
    18
420
        0
370
    25
100
AcDbLine
 10
108.020802465145
 20
-24.69622720777358
 30
0.0
 11
108.0254693767389
 21
-25.23100230273068
 31
0.0
  0
SPLINE
  5
159
330
70
100
AcDbEntity
  8
0
 62
    18
420
        0
370
    25
100
AcDbSpline
210
0.0
220
0.0
230
1.0
 70
     8
 71
     3
 72
     8
 73
     4
 74
     0
 42
0.0000000001
 43
0.0000000001
 40
0.0
 40
0.0
 40
0.0
 40
0.0
 40
1.0
 40
1.0
 40
1.0
 40
1.0
 10
107.9872964042685
 20
-25.23100230277816
 30
0.0
 10
108.000019759756
 20
-25.23122434482992
 30
0.0
 10
108.012746021253
 20
-25.23122434482992
 30
0.0
 10
108.0254693767408
 20
-25.23100230277816
 30
0.0
  0
LINE
  5
15A
330
70
100
AcDbEntity
  8
0
 62
    18
420
        0
370
    25
100
AcDbLine
 10
107.9872964042701
 20
-25.23100230273068
 30
0.0
 11
107.9826294926759
 21
-24.69622720777358
 31
0.0
  0
LINE
  5
15B
330
70
100
AcDbEntity
  8
0
 62
    18
420
        0
370
    25
100
AcDbLine
 10
107.9826294926759
 20
-24.69622720777358
 30
0.0
 11
108.020802465145
 21
-24.69622720777358
 31
0.0
  0
LINE
  5
15C
330
70
100
AcDbEntity
  8
0
 62
    18
420
        0
370
    25
100
AcDbLine
 10
116.5718753508936
 20
-24.69622720777358
 30
0.0
 11
116.5672084393569
 21
-25.23100230273068
 31
0.0
  0
SPLINE
  5
15D
330
70
100
AcDbEntity
  8
0
 62
    18
420
        0
370
    25
100
AcDbSpline
210
0.0
220
0.0
230
1.0
 70
     8
 71
     3
 72
     8
 73
     4
 74
     0
 42
0.0000000001
 43
0.0000000001
 40
0.0
 40
0.0
 40
0.0
 40
0.0
 40
1.0
 40
1.0
 40
1.0
 40
1.0
 10
116.5290354668865
 20
-25.23100230277881
 30
0.0
 10
116.541758822374
 20
-25.2312243448312
 30
0.0
 10
116.5544850838713
 20
-25.2312243448312
 30
0.0
 10
116.5672084393588
 20
-25.23100230277881
 30
0.0
  0
LINE
  5
15E
330
70
100
AcDbEntity
  8
0
 62
    18
420
        0
370
    25
100
AcDbLine
 10
116.5290354668878
 20
-25.23100230273068
 30
0.0
 11
116.5337023784252
 21
-24.69622720777358
 31
0.0
  0
LINE
  5
15F
330
70
100
AcDbEntity
  8
0
 62
    18
420
        0
370
    25
100
AcDbLine
 10
116.5337023784252
 20
-24.69622720777358
 30
0.0
 11
116.5718753508936
 21
-24.69622720777358
 31
0.0
  0
LINE
  5
160
330
70
100
AcDbEntity
  8
0
 62
    18
420
        0
370
    25
100
AcDbLine
 10
108.020802465145
 20
-24.69622720777358
 30
0.0
 11
116.5337023784252
 21
-24.69622720777358
 31
0.0
  0
LINE
  5
161
330
70
100
AcDbEntity
  8
0
 62
    18
420
        0
370
    25
100
AcDbLine
 10
108.0254693767389
 20
-25.23100230273068
 30
0.0
 11
116.5290354668878
 21
-25.23100230273068
 31
0.0
  0
LINE
  5
162
330
70
100
AcDbEntity
  8
0
 62
    18
420
        0
370
    25
100
AcDbLine
 10
116.5290354668878
 20
-25.23100230273068
 30
0.0
 11
116.5290354668878
 21
-25.26884359832167
 31
0.0
  0
LINE
  5
163
330
70
100
AcDbEntity
  8
0
 62
    18
420
        0
370
    25
100
AcDbLine
 10
116.5290354668878
 20
-25.26884359832167
 30
0.0
 11
108.0254693767389
 21
-25.26884359832167
 31
0.0
  0
LINE
  5
164
330
70
100
AcDbEntity
  8
0
 62
    18
420
        0
370
    25
100
AcDbLine
 10
108.0254693767389
 20
-25.23100230273068
 30
0.0
 11
108.0254693767389
 21
-25.26884359832167
 31
0.0
  0
SPLINE
  5
165
330
70
100
AcDbEntity
  8
0
 62
    18
420
        0
370
    25
100
AcDbSpline
210
0.0
220
0.0
230
1.0
 70
     8
 71
     3
 72
     8
 73
     4
 74
     0
 42
0.0000000001
 43
0.0000000001
 40
0.0
 40
0.0
 40
0.0
 40
0.0
 40
1.0
 40
1.0
 40
1.0
 40
1.0
 10
107.9872964042676
 20
-25.23100230274993
 30
0.0
 10
107.9874792528789
 20
-25.25195467830667
 30
0.0
 10
108.0045162033497
 20
-25.26884359830241
 30
0.0
 10
108.0254693767389
 20
-25.26884359830241
 30
0.0
  0
SPLINE
  5
166
330
70
100
AcDbEntity
  8
0
 62
    18
420
        0
370
    25
100
AcDbSpline
210
0.0
220
0.0
230
1.0
 70
     8
 71
     3
 72
     8
 73
     4
 74
     0
 42
0.0000000001
 43
0.0000000001
 40
0.0
 40
0.0
 40
0.0
 40
0.0
 40
1.0
 40
1.0
 40
1.0
 40
1.0
 10
116.5290354668878
 20
-25.26884359830241
 30
0.0
 10
116.5499886402773
 20
-25.26884359830241
 30
0.0
 10
116.5670255907481
 20
-25.25195467830667
 30
0.0
 10
116.5672084393594
 20
-25.23100230274993
 30
0.0
  0
LINE
  5
167
330
70
100
AcDbEntity
  8
0
 62
     8
420
  8421504
370
    25
100
AcDbLine
 10
64.17747561576501
 20
-29.08628620193533
 30
0.0
 11
64.17747561576501
 21
-28.79997800666225
 31
0.0
  0
LINE
  5
168
330
70
100
AcDbEntity
  8
0
 62
     8
420
  8421504
370
    25
100
AcDbLine
 10
64.17747561576501
 20
-29.37259439720969
 30
0.0
 11
64.17747561576501
 21
-29.08628620193533
 31
0.0
  0
LINE
  5
169
330
70
100
AcDbEntity
  8
0
 62
     8
420
  8421504
370
    25
100
AcDbLine
 10
110.9411475105259
 20
-29.08628620193533
 30
0.0
 11
110.9411475105259
 21
-28.79997800666225
 31
0.0
  0
LINE
  5
16A
330
70
100
AcDbEntity
  8
0
 62
     8
420
  8421504
370
    25
100
AcDbLine
 10
110.9411475105259
 20
-29.37259439720969
 30
0.0
 11
110.9411475105259
 21
-29.08628620193533
 31
0.0
  0
LINE
  5
16B
330
70
100
AcDbEntity
  8
0
 62
     8
420
  8421504
370
    25
100
AcDbLine
 10
64.17747561576501
 20
-33.28547306599161
 30
0.0
 11
64.17747561576501
 21
-32.99916487071789
 31
0.0
  0
LINE
  5
16C
330
70
100
AcDbEntity
  8
0
 62
     8
420
  8421504
370
    25
100
AcDbLine
 10
64.17747561576501
 20
-33.57178126126532
 30
0.0
 11
64.17747561576501
 21
-33.28547306599161
 31
0.0
  0
LINE
  5
16D
330
70
100
AcDbEntity
  8
0
 62
     8
420
  8421504
370
    25
100
AcDbLine
 10
110.9411475105259
 20
-33.28547306599161
 30
0.0
 11
110.9411475105259
 21
-32.99916487071789
 31
0.0
  0
LINE
  5
16E
330
70
100
AcDbEntity
  8
0
 62
     8
420
  8421504
370
    25
100
AcDbLine
 10
110.9411475105259
 20
-33.57178126126532
 30
0.0
 11
110.9411475105259
 21
-33.28547306599161
 31
0.0
  0
LINE
  5
16F
330
70
100
AcDbEntity
  8
0
 62
     8
420
  8421504
370
    25
100
AcDbLine
 10
64.17747561576501
 20
-37.48465992999012
 30
0.0
 11
64.17747561576501
 21
-37.19835173471576
 31
0.0
  0
LINE
  5
170
330
70
100
AcDbEntity
  8
0
 62
     8
420
  8421504
370
    25
100
AcDbLine
 10
64.17747561576501
 20
-37.77096812526384
 30
0.0
 11
64.17747561576501
 21
-37.48465992999012
 31
0.0
  0
LINE
  5
171
330
70
100
AcDbEntity
  8
0
 62
     8
420
  8421504
370
    25
100
AcDbLine
 10
110.9411475105259
 20
-37.48465992999012
 30
0.0
 11
110.9411475105259
 21
-37.19835173471576
 31
0.0
  0
LINE
  5
172
330
70
100
AcDbEntity
  8
0
 62
     8
420
  8421504
370
    25
100
AcDbLine
 10
110.9411475105259
 20
-37.77096812526384
 30
0.0
 11
110.9411475105259
 21
-37.48465992999012
 31
0.0
  0
LINE
  5
173
330
70
100
AcDbEntity
  8
0
 62
     8
420
  8421504
370
    25
100
AcDbLine
 10
64.17747561576501
 20
-41.68384679398864
 30
0.0
 11
64.17747561576501
 21
-41.39753859871492
 31
0.0
  0
LINE
  5
174
330
70
100
AcDbEntity
  8
0
 62
     8
420
  8421504
370
    25
100
AcDbLine
 10
64.17747561576501
 20
-41.97015498926236
 30
0.0
 11
64.17747561576501
 21
-41.68384679398864
 31
0.0
  0
LINE
  5
175
330
70
100
AcDbEntity
  8
0
 62
     8
420
  8421504
370
    25
100
AcDbLine
 10
110.9411475105259
 20
-41.68384679398864
 30
0.0
 11
110.9411475105259
 21
-41.39753859871492
 31
0.0
  0
LINE
  5
176
330
70
100
AcDbEntity
  8
0
 62
     8
420
  8421504
370
    25
100
AcDbLine
 10
110.9411475105259
 20
-41.97015498926236
 30
0.0
 11
110.9411475105259
 21
-41.68384679398864
 31
0.0
  0
LINE
  5
177
330
70
100
AcDbEntity
  8
0
 62
    18
420
        0
370
    25
100
AcDbLine
 10
138.2917066278151
 20
-85.03971881118729
 30
0.0
 11
104.2895425241038
 21
-65.41068728979941
 31
0.0
  0
LINE
  5
178
330
70
100
AcDbEntity
  8
0
 62
    18
420
        0
370
    25
100
AcDbLine
 10
102.3809763390379
 20
-66.51283729864855
 30
0.0
 11
138.2917066278151
 21
-87.24366062641257
 31
0.0
  0
LINE
  5
179
330
70
100
AcDbEntity
  8
0
 62
    18
420
        0
370
    25
100
AcDbLine
 10
152.6609326166407
 20
-76.7445412156771
 30
0.0
 11
138.2917066278151
 21
-85.03971881118729
 31
0.0
  0
LINE
  5
17A
330
70
100
AcDbEntity
  8
0
 62
    18
420
        0
370
    25
100
AcDbLine
 10
138.2917066278151
 20
-87.24366062641257
 30
0.0
 11
153.6152157091448
 21
-78.39758712768608
 31
0.0
  0
LINE
  5
17B
330
70
100
AcDbEntity
  8
0
 62
    18
420
        0
370
    25
100
AcDbLine
 10
141.2446058947449
 20
-85.53898816456053
 30
0.0
 11
141.2446058947449
 21
-95.1036495021033
 31
0.0
  0
LINE
  5
17C
330
70
100
AcDbEntity
  8
0
 62
    18
420
        0
370
    25
100
AcDbLine
 10
141.8172222852929
 20
-95.1036495021033
 30
0.0
 11
141.8172222852929
 21
-85.20842375854988
 31
0.0
  0
LINE
  5
17D
330
70
100
AcDbEntity
  8
0
 62
    18
420
        0
370
    25
100
AcDbLine
 10
144.2138794017606
 20
-83.82486305514836
 30
0.0
 11
144.2138794017606
 21
-93.38952439263401
 31
0.0
  0
LINE
  5
17E
330
70
100
AcDbEntity
  8
0
 62
    18
420
        0
370
    25
100
AcDbLine
 10
144.7864957923086
 20
-93.38952439263401
 30
0.0
 11
144.7864957923086
 21
-83.49429864913769
 31
0.0
  0
LINE
  5
17F
330
70
100
AcDbEntity
  8
0
 62
    18
420
        0
370
    25
100
AcDbLine
 10
131.0545990865532
 20
-83.06576737178497
 30
0.0
 11
131.0545990865532
 21
-88.05156426469251
 31
0.0
  0
LINE
  5
180
330
70
100
AcDbEntity
  8
0
 62
    18
420
        0
370
    25
100
AcDbLine
 10
131.6272154771013
 20
-88.05156426469251
 30
0.0
 11
131.6272154771013
 21
-83.396331777795
 31
0.0
  0
LINE
  5
181
330
70
100
AcDbEntity
  8
0
 62
    18
420
        0
370
    25
100
AcDbLine
 10
147.1831529087763
 20
-82.11073794573618
 30
0.0
 11
147.1831529087763
 21
-91.67539928322183
 31
0.0
  0
LINE
  5
182
330
70
100
AcDbEntity
  8
0
 62
    18
420
        0
370
    25
100
AcDbLine
 10
147.7557692993244
 20
-91.67539928322183
 30
0.0
 11
147.7557692993244
 21
-81.78017353972551
 31
0.0
  0
LWPOLYLINE
  5
183
330
70
100
AcDbEntity
  8
0
 62
    18
420
        0
370
    25
100
AcDbPolyline
 90
       11
 70
     0
 43
0.0
 10
130.252995974821
 20
-88.84510189665212
 10
130.3820828030295
 20
-88.91138930158405
 10
130.6287190789759
 20
-88.9923820479426
 10
130.844352938966
 20
-89.01180362751416
 10
131.0444964241071
 20
-88.98065980285151
 10
131.240364632965
 20
-88.89096184974588
 10
131.3968051629127
 20
-88.75470256537022
 10
131.512566673577
 20
-88.58166849436827
 10
131.5890695864101
 20
-88.37486399214638
 10
131.6249089385404
 20
-88.13489965605269
 10
131.6272154771013
 20
-88.05156426469251
  0
LWPOLYLINE
  5
184
330
70
100
AcDbEntity
  8
0
 62
    18
420
        0
370
    25
100
AcDbPolyline
 90
        9
 70
     0
 43
0.0
 10
131.0545990865532
 20
-88.05156426469251
 10
131.050366079782
 20
-88.13898809711293
 10
131.0221421553344
 20
-88.27412629576839
 10
130.9779820113047
 20
-88.36230974998397
 10
130.9278124674327
 20
-88.41116849334017
 10
130.850361763901
 20
-88.43774535556859
 10
130.7554504303074
 20
-88.4336719970526
 10
130.6321424339428
 20
-88.39580001638124
 10
130.539280902572
 20
-88.34918812302639
  0
LWPOLYLINE
  5
185
330
70
100
AcDbEntity
  8
0
 62
    18
420
        0
370
    25
100
AcDbPolyline
 90
       11
 70
     0
 43
0.0
 10
140.4430027829555
 20
-95.89718713400579
 10
140.5720896112211
 20
-95.96347453899547
 10
140.8187258871675
 20
-96.04446728535403
 10
141.0343597471576
 20
-96.06388886486785
 10
141.2345032322988
 20
-96.03274504020584
 10
141.4303714411566
 20
-95.94304708709957
 10
141.5868119711044
 20
-95.80678780278166
 10
141.7025734817115
 20
-95.63375373172195
 10
141.7790763945447
 20
-95.42694922955716
 10
141.814915746732
 20
-95.18698489340636
 10
141.8172222852929
 20
-95.1036495021033
  0
LWPOLYLINE
  5
186
330
70
100
AcDbEntity
  8
0
 62
    18
420
        0
370
    25
100
AcDbPolyline
 90
        9
 70
     0
 43
0.0
 10
141.2446058947449
 20
-95.1036495021033
 10
141.2403728879165
 20
-95.19107333452373
 10
141.2121489635267
 20
-95.32621153312271
 10
141.1679888194392
 20
-95.41439498733764
 10
141.117819275625
 20
-95.46325373069384
 10
141.0403685720355
 20
-95.48983059292224
 10
140.945457238499
 20
-95.48575723440629
 10
140.8221492421344
 20
-95.44788525379201
 10
140.7292877107636
 20
-95.40127336038072
  0
LINE
  5
187
330
70
100
AcDbEntity
  8
0
 62
    18
420
        0
370
    25
100
AcDbLine
 10
150.152426415792
 20
-80.39661283632399
 30
0.0
 11
150.152426415792
 21
-89.96127417380964
 31
0.0
  0
LINE
  5
188
330
70
100
AcDbEntity
  8
0
 62
    18
420
        0
370
    25
100
AcDbLine
 10
150.7250428063394
 20
-89.96127417380964
 30
0.0
 11
150.7250428063394
 21
-80.06604843031333
 31
0.0
  0
LINE
  5
189
330
70
100
AcDbEntity
  8
0
 62
    18
420
        0
370
    25
100
AcDbLine
 10
130.539280902572
 20
-88.34918812302639
 30
0.0
 11
111.3739700845365
 21
-77.28528968947017
 31
0.0
  0
LINE
  5
18A
330
70
100
AcDbEntity
  8
0
 62
    18
420
        0
370
    25
100
AcDbLine
 10
111.0876851567854
 20
-77.78120346309527
 30
0.0
 11
130.252995974821
 21
-88.84510189665212
 31
0.0
  0
LINE
  5
18B
330
70
100
AcDbEntity
  8
0
 62
    18
420
        0
370
    25
100
AcDbLine
 10
140.7292877107636
 20
-95.40127336038072
 30
0.0
 11
107.6623782008101
 21
-76.31215282363578
 31
0.0
  0
LINE
  5
18C
330
70
100
AcDbEntity
  8
0
 62
    18
420
        0
370
    25
100
AcDbLine
 10
107.3760932730013
 20
-76.80806659726086
 30
0.0
 11
140.4430027829555
 21
-95.89718713400579
 31
0.0
  0
LWPOLYLINE
  5
18D
330
70
100
AcDbEntity
  8
0
 62
    18
420
        0
370
    25
100
AcDbPolyline
 90
       11
 70
     0
 43
0.0
 10
143.4122762899706
 20
-94.1830620245936
 10
143.5413631182368
 20
-94.24934942952553
 10
143.7879993941832
 20
-94.33034217588474
 10
144.0036332541733
 20
-94.34976375545565
 10
144.2037767393145
 20
-94.31861993079365
 10
144.3996449481723
 20
-94.22892197768737
 10
144.5560854781201
 20
-94.09266269331171
 10
144.6718469887266
 20
-93.91962862230977
 10
144.7483499015597
 20
-93.71282412008786
 10
144.7841892537477
 20
-93.47285978399417
 10
144.7864957923086
 20
-93.38952439263401
  0
LWPOLYLINE
  5
18E
330
70
100
AcDbEntity
  8
0
 62
    18
420
        0
370
    25
100
AcDbPolyline
 90
        9
 70
     0
 43
0.0
 10
144.2138794017606
 20
-93.38952439263401
 10
144.2096463949322
 20
-93.47694822511153
 10
144.1814224705417
 20
-93.61208642371053
 10
144.1372623264549
 20
-93.70026987792547
 10
144.0870927826401
 20
-93.74912862128166
 10
144.0096420790512
 20
-93.77570548351007
 10
143.9147307455147
 20
-93.77163212499409
 10
143.7914227491502
 20
-93.73376014432272
 10
143.6985612177793
 20
-93.68714825096853
  0
LINE
  5
18F
330
70
100
AcDbEntity
  8
0
 62
    18
420
        0
370
    25
100
AcDbLine
 10
143.6985612177793
 20
-93.68714825096853
 30
0.0
 11
141.8172222852929
 21
-92.60107440296282
 31
0.0
  0
LINE
  5
190
330
70
100
AcDbEntity
  8
0
 62
    18
420
        0
370
    25
100
AcDbLine
 10
141.2446058947449
 20
-92.27050999695279
 30
0.0
 11
131.6272154771013
 21
-86.71850868653967
 31
0.0
  0
LINE
  5
191
330
70
100
AcDbEntity
  8
0
 62
    18
420
        0
370
    25
100
AcDbLine
 10
131.0545990865532
 20
-86.38794428052964
 30
0.0
 11
110.6316517078252
 21
-74.5980277142236
 31
0.0
  0
LINE
  5
192
330
70
100
AcDbEntity
  8
0
 62
    18
420
        0
370
    25
100
AcDbLine
 10
110.5723669728036
 20
-75.22498590974848
 30
0.0
 11
131.0545990865532
 21
-87.04912682509684
 31
0.0
  0
LINE
  5
193
330
70
100
AcDbEntity
  8
0
 62
    18
420
        0
370
    25
100
AcDbLine
 10
131.6272154771013
 20
-87.37969123110749
 30
0.0
 11
141.2446058947449
 21
-92.93169254151999
 31
0.0
  0
LINE
  5
194
330
70
100
AcDbEntity
  8
0
 62
    18
420
        0
370
    25
100
AcDbLine
 10
141.8172222852929
 20
-93.26225694753066
 30
0.0
 11
143.4122762899706
 21
-94.1830620245936
 31
0.0
  0
LWPOLYLINE
  5
195
330
70
100
AcDbEntity
  8
0
 62
    18
420
        0
370
    25
100
AcDbPolyline
 90
       11
 70
     0
 43
0.0
 10
146.3815497969863
 20
-92.46893691518144
 10
146.5106366252519
 20
-92.53522432011335
 10
146.7572729011989
 20
-92.61621706647256
 10
146.9729067611891
 20
-92.63563864604348
 10
147.1730502463296
 20
-92.60449482138147
 10
147.368918455188
 20
-92.51479686821808
 10
147.5253589851358
 20
-92.37853758389952
 10
147.6411204957423
 20
-92.20550351289757
 10
147.7176234085755
 20
-91.9986990106757
 10
147.7534627607635
 20
-91.75873467458201
 10
147.7557692993244
 20
-91.67539928322183
  0
LWPOLYLINE
  5
196
330
70
100
AcDbEntity
  8
0
 62
    18
420
        0
370
    25
100
AcDbPolyline
 90
        9
 70
     0
 43
0.0
 10
147.1831529087763
 20
-91.67539928322183
 10
147.1789199019473
 20
-91.76282311564223
 10
147.1506959775575
 20
-91.89796131429835
 10
147.1065358334706
 20
-91.98614476845618
 10
147.0563662896558
 20
-92.03500351186947
 10
146.978915586067
 20
-92.06158037409789
 10
146.8840042525305
 20
-92.0575070155248
 10
146.7606962561659
 20
-92.01963503491056
 10
146.6678347247951
 20
-91.97302314155633
  0
LINE
  5
197
330
70
100
AcDbEntity
  8
0
 62
    18
420
        0
370
    25
100
AcDbLine
 10
146.6678347247951
 20
-91.97302314155633
 30
0.0
 11
144.7864957923086
 21
-90.88694929355064
 31
0.0
  0
LINE
  5
198
330
70
100
AcDbEntity
  8
0
 62
    18
420
        0
370
    25
100
AcDbLine
 10
144.2138794017606
 20
-90.55638488754061
 30
0.0
 11
141.8172222852929
 21
-89.17282418413845
 31
0.0
  0
LINE
  5
199
330
70
100
AcDbEntity
  8
0
 62
    18
420
        0
370
    25
100
AcDbLine
 10
141.2446058947449
 20
-88.84225977812844
 30
0.0
 11
138.3835787635548
 21
-87.19062397137305
 31
0.0
  0
LINE
  5
19A
330
70
100
AcDbEntity
  8
0
 62
    18
420
        0
370
    25
100
AcDbLine
 10
113.3146402870328
 20
-73.3798163784365
 30
0.0
 11
131.0545990865532
 21
-83.62087660627311
 31
0.0
  0
LINE
  5
19B
330
70
100
AcDbEntity
  8
0
 62
    18
420
        0
370
    25
100
AcDbLine
 10
131.6272154771013
 20
-83.95144101228314
 30
0.0
 11
141.2446058947449
 21
-89.50344232269562
 31
0.0
  0
LINE
  5
19C
330
70
100
AcDbEntity
  8
0
 62
    18
420
        0
370
    25
100
AcDbLine
 10
141.8172222852929
 20
-89.83400672870629
 30
0.0
 11
144.2138794017606
 21
-91.21756743210781
 31
0.0
  0
LINE
  5
19D
330
70
100
AcDbEntity
  8
0
 62
    18
420
        0
370
    25
100
AcDbLine
 10
144.7864957923086
 20
-91.54813183811848
 30
0.0
 11
146.3815497969863
 21
-92.46893691518144
 31
0.0
  0
LWPOLYLINE
  5
19E
330
70
100
AcDbEntity
  8
0
 62
    18
420
        0
370
    25
100
AcDbPolyline
 90
       11
 70
     0
 43
0.0
 10
149.350823304002
 20
-90.75481180571214
 10
149.4799101322676
 20
-90.82109921070118
 10
149.726546408214
 20
-90.90209195706036
 10
149.9421802682041
 20
-90.9215135366313
 10
150.1423237533453
 20
-90.89036971196929
 10
150.3381919622038
 20
-90.80067175880591
 10
150.4946324921515
 20
-90.66441247448734
 10
150.610394002758
 20
-90.4913784034854
 10
150.6868969155912
 20
-90.28457390126352
 10
150.7227362677792
 20
-90.04460956517046
 10
150.7250428063394
 20
-89.96127417380964
  0
LWPOLYLINE
  5
19F
330
70
100
AcDbEntity
  8
0
 62
    18
420
        0
370
    25
100
AcDbPolyline
 90
        9
 70
     0
 43
0.0
 10
150.152426415792
 20
-89.96127417380964
 10
150.148193408963
 20
-90.04869800623005
 10
150.1199694845732
 20
-90.18383620488618
 10
150.0758093404856
 20
-90.27201965904398
 10
150.0256397966715
 20
-90.32087840240018
 10
149.948189093082
 20
-90.3474552646857
 10
149.8532777595462
 20
-90.34338190611263
 10
149.7299697631816
 20
-90.30550992549837
 10
149.6371082318102
 20
-90.25889803214417
  0
LINE
  5
1A0
330
70
100
AcDbEntity
  8
0
 62
    18
420
        0
370
    25
100
AcDbLine
 10
149.6371082318102
 20
-90.25889803214417
 30
0.0
 11
147.7557692993244
 21
-89.17282418413845
 31
0.0
  0
LINE
  5
1A1
330
70
100
AcDbEntity
  8
0
 62
    18
420
        0
370
    25
100
AcDbLine
 10
147.1831529087763
 20
-88.84225977812844
 30
0.0
 11
144.7864957923086
 21
-87.45869907472629
 31
0.0
  0
LINE
  5
1A2
330
70
100
AcDbEntity
  8
0
 62
    18
420
        0
370
    25
100
AcDbLine
 10
144.2138794017606
 20
-87.12813466871626
 30
0.0
 11
141.8172222852929
 21
-85.74457396531409
 31
0.0
  0
LINE
  5
1A3
330
70
100
AcDbEntity
  8
0
 62
    18
420
        0
370
    25
100
AcDbLine
 10
139.4439758393672
 20
-84.37452795429047
 30
0.0
 11
116.5701987218566
 21
-71.16977749539923
 31
0.0
  0
LINE
  5
1A4
330
70
100
AcDbEntity
  8
0
 62
    18
420
        0
370
    25
100
AcDbLine
 10
116.2839137940478
 20
-71.66569126902496
 30
0.0
 11
138.8713129099947
 21
-84.70511922660294
 31
0.0
  0
LINE
  5
1A5
330
70
100
AcDbEntity
  8
0
 62
    18
420
        0
370
    25
100
AcDbLine
 10
140.7801893411981
 20
-85.80709013421559
 30
0.0
 11
141.2446058947449
 21
-86.07519210387126
 31
0.0
  0
LINE
  5
1A6
330
70
100
AcDbEntity
  8
0
 62
    18
420
        0
370
    25
100
AcDbLine
 10
141.8172222852929
 20
-86.40575650988195
 30
0.0
 11
144.2138794017606
 21
-87.78931721328346
 31
0.0
  0
LINE
  5
1A7
330
70
100
AcDbEntity
  8
0
 62
    18
420
        0
370
    25
100
AcDbLine
 10
144.7864957923086
 20
-88.11988161929411
 30
0.0
 11
147.1831529087763
 21
-89.50344232269562
 31
0.0
  0
LINE
  5
1A8
330
70
100
AcDbEntity
  8
0
 62
    18
420
        0
370
    25
100
AcDbLine
 10
147.7557692993244
 20
-89.83400672870629
 30
0.0
 11
149.350823304002
 21
-90.75481180571214
 31
0.0
  0
LINE
  5
1A9
330
70
100
AcDbEntity
  8
0
 62
    18
420
        0
370
    25
100
AcDbLine
 10
109.9997505822561
 20
-70.91106205042532
 30
0.0
 11
109.9997505822561
 21
-75.89685894339061
 31
0.0
  0
LINE
  5
1AA
330
70
100
AcDbEntity
  8
0
 62
    18
420
        0
370
    25
100
AcDbLine
 10
110.5723669728036
 20
-75.89685894339061
 30
0.0
 11
110.5723669728036
 21
-71.24162645643598
 31
0.0
  0
SPLINE
  5
1AB
330
70
100
AcDbEntity
  8
0
 62
    18
420
        0
370
    25
100
AcDbSpline
210
0.0
220
0.0
230
1.0
 70
     8
 71
     3
 72
     8
 73
     4
 74
     0
 42
0.0000000001
 43
0.0000000001
 40
0.0
 40
0.0
 40
0.0
 40
0.0
 40
1.0
 40
1.0
 40
1.0
 40
1.0
 10
109.9997505822876
 20
-75.89685894338099
 30
0.0
 10
110.0254985849268
 20
-76.66708883707859
 30
0.0
 10
110.4335179871663
 20
-77.37379413218656
 30
0.0
 10
111.0876851568233
 20
-77.7812034631158
 30
0.0
  0
SPLINE
  5
1AC
330
70
100
AcDbEntity
  8
0
 62
    18
420
        0
370
    25
100
AcDbSpline
210
0.0
220
0.0
230
1.0
 70
     8
 71
     3
 72
     8
 73
     4
 74
     0
 42
0.0000000001
 43
0.0000000001
 40
0.0
 40
0.0
 40
0.0
 40
0.0
 40
1.0
 40
1.0
 40
1.0
 40
1.0
 10
110.5723669728023
 20
-75.89685894337778
 30
0.0
 10
110.6015963150396
 20
-76.46139572462698
 30
0.0
 10
110.899684138157
 20
-76.97770397317722
 30
0.0
 10
111.3739700845512
 20
-77.28528968949648
 30
0.0
  0
LINE
  5
1AD
330
70
100
AcDbEntity
  8
0
 62
    18
420
        0
370
    25
100
AcDbLine
 10
117.7044854203679
 20
-56.56461379107291
 30
0.0
 11
102.3809763390379
 21
-65.41068728979941
 31
0.0
  0
LINE
  5
1AE
330
70
100
AcDbEntity
  8
0
 62
    18
420
        0
370
    25
100
AcDbLine
 10
105.2441358627453
 20
-65.96176229425285
 30
0.0
 11
118.6587685129291
 21
-58.21765970313899
 31
0.0
  0
LINE
  5
1AF
330
70
100
AcDbEntity
  8
0
 62
    18
420
        0
370
    25
100
AcDbLine
 10
106.2881586984724
 20
-65.35906074001282
 30
0.0
 11
106.2881586984724
 21
-66.56446384843514
 31
0.0
  0
LINE
  5
1B0
330
70
100
AcDbEntity
  8
0
 62
    18
420
        0
370
    25
100
AcDbLine
 10
106.2881586984724
 20
-68.7684056636604
 30
0.0
 11
106.2881586984724
 21
-74.92372207755622
 31
0.0
  0
LINE
  5
1B1
330
70
100
AcDbEntity
  8
0
 62
    18
420
        0
370
    25
100
AcDbLine
 10
106.8607750890201
 20
-74.92372207755622
 30
0.0
 11
106.8607750890201
 21
-69.09897006967042
 31
0.0
  0
LINE
  5
1B2
330
70
100
AcDbEntity
  8
0
 62
    18
420
        0
370
    25
100
AcDbLine
 10
106.8607750890201
 20
-66.89502825444517
 30
0.0
 11
106.8607750890201
 21
-65.0284963340028
 31
0.0
  0
LINE
  5
1B3
330
70
100
AcDbEntity
  8
0
 62
    18
420
        0
370
    25
100
AcDbLine
 10
109.2574322054878
 20
-63.64493563060063
 30
0.0
 11
109.2574322054878
 21
-68.27858895784732
 31
0.0
  0
LINE
  5
1B4
330
70
100
AcDbEntity
  8
0
 62
    18
420
        0
370
    25
100
AcDbLine
 10
109.2574322054878
 20
-70.48253077307258
 30
0.0
 11
109.2574322054878
 21
-73.20959696808628
 31
0.0
  0
LINE
  5
1B5
330
70
100
AcDbEntity
  8
0
 62
    18
420
        0
370
    25
100
AcDbLine
 10
109.8300485960358
 20
-73.20959696808628
 30
0.0
 11
109.8300485960358
 21
-70.81309517908261
 31
0.0
  0
LINE
  5
1B6
330
70
100
AcDbEntity
  8
0
 62
    18
420
        0
370
    25
100
AcDbLine
 10
109.8300485960358
 20
-68.60915336385734
 30
0.0
 11
109.8300485960358
 21
-63.3143712245906
 31
0.0
  0
LINE
  5
1B7
330
70
100
AcDbEntity
  8
0
 62
    18
420
        0
370
    25
100
AcDbLine
 10
112.2267057125035
 20
-61.93081052118845
 30
0.0
 11
112.2267057125035
 21
-69.9927140672595
 31
0.0
  0
LINE
  5
1B8
330
70
100
AcDbEntity
  8
0
 62
    18
420
        0
370
    25
100
AcDbLine
 10
112.7993221030509
 20
-70.32327847326953
 30
0.0
 11
112.7993221030509
 21
-61.60024611517843
 31
0.0
  0
SPLINE
  5
1B9
330
70
100
AcDbEntity
  8
0
 62
    18
420
        0
370
    25
100
AcDbSpline
210
0.0
220
0.0
230
1.0
 70
     8
 71
     3
 72
     8
 73
     4
 74
     0
 42
0.0000000001
 43
0.0000000001
 40
0.0
 40
0.0
 40
0.0
 40
0.0
 40
1.0
 40
1.0
 40
1.0
 40
1.0
 10
106.2881586985035
 20
-74.9237220775466
 30
0.0
 10
106.3139067011428
 20
-75.6939519712442
 30
0.0
 10
106.7219261033825
 20
-76.40065726635215
 30
0.0
 10
107.3760932730392
 20
-76.8080665972814
 30
0.0
  0
SPLINE
  5
1BA
330
70
100
AcDbEntity
  8
0
 62
    18
420
        0
370
    25
100
AcDbSpline
210
0.0
220
0.0
230
1.0
 70
     8
 71
     3
 72
     8
 73
     4
 74
     0
 42
0.0000000001
 43
0.0000000001
 40
0.0
 40
0.0
 40
0.0
 40
0.0
 40
1.0
 40
1.0
 40
1.0
 40
1.0
 10
106.8607750890185
 20
-74.92372207754018
 30
0.0
 10
106.8900044312548
 20
-75.48825885879067
 30
0.0
 10
107.1880922543723
 20
-76.0045671073422
 30
0.0
 10
107.6623782007678
 20
-76.31215282366209
 30
0.0
  0
LINE
  5
1BB
330
70
100
AcDbEntity
  8
0
 62
    18
420
        0
370
    25
100
AcDbLine
 10
115.1959792195192
 20
-60.21668541177627
 30
0.0
 11
115.1959792195192
 21
-69.78134674926256
 31
0.0
  0
LINE
  5
1BC
330
70
100
AcDbEntity
  8
0
 62
    18
420
        0
370
    25
100
AcDbLine
 10
115.7685956100666
 20
-69.78134674926256
 30
0.0
 11
115.7685956100666
 21
-59.88612100576624
 31
0.0
  0
SPLINE
  5
1BD
330
70
100
AcDbEntity
  8
0
 62
    18
420
        0
370
    25
100
AcDbSpline
210
0.0
220
0.0
230
1.0
 70
     8
 71
     3
 72
     8
 73
     4
 74
     0
 42
0.0000000001
 43
0.0000000001
 40
0.0
 40
0.0
 40
0.0
 40
0.0
 40
1.0
 40
1.0
 40
1.0
 40
1.0
 10
109.2574322055073
 20
-73.20959696811645
 30
0.0
 10
109.2785454419633
 20
-73.82579652314452
 30
0.0
 10
109.5459520034423
 20
-74.4077754325628
 30
0.0
 10
109.9997505822625
 20
-74.82516555011547
 30
0.0
  0
LINE
  5
1BE
330
70
100
AcDbEntity
  8
0
 62
    18
420
        0
370
    25
100
AcDbLine
 10
110.6316517078252
 20
-74.5980277142236
 30
0.0
 11
110.5723669728036
 21
-74.56001798002842
 31
0.0
  0
SPLINE
  5
1BF
330
70
100
AcDbEntity
  8
0
 62
    18
420
        0
370
    25
100
AcDbSpline
210
0.0
220
0.0
230
1.0
 70
     8
 71
     3
 72
     8
 73
     4
 74
     0
 42
0.0000000001
 43
0.0000000001
 40
0.0
 40
0.0
 40
0.0
 40
0.0
 40
1.0
 40
1.0
 40
1.0
 40
1.0
 10
109.8300485960288
 20
-73.209596968085
 30
0.0
 10
109.8345280945381
 20
-73.43746114551378
 30
0.0
 10
109.8926682455394
 20
-73.66105912592295
 30
0.0
 10
109.9997505822356
 20
-73.86224441969417
 30
0.0
  0
SPLINE
  5
1C0
330
70
100
AcDbEntity
  8
0
 62
    18
420
        0
370
    25
100
AcDbSpline
210
0.0
220
0.0
230
1.0
 70
     8
 71
     3
 72
     8
 73
     4
 74
     0
 42
0.0000000001
 43
0.0000000001
 40
0.0
 40
0.0
 40
0.0
 40
0.0
 40
1.0
 40
1.0
 40
1.0
 40
1.0
 10
112.4125360944966
 20
-72.30393347852376
 30
0.0
 10
112.5877443067154
 20
-72.75141245820144
 30
0.0
 10
112.9045668333775
 20
-73.12926674768957
 30
0.0
 10
113.3146402870796
 20
-73.37981637840441
 30
0.0
  0
SPLINE
  5
1C1
330
70
100
AcDbEntity
  8
0
 62
    18
420
        0
370
    25
100
AcDbSpline
210
0.0
220
0.0
230
1.0
 70
     8
 71
     3
 72
     8
 73
     4
 74
     0
 42
0.0000000001
 43
0.0000000001
 40
0.0
 40
0.0
 40
0.0
 40
0.0
 40
1.0
 40
1.0
 40
1.0
 40
1.0
 10
115.19597921955
 20
-69.78134674925293
 30
0.0
 10
115.2217272221899
 20
-70.5515766429499
 30
0.0
 10
115.6297466244294
 20
-71.2582819380585
 30
0.0
 10
116.2839137940864
 20
-71.66569126898775
 30
0.0
  0
SPLINE
  5
1C2
330
70
100
AcDbEntity
  8
0
 62
    18
420
        0
370
    25
100
AcDbSpline
210
0.0
220
0.0
230
1.0
 70
     8
 71
     3
 72
     8
 73
     4
 74
     0
 42
0.0000000001
 43
0.0000000001
 40
0.0
 40
0.0
 40
0.0
 40
0.0
 40
1.0
 40
1.0
 40
1.0
 40
1.0
 10
115.7685956100653
 20
-69.78134674924652
 30
0.0
 10
115.7978249523013
 20
-70.345883530497
 30
0.0
 10
116.0959127754188
 20
-70.86219177904853
 30
0.0
 10
116.5701987218143
 20
-71.16977749536779
 30
0.0
  0
SPLINE
  5
1C3
330
70
100
AcDbEntity
  8
0
 62
    18
420
        0
370
    25
100
AcDbSpline
210
0.0
220
0.0
230
1.0
 70
     8
 71
     3
 72
     8
 73
     4
 74
     0
 42
0.0000000001
 43
0.0000000001
 40
0.0
 40
0.0
 40
0.0
 40
0.0
 40
1.0
 40
1.0
 40
1.0
 40
1.0
 10
115.1825725719247
 20
-52.13543564831546
 30
0.0
 10
115.171041672891
 20
-52.14232672606269
 30
0.0
 10
115.1639813127926
 20
-52.15477121289669
 30
0.0
 10
115.1639813127926
 20
-52.16820432813619
 30
0.0
  0
LINE
  5
1C4
330
70
100
AcDbEntity
  8
0
 62
    18
420
        0
370
    25
100
AcDbLine
 10
115.5575123584719
 20
-51.91136472269416
 30
0.0
 11
115.1825725719516
 21
-52.13543564829235
 31
0.0
  0
LINE
  5
1C5
330
70
100
AcDbEntity
  8
0
 62
    18
420
        0
370
    25
100
AcDbLine
 10
115.1639813128304
 20
-52.16820432813619
 30
0.0
 11
115.1639813128304
 21
-58.03121559490917
 31
0.0
  0
LINE
  5
1C6
330
70
100
AcDbEntity
  8
0
 62
    18
420
        0
370
    25
100
AcDbLine
 10
115.1639813128304
 20
-60.23515741013444
 30
0.0
 11
115.1639813128304
 21
-64.5666340324088
 31
0.0
  0
SPLINE
  5
1C7
330
70
100
AcDbEntity
  8
0
 62
    18
420
        0
370
    25
100
AcDbSpline
210
0.0
220
0.0
230
1.0
 70
     8
 71
     3
 72
     8
 73
     4
 74
     0
 42
0.0000000001
 43
0.0000000001
 40
0.0
 40
0.0
 40
0.0
 40
0.0
 40
1.0
 40
1.0
 40
1.0
 40
1.0
 10
121.1959993236211
 20
-68.07088511836555
 30
0.0
 10
121.207631398829
 20
-68.07760017244949
 30
0.0
 10
121.2219365446831
 20
-68.07770828297236
 30
0.0
 10
121.2336687828981
 20
-68.07116980367945
 30
0.0
  0
LINE
  5
1C8
330
70
100
AcDbEntity
  8
0
 62
    18
420
        0
370
    25
100
AcDbLine
 10
121.2336687828859
 20
-68.07116980369421
 30
0.0
 11
121.6152102811231
 21
-67.85853337921345
 31
0.0
  0
LINE
  5
1C9
330
70
100
AcDbEntity
  8
0
 62
    18
420
        0
370
    25
100
AcDbLine
 10
115.18307007699
 20
-64.59969495063503
 30
0.0
 11
115.1959792195192
 21
-64.60714724002302
 31
0.0
  0
LINE
  5
1CA
330
70
100
AcDbEntity
  8
0
 62
    18
420
        0
370
    25
100
AcDbLine
 10
115.7685956100666
 20
-64.93771164603369
 30
0.0
 11
121.1959993236333
 21
-68.07088511835144
 31
0.0
  0
SPLINE
  5
1CB
330
70
100
AcDbEntity
  8
0
 62
    18
420
        0
370
    25
100
AcDbSpline
210
0.0
220
0.0
230
1.0
 70
     8
 71
     3
 72
     8
 73
     4
 74
     0
 42
0.0000000001
 43
0.0000000001
 40
0.0
 40
0.0
 40
0.0
 40
0.0
 40
1.0
 40
1.0
 40
1.0
 40
1.0
 10
115.1639813127926
 20
-64.5666340324088
 30
0.0
 10
115.1639813127926
 20
-64.58027308114961
 30
0.0
 10
115.1712579943318
 20
-64.59287598048373
 30
0.0
 10
115.1830700769778
 20
-64.59969495064979
 30
0.0
  0
SPLINE
  5
1CC
330
70
100
AcDbEntity
  8
0
 62
    18
420
        0
370
    25
100
AcDbSpline
210
0.0
220
0.0
230
1.0
 70
     8
 71
     3
 72
     8
 73
     4
 74
     0
 42
0.0000000001
 43
0.0000000001
 40
0.0
 40
0.0
 40
0.0
 40
0.0
 40
1.0
 40
1.0
 40
1.0
 40
1.0
 10
150.1390197681975
 20
-72.31536307286254
 30
0.0
 10
150.1274888691638
 20
-72.32225415061042
 30
0.0
 10
150.1204285090654
 20
-72.33469863744442
 30
0.0
 10
150.1204285090654
 20
-72.34813175268391
 30
0.0
  0
LINE
  5
1CD
330
70
100
AcDbEntity
  8
0
 62
    18
420
        0
370
    25
100
AcDbLine
 10
150.5139595546876
 20
-72.09129214724125
 30
0.0
 11
150.1390197681667
 21
-72.31536307283943
 31
0.0
  0
LINE
  5
1CE
330
70
100
AcDbEntity
  8
0
 62
    18
420
        0
370
    25
100
AcDbLine
 10
150.1204285090461
 20
-72.34813175268391
 30
0.0
 11
150.1204285090461
 21
-78.2111430194569
 31
0.0
  0
LINE
  5
1CF
330
70
100
AcDbEntity
  8
0
 62
    18
420
        0
370
    25
100
AcDbLine
 10
150.1204285090461
 20
-80.41508483468218
 30
0.0
 11
150.1204285090461
 21
-84.74656145695588
 31
0.0
  0
SPLINE
  5
1D0
330
70
100
AcDbEntity
  8
0
 62
    18
420
        0
370
    25
100
AcDbSpline
210
0.0
220
0.0
230
1.0
 70
     8
 71
     3
 72
     8
 73
     4
 74
     0
 42
0.0000000001
 43
0.0000000001
 40
0.0
 40
0.0
 40
0.0
 40
0.0
 40
1.0
 40
1.0
 40
1.0
 40
1.0
 10
156.1524465198939
 20
-88.25081254291328
 30
0.0
 10
156.1640785951018
 20
-88.25752759699723
 30
0.0
 10
156.1783837409559
 20
-88.25763570751945
 30
0.0
 10
156.1901159791709
 20
-88.25109722822654
 30
0.0
  0
LINE
  5
1D1
330
70
100
AcDbEntity
  8
0
 62
    18
420
        0
370
    25
100
AcDbLine
 10
156.1901159791587
 20
-88.25109722824194
 30
0.0
 11
156.5716574773388
 21
-88.03846080376054
 31
0.0
  0
LINE
  5
1D2
330
70
100
AcDbEntity
  8
0
 62
    18
420
        0
370
    25
100
AcDbLine
 10
150.1395172732628
 20
-84.77962237518211
 30
0.0
 11
150.152426415792
 21
-84.78707466457075
 31
0.0
  0
LINE
  5
1D3
330
70
100
AcDbEntity
  8
0
 62
    18
420
        0
370
    25
100
AcDbLine
 10
150.7250428063394
 20
-85.11763907058078
 30
0.0
 11
156.1524465198484
 21
-88.25081254295565
 31
0.0
  0
SPLINE
  5
1D4
330
70
100
AcDbEntity
  8
0
 62
    18
420
        0
370
    25
100
AcDbSpline
210
0.0
220
0.0
230
1.0
 70
     8
 71
     3
 72
     8
 73
     4
 74
     0
 42
0.0000000001
 43
0.0000000001
 40
0.0
 40
0.0
 40
0.0
 40
0.0
 40
1.0
 40
1.0
 40
1.0
 40
1.0
 10
150.1204285090654
 20
-84.74656145695588
 30
0.0
 10
150.1204285090654
 20
-84.76020050569735
 30
0.0
 10
150.1277051906046
 20
-84.7728034050308
 30
0.0
 10
150.1395172732506
 20
-84.77962237519687
 30
0.0
  0
LWPOLYLINE
  5
1D5
330
70
100
AcDbEntity
  8
0
 62
    18
420
        0
370
    25
100
AcDbPolyline
 90
       20
 70
     0
 43
0.0
 10
102.3809763390379
 20
-66.51283729864855
 10
102.3013523996933
 20
-66.46267023643922
 10
102.1664111188893
 20
-66.35139950457563
 10
102.0669847026512
 20
-66.22828984328923
 10
102.0060941722135
 20
-66.09708187728113
 10
101.9855896556572
 20
-65.96176229425285
 10
102.0060941722135
 20
-65.82644271116618
 10
102.0669847026512
 20
-65.69523474515873
 10
102.1664111188893
 20
-65.5721250838723
 10
102.3013523996933
 20
-65.46085435206585
 10
102.4677084224568
 20
-65.36480345453601
 10
102.6604245436285
 20
-65.28689084936333
 10
102.8736451813561
 20
-65.2294838715071
 10
103.1008917345002
 20
-65.19432680297235
 10
103.335259431542
 20
-65.18248787349176
 10
103.5696271285841
 20
-65.19432680297235
 10
103.7968736817856
 20
-65.2294838715071
 10
104.0100943195133
 20
-65.28689084936333
 10
104.202810440685
 20
-65.36480345453601
 10
104.2895425241038
 20
-65.41068728979941
  0
LINE
  5
1D6
330
70
100
AcDbEntity
  8
0
 62
    18
420
        0
370
    25
100
AcDbLine
 10
138.2917066278151
 20
-86.92083749576884
 30
0.0
 11
138.2917066278151
 21
-87.24366062641257
 31
0.0
  0
LINE
  5
1D7
330
70
100
AcDbEntity
  8
0
 62
    18
420
        0
370
    25
100
AcDbLine
 10
138.2917066278151
 20
-85.03971881118729
 30
0.0
 11
138.2917066278151
 21
-86.92083749576884
 31
0.0
  0
SPLINE
  5
1D8
330
70
100
AcDbEntity
  8
0
 62
    18
420
        0
370
    25
100
AcDbSpline
210
0.0
220
0.0
230
1.0
 70
     8
 71
     3
 72
     8
 73
     4
 74
     0
 42
0.0000000001
 43
0.0000000001
 40
0.0
 40
0.0
 40
0.0
 40
0.0
 40
1.0
 40
1.0
 40
1.0
 40
1.0
 10
153.1380741628584
 20
-76.7917897509266
 30
0.0
 10
152.9991868106253
 20
-76.69114331109454
 30
0.0
 10
152.8168619169962
 20
-76.67308874376698
 30
0.0
 10
152.6609326165881
 20
-76.74454121563027
 30
0.0
  0
LWPOLYLINE
  5
1D9
330
70
100
AcDbEntity
  8
0
 62
    18
420
        0
370
    25
100
AcDbPolyline
 90
       10
 70
     0
 43
0.0
 10
153.6152157091448
 20
-78.39758712768608
 10
153.6893939491145
 20
-78.33872653363323
 10
153.7739447066821
 20
-78.19910753888435
 10
153.8113358549568
 20
-78.01290944068519
 10
153.7987942634944
 20
-77.7939417001886
 10
153.7372500847466
 20
-77.55844415296029
 10
153.6312677689658
 20
-77.32388257482302
 10
153.4887075395751
 20
-77.10765332497299
 10
153.3201424367018
 20
-76.92579313761203
 10
153.1380741628931
 20
-76.79178975092082
  0
LWPOLYLINE
  5
1DA
330
70
100
AcDbEntity
  8
0
 62
    18
420
        0
370
    25
100
AcDbPolyline
 90
       10
 70
     0
 43
0.0
 10
118.1816269666202
 20
-56.61186232637309
 10
118.3636952404861
 20
-56.74586571306496
 10
118.5322603433594
 20
-56.92772590042526
 10
118.674820572693
 20
-57.14395515027529
 10
118.7808028885309
 20
-57.37851672841321
 10
118.8423470672787
 20
-57.61401427564151
 10
118.8548886587411
 20
-57.8329820161381
 10
118.8174975104664
 20
-58.01918011433727
 10
118.7329467528417
 20
-58.15879910908615
 10
118.6587685129291
 20
-58.21765970313899
  0
SPLINE
  5
1DB
330
70
100
AcDbEntity
  8
0
 62
    18
420
        0
370
    25
100
AcDbSpline
210
0.0
220
0.0
230
1.0
 70
     8
 71
     3
 72
     8
 73
     4
 74
     0
 42
0.0000000001
 43
0.0000000001
 40
0.0
 40
0.0
 40
0.0
 40
0.0
 40
1.0
 40
1.0
 40
1.0
 40
1.0
 10
118.1816269666421
 20
-56.61186232637823
 30
0.0
 10
118.0427396144089
 20
-56.51121588654747
 30
0.0
 10
117.8604147207799
 20
-56.49316131921989
 30
0.0
 10
117.7044854203724
 20
-56.56461379108318
 30
0.0
  0
SPLINE
  5
1DC
330
70
100
AcDbEntity
  8
0
 62
    18
420
        0
370
    25
100
AcDbSpline
210
0.0
220
0.0
230
1.0
 70
     8
 71
     3
 72
     8
 73
     4
 74
     0
 42
0.0000000001
 43
0.0000000001
 40
0.0
 40
0.0
 40
0.0
 40
0.0
 40
1.0
 40
1.0
 40
1.0
 40
1.0
 10
121.1880915899441
 20
-55.6549774514044
 30
0.0
 10
121.2049360698808
 20
-55.66369628035623
 30
0.0
 10
121.2249536045542
 20
-55.66374670270016
 30
0.0
 10
121.2418417943311
 20
-55.65511284326784
 30
0.0
  0
SPLINE
  5
1DD
330
70
100
AcDbEntity
  8
0
 62
    18
420
        0
370
    25
100
AcDbSpline
210
0.0
220
0.0
230
1.0
 70
     8
 71
     3
 72
     8
 73
     4
 74
     0
 42
0.0000000001
 43
0.0000000001
 40
0.0
 40
0.0
 40
0.0
 40
0.0
 40
1.0
 40
1.0
 40
1.0
 40
1.0
 10
121.2148494266524
 20
-55.60836069115057
 30
0.0
 10
121.1989271627692
 20
-55.61866839742396
 30
0.0
 10
121.1889617353438
 20
-55.6360298884321
 30
0.0
 10
121.1880915899582
 20
-55.65497745140954
 30
0.0
  0
SPLINE
  5
1DE
330
70
100
AcDbEntity
  8
0
 62
    18
420
        0
370
    25
100
AcDbSpline
210
0.0
220
0.0
230
1.0
 70
     8
 71
     3
 72
     8
 73
     4
 74
     0
 42
0.0000000001
 43
0.0000000001
 40
0.0
 40
0.0
 40
0.0
 40
0.0
 40
1.0
 40
1.0
 40
1.0
 40
1.0
 10
121.2418417943323
 20
-55.65511284325757
 30
0.0
 10
121.2408261234966
 20
-55.63611264065875
 30
0.0
 10
121.2307962493756
 20
-55.61874038913931
 30
0.0
 10
121.2148494266402
 20
-55.60836069113452
 30
0.0
  0
LINE
  5
1DF
330
70
100
AcDbEntity
  8
0
 62
    18
420
        0
370
    25
100
AcDbLine
 10
121.6232848952153
 20
-55.43490980893192
 30
0.0
 11
121.2418417943477
 21
-55.65511284325886
 31
0.0
  0
LINE
  5
1E0
330
70
100
AcDbEntity
  8
0
 62
    18
420
        0
370
    25
100
AcDbLine
 10
121.2148494266639
 20
-55.60836069112683
 30
0.0
 11
121.5962925275315
 21
-55.38815765680054
 31
0.0
  0
SPLINE
  5
1E1
330
70
100
AcDbEntity
  8
0
 62
    18
420
        0
370
    25
100
AcDbSpline
210
0.0
220
0.0
230
1.0
 70
     8
 71
     3
 72
     8
 73
     4
 74
     0
 42
0.0000000001
 43
0.0000000001
 40
0.0
 40
0.0
 40
0.0
 40
0.0
 40
1.0
 40
1.0
 40
1.0
 40
1.0
 10
121.623284895257
 20
-55.43490980896016
 30
0.0
 10
121.6224184440372
 20
-55.41586564289919
 30
0.0
 10
121.6123520335833
 20
-55.39843010859392
 30
0.0
 10
121.5962925275642
 20
-55.38815765683711
 30
0.0
  0
LINE
  5
1E2
330
70
100
AcDbEntity
  8
0
 62
    18
420
        0
370
    25
100
AcDbLine
 10
121.2418417943477
 20
-55.65511284325886
 30
0.0
 11
121.2418417943477
 21
-68.05354254753082
 31
0.0
  0
SPLINE
  5
1E3
330
70
100
AcDbEntity
  8
0
 62
    18
420
        0
370
    25
100
AcDbSpline
210
0.0
220
0.0
230
1.0
 70
     8
 71
     3
 72
     8
 73
     4
 74
     0
 42
0.0000000001
 43
0.0000000001
 40
0.0
 40
0.0
 40
0.0
 40
0.0
 40
1.0
 40
1.0
 40
1.0
 40
1.0
 10
121.1880915899441
 20
-68.05340715567637
 30
0.0
 10
121.2049360698808
 20
-68.0621259846282
 30
0.0
 10
121.2249536045542
 20
-68.06217640697276
 30
0.0
 10
121.2418417943311
 20
-68.0535425475398
 30
0.0
  0
LINE
  5
1E4
330
70
100
AcDbEntity
  8
0
 62
    18
420
        0
370
    25
100
AcDbLine
 10
121.1880915899416
 20
-68.05340715564942
 30
0.0
 11
121.1880915899416
 21
-55.65497745137681
 31
0.0
  0
LINE
  5
1E5
330
70
100
AcDbEntity
  8
0
 62
    18
420
        0
370
    25
100
AcDbLine
 10
115.2019201800206
 20
-52.13717052341042
 30
0.0
 11
121.2148494266639
 21
-55.60836069112683
 31
0.0
  0
LINE
  5
1E6
330
70
100
AcDbEntity
  8
0
 62
    18
420
        0
370
    25
100
AcDbLine
 10
121.1880915899416
 20
-55.65497745137681
 30
0.0
 11
115.175162343356
 21
-52.18378728366104
 31
0.0
  0
SPLINE
  5
1E7
330
70
100
AcDbEntity
  8
0
 62
    18
420
        0
370
    25
100
AcDbSpline
210
0.0
220
0.0
230
1.0
 70
     8
 71
     3
 72
     8
 73
     4
 74
     0
 42
0.0000000001
 43
0.0000000001
 40
0.0
 40
0.0
 40
0.0
 40
0.0
 40
1.0
 40
1.0
 40
1.0
 40
1.0
 10
115.2019201800091
 20
-52.13717052337705
 30
0.0
 10
115.1859979161265
 20
-52.14747822965044
 30
0.0
 10
115.1760324887012
 20
-52.16483972065922
 30
0.0
 10
115.175162343315
 20
-52.18378728363666
 30
0.0
  0
LINE
  5
1E8
330
70
100
AcDbEntity
  8
0
 62
    18
420
        0
370
    25
100
AcDbLine
 10
121.6232848952153
 20
-55.43490980893192
 30
0.0
 11
121.6232848952153
 21
-67.84096096074669
 31
0.0
  0
LINE
  5
1E9
330
70
100
AcDbEntity
  8
0
 62
    18
420
        0
370
    25
100
AcDbLine
 10
121.2418417943477
 20
-68.05354254753082
 30
0.0
 11
121.6232848952153
 21
-67.84096096074669
 31
0.0
  0
LINE
  5
1EA
330
70
100
AcDbEntity
  8
0
 62
    18
420
        0
370
    25
100
AcDbLine
 10
115.5767632712735
 20
-51.91315738465497
 30
0.0
 11
115.2019201800206
 21
-52.13717052341042
 31
0.0
  0
LINE
  5
1EB
330
70
100
AcDbEntity
  8
0
 62
    18
420
        0
370
    25
100
AcDbLine
 10
115.5767632712735
 20
-51.91315738465497
 30
0.0
 11
121.5962925275315
 21
-55.38815765680054
 31
0.0
  0
SPLINE
  5
1EC
330
70
100
AcDbEntity
  8
0
 62
    18
420
        0
370
    25
100
AcDbSpline
210
0.0
220
0.0
230
1.0
 70
     8
 71
     3
 72
     8
 73
     4
 74
     0
 42
0.0000000001
 43
0.0000000001
 40
0.0
 40
0.0
 40
0.0
 40
0.0
 40
1.0
 40
1.0
 40
1.0
 40
1.0
 10
115.5767632712786
 20
-51.91315738463379
 30
0.0
 10
115.5711731717672
 20
-51.90904158382187
 30
0.0
 10
115.5637662864903
 20
-51.90835184813822
 30
0.0
 10
115.5575123584495
 20
-51.91136472266785
 30
0.0
  0
SPLINE
  5
1ED
330
70
100
AcDbEntity
  8
0
 62
    18
420
        0
370
    25
100
AcDbSpline
210
0.0
220
0.0
230
1.0
 70
     8
 71
     3
 72
     8
 73
     4
 74
     0
 42
0.0000000001
 43
0.0000000001
 40
0.0
 40
0.0
 40
0.0
 40
0.0
 40
1.0
 40
1.0
 40
1.0
 40
1.0
 10
121.6152102811462
 20
-67.85853337916468
 30
0.0
 10
121.6210406776142
 20
-67.85470192048151
 30
0.0
 10
121.6241751186656
 20
-67.84788057781423
 30
0.0
 10
121.6232848952615
 20
-67.8409609607069
 30
0.0
  0
SPLINE
  5
1EE
330
70
100
AcDbEntity
  8
0
 62
    18
420
        0
370
    25
100
AcDbSpline
210
0.0
220
0.0
230
1.0
 70
     8
 71
     3
 72
     8
 73
     4
 74
     0
 42
0.0000000001
 43
0.0000000001
 40
0.0
 40
0.0
 40
0.0
 40
0.0
 40
1.0
 40
1.0
 40
1.0
 40
1.0
 10
156.1445387862169
 20
-75.83490487595149
 30
0.0
 10
156.1613832661536
 20
-75.84362370490331
 30
0.0
 10
156.181400800827
 20
-75.84367412724787
 30
0.0
 10
156.1982889906039
 20
-75.83504026781492
 30
0.0
  0
SPLINE
  5
1EF
330
70
100
AcDbEntity
  8
0
 62
    18
420
        0
370
    25
100
AcDbSpline
210
0.0
220
0.0
230
1.0
 70
     8
 71
     3
 72
     8
 73
     4
 74
     0
 42
0.0000000001
 43
0.0000000001
 40
0.0
 40
0.0
 40
0.0
 40
0.0
 40
1.0
 40
1.0
 40
1.0
 40
1.0
 10
156.1712966228674
 20
-75.78828811569765
 30
0.0
 10
156.1553743589849
 20
-75.79859582197169
 30
0.0
 10
156.1454089315595
 20
-75.81595731297982
 30
0.0
 10
156.1445387861733
 20
-75.83490487595726
 30
0.0
  0
SPLINE
  5
1F0
330
70
100
AcDbEntity
  8
0
 62
    18
420
        0
370
    25
100
AcDbSpline
210
0.0
220
0.0
230
1.0
 70
     8
 71
     3
 72
     8
 73
     4
 74
     0
 42
0.0000000001
 43
0.0000000001
 40
0.0
 40
0.0
 40
0.0
 40
0.0
 40
1.0
 40
1.0
 40
1.0
 40
1.0
 10
156.1982889906058
 20
-75.83504026780466
 30
0.0
 10
156.1972733197694
 20
-75.81604006520584
 30
0.0
 10
156.187243445649
 20
-75.7986678136864
 30
0.0
 10
156.171296622913
 20
-75.78828811568161
 30
0.0
  0
LINE
  5
1F1
330
70
100
AcDbEntity
  8
0
 62
    18
420
        0
370
    25
100
AcDbLine
 10
156.5797320914881
 20
-75.61483723347965
 30
0.0
 11
156.1982889905634
 21
-75.83504026780594
 31
0.0
  0
LINE
  5
1F2
330
70
100
AcDbEntity
  8
0
 62
    18
420
        0
370
    25
100
AcDbLine
 10
156.1712966228796
 20
-75.7882881156739
 30
0.0
 11
156.5527397238043
 21
-75.56808508140473
 31
0.0
  0
SPLINE
  5
1F3
330
70
100
AcDbEntity
  8
0
 62
    18
420
        0
370
    25
100
AcDbSpline
210
0.0
220
0.0
230
1.0
 70
     8
 71
     3
 72
     8
 73
     4
 74
     0
 42
0.0000000001
 43
0.0000000001
 40
0.0
 40
0.0
 40
0.0
 40
0.0
 40
1.0
 40
1.0
 40
1.0
 40
1.0
 10
156.5797320914727
 20
-75.61483723350725
 30
0.0
 10
156.5788656402529
 20
-75.59579306744628
 30
0.0
 10
156.568799229799
 20
-75.57835753314101
 30
0.0
 10
156.5527397237799
 20
-75.5680850813842
 30
0.0
  0
LINE
  5
1F4
330
70
100
AcDbEntity
  8
0
 62
    18
420
        0
370
    25
100
AcDbLine
 10
156.1982889905634
 20
-75.83504026780594
 30
0.0
 11
156.1982889905634
 21
-88.23346997207854
 31
0.0
  0
SPLINE
  5
1F5
330
70
100
AcDbEntity
  8
0
 62
    18
420
        0
370
    25
100
AcDbSpline
210
0.0
220
0.0
230
1.0
 70
     8
 71
     3
 72
     8
 73
     4
 74
     0
 42
0.0000000001
 43
0.0000000001
 40
0.0
 40
0.0
 40
0.0
 40
0.0
 40
1.0
 40
1.0
 40
1.0
 40
1.0
 10
156.1445387862169
 20
-88.23333458022345
 30
0.0
 10
156.1613832661536
 20
-88.24205340917528
 30
0.0
 10
156.181400800827
 20
-88.24210383151983
 30
0.0
 10
156.1982889906039
 20
-88.23346997208753
 30
0.0
  0
LINE
  5
1F6
330
70
100
AcDbEntity
  8
0
 62
    18
420
        0
370
    25
100
AcDbLine
 10
156.1445387862144
 20
-88.23333458025361
 30
0.0
 11
156.1445387862144
 21
-75.83490487592453
 31
0.0
  0
LINE
  5
1F7
330
70
100
AcDbEntity
  8
0
 62
    18
420
        0
370
    25
100
AcDbLine
 10
150.1583673762364
 20
-72.31709794795815
 30
0.0
 11
156.1712966228796
 21
-75.7882881156739
 31
0.0
  0
LINE
  5
1F8
330
70
100
AcDbEntity
  8
0
 62
    18
420
        0
370
    25
100
AcDbLine
 10
156.1445387862144
 20
-75.83490487592453
 30
0.0
 11
150.1316095395711
 21
-72.36371470820812
 31
0.0
  0
SPLINE
  5
1F9
330
70
100
AcDbEntity
  8
0
 62
    18
420
        0
370
    25
100
AcDbSpline
210
0.0
220
0.0
230
1.0
 70
     8
 71
     3
 72
     8
 73
     4
 74
     0
 42
0.0000000001
 43
0.0000000001
 40
0.0
 40
0.0
 40
0.0
 40
0.0
 40
1.0
 40
1.0
 40
1.0
 40
1.0
 10
150.1583673762819
 20
-72.31709794798189
 30
0.0
 10
150.1424451123994
 20
-72.32740565425527
 30
0.0
 10
150.132479684974
 20
-72.34476714526342
 30
0.0
 10
150.1316095395878
 20
-72.36371470824085
 30
0.0
  0
LINE
  5
1FA
330
70
100
AcDbEntity
  8
0
 62
    18
420
        0
370
    25
100
AcDbLine
 10
156.5797320914881
 20
-75.61483723347965
 30
0.0
 11
156.5797320914881
 21
-88.02088838529376
 31
0.0
  0
LINE
  5
1FB
330
70
100
AcDbEntity
  8
0
 62
    18
420
        0
370
    25
100
AcDbLine
 10
156.1982889905634
 20
-88.23346997207854
 30
0.0
 11
156.5797320914881
 21
-88.02088838529376
 31
0.0
  0
LINE
  5
1FC
330
70
100
AcDbEntity
  8
0
 62
    18
420
        0
370
    25
100
AcDbLine
 10
150.533210467547
 20
-72.09308480920269
 30
0.0
 11
150.1583673762364
 21
-72.31709794795815
 31
0.0
  0
LINE
  5
1FD
330
70
100
AcDbEntity
  8
0
 62
    18
420
        0
370
    25
100
AcDbLine
 10
150.533210467547
 20
-72.09308480920269
 30
0.0
 11
156.5527397238043
 21
-75.56808508140473
 31
0.0
  0
SPLINE
  5
1FE
330
70
100
AcDbEntity
  8
0
 62
    18
420
        0
370
    25
100
AcDbSpline
210
0.0
220
0.0
230
1.0
 70
     8
 71
     3
 72
     8
 73
     4
 74
     0
 42
0.0000000001
 43
0.0000000001
 40
0.0
 40
0.0
 40
0.0
 40
0.0
 40
1.0
 40
1.0
 40
1.0
 40
1.0
 10
150.5332104675515
 20
-72.09308480923863
 30
0.0
 10
150.52762036804
 20
-72.0889690084267
 30
0.0
 10
150.5202134827631
 20
-72.08827927274305
 30
0.0
 10
150.5139595547223
 20
-72.09129214727269
 30
0.0
  0
SPLINE
  5
1FF
330
70
100
AcDbEntity
  8
0
 62
    18
420
        0
370
    25
100
AcDbSpline
210
0.0
220
0.0
230
1.0
 70
     8
 71
     3
 72
     8
 73
     4
 74
     0
 42
0.0000000001
 43
0.0000000001
 40
0.0
 40
0.0
 40
0.0
 40
0.0
 40
1.0
 40
1.0
 40
1.0
 40
1.0
 10
156.5716574773613
 20
-88.03846080376953
 30
0.0
 10
156.5774878738299
 20
-88.03462934508571
 30
0.0
 10
156.5806223148813
 20
-88.02780800241905
 30
0.0
 10
156.5797320914766
 20
-88.02088838531174
 30
0.0
  0
LWPOLYLINE
  5
200
330
70
100
AcDbEntity
  8
0
 62
     8
420
  8421504
370
    25
100
AcDbPolyline
 90
        9
 70
     0
 43
0.0
 10
141.8172222852929
 20
-95.1036495021033
 10
141.7954283715909
 20
-95.16690026282132
 10
141.7333645564102
 20
-95.22052166862279
 10
141.6404794929108
 20
-95.25635034649697
 10
141.5309140900192
 20
-95.26893170508008
 10
141.4213486871276
 20
-95.25635034649697
 10
141.3284636236276
 20
-95.22052166862279
 10
141.2663998083898
 20
-95.16690026282132
 10
141.2446058947449
 20
-95.1036495021033
  0
LWPOLYLINE
  5
201
330
70
100
AcDbEntity
  8
0
 62
     8
420
  8421504
370
    25
100
AcDbPolyline
 90
        9
 70
     0
 43
0.0
 10
144.7864957923086
 20
-93.38952439263401
 10
144.7647018786067
 20
-93.45277515340914
 10
144.7026380634259
 20
-93.5063965592106
 10
144.6097529999265
 20
-93.54222523708477
 10
144.5001875970343
 20
-93.5548065956679
 10
144.3906221941427
 20
-93.54222523708477
 10
144.2977371306433
 20
-93.5063965592106
 10
144.2356733154055
 20
-93.45277515340914
 10
144.2138794017606
 20
-93.38952439263401
  0
LWPOLYLINE
  5
202
330
70
100
AcDbEntity
  8
0
 62
     8
420
  8421504
370
    25
100
AcDbPolyline
 90
       10
 70
     0
 43
0.0
 10
131.6272154771013
 20
-88.05156426469251
 10
131.6054215634564
 20
-88.11481502546765
 10
131.5433577482185
 20
-88.1684364312691
 10
131.4504726847192
 20
-88.20426510914328
 10
131.3409072818269
 20
-88.21684646772576
 10
131.2313418789354
 20
-88.20426510914328
 10
131.138456815436
 20
-88.1684364312691
 10
131.0763930002552
 20
-88.11481502546765
 10
131.0545990865532
 20
-88.05156426469251
 10
131.0545990865532
 20
-88.05156426469251
  0
LWPOLYLINE
  5
203
330
70
100
AcDbEntity
  8
0
 62
     8
420
  8421504
370
    25
100
AcDbPolyline
 90
        9
 70
     0
 43
0.0
 10
147.7557692993244
 20
-91.67539928322183
 10
147.7339753856224
 20
-91.73865004399695
 10
147.6719115704416
 20
-91.7922714497984
 10
147.5790265069416
 20
-91.8281001276726
 10
147.46946110405
 20
-91.84068148625572
 10
147.3598957011584
 20
-91.8281001276726
 10
147.2670106376591
 20
-91.7922714497984
 10
147.2049468224212
 20
-91.73865004399695
 10
147.1831529087763
 20
-91.67539928322183
  0
LWPOLYLINE
  5
204
330
70
100
AcDbEntity
  8
0
 62
     8
420
  8421504
370
    25
100
AcDbPolyline
 90
        3
 70
     0
 43
0.0
 10
130.3961384386676
 20
-88.36336268358797
 10
130.4736128780654
 20
-88.33643326173444
 10
130.5386933888786
 20
-88.34885173093864
  0
LWPOLYLINE
  5
205
330
70
100
AcDbEntity
  8
0
 62
     8
420
  8421504
370
    25
100
AcDbPolyline
 90
        7
 70
     0
 43
0.0
 10
130.2529263508519
 20
-88.845061664453
 10
130.209098596436
 20
-88.79458543543057
 10
130.1936879722767
 20
-88.71401717635874
 10
130.209098596436
 20
-88.61565618941673
 10
130.2529843410311
 20
-88.51447704313674
 10
130.3186639993276
 20
-88.42588334541009
 10
130.3961384386676
 20
-88.36336268358797
  0
LWPOLYLINE
  5
206
330
70
100
AcDbEntity
  8
0
 62
     8
420
  8421504
370
    25
100
AcDbPolyline
 90
        3
 70
     0
 43
0.0
 10
140.5861452468593
 20
-95.41544792099939
 10
140.6636196861993
 20
-95.38851849908811
 10
140.7287001970709
 20
-95.40093696829231
  0
LWPOLYLINE
  5
207
330
70
100
AcDbEntity
  8
0
 62
     8
420
  8421504
370
    25
100
AcDbPolyline
 90
        7
 70
     0
 43
0.0
 10
140.4429331590435
 20
-95.89714690186379
 10
140.3991054046276
 20
-95.84667067284136
 10
140.3836947804683
 20
-95.76610241377016
 10
140.3991054046276
 20
-95.66774142677104
 10
140.4429911492227
 20
-95.56656228049105
 10
140.5086708075192
 20
-95.47796858276376
 10
140.5861452468593
 20
-95.41544792099939
  0
LWPOLYLINE
  5
208
330
70
100
AcDbEntity
  8
0
 62
     8
420
  8421504
370
    25
100
AcDbPolyline
 90
        9
 70
     0
 43
0.0
 10
150.7250428063394
 20
-89.96127417380964
 10
150.7032488926374
 20
-90.02452493458477
 10
150.6411850774573
 20
-90.07814634038622
 10
150.5483000139573
 20
-90.11397501826042
 10
150.4387346110657
 20
-90.12655637684353
 10
150.3291692081741
 20
-90.11397501826042
 10
150.2362841446741
 20
-90.07814634038622
 10
150.1742203294362
 20
-90.02452493458477
 10
150.152426415792
 20
-89.96127417380964
  0
LWPOLYLINE
  5
209
330
70
100
AcDbEntity
  8
0
 62
     8
420
  8421504
370
    25
100
AcDbPolyline
 90
        3
 70
     0
 43
0.0
 10
111.2308276206892
 20
-77.29946425008884
 10
111.3083020600299
 20
-77.27253482817758
 10
111.3739700845365
 20
-77.28528968947017
  0
LWPOLYLINE
  5
20A
330
70
100
AcDbEntity
  8
0
 62
     8
420
  8421504
370
    25
100
AcDbPolyline
 90
        8
 70
     0
 43
0.0
 10
111.0876851567854
 20
-77.78120346309527
 10
111.0876735230526
 20
-77.78119674596169
 10
111.0437877784575
 20
-77.73068700193147
 10
111.0283771542982
 20
-77.65011874285963
 10
111.0437877784575
 20
-77.55175775586052
 10
111.0876735230526
 20
-77.45057860958052
 10
111.153353181292
 20
-77.36198491185323
 10
111.2308276206892
 20
-77.29946425008884
  0
LWPOLYLINE
  5
20B
330
70
100
AcDbEntity
  8
0
 62
     8
420
  8421504
370
    25
100
AcDbPolyline
 90
        3
 70
     0
 43
0.0
 10
107.5192357369057
 20
-76.32632738425446
 10
107.5967101762458
 20
-76.29939796234317
 10
107.6623782008101
 20
-76.31215282363578
  0
LWPOLYLINE
  5
20C
330
70
100
AcDbEntity
  8
0
 62
     8
420
  8421504
370
    25
100
AcDbPolyline
 90
        8
 70
     0
 43
0.0
 10
107.3760932730013
 20
-76.80806659726086
 10
107.3760816392685
 20
-76.8080598801273
 10
107.3321958946738
 20
-76.75755013609708
 10
107.3167852705144
 20
-76.67698187702523
 10
107.3321958946738
 20
-76.57862089002612
 10
107.3760816392685
 20
-76.47744174374612
 10
107.4417612975657
 20
-76.38884804601882
 10
107.5192357369057
 20
-76.32632738425446
  0
LWPOLYLINE
  5
20D
330
70
100
AcDbEntity
  8
0
 62
     8
420
  8421504
370
    25
100
AcDbPolyline
 90
        3
 70
     0
 43
0.0
 10
143.555418753875
 20
-93.7013228115301
 10
143.632893193215
 20
-93.67439338967592
 10
143.697973704086
 20
-93.68681185888013
  0
LWPOLYLINE
  5
20E
330
70
100
AcDbEntity
  8
0
 62
     8
420
  8421504
370
    25
100
AcDbPolyline
 90
        7
 70
     0
 43
0.0
 10
143.4122066660592
 20
-94.18302179245159
 10
143.3683789116433
 20
-94.13254556337207
 10
143.352968287484
 20
-94.05197730430087
 10
143.3683789116433
 20
-93.95361631735886
 10
143.4122646562378
 20
-93.85243717107888
 10
143.4779443145349
 20
-93.76384347335157
 10
143.555418753875
 20
-93.7013228115301
  0
LINE
  5
20F
330
70
100
AcDbEntity
  8
0
 62
     8
420
  8421504
370
    25
100
AcDbLine
 10
110.5723669728036
 20
-74.58479063211197
 30
0.0
 11
110.6316517078252
 21
-74.5980277142236
 31
0.0
  0
LWPOLYLINE
  5
210
330
70
100
AcDbEntity
  8
0
 62
     8
420
  8421504
370
    25
100
AcDbPolyline
 90
        3
 70
     0
 43
0.0
 10
146.5246922608907
 20
-91.98719770211791
 10
146.6021667002307
 20
-91.96026828026374
 10
146.6672472111017
 20
-91.97268674946794
  0
LWPOLYLINE
  5
211
330
70
100
AcDbEntity
  8
0
 62
     8
420
  8421504
370
    25
100
AcDbPolyline
 90
        7
 70
     0
 43
0.0
 10
146.3814801730749
 20
-92.4688966829823
 10
146.337652418659
 20
-92.41842045395989
 10
146.3222417944991
 20
-92.33785219488868
 10
146.337652418659
 20
-92.23949120794669
 10
146.3815381632535
 20
-92.1383120616667
 10
146.4472178215506
 20
-92.04971836393939
 10
146.5246922608907
 20
-91.98719770211791
  0
LWPOLYLINE
  5
212
330
70
100
AcDbEntity
  8
0
 62
     8
420
  8421504
370
    25
100
AcDbPolyline
 90
        8
 70
     0
 43
0.0
 10
113.3146402870328
 20
-73.3798163784365
 10
113.3146286533
 20
-73.37980966130293
 10
113.2707429087049
 20
-73.32929991721496
 10
113.2553322845456
 20
-73.24873165814375
 10
113.2707429087049
 20
-73.15037067120176
 10
113.3146286533
 20
-73.04919152492177
 10
113.3803083115965
 20
-72.96059782719446
 10
113.4499117948501
 20
-72.90279772316313
  0
LWPOLYLINE
  5
213
330
70
100
AcDbEntity
  8
0
 62
     8
420
  8421504
370
    25
100
AcDbPolyline
 90
        3
 70
     0
 43
0.0
 10
149.4939657679064
 20
-90.27307259270573
 10
149.5714402072464
 20
-90.24614317085157
 10
149.6365207181174
 20
-90.25856163999865
  0
LWPOLYLINE
  5
214
330
70
100
AcDbEntity
  8
0
 62
     8
420
  8421504
370
    25
100
AcDbPolyline
 90
        7
 70
     0
 43
0.0
 10
149.35075368009
 20
-90.75477157357012
 10
149.3069259256741
 20
-90.7042953445477
 10
149.2915153015148
 20
-90.6237270854765
 10
149.3069259256741
 20
-90.52536609847676
 10
149.3508116702692
 20
-90.42418695225451
 10
149.4164913285657
 20
-90.33559325452721
 10
149.4939657679064
 20
-90.27307259270573
  0
LWPOLYLINE
  5
215
330
70
100
AcDbEntity
  8
0
 62
     8
420
  8421504
370
    25
100
AcDbPolyline
 90
        3
 70
     0
 43
0.0
 10
116.4270562579522
 20
-71.1839520559608
 10
116.5045306972923
 20
-71.15702263410664
 10
116.5701987218566
 20
-71.16977749539923
  0
LWPOLYLINE
  5
216
330
70
100
AcDbEntity
  8
0
 62
     8
420
  8421504
370
    25
100
AcDbPolyline
 90
        8
 70
     0
 43
0.0
 10
116.2839137940478
 20
-71.66569126902496
 10
116.2839021603157
 20
-71.66568455189075
 10
116.2400164157206
 20
-71.61517480780277
 10
116.2246057915613
 20
-71.53460654873157
 10
116.2400164157206
 20
-71.43624556178957
 10
116.2839021603151
 20
-71.33506641550958
 10
116.3495818186122
 20
-71.24647271778228
 10
116.4270562579522
 20
-71.1839520559608
  0
LWPOLYLINE
  5
217
330
70
100
AcDbEntity
  8
0
 62
     8
420
  8421504
370
    25
100
AcDbPolyline
 90
        3
 70
     0
 43
0.0
 10
110.4885092439214
 20
-76.01373110991009
 10
110.5505730591593
 20
-75.96010970410863
 10
110.5723669728036
 20
-75.89685894339061
  0
LWPOLYLINE
  5
218
330
70
100
AcDbEntity
  8
0
 62
     8
420
  8421504
370
    25
100
AcDbPolyline
 90
        7
 70
     0
 43
0.0
 10
109.9997505822561
 20
-75.89685894339061
 10
110.0215444959581
 20
-75.96010970410863
 10
110.0836083111389
 20
-76.01373110991009
 10
110.1764933746382
 20
-76.04955978778363
 10
110.2860587775299
 20
-76.06214114636675
 10
110.3956241804214
 20
-76.04955978778363
 10
110.4885092439214
 20
-76.01373110991009
  0
LWPOLYLINE
  5
219
330
70
100
AcDbEntity
  8
0
 62
     8
420
  8421504
370
    25
100
AcDbPolyline
 90
        3
 70
     0
 43
0.0
 10
106.7769173601374
 20
-75.04059424407569
 10
106.8389811753752
 20
-74.98697283827424
 10
106.8607750890201
 20
-74.92372207755622
  0
LWPOLYLINE
  5
21A
330
70
100
AcDbEntity
  8
0
 62
     8
420
  8421504
370
    25
100
AcDbPolyline
 90
        7
 70
     0
 43
0.0
 10
106.2881586984724
 20
-74.92372207755622
 10
106.309952612174
 20
-74.98697283827424
 10
106.3720164273548
 20
-75.04059424407569
 10
106.4649014908545
 20
-75.07642292194924
 10
106.5744668937461
 20
-75.08900428053235
 10
106.6840322966377
 20
-75.07642292194924
 10
106.7769173601374
 20
-75.04059424407569
  0
LWPOLYLINE
  5
21B
330
70
100
AcDbEntity
  8
0
 62
     8
420
  8421504
370
    25
100
AcDbPolyline
 90
        3
 70
     0
 43
0.0
 10
109.7461908671531
 20
-73.32646913466351
 10
109.8082546823909
 20
-73.27284772886206
 10
109.8300485960358
 20
-73.20959696808628
  0
LWPOLYLINE
  5
21C
330
70
100
AcDbEntity
  8
0
 62
     8
420
  8421504
370
    25
100
AcDbPolyline
 90
        7
 70
     0
 43
0.0
 10
109.2574322054878
 20
-73.20959696808628
 10
109.2792261191898
 20
-73.27284772886206
 10
109.3412899343705
 20
-73.32646913466351
 10
109.434174997927
 20
-73.36229781253706
 10
109.5437404007615
 20
-73.37487917112017
 10
109.6533058036531
 20
-73.36229781253706
 10
109.7461908671531
 20
-73.32646913466351
  0
LWPOLYLINE
  5
21D
330
70
100
AcDbEntity
  8
0
 62
     8
420
  8421504
370
    25
100
AcDbPolyline
 90
        3
 70
     0
 43
0.0
 10
115.6847378811839
 20
-69.89821891583915
 10
115.7468016964224
 20
-69.84459751003768
 10
115.7685956100666
 20
-69.78134674926256
  0
LWPOLYLINE
  5
21E
330
70
100
AcDbEntity
  8
0
 62
     8
420
  8421504
370
    25
100
AcDbPolyline
 90
        7
 70
     0
 43
0.0
 10
115.1959792195192
 20
-69.78134674926256
 10
115.2177731332205
 20
-69.84459751003768
 10
115.2798369484013
 20
-69.89821891583915
 10
115.3727220119584
 20
-69.93404759371269
 10
115.4822874147929
 20
-69.9466289522387
 10
115.5918528176845
 20
-69.93404759371269
 10
115.6847378811839
 20
-69.89821891583915
  0
LINE
  5
21F
330
70
100
AcDbEntity
  8
0
 62
     8
420
  8421504
370
    25
100
AcDbLine
 10
115.175162343356
 20
-52.18378728366104
 30
0.0
 11
115.175162343356
 21
-58.0247609233512
 31
0.0
  0
LINE
  5
220
330
70
100
AcDbEntity
  8
0
 62
     8
420
  8421504
370
    25
100
AcDbLine
 10
115.175162343356
 20
-60.22870273857647
 30
0.0
 11
115.175162343356
 21
-64.58221698793301
 31
0.0
  0
LINE
  5
221
330
70
100
AcDbEntity
  8
0
 62
     8
420
  8421504
370
    25
100
AcDbLine
 10
115.175162343356
 20
-64.58221698793301
 30
0.0
 11
115.1959792195192
 21
-64.59423431479033
 31
0.0
  0
LINE
  5
222
330
70
100
AcDbEntity
  8
0
 62
     8
420
  8421504
370
    25
100
AcDbLine
 10
115.7685956100666
 20
-64.924798720801
 30
0.0
 11
121.1880915899416
 21
-68.05340715564942
 31
0.0
  0
SPLINE
  5
223
330
70
100
AcDbEntity
  8
0
 62
     8
420
  8421504
370
    25
100
AcDbSpline
210
0.0
220
0.0
230
1.0
 70
     8
 71
     3
 72
     8
 73
     4
 74
     0
 42
0.0000000001
 43
0.0000000001
 40
0.0
 40
0.0
 40
0.0
 40
0.0
 40
1.0
 40
1.0
 40
1.0
 40
1.0
 10
115.1639813127887
 20
-52.1682043281009
 30
0.0
 10
115.164585938345
 20
-52.17504962929936
 30
0.0
 10
115.1688712820411
 20
-52.18102209491227
 30
0.0
 10
115.1751623433073
 20
-52.18378728364115
 30
0.0
  0
SPLINE
  5
224
330
70
100
AcDbEntity
  8
0
 62
     8
420
  8421504
370
    25
100
AcDbSpline
210
0.0
220
0.0
230
1.0
 70
     8
 71
     3
 72
     8
 73
     4
 74
     0
 42
0.0000000001
 43
0.0000000001
 40
0.0
 40
0.0
 40
0.0
 40
0.0
 40
1.0
 40
1.0
 40
1.0
 40
1.0
 10
115.2019201800303
 20
-52.13717052338667
 30
0.0
 10
115.1963219199506
 20
-52.13296971705144
 30
0.0
 10
115.1888288774457
 20
-52.13229782557938
 30
0.0
 10
115.1825725719497
 20
-52.13543564828466
 30
0.0
  0
SPLINE
  5
225
330
70
100
AcDbEntity
  8
0
 62
     8
420
  8421504
370
    25
100
AcDbSpline
210
0.0
220
0.0
230
1.0
 70
     8
 71
     3
 72
     8
 73
     4
 74
     0
 42
0.0000000001
 43
0.0000000001
 40
0.0
 40
0.0
 40
0.0
 40
0.0
 40
1.0
 40
1.0
 40
1.0
 40
1.0
 10
115.1639813128169
 20
-64.56663403238827
 30
0.0
 10
115.1644742390766
 20
-64.57352024346689
 30
0.0
 10
115.1687967521507
 20
-64.57954451188711
 30
0.0
 10
115.1751623433348
 20
-64.58221698792852
 30
0.0
  0
SPLINE
  5
226
330
70
100
AcDbEntity
  8
0
 62
     8
420
  8421504
370
    25
100
AcDbSpline
210
0.0
220
0.0
230
1.0
 70
     8
 71
     3
 72
     8
 73
     4
 74
     0
 42
0.0000000001
 43
0.0000000001
 40
0.0
 40
0.0
 40
0.0
 40
0.0
 40
1.0
 40
1.0
 40
1.0
 40
1.0
 10
121.2336687829109
 20
-68.07116980371154
 30
0.0
 10
121.2394225552613
 20
-68.06724000870035
 30
0.0
 10
121.2425600597949
 20
-68.06047315214084
 30
0.0
 10
121.2418417943529
 20
-68.05354254756098
 30
0.0
  0
SPLINE
  5
227
330
70
100
AcDbEntity
  8
0
 62
     8
420
  8421504
370
    25
100
AcDbSpline
210
0.0
220
0.0
230
1.0
 70
     8
 71
     3
 72
     8
 73
     4
 74
     0
 42
0.0000000001
 43
0.0000000001
 40
0.0
 40
0.0
 40
0.0
 40
0.0
 40
1.0
 40
1.0
 40
1.0
 40
1.0
 10
121.1880915899538
 20
-68.05340715566675
 30
0.0
 10
121.1872236074944
 20
-68.06025776126755
 30
0.0
 10
121.1902806621712
 20
-68.06701457552906
 30
0.0
 10
121.1959993236217
 20
-68.07088511836749
 30
0.0
  0
SPLINE
  5
228
330
70
100
AcDbEntity
  8
0
 62
     8
420
  8421504
370
    25
100
AcDbSpline
210
0.0
220
0.0
230
1.0
 70
     8
 71
     3
 72
     8
 73
     4
 74
     0
 42
0.0000000001
 43
0.0000000001
 40
0.0
 40
0.0
 40
0.0
 40
0.0
 40
1.0
 40
1.0
 40
1.0
 40
1.0
 10
115.1751623433111
 20
-64.58221698795033
 30
0.0
 10
115.1742943608511
 20
-64.58906759355113
 30
0.0
 10
115.1773514155286
 20
-64.59582440781264
 30
0.0
 10
115.1830700769785
 20
-64.59969495065171
 30
0.0
  0
LINE
  5
229
330
70
100
AcDbEntity
  8
0
 62
     8
420
  8421504
370
    25
100
AcDbLine
 10
150.1316095395711
 20
-72.36371470820812
 30
0.0
 11
150.1316095395711
 21
-78.20468834789828
 31
0.0
  0
LINE
  5
22A
330
70
100
AcDbEntity
  8
0
 62
     8
420
  8421504
370
    25
100
AcDbLine
 10
150.1316095395711
 20
-80.40863016312419
 30
0.0
 11
150.1316095395711
 21
-84.76214441253786
 31
0.0
  0
LINE
  5
22B
330
70
100
AcDbEntity
  8
0
 62
     8
420
  8421504
370
    25
100
AcDbLine
 10
150.1316095395711
 20
-84.76214441253786
 30
0.0
 11
150.152426415792
 21
-84.77416173933805
 31
0.0
  0
LINE
  5
22C
330
70
100
AcDbEntity
  8
0
 62
     8
420
  8421504
370
    25
100
AcDbLine
 10
150.7250428063394
 20
-85.10472614534808
 30
0.0
 11
156.1445387862144
 21
-88.23333458025361
 31
0.0
  0
SPLINE
  5
22D
330
70
100
AcDbEntity
  8
0
 62
     8
420
  8421504
370
    25
100
AcDbSpline
210
0.0
220
0.0
230
1.0
 70
     8
 71
     3
 72
     8
 73
     4
 74
     0
 42
0.0000000001
 43
0.0000000001
 40
0.0
 40
0.0
 40
0.0
 40
0.0
 40
1.0
 40
1.0
 40
1.0
 40
1.0
 10
150.1204285090628
 20
-72.34813175270445
 30
0.0
 10
150.1210331346191
 20
-72.35497705390357
 30
0.0
 10
150.1253184783146
 20
-72.36094951951645
 30
0.0
 10
150.1316095395814
 20
-72.3637147082447
 30
0.0
  0
SPLINE
  5
22E
330
70
100
AcDbEntity
  8
0
 62
     8
420
  8421504
370
    25
100
AcDbSpline
210
0.0
220
0.0
230
1.0
 70
     8
 71
     3
 72
     8
 73
     4
 74
     0
 42
0.0000000001
 43
0.0000000001
 40
0.0
 40
0.0
 40
0.0
 40
0.0
 40
1.0
 40
1.0
 40
1.0
 40
1.0
 10
150.1583673762453
 20
-72.31709794793504
 30
0.0
 10
150.1527691161663
 20
-72.31289714159917
 30
0.0
 10
150.1452760736608
 20
-72.31222525012711
 30
0.0
 10
150.1390197681654
 20
-72.31536307283302
 30
0.0
  0
SPLINE
  5
22F
330
70
100
AcDbEntity
  8
0
 62
     8
420
  8421504
370
    25
100
AcDbSpline
210
0.0
220
0.0
230
1.0
 70
     8
 71
     3
 72
     8
 73
     4
 74
     0
 42
0.0000000001
 43
0.0000000001
 40
0.0
 40
0.0
 40
0.0
 40
0.0
 40
1.0
 40
1.0
 40
1.0
 40
1.0
 10
150.1204285090339
 20
-84.74656145699182
 30
0.0
 10
150.1209214352936
 20
-84.75344766807108
 30
0.0
 10
150.1252439483677
 20
-84.75947193649068
 30
0.0
 10
150.1316095395518
 20
-84.76214441253206
 30
0.0
  0
SPLINE
  5
230
330
70
100
AcDbEntity
  8
0
 62
     8
420
  8421504
370
    25
100
AcDbSpline
210
0.0
220
0.0
230
1.0
 70
     8
 71
     3
 72
     8
 73
     4
 74
     0
 42
0.0000000001
 43
0.0000000001
 40
0.0
 40
0.0
 40
0.0
 40
0.0
 40
1.0
 40
1.0
 40
1.0
 40
1.0
 10
156.190115979126
 20
-88.25109722825862
 30
0.0
 10
156.1958697514764
 20
-88.24716743324744
 30
0.0
 10
156.1990072560099
 20
-88.24040057668794
 30
0.0
 10
156.1982889905679
 20
-88.23346997210807
 30
0.0
  0
SPLINE
  5
231
330
70
100
AcDbEntity
  8
0
 62
     8
420
  8421504
370
    25
100
AcDbSpline
210
0.0
220
0.0
230
1.0
 70
     8
 71
     3
 72
     8
 73
     4
 74
     0
 42
0.0000000001
 43
0.0000000001
 40
0.0
 40
0.0
 40
0.0
 40
0.0
 40
1.0
 40
1.0
 40
1.0
 40
1.0
 10
156.1445387862259
 20
-88.23333458021448
 30
0.0
 10
156.1436708037666
 20
-88.24018518581528
 30
0.0
 10
156.1467278584434
 20
-88.24694200007614
 30
0.0
 10
156.1524465198939
 20
-88.25081254291522
 30
0.0
  0
SPLINE
  5
232
330
70
100
AcDbEntity
  8
0
 62
     8
420
  8421504
370
    25
100
AcDbSpline
210
0.0
220
0.0
230
1.0
 70
     8
 71
     3
 72
     8
 73
     4
 74
     0
 42
0.0000000001
 43
0.0000000001
 40
0.0
 40
0.0
 40
0.0
 40
0.0
 40
1.0
 40
1.0
 40
1.0
 40
1.0
 10
150.1316095395839
 20
-84.76214441249807
 30
0.0
 10
150.1307415571239
 20
-84.76899501809887
 30
0.0
 10
150.1337986118014
 20
-84.77575183236037
 30
0.0
 10
150.1395172732513
 20
-84.7796223751988
 30
0.0
  0
INSERT
  5
235
330
70
100
AcDbEntity
  8
CAPA_BASE
100
AcDbBlockReference
  2
Block_0
 10
0.0
 20
0.0
 30
0.0
  0
INSERT
  5
241
330
70
100
AcDbEntity
  8
CAPA_BASE
100
AcDbBlockReference
  2
Block_1
 10
0.0
 20
0.0
 30
0.0
  0
INSERT
  5
24D
330
70
100
AcDbEntity
  8
CAPA_BASE
100
AcDbBlockReference
  2
Block_2
 10
0.0
 20
0.0
 30
0.0
  0
ENDSEC
  0
SECTION
  2
OBJECTS
  0
DICTIONARY
  5
C
330
0
100
AcDbDictionary
281
     1
  3
ACAD_COLOR
350
63
  3
ACAD_DETAILVIEWSTYLE
350
6A
  3
ACAD_GROUP
350
D
  3
ACAD_LAYOUT
350
62
  3
ACAD_MATERIAL
350
10
  3
ACAD_MLEADERSTYLE
350
66
  3
ACAD_MLINESTYLE
350
5F
  3
ACAD_PLOTSETTINGS
350
61
  3
ACAD_PLOTSTYLENAME
350
E
  3
ACAD_SCALELIST
350
42
  3
ACAD_SECTIONVIEWSTYLE
350
68
  3
ACAD_TABLESTYLE
350
64
  3
ACAD_VISUALSTYLE
350
29
  3
ACDB_RECOMPOSE_DATA
350
260
  3
AcDbVariableDictionary
350
258
  0
DICTIONARY
  5
63
102
{ACAD_REACTORS
330
C
102
}
330
C
100
AcDbDictionary
281
     1
  0
DICTIONARY
  5
6A
102
{ACAD_REACTORS
330
C
102
}
330
C
100
AcDbDictionary
281
     1
  3
Imperial24
350
6B
  0
DICTIONARY
  5
D
102
{ACAD_REACTORS
330
C
102
}
330
C
100
AcDbDictionary
281
     1
  0
DICTIONARY
  5
62
102
{ACAD_REACTORS
330
C
102
}
330
C
100
AcDbDictionary
281
     1
  3
Layout1
350
6F
  3
Layout2
350
77
  3
Model
350
73
  0
DICTIONARY
  5
10
102
{ACAD_REACTORS
330
C
102
}
330
C
100
AcDbDictionary
281
     1
  3
ByBlock
350
19
  3
ByLayer
350
11
  3
Global
350
21
  0
DICTIONARY
  5
66
102
{ACAD_REACTORS
330
C
102
}
330
C
100
AcDbDictionary
281
     1
  3
Standard
350
67
  0
DICTIONARY
  5
5F
102
{ACAD_REACTORS
330
C
102
}
330
C
100
AcDbDictionary
281
     1
  3
Standard
350
60
  0
DICTIONARY
  5
61
102
{ACAD_REACTORS
330
C
102
}
330
C
100
AcDbDictionary
281
     1
  0
ACDBDICTIONARYWDFLT
  5
E
102
{ACAD_REACTORS
330
C
102
}
330
C
100
AcDbDictionary
281
     1
  3
Normal
350
F
100
AcDbDictionaryWithDefault
340
F
  0
DICTIONARY
  5
42
102
{ACAD_REACTORS
330
C
102
}
330
C
100
AcDbDictionary
281
     1
  3
A0
350
43
  3
A1
350
44
  3
A2
350
45
  3
A3
350
46
  3
A4
350
47
  3
A5
350
48
  3
A6
350
49
  3
A7
350
4A
  3
A8
350
4B
  3
A9
350
4C
  3
B0
350
4D
  3
B1
350
4E
  3
B2
350
4F
  3
B3
350
50
  3
B4
350
51
  3
B5
350
52
  3
B6
350
53
  0
DICTIONARY
  5
68
102
{ACAD_REACTORS
330
C
102
}
330
C
100
AcDbDictionary
281
     1
  3
Imperial24
350
69
  0
DICTIONARY
  5
64
102
{ACAD_REACTORS
330
C
102
}
330
C
100
AcDbDictionary
281
     1
  3
Standard
350
65
  0
DICTIONARY
  5
29
102
{ACAD_REACTORS
330
C
102
}
330
C
100
AcDbDictionary
281
     1
  3
2dWireframe
350
2F
  3
Basic
350
2E
  3
Brighten
350
35
  3
ColorChange
350
39
  3
Conceptual
350
32
  3
Dim
350
34
  3
EdgeColorOff
350
41
  3
Facepattern
350
38
  3
Flat
350
2A
  3
FlatWithEdges
350
2B
  3
Gouraud
350
2C
  3
GouraudWithEdges
350
2D
  3
Hidden
350
31
  3
JitterOff
350
3F
  3
Linepattern
350
37
  3
OverhangOff
350
40
  3
Realistic
350
33
  3
Shaded
350
3E
  3
Shaded with edges
350
3D
  3
Shades of Gray
350
3A
  3
Sketchy
350
3B
  3
Thicken
350
36
  3
Wireframe
350
30
  3
X-Ray
350
3C
  0
XRECORD
  5
260
102
{ACAD_REACTORS
330
C
102
}
330
C
100
AcDbXrecord
280
     1
 90
        1
330
65
  0
DICTIONARY
  5
258
102
{ACAD_REACTORS
330
C
102
}
330
C
100
AcDbDictionary
281
     1
  3
CANNOSCALE
350
25D
  3
CMLEADERSTYLE
350
25A
  3
CTABLESTYLE
350
259
  3
CVIEWDETAILSTYLE
350
25B
  3
CVIEWSECTIONSTYLE
350
25C
  0
ACDBDETAILVIEWSTYLE
  5
6B
102
{ACAD_REACTORS
330
6A
102
}
330
6A
100
AcDbModelDocViewStyle
 70
     0
  3
Imperial24
290
     1
300
Imperial24
 90
        0
100
AcDbDetailViewStyle
 70
     0
 71
     0
 90
        3
 71
     1
340
55
 62
   256
 40
0.24
340
0
 62
   256
 40
0.24
300

 40
0.36
280
     3
 71
     2
340
5D
 90
       25
 62
   256
 71
     3
340
55
 62
   256
 40
0.24
 90
        1
 40
0.75
 90
        1
300
%<\AcVar ViewType \f "%tc1">% %<\AcVar ViewDetailId>%\PSCALE %<\AcVar ViewScale \f "%sn">%
 71
     4
340
5D
 90
       25
 62
   256
340
5D
 90
       25
 62
   256
280
     0
  0
LAYOUT
  5
6F
102
{ACAD_REACTORS
330
62
102
}
330
62
100
AcDbPlotSettings
  1

  2

  4

  6

 40
0.0
 41
0.0
 42
0.0
 43
0.0
 44
0.0
 45
0.0
 46
0.0
 47
0.0
 48
0.0
 49
0.0
140
0.0
141
0.0
142
1.0
143
1.0
 70
   688
 72
     0
 73
     0
 74
     5
  7

 75
    16
147
1.0
 76
     0
 77
     2
 78
   300
148
0.0
149
0.0
100
AcDbLayout
  1
Layout1
 70
     1
 71
     1
 10
0.0
 20
0.0
 11
12.0
 21
9.0
 12
0.0
 22
0.0
 32
0.0
 14
0.0
 24
0.0
 34
0.0
 15
0.0
 25
0.0
 35
0.0
146
0.0
 13
0.0
 23
0.0
 33
0.0
 16
1.0
 26
0.0
 36
0.0
 17
0.0
 27
1.0
 37
0.0
 76
     0
330
6C
  0
LAYOUT
  5
77
102
{ACAD_REACTORS
330
62
102
}
330
62
100
AcDbPlotSettings
  1

  2

  4

  6

 40
0.0
 41
0.0
 42
0.0
 43
0.0
 44
0.0
 45
0.0
 46
0.0
 47
0.0
 48
0.0
 49
0.0
140
0.0
141
0.0
142
1.0
143
1.0
 70
   688
 72
     0
 73
     0
 74
     5
  7

 75
    16
147
1.0
 76
     0
 77
     2
 78
   300
148
0.0
149
0.0
100
AcDbLayout
  1
Layout2
 70
     1
 71
     2
 10
0.0
 20
0.0
 11
12.0
 21
9.0
 12
0.0
 22
0.0
 32
0.0
 14
0.0
 24
0.0
 34
0.0
 15
0.0
 25
0.0
 35
0.0
146
0.0
 13
0.0
 23
0.0
 33
0.0
 16
1.0
 26
0.0
 36
0.0
 17
0.0
 27
1.0
 37
0.0
 76
     0
330
74
  0
LAYOUT
  5
73
102
{ACAD_REACTORS
330
62
102
}
330
62
100
AcDbPlotSettings
  1

  2

  4

  6

 40
0.0
 41
0.0
 42
0.0
 43
0.0
 44
0.0
 45
0.0
 46
0.0
 47
0.0
 48
0.0
 49
0.0
140
0.0
141
0.0
142
1.0
143
1.0
 70
  1712
 72
     0
 73
     0
 74
     0
  7

 75
     0
147
1.0
 76
     0
 77
     2
 78
   300
148
0.0
149
0.0
100
AcDbLayout
  1
Model
 70
     1
 71
     0
 10
0.0
 20
0.0
 11
12.0
 21
9.0
 12
0.0
 22
0.0
 32
0.0
 14
0.0
 24
0.0
 34
0.0
 15
0.0
 25
0.0
 35
0.0
146
0.0
 13
0.0
 23
0.0
 33
0.0
 16
1.0
 26
0.0
 36
0.0
 17
0.0
 27
1.0
 37
0.0
 76
     0
330
70
  0
MATERIAL
  5
19
102
{ACAD_XDICTIONARY
360
1A
102
}
102
{ACAD_REACTORS
330
10
102
}
330
10
100
AcDbMaterial
  1
ByBlock
 72
     0
 43
0.0208333333333333
 43
0.0
 43
0.0
 43
0.0
 43
0.0
 43
0.0208333333333333
 43
0.0
 43
0.0
 43
0.0
 43
0.0
 43
1.0
 43
0.0
 43
0.0
 43
0.0
 43
0.0
 43
1.0
 77
     0
 47
0.0208333333333333
 47
0.0
 47
0.0
 47
0.0
 47
0.0
 47
0.0208333333333333
 47
0.0
 47
0.0
 47
0.0
 47
0.0
 47
1.0
 47
0.0
 47
0.0
 47
0.0
 47
0.0
 47
1.0
171
     0
 49
0.0208333333333333
 49
0.0
 49
0.0
 49
0.0
 49
0.0
 49
0.0208333333333333
 49
0.0
 49
0.0
 49
0.0
 49
0.0
 49
1.0
 49
0.0
 49
0.0
 49
0.0
 49
0.0
 49
1.0
175
     0
142
0.0208333333333333
142
0.0
142
0.0
142
0.0
142
0.0
142
0.0208333333333333
142
0.0
142
0.0
142
0.0
142
0.0
142
1.0
142
0.0
142
0.0
142
0.0
142
0.0
142
1.0
179
     0
144
0.0208333333333333
144
0.0
144
0.0
144
0.0
144
0.0
144
0.0208333333333333
144
0.0
144
0.0
144
0.0
144
0.0
144
1.0
144
0.0
144
0.0
144
0.0
144
0.0
144
1.0
147
0.0208333333333333
147
0.0
147
0.0
147
0.0
147
0.0
147
0.0208333333333333
147
0.0
147
0.0
147
0.0
147
0.0
147
1.0
147
0.0
147
0.0
147
0.0
147
0.0
147
1.0
  0
MATERIAL
  5
11
102
{ACAD_XDICTIONARY
360
12
102
}
102
{ACAD_REACTORS
330
10
102
}
330
10
100
AcDbMaterial
  1
ByLayer
 72
     0
 43
0.0208333333333333
 43
0.0
 43
0.0
 43
0.0
 43
0.0
 43
0.0208333333333333
 43
0.0
 43
0.0
 43
0.0
 43
0.0
 43
1.0
 43
0.0
 43
0.0
 43
0.0
 43
0.0
 43
1.0
 77
     0
 47
0.0208333333333333
 47
0.0
 47
0.0
 47
0.0
 47
0.0
 47
0.0208333333333333
 47
0.0
 47
0.0
 47
0.0
 47
0.0
 47
1.0
 47
0.0
 47
0.0
 47
0.0
 47
0.0
 47
1.0
171
     0
 49
0.0208333333333333
 49
0.0
 49
0.0
 49
0.0
 49
0.0
 49
0.0208333333333333
 49
0.0
 49
0.0
 49
0.0
 49
0.0
 49
1.0
 49
0.0
 49
0.0
 49
0.0
 49
0.0
 49
1.0
175
     0
142
0.0208333333333333
142
0.0
142
0.0
142
0.0
142
0.0
142
0.0208333333333333
142
0.0
142
0.0
142
0.0
142
0.0
142
1.0
142
0.0
142
0.0
142
0.0
142
0.0
142
1.0
179
     0
144
0.0208333333333333
144
0.0
144
0.0
144
0.0
144
0.0
144
0.0208333333333333
144
0.0
144
0.0
144
0.0
144
0.0
144
1.0
144
0.0
144
0.0
144
0.0
144
0.0
144
1.0
147
0.0208333333333333
147
0.0
147
0.0
147
0.0
147
0.0
147
0.0208333333333333
147
0.0
147
0.0
147
0.0
147
0.0
147
1.0
147
0.0
147
0.0
147
0.0
147
0.0
147
1.0
  0
MATERIAL
  5
21
102
{ACAD_XDICTIONARY
360
22
102
}
102
{ACAD_REACTORS
330
10
102
}
330
10
100
AcDbMaterial
  1
Global
 72
     0
 43
0.0208333333333333
 43
0.0
 43
0.0
 43
0.0
 43
0.0
 43
0.0208333333333333
 43
0.0
 43
0.0
 43
0.0
 43
0.0
 43
1.0
 43
0.0
 43
0.0
 43
0.0
 43
0.0
 43
1.0
 77
     0
 47
0.0208333333333333
 47
0.0
 47
0.0
 47
0.0
 47
0.0
 47
0.0208333333333333
 47
0.0
 47
0.0
 47
0.0
 47
0.0
 47
1.0
 47
0.0
 47
0.0
 47
0.0
 47
0.0
 47
1.0
171
     0
 49
0.0208333333333333
 49
0.0
 49
0.0
 49
0.0
 49
0.0
 49
0.0208333333333333
 49
0.0
 49
0.0
 49
0.0
 49
0.0
 49
1.0
 49
0.0
 49
0.0
 49
0.0
 49
0.0
 49
1.0
175
     0
142
0.0208333333333333
142
0.0
142
0.0
142
0.0
142
0.0
142
0.0208333333333333
142
0.0
142
0.0
142
0.0
142
0.0
142
1.0
142
0.0
142
0.0
142
0.0
142
0.0
142
1.0
179
     0
144
0.0208333333333333
144
0.0
144
0.0
144
0.0
144
0.0
144
0.0208333333333333
144
0.0
144
0.0
144
0.0
144
0.0
144
1.0
144
0.0
144
0.0
144
0.0
144
0.0
144
1.0
147
0.0208333333333333
147
0.0
147
0.0
147
0.0
147
0.0
147
0.0208333333333333
147
0.0
147
0.0
147
0.0
147
0.0
147
1.0
147
0.0
147
0.0
147
0.0
147
0.0
147
1.0
  0
MLEADERSTYLE
  5
67
102
{ACAD_REACTORS
330
66
102
}
330
66
100
AcDbMLeaderStyle
179
     2
170
     2
171
     1
172
     0
 90
        2
 40
0.0
 41
0.0
173
     1
 91
-1056964608
340
5B
 92
       -2
290
     1
 42
0.09
291
     1
 43
0.36
  3
Standard
 44
0.18
300

342
55
174
     1
178
     6
175
     1
176
     0
 93
-1056964608
 45
0.18
292
     0
297
     0
 46
0.18
 94
-1056964608
 47
1.0
 49
1.0
140
1.0
293
     1
141
0.0
294
     1
177
     0
142
1.0
295
     1
296
     0
143
0.125
271
     0
272
     9
273
     9
298
     1
  0
MLINESTYLE
  5
60
102
{ACAD_REACTORS
330
5F
102
}
330
5F
100
AcDbMlineStyle
  2
STANDARD
 70
     0
  3

 62
   256
 51
90.0
 52
90.0
 71
     2
 49
0.5
 62
   256
  6
BYLAYER
 49
-0.5
 62
   256
  6
BYLAYER
  0
ACDBPLACEHOLDER
  5
F
102
{ACAD_REACTORS
330
E
102
}
330
E
  0
SCALE
  5
43
102
{ACAD_REACTORS
330
42
102
}
330
42
100
AcDbScale
 70
     0
300
1:1
140
1.0
141
1.0
290
     1
  0
SCALE
  5
44
102
{ACAD_REACTORS
330
42
102
}
330
42
100
AcDbScale
 70
     0
300
1/128" = 1'-0"
140
0.0078125
141
12.0
290
     0
  0
SCALE
  5
45
102
{ACAD_REACTORS
330
42
102
}
330
42
100
AcDbScale
 70
     0
300
1/64" = 1'-0"
140
0.015625
141
12.0
290
     0
  0
SCALE
  5
46
102
{ACAD_REACTORS
330
42
102
}
330
42
100
AcDbScale
 70
     0
300
1/32" = 1'-0"
140
0.03125
141
12.0
290
     0
  0
SCALE
  5
47
102
{ACAD_REACTORS
330
42
102
}
330
42
100
AcDbScale
 70
     0
300
1/16" = 1'-0"
140
0.0625
141
12.0
290
     0
  0
SCALE
  5
48
102
{ACAD_REACTORS
330
42
102
}
330
42
100
AcDbScale
 70
     0
300
3/32" = 1'-0"
140
0.09375
141
12.0
290
     0
  0
SCALE
  5
49
102
{ACAD_REACTORS
330
42
102
}
330
42
100
AcDbScale
 70
     0
300
1/8" = 1'-0"
140
0.125
141
12.0
290
     0
  0
SCALE
  5
4A
102
{ACAD_REACTORS
330
42
102
}
330
42
100
AcDbScale
 70
     0
300
3/16" = 1'-0"
140
0.1875
141
12.0
290
     0
  0
SCALE
  5
4B
102
{ACAD_REACTORS
330
42
102
}
330
42
100
AcDbScale
 70
     0
300
1/4" = 1'-0"
140
0.25
141
12.0
290
     0
  0
SCALE
  5
4C
102
{ACAD_REACTORS
330
42
102
}
330
42
100
AcDbScale
 70
     0
300
3/8" = 1'-0"
140
0.375
141
12.0
290
     0
  0
SCALE
  5
4D
102
{ACAD_REACTORS
330
42
102
}
330
42
100
AcDbScale
 70
     0
300
1/2" = 1'-0"
140
0.5
141
12.0
290
     0
  0
SCALE
  5
4E
102
{ACAD_REACTORS
330
42
102
}
330
42
100
AcDbScale
 70
     0
300
3/4" = 1'-0"
140
0.75
141
12.0
290
     0
  0
SCALE
  5
4F
102
{ACAD_REACTORS
330
42
102
}
330
42
100
AcDbScale
 70
     0
300
1" = 1'-0"
140
1.0
141
12.0
290
     0
  0
SCALE
  5
50
102
{ACAD_REACTORS
330
42
102
}
330
42
100
AcDbScale
 70
     0
300
1-1/2" = 1'-0"
140
1.5
141
12.0
290
     0
  0
SCALE
  5
51
102
{ACAD_REACTORS
330
42
102
}
330
42
100
AcDbScale
 70
     0
300
3" = 1'-0"
140
3.0
141
12.0
290
     0
  0
SCALE
  5
52
102
{ACAD_REACTORS
330
42
102
}
330
42
100
AcDbScale
 70
     0
300
6" = 1'-0"
140
6.0
141
12.0
290
     0
  0
SCALE
  5
53
102
{ACAD_REACTORS
330
42
102
}
330
42
100
AcDbScale
 70
     0
300
1'-0" = 1'-0"
140
12.0
141
12.0
290
     0
  0
ACDBSECTIONVIEWSTYLE
  5
69
102
{ACAD_REACTORS
330
68
102
}
330
68
100
AcDbModelDocViewStyle
 70
     0
  3
Imperial24
290
     1
300
Imperial24
 90
        0
100
AcDbSectionViewStyle
 70
     0
 71
     0
 90
       78
 71
     1
340
55
 62
   256
 40
0.24
340
0
340
0
 62
   256
 40
0.24
300
I, O, Q, S, X, Z
 40
0.48
 90
        3
 40
0.18
 90
        1
 71
     2
340
5D
 90
       25
 62
   256
340
5D
 90
       50
 62
   256
 40
0.24
 40
0.0
 40
0.24
 71
     3
340
55
 62
   256
 40
0.24
 90
        1
 40
0.75
 90
        1
300
%<\AcVar ViewType \f "%tc1">% %<\AcVar ViewSectionStartId>%-%<\AcVar ViewSectionEndId>%\PSCALE %<\AcVar ViewScale \f "%sn">%
 71
     4
 62
   256
 62
   257
300
ANSI31
 40
1.0
 90
        0
290
     0
290
     0
 90
        6
 40
0.0
 40
1.570796326794896
 40
0.2617993877991494
 40
1.308996938995747
 40
-0.2617993877991494
 40
1.832595714594046
  0
TABLESTYLE
  5
65
102
{ACAD_XDICTIONARY
360
25E
102
}
102
{ACAD_REACTORS
330
64
102
}
330
64
100
AcDbTableStyle
280
     0
  3
Standard
 70
     0
 71
     0
 40
0.06
 41
0.06
280
     0
281
     0
  7
Standard
140
0.18
170
     2
 62
     0
 63
     7
283
     0
 90
      512
 91
        0
  1

274
    -2
284
     1
 64
     0
275
    -2
285
     1
 65
     0
276
    -2
286
     1
 66
     0
277
    -2
287
     1
 67
     0
278
    -2
288
     1
 68
     0
279
    -2
289
     1
 69
     0
  7
Standard
140
0.25
170
     5
 62
     0
 63
     7
283
     0
 90
      512
 91
        0
  1

274
    -2
284
     1
 64
     0
275
    -2
285
     1
 65
     0
276
    -2
286
     1
 66
     0
277
    -2
287
     1
 67
     0
278
    -2
288
     1
 68
     0
279
    -2
289
     1
 69
     0
  7
Standard
140
0.18
170
     5
 62
     0
 63
     7
283
     0
 90
      512
 91
        0
  1

274
    -2
284
     1
 64
     0
275
    -2
285
     1
 65
     0
276
    -2
286
     1
 66
     0
277
    -2
287
     1
 67
     0
278
    -2
288
     1
 68
     0
279
    -2
289
     1
 69
     0
  0
VISUALSTYLE
  5
2F
102
{ACAD_REACTORS
330
29
102
}
330
29
100
AcDbVisualStyle
  2
2dWireframe
 70
     4
177
     3
291
     0
 70
    58
 90
        0
176
     1
 90
        2
176
     1
 90
        0
176
     1
 90
        0
176
     1
 40
0.6
176
     1
 40
30.0
176
     1
 62
     7
420
 16777215
176
     1
 90
        1
176
     1
 90
        4
176
     1
 62
     7
176
     1
 62
   257
176
     1
 90
        1
176
     1
 90
        1
176
     1
 40
1.0
176
     1
 90
        0
176
     1
 62
   257
176
     1
 40
1.0
176
     1
 90
        1
176
     1
 90
        6
176
     1
 90
        2
176
     1
 62
     7
176
     1
 90
        5
176
     1
 90
        0
176
     1
 90
        0
176
     1
290
     0
176
     1
 90
        1
176
     1
 40
0.0
176
     1
 90
        0
176
     1
290
     1
176
     1
290
     1
176
     1
290
     0
176
     1
290
     0
176
     1
290
     0
176
     1
290
     0
176
     1
290
     0
176
     1
290
     0
176
     1
290
     0
176
     1
 90
       50
176
     1
 40
0.0
176
     1
 40
1.0
176
     1
 90
        0
176
     1
 62
    18
420
        0
176
     1
 90
       50
176
     1
 90
        3
176
     1
 62
     5
420
      255
176
     1
290
     0
176
     1
 90
       50
176
     1
 90
       50
176
     1
 90
       50
176
     1
290
     0
176
     1
 90
       50
176
     1
 62
   256
176
     0
 40
1.0
176
     0
 90
        2
176
     1
  1
strokes_ogs.tif
176
     1
290
     0
176
     1
 40
1.0
176
     1
 40
1.0
176
     1
  0
VISUALSTYLE
  5
2E
102
{ACAD_REACTORS
330
29
102
}
330
29
100
AcDbVisualStyle
  2
Basic
 70
     7
177
     3
291
     1
 70
    58
 90
        1
176
     1
 90
        0
176
     1
 90
        1
176
     1
 90
        0
176
     1
 40
0.6
176
     1
 40
30.0
176
     1
 62
     7
420
 16777215
176
     1
 90
        0
176
     1
 90
        4
176
     1
 62
     7
176
     1
 62
   257
176
     1
 90
        1
176
     1
 90
        1
176
     1
 40
1.0
176
     1
 90
        8
176
     1
 62
     7
176
     1
 40
1.0
176
     1
 90
        1
176
     1
 90
        6
176
     1
 90
        2
176
     1
 62
     7
176
     1
 90
        5
176
     1
 90
        0
176
     1
 90
        0
176
     1
290
     0
176
     1
 90
        1
176
     1
 40
0.0
176
     1
 90
        0
176
     1
290
     0
176
     1
290
     1
176
     1
290
     1
176
     1
290
     0
176
     1
290
     0
176
     1
290
     0
176
     1
290
     0
176
     1
290
     0
176
     1
290
     0
176
     1
 90
       50
176
     1
 40
0.0
176
     1
 40
1.0
176
     1
 90
        0
176
     1
 62
    18
420
        0
176
     1
 90
       50
176
     1
 90
        3
176
     1
 62
     5
420
      255
176
     1
290
     0
176
     1
 90
       50
176
     1
 90
       50
176
     1
 90
       50
176
     1
290
     0
176
     1
 90
       50
176
     1
 62
   256
176
     0
 40
1.0
176
     0
 90
        2
176
     1
  1
strokes_ogs.tif
176
     1
290
     0
176
     1
 40
1.0
176
     1
 40
1.0
176
     1
  0
VISUALSTYLE
  5
35
102
{ACAD_REACTORS
330
29
102
}
330
29
100
AcDbVisualStyle
  2
Brighten
 70
    12
177
     3
291
     1
 70
    58
 90
        2
176
     1
 90
        2
176
     1
 90
        0
176
     1
 90
        0
176
     1
 40
0.6
176
     1
 40
30.0
176
     1
 62
     7
420
 16777215
176
     1
 90
        1
176
     1
 90
        4
176
     1
 62
     7
176
     1
 62
   257
176
     1
 90
        1
176
     1
 90
        1
176
     1
 40
1.0
176
     1
 90
        8
176
     1
 62
     7
176
     1
 40
1.0
176
     1
 90
        1
176
     1
 90
        6
176
     1
 90
        2
176
     1
 62
     7
176
     1
 90
        5
176
     1
 90
        0
176
     1
 90
        0
176
     1
290
     0
176
     1
 90
        1
176
     1
 40
50.0
176
     1
 90
        0
176
     1
290
     0
176
     1
290
     1
176
     1
290
     1
176
     1
290
     0
176
     1
290
     0
176
     1
290
     0
176
     1
290
     0
176
     1
290
     0
176
     1
290
     0
176
     1
 90
       50
176
     1
 40
0.0
176
     1
 40
1.0
176
     1
 90
        0
176
     1
 62
    18
420
        0
176
     1
 90
       50
176
     1
 90
        3
176
     1
 62
     5
420
      255
176
     1
290
     0
176
     1
 90
       50
176
     1
 90
       50
176
     1
 90
       50
176
     1
290
     0
176
     1
 90
       50
176
     1
 62
   256
176
     0
 40
1.0
176
     0
 90
        2
176
     1
  1
strokes_ogs.tif
176
     1
290
     0
176
     1
 40
1.0
176
     1
 40
1.0
176
     1
  0
VISUALSTYLE
  5
39
102
{ACAD_REACTORS
330
29
102
}
330
29
100
AcDbVisualStyle
  2
ColorChange
 70
    16
177
     3
291
     1
 70
    58
 90
        2
176
     1
 90
        2
176
     1
 90
        3
176
     1
 90
        0
176
     1
 40
0.6
176
     1
 40
30.0
176
     1
 62
     8
420
  8421504
176
     1
 90
        1
176
     1
 90
        4
176
     1
 62
     7
176
     1
 62
   257
176
     1
 90
        1
176
     1
 90
        1
176
     1
 40
1.0
176
     1
 90
        8
176
     1
 62
     8
420
  8421504
176
     1
 40
1.0
176
     1
 90
        1
176
     1
 90
        6
176
     1
 90
        2
176
     1
 62
     7
176
     1
 90
        5
176
     1
 90
        0
176
     1
 90
        0
176
     1
290
     0
176
     1
 90
        1
176
     1
 40
0.0
176
     1
 90
        0
176
     1
290
     0
176
     1
290
     1
176
     1
290
     1
176
     1
290
     0
176
     1
290
     0
176
     1
290
     0
176
     1
290
     0
176
     1
290
     0
176
     1
290
     0
176
     1
 90
       50
176
     1
 40
0.0
176
     1
 40
1.0
176
     1
 90
        0
176
     1
 62
    18
420
        0
176
     1
 90
       50
176
     1
 90
        3
176
     1
 62
     5
420
      255
176
     1
290
     0
176
     1
 90
       50
176
     1
 90
       50
176
     1
 90
       50
176
     1
290
     0
176
     1
 90
       50
176
     1
 62
   256
176
     0
 40
1.0
176
     0
 90
        2
176
     1
  1
strokes_ogs.tif
176
     1
290
     0
176
     1
 40
1.0
176
     1
 40
1.0
176
     1
  0
VISUALSTYLE
  5
32
102
{ACAD_REACTORS
330
29
102
}
330
29
100
AcDbVisualStyle
  2
Conceptual
 70
     9
177
     3
291
     0
 70
    58
 90
        3
176
     1
 90
        2
176
     1
 90
        0
176
     1
 90
        0
176
     1
 40
0.6
176
     1
 40
30.0
176
     1
 62
     7
420
 16777215
176
     1
 90
        2
176
     1
 90
        2
176
     1
 62
     7
176
     1
 62
   257
176
     1
 90
        1
176
     1
 90
        1
176
     1
 40
179.0
176
     1
 90
        8
176
     1
 62
     7
176
     1
 40
1.0
176
     1
 90
        1
176
     1
 90
        6
176
     1
 90
        2
176
     1
 62
     7
176
     1
 90
        3
176
     1
 90
        0
176
     1
 90
        0
176
     1
290
     0
176
     1
 90
        1
176
     1
 40
0.0
176
     1
 90
        0
176
     1
290
     0
176
     1
290
     1
176
     1
290
     1
176
     1
290
     0
176
     1
290
     0
176
     1
290
     0
176
     1
290
     0
176
     1
290
     0
176
     1
290
     0
176
     1
 90
       50
176
     1
 40
0.0
176
     1
 40
1.0
176
     1
 90
        0
176
     1
 62
    18
420
        0
176
     1
 90
       50
176
     1
 90
        3
176
     1
 62
     5
420
      255
176
     1
290
     0
176
     1
 90
       50
176
     1
 90
       50
176
     1
 90
       50
176
     1
290
     0
176
     1
 90
       50
176
     1
 62
   256
176
     0
 40
1.0
176
     0
 90
        2
176
     1
  1
strokes_ogs.tif
176
     1
290
     0
176
     1
 40
1.0
176
     1
 40
1.0
176
     1
  0
VISUALSTYLE
  5
34
102
{ACAD_REACTORS
330
29
102
}
330
29
100
AcDbVisualStyle
  2
Dim
 70
    11
177
     3
291
     1
 70
    58
 90
        2
176
     1
 90
        2
176
     1
 90
        0
176
     1
 90
        0
176
     1
 40
0.6
176
     1
 40
30.0
176
     1
 62
     7
420
 16777215
176
     1
 90
        1
176
     1
 90
        4
176
     1
 62
     7
176
     1
 62
   257
176
     1
 90
        1
176
     1
 90
        1
176
     1
 40
1.0
176
     1
 90
        8
176
     1
 62
     7
176
     1
 40
1.0
176
     1
 90
        1
176
     1
 90
        6
176
     1
 90
        2
176
     1
 62
     7
176
     1
 90
        5
176
     1
 90
        0
176
     1
 90
        0
176
     1
290
     0
176
     1
 90
        1
176
     1
 40
-50.0
176
     1
 90
        0
176
     1
290
     0
176
     1
290
     1
176
     1
290
     1
176
     1
290
     0
176
     1
290
     0
176
     1
290
     0
176
     1
290
     0
176
     1
290
     0
176
     1
290
     0
176
     1
 90
       50
176
     1
 40
0.0
176
     1
 40
1.0
176
     1
 90
        0
176
     1
 62
    18
420
        0
176
     1
 90
       50
176
     1
 90
        3
176
     1
 62
     5
420
      255
176
     1
290
     0
176
     1
 90
       50
176
     1
 90
       50
176
     1
 90
       50
176
     1
290
     0
176
     1
 90
       50
176
     1
 62
   256
176
     0
 40
1.0
176
     0
 90
        2
176
     1
  1
strokes_ogs.tif
176
     1
290
     0
176
     1
 40
1.0
176
     1
 40
1.0
176
     1
  0
VISUALSTYLE
  5
41
102
{ACAD_REACTORS
330
29
102
}
330
29
100
AcDbVisualStyle
  2
EdgeColorOff
 70
    22
177
     3
291
     1
 70
    58
 90
        2
176
     0
 90
        2
176
     0
 90
        0
176
     0
 90
        0
176
     0
 40
0.6
176
     0
 40
30.0
176
     0
 62
     7
420
 16777215
176
     0
 90
        1
176
     0
 90
        4
176
     0
 62
     7
176
     0
 62
   257
176
     0
 90
        1
176
     0
 90
        1
176
     0
 40
1.0
176
     0
 90
        8
176
     2
 62
     7
176
     0
 40
1.0
176
     0
 90
        1
176
     0
 90
        6
176
     0
 90
        2
176
     0
 62
     7
176
     0
 90
        5
176
     0
 90
        0
176
     0
 90
        0
176
     0
290
     0
176
     0
 90
        1
176
     0
 40
0.0
176
     0
 90
        0
176
     0
290
     0
176
     0
290
     1
176
     0
290
     1
176
     0
290
     0
176
     0
290
     0
176
     0
290
     0
176
     0
290
     0
176
     0
290
     0
176
     0
290
     0
176
     0
 90
       50
176
     0
 40
0.0
176
     0
 40
1.0
176
     0
 90
        0
176
     0
 62
    18
420
        0
176
     0
 90
       50
176
     0
 90
        3
176
     0
 62
     5
420
      255
176
     0
290
     0
176
     0
 90
       50
176
     0
 90
       50
176
     0
 90
       50
176
     0
290
     0
176
     0
 90
       50
176
     0
 62
   256
176
     0
 40
1.0
176
     0
 90
        2
176
     0
  1
strokes_ogs.tif
176
     0
290
     0
176
     0
 40
1.0
176
     0
 40
1.0
176
     0
  0
VISUALSTYLE
  5
38
102
{ACAD_REACTORS
330
29
102
}
330
29
100
AcDbVisualStyle
  2
Facepattern
 70
    15
177
     3
291
     1
 70
    58
 90
        2
176
     1
 90
        2
176
     1
 90
        0
176
     1
 90
        0
176
     1
 40
0.6
176
     1
 40
30.0
176
     1
 62
     7
420
 16777215
176
     1
 90
        1
176
     1
 90
        4
176
     1
 62
     7
176
     1
 62
   257
176
     1
 90
        1
176
     1
 90
        1
176
     1
 40
1.0
176
     1
 90
        8
176
     1
 62
     7
176
     1
 40
1.0
176
     1
 90
        1
176
     1
 90
        6
176
     1
 90
        2
176
     1
 62
     7
176
     1
 90
        5
176
     1
 90
        0
176
     1
 90
        0
176
     1
290
     0
176
     1
 90
        1
176
     1
 40
0.0
176
     1
 90
        0
176
     1
290
     0
176
     1
290
     1
176
     1
290
     1
176
     1
290
     0
176
     1
290
     0
176
     1
290
     0
176
     1
290
     0
176
     1
290
     0
176
     1
290
     0
176
     1
 90
       50
176
     1
 40
0.0
176
     1
 40
1.0
176
     1
 90
        0
176
     1
 62
    18
420
        0
176
     1
 90
       50
176
     1
 90
        3
176
     1
 62
     5
420
      255
176
     1
290
     0
176
     1
 90
       50
176
     1
 90
       50
176
     1
 90
       50
176
     1
290
     0
176
     1
 90
       50
176
     1
 62
   256
176
     0
 40
1.0
176
     0
 90
        2
176
     1
  1
strokes_ogs.tif
176
     1
290
     0
176
     1
 40
1.0
176
     1
 40
1.0
176
     1
  0
VISUALSTYLE
  5
2A
102
{ACAD_REACTORS
330
29
102
}
330
29
100
AcDbVisualStyle
  2
Flat
 70
     0
177
     3
291
     1
 70
    58
 90
        2
176
     1
 90
        1
176
     1
 90
        1
176
     1
 90
        2
176
     1
 40
0.6
176
     1
 40
30.0
176
     1
 62
     7
420
 16777215
176
     1
 90
        0
176
     1
 90
        0
176
     1
 62
     7
176
     1
 62
   257
176
     1
 90
        1
176
     1
 90
        1
176
     1
 40
1.0
176
     1
 90
        8
176
     1
 62
     7
176
     1
 40
1.0
176
     1
 90
        1
176
     1
 90
        6
176
     1
 90
        2
176
     1
 62
     7
176
     1
 90
        5
176
     1
 90
        0
176
     1
 90
        0
176
     1
290
     0
176
     1
 90
       13
176
     1
 40
0.0
176
     1
 90
        0
176
     1
290
     0
176
     1
290
     1
176
     1
290
     1
176
     1
290
     0
176
     1
290
     0
176
     1
290
     0
176
     1
290
     0
176
     1
290
     0
176
     1
290
     0
176
     1
 90
       50
176
     1
 40
0.0
176
     1
 40
1.0
176
     1
 90
        0
176
     1
 62
    18
420
        0
176
     1
 90
       50
176
     1
 90
        3
176
     1
 62
     5
420
      255
176
     1
290
     0
176
     1
 90
       50
176
     1
 90
       50
176
     1
 90
       50
176
     1
290
     0
176
     1
 90
       50
176
     1
 62
   256
176
     0
 40
1.0
176
     0
 90
        2
176
     1
  1
strokes_ogs.tif
176
     1
290
     0
176
     1
 40
1.0
176
     1
 40
1.0
176
     1
  0
VISUALSTYLE
  5
2B
102
{ACAD_REACTORS
330
29
102
}
330
29
100
AcDbVisualStyle
  2
FlatWithEdges
 70
     1
177
     3
291
     1
 70
    58
 90
        2
176
     1
 90
        1
176
     1
 90
        1
176
     1
 90
        2
176
     1
 40
0.6
176
     1
 40
30.0
176
     1
 62
     7
420
 16777215
176
     1
 90
        1
176
     1
 90
        0
176
     1
 62
     7
176
     1
 62
   257
176
     1
 90
        1
176
     1
 90
        1
176
     1
 40
1.0
176
     1
 90
        0
176
     1
 62
   257
176
     1
 40
1.0
176
     1
 90
        1
176
     1
 90
        6
176
     1
 90
        2
176
     1
 62
     7
176
     1
 90
        5
176
     1
 90
        0
176
     1
 90
        0
176
     1
290
     0
176
     1
 90
       13
176
     1
 40
0.0
176
     1
 90
        0
176
     1
290
     0
176
     1
290
     1
176
     1
290
     1
176
     1
290
     0
176
     1
290
     0
176
     1
290
     0
176
     1
290
     0
176
     1
290
     0
176
     1
290
     0
176
     1
 90
       50
176
     1
 40
0.0
176
     1
 40
1.0
176
     1
 90
        0
176
     1
 62
    18
420
        0
176
     1
 90
       50
176
     1
 90
        3
176
     1
 62
     5
420
      255
176
     1
290
     0
176
     1
 90
       50
176
     1
 90
       50
176
     1
 90
       50
176
     1
290
     0
176
     1
 90
       50
176
     1
 62
   256
176
     0
 40
1.0
176
     0
 90
        2
176
     1
  1
strokes_ogs.tif
176
     1
290
     0
176
     1
 40
1.0
176
     1
 40
1.0
176
     1
  0
VISUALSTYLE
  5
2C
102
{ACAD_REACTORS
330
29
102
}
330
29
100
AcDbVisualStyle
  2
Gouraud
 70
     2
177
     3
291
     1
 70
    58
 90
        2
176
     1
 90
        2
176
     1
 90
        1
176
     1
 90
        2
176
     1
 40
0.6
176
     1
 40
30.0
176
     1
 62
     7
420
 16777215
176
     1
 90
        0
176
     1
 90
        0
176
     1
 62
     7
176
     1
 62
   257
176
     1
 90
        1
176
     1
 90
        1
176
     1
 40
1.0
176
     1
 90
        0
176
     1
 62
     7
176
     1
 40
1.0
176
     1
 90
        1
176
     1
 90
        6
176
     1
 90
        2
176
     1
 62
     7
176
     1
 90
        5
176
     1
 90
        0
176
     1
 90
        0
176
     1
290
     0
176
     1
 90
       13
176
     1
 40
0.0
176
     1
 90
        0
176
     1
290
     0
176
     1
290
     1
176
     1
290
     1
176
     1
290
     0
176
     1
290
     0
176
     1
290
     0
176
     1
290
     0
176
     1
290
     0
176
     1
290
     0
176
     1
 90
       50
176
     1
 40
0.0
176
     1
 40
1.0
176
     1
 90
        0
176
     1
 62
    18
420
        0
176
     1
 90
       50
176
     1
 90
        3
176
     1
 62
     5
420
      255
176
     1
290
     0
176
     1
 90
       50
176
     1
 90
       50
176
     1
 90
       50
176
     1
290
     0
176
     1
 90
       50
176
     1
 62
   256
176
     0
 40
1.0
176
     0
 90
        2
176
     1
  1
strokes_ogs.tif
176
     1
290
     0
176
     1
 40
1.0
176
     1
 40
1.0
176
     1
  0
VISUALSTYLE
  5
2D
102
{ACAD_REACTORS
330
29
102
}
330
29
100
AcDbVisualStyle
  2
GouraudWithEdges
 70
     3
177
     3
291
     1
 70
    58
 90
        2
176
     1
 90
        2
176
     1
 90
        1
176
     1
 90
        2
176
     1
 40
0.6
176
     1
 40
30.0
176
     1
 62
     7
420
 16777215
176
     1
 90
        1
176
     1
 90
        0
176
     1
 62
     7
176
     1
 62
   257
176
     1
 90
        1
176
     1
 90
        1
176
     1
 40
1.0
176
     1
 90
        0
176
     1
 62
   257
176
     1
 40
1.0
176
     1
 90
        1
176
     1
 90
        6
176
     1
 90
        2
176
     1
 62
     7
176
     1
 90
        5
176
     1
 90
        0
176
     1
 90
        0
176
     1
290
     0
176
     1
 90
       13
176
     1
 40
0.0
176
     1
 90
        0
176
     1
290
     0
176
     1
290
     1
176
     1
290
     1
176
     1
290
     0
176
     1
290
     0
176
     1
290
     0
176
     1
290
     0
176
     1
290
     0
176
     1
290
     0
176
     1
 90
       50
176
     1
 40
0.0
176
     1
 40
1.0
176
     1
 90
        0
176
     1
 62
    18
420
        0
176
     1
 90
       50
176
     1
 90
        3
176
     1
 62
     5
420
      255
176
     1
290
     0
176
     1
 90
       50
176
     1
 90
       50
176
     1
 90
       50
176
     1
290
     0
176
     1
 90
       50
176
     1
 62
   256
176
     0
 40
1.0
176
     0
 90
        2
176
     1
  1
strokes_ogs.tif
176
     1
290
     0
176
     1
 40
1.0
176
     1
 40
1.0
176
     1
  0
VISUALSTYLE
  5
31
102
{ACAD_REACTORS
330
29
102
}
330
29
100
AcDbVisualStyle
  2
Hidden
 70
     6
177
     3
291
     0
 70
    58
 90
        1
176
     1
 90
        2
176
     1
 90
        2
176
     1
 90
        0
176
     1
 40
0.6
176
     1
 40
30.0
176
     1
 62
     7
420
 16777215
176
     1
 90
        2
176
     1
 90
        2
176
     1
 62
     7
176
     1
 62
   257
176
     1
 90
        2
176
     1
 90
        1
176
     1
 40
40.0
176
     1
 90
        0
176
     1
 62
   257
176
     1
 40
1.0
176
     1
 90
        1
176
     1
 90
        6
176
     1
 90
        2
176
     1
 62
     7
176
     1
 90
        3
176
     1
 90
        0
176
     1
 90
        0
176
     1
290
     0
176
     1
 90
        1
176
     1
 40
0.0
176
     1
 90
        0
176
     1
290
     0
176
     1
290
     1
176
     1
290
     1
176
     1
290
     0
176
     1
290
     0
176
     1
290
     0
176
     1
290
     0
176
     1
290
     0
176
     1
290
     0
176
     1
 90
       50
176
     1
 40
0.0
176
     1
 40
1.0
176
     1
 90
        0
176
     1
 62
    18
420
        0
176
     1
 90
       50
176
     1
 90
        3
176
     1
 62
     5
420
      255
176
     1
290
     0
176
     1
 90
       50
176
     1
 90
       50
176
     1
 90
       50
176
     1
290
     0
176
     1
 90
       50
176
     1
 62
   256
176
     0
 40
1.0
176
     0
 90
        2
176
     1
  1
strokes_ogs.tif
176
     1
290
     0
176
     1
 40
1.0
176
     1
 40
1.0
176
     1
  0
VISUALSTYLE
  5
3F
102
{ACAD_REACTORS
330
29
102
}
330
29
100
AcDbVisualStyle
  2
JitterOff
 70
    20
177
     3
291
     1
 70
    58
 90
        2
176
     0
 90
        2
176
     0
 90
        0
176
     0
 90
        0
176
     0
 40
0.6
176
     0
 40
30.0
176
     0
 62
     7
420
 16777215
176
     0
 90
        1
176
     0
 90
        4
176
     0
 62
     7
176
     0
 62
   257
176
     0
 90
        1
176
     0
 90
        1
176
     0
 40
1.0
176
     0
 90
       10
176
     2
 62
     7
176
     0
 40
1.0
176
     0
 90
        1
176
     0
 90
        6
176
     0
 90
        2
176
     0
 62
     7
176
     0
 90
        5
176
     0
 90
        0
176
     0
 90
        0
176
     0
290
     0
176
     0
 90
        1
176
     0
 40
0.0
176
     0
 90
        0
176
     0
290
     0
176
     0
290
     1
176
     0
290
     1
176
     0
290
     0
176
     0
290
     0
176
     0
290
     0
176
     0
290
     0
176
     0
290
     0
176
     0
290
     0
176
     0
 90
       50
176
     0
 40
0.0
176
     0
 40
1.0
176
     0
 90
        0
176
     0
 62
    18
420
        0
176
     0
 90
       50
176
     0
 90
        3
176
     0
 62
     5
420
      255
176
     0
290
     0
176
     0
 90
       50
176
     0
 90
       50
176
     0
 90
       50
176
     0
290
     0
176
     0
 90
       50
176
     0
 62
   256
176
     0
 40
1.0
176
     0
 90
        2
176
     0
  1
strokes_ogs.tif
176
     0
290
     0
176
     0
 40
1.0
176
     0
 40
1.0
176
     0
  0
VISUALSTYLE
  5
37
102
{ACAD_REACTORS
330
29
102
}
330
29
100
AcDbVisualStyle
  2
Linepattern
 70
    14
177
     3
291
     1
 70
    58
 90
        2
176
     1
 90
        2
176
     1
 90
        0
176
     1
 90
        0
176
     1
 40
0.6
176
     1
 40
30.0
176
     1
 62
     7
420
 16777215
176
     1
 90
        1
176
     1
 90
        4
176
     1
 62
     7
176
     1
 62
   257
176
     1
 90
        7
176
     1
 90
        7
176
     1
 40
1.0
176
     1
 90
        8
176
     1
 62
     7
176
     1
 40
1.0
176
     1
 90
        1
176
     1
 90
        6
176
     1
 90
        2
176
     1
 62
     7
176
     1
 90
        5
176
     1
 90
        0
176
     1
 90
        0
176
     1
290
     0
176
     1
 90
        1
176
     1
 40
0.0
176
     1
 90
        0
176
     1
290
     0
176
     1
290
     1
176
     1
290
     1
176
     1
290
     0
176
     1
290
     0
176
     1
290
     0
176
     1
290
     0
176
     1
290
     0
176
     1
290
     0
176
     1
 90
       50
176
     1
 40
0.0
176
     1
 40
1.0
176
     1
 90
        0
176
     1
 62
    18
420
        0
176
     1
 90
       50
176
     1
 90
        3
176
     1
 62
     5
420
      255
176
     1
290
     0
176
     1
 90
       50
176
     1
 90
       50
176
     1
 90
       50
176
     1
290
     0
176
     1
 90
       50
176
     1
 62
   256
176
     0
 40
1.0
176
     0
 90
        2
176
     1
  1
strokes_ogs.tif
176
     1
290
     0
176
     1
 40
1.0
176
     1
 40
1.0
176
     1
  0
VISUALSTYLE
  5
40
102
{ACAD_REACTORS
330
29
102
}
330
29
100
AcDbVisualStyle
  2
OverhangOff
 70
    21
177
     3
291
     1
 70
    58
 90
        2
176
     0
 90
        2
176
     0
 90
        0
176
     0
 90
        0
176
     0
 40
0.6
176
     0
 40
30.0
176
     0
 62
     7
420
 16777215
176
     0
 90
        1
176
     0
 90
        4
176
     0
 62
     7
176
     0
 62
   257
176
     0
 90
        1
176
     0
 90
        1
176
     0
 40
1.0
176
     0
 90
        9
176
     2
 62
     7
176
     0
 40
1.0
176
     0
 90
        1
176
     0
 90
        6
176
     0
 90
        2
176
     0
 62
     7
176
     0
 90
        5
176
     0
 90
        0
176
     0
 90
        0
176
     0
290
     0
176
     0
 90
        1
176
     0
 40
0.0
176
     0
 90
        0
176
     0
290
     0
176
     0
290
     1
176
     0
290
     1
176
     0
290
     0
176
     0
290
     0
176
     0
290
     0
176
     0
290
     0
176
     0
290
     0
176
     0
290
     0
176
     0
 90
       50
176
     0
 40
0.0
176
     0
 40
1.0
176
     0
 90
        0
176
     0
 62
    18
420
        0
176
     0
 90
       50
176
     0
 90
        3
176
     0
 62
     5
420
      255
176
     0
290
     0
176
     0
 90
       50
176
     0
 90
       50
176
     0
 90
       50
176
     0
290
     0
176
     0
 90
       50
176
     0
 62
   256
176
     0
 40
1.0
176
     0
 90
        2
176
     0
  1
strokes_ogs.tif
176
     0
290
     0
176
     0
 40
1.0
176
     0
 40
1.0
176
     0
  0
VISUALSTYLE
  5
33
102
{ACAD_REACTORS
330
29
102
}
330
29
100
AcDbVisualStyle
  2
Realistic
 70
     8
177
     3
291
     0
 70
    58
 90
        2
176
     1
 90
        3
176
     1
 90
        0
176
     1
 90
        2
176
     1
 40
0.6
176
     1
 40
30.0
176
     1
 62
     7
420
 16777215
176
     1
 90
        0
176
     1
 90
        0
176
     1
 62
     7
176
     1
 62
   257
176
     1
 90
        1
176
     1
 90
        1
176
     1
 40
1.0
176
     1
 90
        8
176
     1
 62
   257
176
     1
 40
1.0
176
     1
 90
        1
176
     1
 90
        6
176
     1
 90
        2
176
     1
 62
     7
176
     1
 90
        3
176
     1
 90
        0
176
     1
 90
        0
176
     1
290
     0
176
     1
 90
       13
176
     1
 40
0.0
176
     1
 90
        0
176
     1
290
     0
176
     1
290
     1
176
     1
290
     1
176
     1
290
     0
176
     1
290
     0
176
     1
290
     0
176
     1
290
     0
176
     1
290
     0
176
     1
290
     0
176
     1
 90
       50
176
     1
 40
0.0
176
     1
 40
1.0
176
     1
 90
        0
176
     1
 62
    18
420
        0
176
     1
 90
       50
176
     1
 90
        3
176
     1
 62
     5
420
      255
176
     1
290
     0
176
     1
 90
       50
176
     1
 90
       50
176
     1
 90
       50
176
     1
290
     0
176
     1
 90
       50
176
     1
 62
   256
176
     0
 40
1.0
176
     0
 90
        2
176
     1
  1
strokes_ogs.tif
176
     1
290
     0
176
     1
 40
1.0
176
     1
 40
1.0
176
     1
  0
VISUALSTYLE
  5
3E
102
{ACAD_REACTORS
330
29
102
}
330
29
100
AcDbVisualStyle
  2
Shaded
 70
    27
177
     3
291
     0
 70
    58
 90
        2
176
     1
 90
        2
176
     1
 90
        1
176
     1
 90
        2
176
     1
 40
0.6
176
     1
 40
30.0
176
     1
 62
     7
420
 16777215
176
     1
 90
        0
176
     1
 90
        4
176
     1
 62
     7
176
     1
 62
   257
176
     1
 90
        1
176
     1
 90
        1
176
     1
 40
1.0
176
     1
 90
        8
176
     1
 62
   257
176
     1
 40
1.0
176
     1
 90
        1
176
     1
 90
        6
176
     1
 90
        2
176
     1
 62
     8
420
  7895160
176
     1
 90
        3
176
     1
 90
        0
176
     1
 90
        0
176
     1
290
     0
176
     1
 90
        5
176
     1
 40
0.0
176
     1
 90
        0
176
     1
290
     0
176
     1
290
     1
176
     1
290
     1
176
     1
290
     0
176
     1
290
     0
176
     1
290
     0
176
     1
290
     0
176
     1
290
     0
176
     1
290
     0
176
     1
 90
       50
176
     1
 40
0.0
176
     1
 40
1.0
176
     1
 90
        0
176
     1
 62
    18
420
        0
176
     1
 90
       50
176
     1
 90
        3
176
     1
 62
     5
420
      255
176
     1
290
     0
176
     1
 90
       50
176
     1
 90
       50
176
     1
 90
       50
176
     1
290
     0
176
     1
 90
       50
176
     1
 62
   256
176
     0
 40
1.0
176
     0
 90
        2
176
     1
  1
strokes_ogs.tif
176
     1
290
     0
176
     1
 40
1.0
176
     1
 40
1.0
176
     1
  0
VISUALSTYLE
  5
3D
102
{ACAD_REACTORS
330
29
102
}
330
29
100
AcDbVisualStyle
  2
Shaded with edges
 70
    26
177
     3
291
     0
 70
    58
 90
        2
176
     1
 90
        2
176
     1
 90
        1
176
     1
 90
        2
176
     1
 40
0.6
176
     1
 40
30.0
176
     1
 62
     7
420
 16777215
176
     1
 90
        1
176
     1
 90
        2
176
     1
 62
     7
176
     1
 62
   257
176
     1
 90
        2
176
     1
 90
        1
176
     1
 40
1.0
176
     1
 90
        8
176
     1
 62
   257
176
     1
 40
1.0
176
     1
 90
        1
176
     1
 90
        6
176
     1
 90
        2
176
     1
 62
     7
176
     1
 90
        3
176
     1
 90
        0
176
     1
 90
        0
176
     1
290
     0
176
     1
 90
        5
176
     1
 40
0.0
176
     1
 90
        0
176
     1
290
     0
176
     1
290
     1
176
     1
290
     1
176
     1
290
     0
176
     1
290
     0
176
     1
290
     0
176
     1
290
     0
176
     1
290
     0
176
     1
290
     0
176
     1
 90
       50
176
     1
 40
0.0
176
     1
 40
1.0
176
     1
 90
        0
176
     1
 62
    18
420
        0
176
     1
 90
       50
176
     1
 90
        3
176
     1
 62
     5
420
      255
176
     1
290
     0
176
     1
 90
       50
176
     1
 90
       50
176
     1
 90
       50
176
     1
290
     0
176
     1
 90
       50
176
     1
 62
   256
176
     0
 40
1.0
176
     0
 90
        2
176
     1
  1
strokes_ogs.tif
176
     1
290
     0
176
     1
 40
1.0
176
     1
 40
1.0
176
     1
  0
VISUALSTYLE
  5
3A
102
{ACAD_REACTORS
330
29
102
}
330
29
100
AcDbVisualStyle
  2
Shades of Gray
 70
    23
177
     3
291
     0
 70
    58
 90
        2
176
     1
 90
        2
176
     1
 90
        3
176
     1
 90
        0
176
     1
 40
0.6
176
     1
 40
30.0
176
     1
 62
     7
420
 16777215
176
     1
 90
        2
176
     1
 90
        2
176
     1
 62
     7
176
     1
 62
     7
176
     1
 90
        1
176
     1
 90
        1
176
     1
 40
40.0
176
     1
 90
        8
176
     1
 62
     7
176
     1
 40
1.0
176
     1
 90
        1
176
     1
 90
        6
176
     1
 90
        2
176
     1
 62
     7
176
     1
 90
        3
176
     1
 90
        0
176
     1
 90
        0
176
     1
290
     0
176
     1
 90
        1
176
     1
 40
0.0
176
     1
 90
        0
176
     1
290
     0
176
     1
290
     1
176
     1
290
     1
176
     1
290
     0
176
     1
290
     0
176
     1
290
     0
176
     1
290
     0
176
     1
290
     0
176
     1
290
     0
176
     1
 90
       50
176
     1
 40
0.0
176
     1
 40
1.0
176
     1
 90
        0
176
     1
 62
    18
420
        0
176
     1
 90
       50
176
     1
 90
        3
176
     1
 62
     5
420
      255
176
     1
290
     0
176
     1
 90
       50
176
     1
 90
       50
176
     1
 90
       50
176
     1
290
     0
176
     1
 90
       50
176
     1
 62
   256
176
     0
 40
1.0
176
     0
 90
        2
176
     1
  1
strokes_ogs.tif
176
     1
290
     0
176
     1
 40
1.0
176
     1
 40
1.0
176
     1
  0
VISUALSTYLE
  5
3B
102
{ACAD_REACTORS
330
29
102
}
330
29
100
AcDbVisualStyle
  2
Sketchy
 70
    24
177
     3
291
     0
 70
    58
 90
        1
176
     1
 90
        2
176
     1
 90
        2
176
     1
 90
        0
176
     1
 40
0.6
176
     1
 40
30.0
176
     1
 62
     7
420
 16777215
176
     1
 90
        2
176
     1
 90
        2
176
     1
 62
     7
176
     1
 62
     7
176
     1
 90
        1
176
     1
 90
        1
176
     1
 40
40.0
176
     1
 90
       11
176
     1
 62
     7
176
     1
 40
1.0
176
     1
 90
        1
176
     1
 90
        6
176
     1
 90
        2
176
     1
 62
     7
176
     1
 90
        6
176
     1
 90
        0
176
     1
 90
        0
176
     1
290
     0
176
     1
 90
        1
176
     1
 40
0.0
176
     1
 90
        0
176
     1
290
     0
176
     1
290
     1
176
     1
290
     1
176
     1
290
     0
176
     1
290
     0
176
     1
290
     0
176
     1
290
     0
176
     1
290
     0
176
     1
290
     0
176
     1
 90
       50
176
     1
 40
0.0
176
     1
 40
1.0
176
     1
 90
        0
176
     1
 62
    18
420
        0
176
     1
 90
       50
176
     1
 90
        3
176
     1
 62
     5
420
      255
176
     1
290
     0
176
     1
 90
       50
176
     1
 90
       50
176
     1
 90
       50
176
     1
290
     0
176
     1
 90
       50
176
     1
 62
   256
176
     0
 40
1.0
176
     0
 90
        2
176
     1
  1
strokes_ogs.tif
176
     1
290
     0
176
     1
 40
1.0
176
     1
 40
1.0
176
     1
  0
VISUALSTYLE
  5
36
102
{ACAD_REACTORS
330
29
102
}
330
29
100
AcDbVisualStyle
  2
Thicken
 70
    13
177
     3
291
     1
 70
    58
 90
        2
176
     1
 90
        2
176
     1
 90
        0
176
     1
 90
        0
176
     1
 40
0.6
176
     1
 40
30.0
176
     1
 62
     7
420
 16777215
176
     1
 90
        1
176
     1
 90
        4
176
     1
 62
     7
176
     1
 62
   257
176
     1
 90
        1
176
     1
 90
        1
176
     1
 40
1.0
176
     1
 90
       12
176
     1
 62
     7
176
     1
 40
1.0
176
     1
 90
        1
176
     1
 90
        6
176
     1
 90
        2
176
     1
 62
     7
176
     1
 90
        5
176
     1
 90
        0
176
     1
 90
        0
176
     1
290
     0
176
     1
 90
        1
176
     1
 40
0.0
176
     1
 90
        0
176
     1
290
     0
176
     1
290
     1
176
     1
290
     1
176
     1
290
     0
176
     1
290
     0
176
     1
290
     0
176
     1
290
     0
176
     1
290
     0
176
     1
290
     0
176
     1
 90
       50
176
     1
 40
0.0
176
     1
 40
1.0
176
     1
 90
        0
176
     1
 62
    18
420
        0
176
     1
 90
       50
176
     1
 90
        3
176
     1
 62
     5
420
      255
176
     1
290
     0
176
     1
 90
       50
176
     1
 90
       50
176
     1
 90
       50
176
     1
290
     0
176
     1
 90
       50
176
     1
 62
   256
176
     0
 40
1.0
176
     0
 90
        2
176
     1
  1
strokes_ogs.tif
176
     1
290
     0
176
     1
 40
1.0
176
     1
 40
1.0
176
     1
  0
VISUALSTYLE
  5
30
102
{ACAD_REACTORS
330
29
102
}
330
29
100
AcDbVisualStyle
  2
Wireframe
 70
     5
177
     3
291
     0
 70
    58
 90
        0
176
     1
 90
        2
176
     1
 90
        0
176
     1
 90
        0
176
     1
 40
0.6
176
     1
 40
30.0
176
     1
 62
     7
420
 16777215
176
     1
 90
        1
176
     1
 90
        4
176
     1
 62
     7
176
     1
 62
   257
176
     1
 90
        1
176
     1
 90
        1
176
     1
 40
1.0
176
     1
 90
        0
176
     1
 62
   257
176
     1
 40
1.0
176
     1
 90
        1
176
     1
 90
        6
176
     1
 90
        2
176
     1
 62
     7
176
     1
 90
        3
176
     1
 90
        0
176
     1
 90
        0
176
     1
290
     0
176
     1
 90
        1
176
     1
 40
0.0
176
     1
 90
        0
176
     1
290
     0
176
     1
290
     1
176
     1
290
     1
176
     1
290
     0
176
     1
290
     0
176
     1
290
     0
176
     1
290
     0
176
     1
290
     0
176
     1
290
     0
176
     1
 90
       50
176
     1
 40
0.0
176
     1
 40
1.0
176
     1
 90
        0
176
     1
 62
    18
420
        0
176
     1
 90
       50
176
     1
 90
        3
176
     1
 62
     5
420
      255
176
     1
290
     0
176
     1
 90
       50
176
     1
 90
       50
176
     1
 90
       50
176
     1
290
     0
176
     1
 90
       50
176
     1
 62
   256
176
     0
 40
1.0
176
     0
 90
        2
176
     1
  1
strokes_ogs.tif
176
     1
290
     0
176
     1
 40
1.0
176
     1
 40
1.0
176
     1
  0
VISUALSTYLE
  5
3C
102
{ACAD_REACTORS
330
29
102
}
330
29
100
AcDbVisualStyle
  2
X-Ray
 70
    25
177
     3
291
     0
 70
    58
 90
        2
176
     1
 90
        2
176
     1
 90
        1
176
     1
 90
        1
176
     1
 40
0.5
176
     1
 40
30.0
176
     1
 62
     7
420
 16777215
176
     1
 90
        1
176
     1
 90
        0
176
     1
 62
     7
176
     1
 62
   257
176
     1
 90
        1
176
     1
 90
        1
176
     1
 40
1.0
176
     1
 90
        8
176
     1
 62
     7
176
     1
 40
1.0
176
     1
 90
        1
176
     1
 90
        6
176
     1
 90
        2
176
     1
 62
     7
176
     1
 90
        3
176
     1
 90
        0
176
     1
 90
        0
176
     1
290
     0
176
     1
 90
       13
176
     1
 40
0.0
176
     1
 90
        0
176
     1
290
     0
176
     1
290
     1
176
     1
290
     1
176
     1
290
     0
176
     1
290
     0
176
     1
290
     0
176
     1
290
     0
176
     1
290
     0
176
     1
290
     0
176
     1
 90
       50
176
     1
 40
0.0
176
     1
 40
1.0
176
     1
 90
        0
176
     1
 62
    18
420
        0
176
     1
 90
       50
176
     1
 90
        3
176
     1
 62
     5
420
      255
176
     1
290
     0
176
     1
 90
       50
176
     1
 90
       50
176
     1
 90
       50
176
     1
290
     0
176
     1
 90
       50
176
     1
 62
   256
176
     0
 40
1.0
176
     0
 90
        2
176
     1
  1
strokes_ogs.tif
176
     1
290
     0
176
     1
 40
1.0
176
     1
 40
1.0
176
     1
  0
DICTIONARYVAR
  5
25D
102
{ACAD_REACTORS
330
258
102
}
330
258
100
DictionaryVariables
280
     0
  1
1:1
  0
DICTIONARYVAR
  5
25A
102
{ACAD_REACTORS
330
258
102
}
330
258
100
DictionaryVariables
280
     0
  1
STANDARD
  0
DICTIONARYVAR
  5
259
102
{ACAD_REACTORS
330
258
102
}
330
258
100
DictionaryVariables
280
     0
  1
STANDARD
  0
DICTIONARYVAR
  5
25B
102
{ACAD_REACTORS
330
258
102
}
330
258
100
DictionaryVariables
280
     0
  1
Imperial24
  0
DICTIONARYVAR
  5
25C
102
{ACAD_REACTORS
330
258
102
}
330
258
100
DictionaryVariables
280
     0
  1
Imperial24
  0
DICTIONARY
  5
1A
330
19
100
AcDbDictionary
280
     1
281
     1
  3
BUMPTILE
360
1C
  3
DIFFUSETILE
360
1B
  3
OPACITYTILE
360
1F
  3
REFLECTIONTILE
360
1E
  3
REFRACTIONTILE
360
20
  3
SPECULARTILE
360
1D
  0
DICTIONARY
  5
12
330
11
100
AcDbDictionary
280
     1
281
     1
  3
BUMPTILE
360
14
  3
DIFFUSETILE
360
13
  3
OPACITYTILE
360
17
  3
REFLECTIONTILE
360
16
  3
REFRACTIONTILE
360
18
  3
SPECULARTILE
360
15
  0
DICTIONARY
  5
22
330
21
100
AcDbDictionary
280
     1
281
     1
  3
BUMPTILE
360
24
  3
DIFFUSETILE
360
23
  3
OPACITYTILE
360
27
  3
REFLECTIONTILE
360
26
  3
REFRACTIONTILE
360
28
  3
SPECULARTILE
360
25
  0
DICTIONARY
  5
25E
330
65
100
AcDbDictionary
280
     1
281
     1
  3
ACAD_ROUNDTRIP_2008_TABLESTYLE_CELLSTYLEMAP
360
25F
  0
XRECORD
  5
1C
102
{ACAD_REACTORS
330
1A
102
}
330
1A
100
AcDbXrecord
280
     1
270
     1
271
     1
  0
XRECORD
  5
1B
102
{ACAD_REACTORS
330
1A
102
}
330
1A
100
AcDbXrecord
280
     1
270
     1
271
     1
  0
XRECORD
  5
1F
102
{ACAD_REACTORS
330
1A
102
}
330
1A
100
AcDbXrecord
280
     1
270
     1
271
     1
  0
XRECORD
  5
1E
102
{ACAD_REACTORS
330
1A
102
}
330
1A
100
AcDbXrecord
280
     1
270
     1
271
     1
  0
XRECORD
  5
20
102
{ACAD_REACTORS
330
1A
102
}
330
1A
100
AcDbXrecord
280
     1
270
     1
271
     1
  0
XRECORD
  5
1D
102
{ACAD_REACTORS
330
1A
102
}
330
1A
100
AcDbXrecord
280
     1
270
     1
271
     1
  0
XRECORD
  5
14
102
{ACAD_REACTORS
330
12
102
}
330
12
100
AcDbXrecord
280
     1
270
     1
271
     1
  0
XRECORD
  5
13
102
{ACAD_REACTORS
330
12
102
}
330
12
100
AcDbXrecord
280
     1
270
     1
271
     1
  0
XRECORD
  5
17
102
{ACAD_REACTORS
330
12
102
}
330
12
100
AcDbXrecord
280
     1
270
     1
271
     1
  0
XRECORD
  5
16
102
{ACAD_REACTORS
330
12
102
}
330
12
100
AcDbXrecord
280
     1
270
     1
271
     1
  0
XRECORD
  5
18
102
{ACAD_REACTORS
330
12
102
}
330
12
100
AcDbXrecord
280
     1
270
     1
271
     1
  0
XRECORD
  5
15
102
{ACAD_REACTORS
330
12
102
}
330
12
100
AcDbXrecord
280
     1
270
     1
271
     1
  0
XRECORD
  5
24
102
{ACAD_REACTORS
330
22
102
}
330
22
100
AcDbXrecord
280
     1
270
     1
271
     1
  0
XRECORD
  5
23
102
{ACAD_REACTORS
330
22
102
}
330
22
100
AcDbXrecord
280
     1
270
     1
271
     1
  0
XRECORD
  5
27
102
{ACAD_REACTORS
330
22
102
}
330
22
100
AcDbXrecord
280
     1
270
     1
271
     1
  0
XRECORD
  5
26
102
{ACAD_REACTORS
330
22
102
}
330
22
100
AcDbXrecord
280
     1
270
     1
271
     1
  0
XRECORD
  5
28
102
{ACAD_REACTORS
330
22
102
}
330
22
100
AcDbXrecord
280
     1
270
     1
271
     1
  0
XRECORD
  5
25
102
{ACAD_REACTORS
330
22
102
}
330
22
100
AcDbXrecord
280
     1
270
     1
271
     1
  0
CELLSTYLEMAP
  5
25F
102
{ACAD_REACTORS
330
25E
102
}
330
25E
100
AcDbCellStyleMap
 90
        3
300
CELLSTYLE
  1
TABLEFORMAT_BEGIN
 90
        5
170
     1
 91
        0
 92
    32768
 62
   257
 93
        1
300
CONTENTFORMAT
  1
CONTENTFORMAT_BEGIN
 90
        0
 91
        0
 92
      512
 93
        0
300

 40
0.0
140
1.0
 94
        5
 62
     0
340
55
144
0.25
309
CONTENTFORMAT_END
171
     0
 94
        0
309
TABLEFORMAT_END
  1
CELLSTYLE_BEGIN
 90
        1
 91
        1
300
_TITLE
309
CELLSTYLE_END
300
CELLSTYLE
  1
TABLEFORMAT_BEGIN
 90
        5
170
     1
 91
        0
 92
        0
 62
   257
 93
        1
300
CONTENTFORMAT
  1
CONTENTFORMAT_BEGIN
 90
        0
 91
        0
 92
      512
 93
        0
300

 40
0.0
140
1.0
 94
        5
 62
     0
340
55
144
0.18
309
CONTENTFORMAT_END
171
     0
 94
        0
309
TABLEFORMAT_END
  1
CELLSTYLE_BEGIN
 90
        2
 91
        1
300
_HEADER
309
CELLSTYLE_END
300
CELLSTYLE
  1
TABLEFORMAT_BEGIN
 90
        5
170
     1
 91
        0
 92
        0
 62
   257
 93
        1
300
CONTENTFORMAT
  1
CONTENTFORMAT_BEGIN
 90
        0
 91
        0
 92
      512
 93
        0
300

 40
0.0
140
1.0
 94
        2
 62
     0
340
55
144
0.18
309
CONTENTFORMAT_END
171
     0
 94
        0
309
TABLEFORMAT_END
  1
CELLSTYLE_BEGIN
 90
        3
 91
        2
300
_DATA
309
CELLSTYLE_END
  0
ENDSEC
  0
EOF
