  0
SECTION
  2
HEADER
  9
$ACADVER
  1
AC1032
  9
$ACADMAINTVER
 90
      251
  9
$DWGCODEPAGE
  3
ANSI_1252
  9
$REQUIREDVERSIONS
160
                 0
  9
$INSBASE
 10
0.0
 20
0.0
 30
0.0
  9
$EXTMIN
 10
1.000000000000000E+20
 20
1.000000000000000E+20
 30
1.000000000000000E+20
  9
$EXTMAX
 10
-1.000000000000000E+20
 20
-1.000000000000000E+20
 30
-1.000000000000000E+20
  9
$LIMMIN
 10
0.0
 20
0.0
  9
$LIMMAX
 10
12.0
 20
9.0
  9
$ORTHOMODE
 70
     0
  9
$REGENMODE
 70
     1
  9
$FILLMODE
 70
     1
  9
$QTEXTMODE
 70
     0
  9
$MIRRTEXT
 70
     0
  9
$LTSCALE
 40
1.0
  9
$ATTMODE
 70
     1
  9
$TEXTSIZE
 40
0.2
  9
$TRACEWID
 40
0.05
  9
$TEXTSTYLE
  7
Standard
  9
$CLAYER
  8
0
  9
$CELTYPE
  6
ByLayer
  9
$CECOLOR
 62
   256
  9
$CELTSCALE
 40
1.0
  9
$DISPSILH
 70
     0
  9
$DIMSCALE
 40
1.0
  9
$DIMASZ
 40
0.18
  9
$DIMEXO
 40
0.0625
  9
$DIMDLI
 40
0.38
  9
$DIMRND
 40
0.0
  9
$DIMDLE
 40
0.0
  9
$DIMEXE
 40
0.18
  9
$DIMTP
 40
0.0
  9
$DIMTM
 40
0.0
  9
$DIMTXT
 40
0.18
  9
$DIMCEN
 40
0.09
  9
$DIMTSZ
 40
0.0
  9
$DIMTOL
 70
     0
  9
$DIMLIM
 70
     0
  9
$DIMTIH
 70
     1
  9
$DIMTOH
 70
     1
  9
$DIMSE1
 70
     0
  9
$DIMSE2
 70
     0
  9
$DIMTAD
 70
     0
  9
$DIMZIN
 70
     0
  9
$DIMBLK
  1

  9
$DIMASO
 70
     1
  9
$DIMSHO
 70
     1
  9
$DIMPOST
  1

  9
$DIMAPOST
  1

  9
$DIMALT
 70
     0
  9
$DIMALTD
 70
     2
  9
$DIMALTF
 40
25.4
  9
$DIMLFAC
 40
1.0
  9
$DIMTOFL
 70
     0
  9
$DIMTVP
 40
0.0
  9
$DIMTIX
 70
     0
  9
$DIMSOXD
 70
     0
  9
$DIMSAH
 70
     0
  9
$DIMBLK1
  1

  9
$DIMBLK2
  1

  9
$DIMSTYLE
  2
Standard
  9
$DIMCLRD
 70
     0
  9
$DIMCLRE
 70
     0
  9
$DIMCLRT
 70
     0
  9
$DIMTFAC
 40
1.0
  9
$DIMGAP
 40
0.09
  9
$DIMJUST
 70
     0
  9
$DIMSD1
 70
     0
  9
$DIMSD2
 70
     0
  9
$DIMTOLJ
 70
     1
  9
$DIMTZIN
 70
     0
  9
$DIMALTZ
 70
     0
  9
$DIMALTTZ
 70
     0
  9
$DIMUPT
 70
     0
  9
$DIMDEC
 70
     4
  9
$DIMTDEC
 70
     4
  9
$DIMALTU
 70
     2
  9
$DIMALTTD
 70
     2
  9
$DIMTXSTY
  7
Standard
  9
$DIMAUNIT
 70
     0
  9
$DIMADEC
 70
     0
  9
$DIMALTRND
 40
0.0
  9
$DIMAZIN
 70
     0
  9
$DIMDSEP
 70
    46
  9
$DIMATFIT
 70
     3
  9
$DIMFRAC
 70
     0
  9
$DIMLDRBLK
  1

  9
$DIMLUNIT
 70
     2
  9
$DIMLWD
 70
    -2
  9
$DIMLWE
 70
    -2
  9
$DIMTMOVE
 70
     0
  9
$DIMFXL
 40
1.0
  9
$DIMFXLON
 70
     0
  9
$DIMJOGANG
 40
0.7853981633974483
  9
$DIMTFILL
 70
     0
  9
$DIMTFILLCLR
 70
     0
  9
$DIMARCSYM
 70
     0
  9
$DIMLTYPE
  6

  9
$DIMLTEX1
  6

  9
$DIMLTEX2
  6

  9
$DIMTXTDIRECTION
 70
     0
  9
$LUNITS
 70
     2
  9
$LUPREC
 70
     4
  9
$SKETCHINC
 40
0.1
  9
$FILLETRAD
 40
0.0
  9
$AUNITS
 70
     0
  9
$AUPREC
 70
     0
  9
$MENU
  1
.
  9
$ELEVATION
 40
0.0
  9
$PELEVATION
 40
0.0
  9
$THICKNESS
 40
0.0
  9
$LIMCHECK
 70
     0
  9
$CHAMFERA
 40
0.0
  9
$CHAMFERB
 40
0.0
  9
$CHAMFERC
 40
0.0
  9
$CHAMFERD
 40
0.0
  9
$SKPOLY
 70
     0
  9
$TDCREATE
 40
2460038.420752315
  9
$TDUCREATE
 40
2460038.337418982
  9
$TDUPDATE
 40
2460038.420752315
  9
$TDUUPDATE
 40
2460038.337418982
  9
$TDINDWG
 40
0.0000000000
  9
$TDUSRTIMER
 40
0.0000000000
  9
$USRTIMER
 70
     1
  9
$ANGBASE
 50
0.0
  9
$ANGDIR
 70
     0
  9
$PDMODE
 70
     0
  9
$PDSIZE
 40
0.0
  9
$PLINEWID
 40
0.0
  9
$SPLFRAME
 70
     0
  9
$SPLINETYPE
 70
     6
  9
$SPLINESEGS
 70
     8
  9
$HANDSEED
  5
217
  9
$SURFTAB1
 70
     6
  9
$SURFTAB2
 70
     6
  9
$SURFTYPE
 70
     6
  9
$SURFU
 70
     6
  9
$SURFV
 70
     6
  9
$UCSBASE
  2

  9
$UCSNAME
  2

  9
$UCSORG
 10
0.0
 20
0.0
 30
0.0
  9
$UCSXDIR
 10
1.0
 20
0.0
 30
0.0
  9
$UCSYDIR
 10
0.0
 20
1.0
 30
0.0
  9
$UCSORTHOREF
  2

  9
$UCSORTHOVIEW
 70
     0
  9
$UCSORGTOP
 10
0.0
 20
0.0
 30
0.0
  9
$UCSORGBOTTOM
 10
0.0
 20
0.0
 30
0.0
  9
$UCSORGLEFT
 10
0.0
 20
0.0
 30
0.0
  9
$UCSORGRIGHT
 10
0.0
 20
0.0
 30
0.0
  9
$UCSORGFRONT
 10
0.0
 20
0.0
 30
0.0
  9
$UCSORGBACK
 10
0.0
 20
0.0
 30
0.0
  9
$PUCSBASE
  2

  9
$PUCSNAME
  2

  9
$PUCSORG
 10
0.0
 20
0.0
 30
0.0
  9
$PUCSXDIR
 10
1.0
 20
0.0
 30
0.0
  9
$PUCSYDIR
 10
0.0
 20
1.0
 30
0.0
  9
$PUCSORTHOREF
  2

  9
$PUCSORTHOVIEW
 70
     0
  9
$PUCSORGTOP
 10
0.0
 20
0.0
 30
0.0
  9
$PUCSORGBOTTOM
 10
0.0
 20
0.0
 30
0.0
  9
$PUCSORGLEFT
 10
0.0
 20
0.0
 30
0.0
  9
$PUCSORGRIGHT
 10
0.0
 20
0.0
 30
0.0
  9
$PUCSORGFRONT
 10
0.0
 20
0.0
 30
0.0
  9
$PUCSORGBACK
 10
0.0
 20
0.0
 30
0.0
  9
$USERI1
 70
     0
  9
$USERI2
 70
     0
  9
$USERI3
 70
     0
  9
$USERI4
 70
     0
  9
$USERI5
 70
     0
  9
$USERR1
 40
0.0
  9
$USERR2
 40
0.0
  9
$USERR3
 40
0.0
  9
$USERR4
 40
0.0
  9
$USERR5
 40
0.0
  9
$WORLDVIEW
 70
     1
  9
$SHADEDGE
 70
     3
  9
$SHADEDIF
 70
    70
  9
$TILEMODE
 70
     1
  9
$MAXACTVP
 70
    64
  9
$PINSBASE
 10
0.0
 20
0.0
 30
0.0
  9
$PLIMCHECK
 70
     0
  9
$PEXTMIN
 10
1.000000000000000E+20
 20
1.000000000000000E+20
 30
1.000000000000000E+20
  9
$PEXTMAX
 10
-1.000000000000000E+20
 20
-1.000000000000000E+20
 30
-1.000000000000000E+20
  9
$PLIMMIN
 10
0.0
 20
0.0
  9
$PLIMMAX
 10
12.0
 20
9.0
  9
$UNITMODE
 70
     0
  9
$VISRETAIN
 70
     1
  9
$PLINEGEN
 70
     0
  9
$PSLTSCALE
 70
     1
  9
$TREEDEPTH
 70
  3020
  9
$CMLSTYLE
  2
Standard
  9
$CMLJUST
 70
     0
  9
$CMLSCALE
 40
1.0
  9
$PROXYGRAPHICS
 70
     1
  9
$MEASUREMENT
 70
     0
  9
$CELWEIGHT
370
    -1
  9
$ENDCAPS
280
     0
  9
$JOINSTYLE
280
     0
  9
$LWDISPLAY
290
     1
  9
$INSUNITS
 70
     4
  9
$HYPERLINKBASE
  1

  9
$STYLESHEET
  1

  9
$XEDIT
290
     1
  9
$CEPSNTYPE
380
     0
  9
$PSTYLEMODE
290
     1
  9
$FINGERPRINTGUID
  2
{AD94CB06-61D8-6645-9CF2-1129C945C4DB}
  9
$VERSIONGUID
  2
{54E26108-1F0B-674D-924E-9587A83CE078}
  9
$EXTNAMES
290
     1
  9
$PSVPSCALE
 40
0.0
  9
$OLESTARTUP
290
     0
  9
$SORTENTS
280
   127
  9
$INDEXCTL
280
     0
  9
$HIDETEXT
280
     1
  9
$XCLIPFRAME
280
     2
  9
$HALOGAP
280
     0
  9
$OBSCOLOR
 70
   257
  9
$OBSLTYPE
280
     0
  9
$INTERSECTIONDISPLAY
280
     0
  9
$INTERSECTIONCOLOR
 70
   257
  9
$DIMASSOC
280
     2
  9
$PROJECTNAME
  1

  9
$CAMERADISPLAY
290
     0
  9
$LENSLENGTH
 40
50.0
  9
$CAMERAHEIGHT
 40
0.0
  9
$STEPSPERSEC
 40
2.0
  9
$STEPSIZE
 40
6.0
  9
$3DDWFPREC
 40
2.0
  9
$PSOLWIDTH
 40
0.25
  9
$PSOLHEIGHT
 40
4.0
  9
$LOFTANG1
 40
1.570796326794896
  9
$LOFTANG2
 40
1.570796326794896
  9
$LOFTMAG1
 40
0.0
  9
$LOFTMAG2
 40
0.0
  9
$LOFTPARAM
 70
     7
  9
$LOFTNORMALS
280
     1
  9
$LATITUDE
 40
37.795
  9
$LONGITUDE
 40
-122.394
  9
$NORTHDIRECTION
 40
0.0
  9
$TIMEZONE
 70
 -8000
  9
$LIGHTGLYPHDISPLAY
280
     1
  9
$TILEMODELIGHTSYNCH
280
     1
  9
$CMATERIAL
347
11
  9
$SOLIDHIST
280
     0
  9
$SHOWHIST
280
     1
  9
$DWFFRAME
280
     2
  9
$DGNFRAME
280
     0
  9
$REALWORLDSCALE
290
     1
  9
$INTERFERECOLOR
 62
     1
  9
$INTERFEREOBJVS
345
33
  9
$INTERFEREVPVS
346
30
  9
$CSHADOW
280
     0
  9
$SHADOWPLANELOCATION
 40
0.0
  0
ENDSEC
  0
SECTION
  2
CLASSES
  0
CLASS
  1
ACDBDICTIONARYWDFLT
  2
AcDbDictionaryWithDefault
  3
ObjectDBX Classes
 90
        0
 91
        1
280
     0
281
     0
  0
CLASS
  1
MATERIAL
  2
AcDbMaterial
  3
ObjectDBX Classes
 90
     1153
 91
        3
280
     0
281
     0
  0
CLASS
  1
VISUALSTYLE
  2
AcDbVisualStyle
  3
ObjectDBX Classes
 90
     4095
 91
       24
280
     0
281
     0
  0
CLASS
  1
SCALE
  2
AcDbScale
  3
ObjectDBX Classes
 90
     1153
 91
       17
280
     0
281
     0
  0
CLASS
  1
TABLESTYLE
  2
AcDbTableStyle
  3
ObjectDBX Classes
 90
     4095
 91
        1
280
     0
281
     0
  0
CLASS
  1
MLEADERSTYLE
  2
AcDbMLeaderStyle
  3
ACDB_MLEADERSTYLE_CLASS
 90
     4095
 91
        1
280
     0
281
     0
  0
CLASS
  1
ACDBSECTIONVIEWSTYLE
  2
AcDbSectionViewStyle
  3
ObjectDBX Classes
 90
     1025
 91
        1
280
     0
281
     0
  0
CLASS
  1
ACDBDETAILVIEWSTYLE
  2
AcDbDetailViewStyle
  3
ObjectDBX Classes
 90
     1025
 91
        1
280
     0
281
     0
  0
CLASS
  1
DICTIONARYVAR
  2
AcDbDictionaryVar
  3
ObjectDBX Classes
 90
        0
 91
        5
280
     0
281
     0
  0
CLASS
  1
CELLSTYLEMAP
  2
AcDbCellStyleMap
  3
ObjectDBX Classes
 90
     1152
 91
        1
280
     0
281
     0
  0
ENDSEC
  0
SECTION
  2
TABLES
  0
TABLE
  2
VPORT
  5
8
330
0
100
AcDbSymbolTable
 70
     1
  0
VPORT
  5
57
330
8
100
AcDbSymbolTableRecord
100
AcDbViewportTableRecord
  2
*Active
 70
     0
 10
0.0
 20
0.0
 11
1.0
 21
1.0
 12
0.0
 22
0.0
 13
0.0
 23
0.0
 14
1.0
 24
1.0
 15
0.0
 25
0.0
 16
0.0
 26
0.0
 36
1.0
 17
104.9999999737499
 27
-43.49999998912136
 37
0.0
 40
302.9399999242646
 41
0.7070707070707073
 42
50.0
 43
0.0
 44
0.0
 50
0.0
 51
0.0
 71
     0
 72
   100
 73
     1
 74
     1
 75
     0
 76
     0
 77
     0
 78
     0
281
     0
 65
     1
110
0.0
120
0.0
130
0.0
111
1.0
121
0.0
131
0.0
112
0.0
122
1.0
132
0.0
 79
     0
146
0.0
 60
     3
 61
     5
292
     1
282
     1
141
0.0
142
0.0
 63
   250
421
  3355443
  0
ENDTAB
  0
TABLE
  2
LTYPE
  5
5
330
0
100
AcDbSymbolTable
 70
     1
  0
LTYPE
  5
5B
330
5
100
AcDbSymbolTableRecord
100
AcDbLinetypeTableRecord
  2
ByBlock
 70
     0
  3

 72
    65
 73
     0
 40
0.0
  0
LTYPE
  5
5C
330
5
100
AcDbSymbolTableRecord
100
AcDbLinetypeTableRecord
  2
ByLayer
 70
     0
  3

 72
    65
 73
     0
 40
0.0
  0
LTYPE
  5
5D
330
5
100
AcDbSymbolTableRecord
100
AcDbLinetypeTableRecord
  2
Continuous
 70
     0
  3
Solid line
 72
    65
 73
     0
 40
0.0
  0
ENDTAB
  0
TABLE
  2
LAYER
  5
2
330
0
100
AcDbSymbolTable
 70
     2
  0
LAYER
  5
54
330
2
100
AcDbSymbolTableRecord
100
AcDbLayerTableRecord
  2
0
 70
     0
 62
     7
  6
Continuous
370
     0
390
F
347
21
348
0
  0
LAYER
  5
1E8
330
2
100
AcDbSymbolTableRecord
100
AcDbLayerTableRecord
  2
CAPA_BASE
 70
     0
 62
     7
  6
Continuous
370
     0
390
F
347
21
348
0
  0
ENDTAB
  0
TABLE
  2
STYLE
  5
3
330
0
100
AcDbSymbolTable
 70
     2
  0
STYLE
  5
55
330
3
100
AcDbSymbolTableRecord
100
AcDbTextStyleTableRecord
  2
Standard
 70
     0
 40
0.0
 41
1.0
 50
0.0
 71
     0
 42
0.2
  3
txt
  4

  0
STYLE
  5
5A
330
3
100
AcDbSymbolTableRecord
100
AcDbTextStyleTableRecord
  2
Annotative
 70
     0
 40
0.0
 41
1.0
 50
0.0
 71
     0
 42
0.2
  3
txt
  4

1001
AcadAnnotative
1000
AnnotativeData
1002
{
1070
     1
1070
     1
1002
}
  0
ENDTAB
  0
TABLE
  2
VIEW
  5
6
330
0
100
AcDbSymbolTable
 70
     0
  0
ENDTAB
  0
TABLE
  2
UCS
  5
7
330
0
100
AcDbSymbolTable
 70
     0
  0
ENDTAB
  0
TABLE
  2
APPID
  5
9
330
0
100
AcDbSymbolTable
 70
     2
  0
APPID
  5
56
330
9
100
AcDbSymbolTableRecord
100
AcDbRegAppTableRecord
  2
ACAD
 70
     0
  0
APPID
  5
5E
330
9
100
AcDbSymbolTableRecord
100
AcDbRegAppTableRecord
  2
AcadAnnotative
 70
     0
  0
ENDTAB
  0
TABLE
  2
DIMSTYLE
  5
A
330
0
100
AcDbSymbolTable
 70
     2
100
AcDbDimStyleTable
 71
     0
  0
DIMSTYLE
105
58
330
A
100
AcDbSymbolTableRecord
100
AcDbDimStyleTableRecord
  2
Standard
 70
     0
340
55
  0
DIMSTYLE
105
59
330
A
100
AcDbSymbolTableRecord
100
AcDbDimStyleTableRecord
  2
Annotative
 70
     0
340
55
1001
AcadAnnotative
1000
AnnotativeData
1002
{
1070
     1
1070
     1
1002
}
  0
ENDTAB
  0
TABLE
  2
BLOCK_RECORD
  5
1
330
0
100
AcDbSymbolTable
 70
     4
  0
BLOCK_RECORD
  5
70
330
1
100
AcDbSymbolTableRecord
100
AcDbBlockTableRecord
  2
*Model_Space
340
73
 70
     0
280
     1
281
     0
  0
BLOCK_RECORD
  5
6C
330
1
100
AcDbSymbolTableRecord
100
AcDbBlockTableRecord
  2
*Paper_Space
340
6F
 70
     0
280
     1
281
     0
  0
BLOCK_RECORD
  5
74
330
1
100
AcDbSymbolTableRecord
100
AcDbBlockTableRecord
  2
*Paper_Space0
340
77
 70
     0
280
     1
281
     0
  0
BLOCK_RECORD
  5
1E9
330
1
100
AcDbSymbolTableRecord
100
AcDbBlockTableRecord
  2
Block_0
340
0
102
{BLKREFS
331
1EA
102
}
 70
     0
280
     1
281
     0
  0
BLOCK_RECORD
  5
1F6
330
1
100
AcDbSymbolTableRecord
100
AcDbBlockTableRecord
  2
Block_1
340
0
102
{BLKREFS
331
1F7
102
}
 70
     0
280
     1
281
     0
  0
BLOCK_RECORD
  5
202
330
1
100
AcDbSymbolTableRecord
100
AcDbBlockTableRecord
  2
Block_2
340
0
102
{BLKREFS
331
203
102
}
 70
     0
280
     1
281
     0
  0
ENDTAB
  0
ENDSEC
  0
SECTION
  2
BLOCKS
  0
BLOCK
  5
71
330
70
100
AcDbEntity
  8
0
100
AcDbBlockBegin
  2
*Model_Space
 70
     0
 10
0.0
 20
0.0
 30
0.0
  3
*Model_Space
  1

  0
ENDBLK
  5
72
330
70
100
AcDbEntity
  8
0
100
AcDbBlockEnd
  0
BLOCK
  5
6D
330
6C
100
AcDbEntity
 67
     1
  8
0
100
AcDbBlockBegin
  2
*Paper_Space
 70
     0
 10
0.0
 20
0.0
 30
0.0
  3
*Paper_Space
  1

  0
ENDBLK
  5
6E
330
6C
100
AcDbEntity
 67
     1
  8
0
100
AcDbBlockEnd
  0
BLOCK
  5
75
330
74
100
AcDbEntity
 67
     1
  8
0
100
AcDbBlockBegin
  2
*Paper_Space0
 70
     0
 10
0.0
 20
0.0
 30
0.0
  3
*Paper_Space0
  1

  0
ENDBLK
  5
76
330
74
100
AcDbEntity
 67
     1
  8
0
100
AcDbBlockEnd
  0
BLOCK
  5
1EB
330
1E9
100
AcDbEntity
  8
0
100
AcDbBlockBegin
  2
Block_0
 70
     0
 10
0.0
 20
0.0
 30
0.0
  3
Block_0
  1

  0
LWPOLYLINE
  5
1ED
330
1E9
100
AcDbEntity
  8
CAPA_BASE
100
AcDbPolyline
 90
        4
 70
     1
 43
0.0
 10
59.85705179608539
 20
-42.69843282746879
 10
61.30245813822599
 20
-42.87766321389398
 10
61.30245813822599
 20
-42.51920244104359
 10
61.30245813822599
 20
-42.51920244104359
  0
HATCH
  5
1EE
330
1E9
100
AcDbEntity
  8
CAPA_BASE
 62
    18
420
        0
440
 33554687
100
AcDbHatch
 10
0.0
 20
0.0
 30
0.0
210
0.0
220
0.0
230
1.0
  2
SOLID
 70
     1
 71
     1
 91
        1
 92
        1
 93
        3
 72
     1
 10
59.85705179608539
 20
-42.69843282746879
 11
61.30245813822599
 21
-42.87766321389398
 72
     1
 10
61.30245813822599
 20
-42.87766321389398
 11
61.30245813822599
 21
-42.51920244104359
 72
     1
 10
61.30245813822599
 20
-42.51920244104359
 11
59.85705179608539
 21
-42.69843282746879
 97
        1
330
1ED
 75
     2
 76
     1
 98
        1
 10
0.0
 20
0.0
450
        0
451
        0
460
0.0
461
0.0
452
        0
462
0.0
453
        0
470

  0
LWPOLYLINE
  5
1EF
330
1E9
100
AcDbEntity
  8
CAPA_BASE
100
AcDbPolyline
 90
        4
 70
     1
 43
0.0
 10
81.82722819662052
 20
-42.69843282746879
 10
80.38182185447992
 20
-42.51920244104359
 10
80.38182185447992
 20
-42.87766321389398
 10
80.38182185447992
 20
-42.87766321389398
  0
HATCH
  5
1F0
330
1E9
100
AcDbEntity
  8
CAPA_BASE
 62
    18
420
        0
440
 33554687
100
AcDbHatch
 10
0.0
 20
0.0
 30
0.0
210
0.0
220
0.0
230
1.0
  2
SOLID
 70
     1
 71
     1
 91
        1
 92
        1
 93
        3
 72
     1
 10
81.82722819662052
 20
-42.69843282746879
 11
80.38182185447992
 21
-42.51920244104359
 72
     1
 10
80.38182185447992
 20
-42.51920244104359
 11
80.38182185447992
 21
-42.87766321389398
 72
     1
 10
80.38182185447992
 20
-42.87766321389398
 11
81.82722819662052
 21
-42.69843282746879
 97
        1
330
1EF
 75
     2
 76
     1
 98
        1
 10
0.0
 20
0.0
450
        0
451
        0
460
0.0
461
0.0
452
        0
462
0.0
453
        0
470

  0
LINE
  5
1F1
330
1E9
100
AcDbEntity
  8
CAPA_BASE
 62
    18
420
        0
370
    25
100
AcDbLine
 10
59.85705179608539
 20
-10.42973623918317
 30
0.0
 11
59.85705179608539
 21
-43.27659536432501
 31
0.0
  0
LINE
  5
1F2
330
1E9
100
AcDbEntity
  8
CAPA_BASE
 62
    18
420
        0
370
    25
100
AcDbLine
 10
81.82722819662052
 20
-10.42973623918317
 30
0.0
 11
81.82722819662052
 21
-43.27659536432501
 31
0.0
  0
LINE
  5
1F3
330
1E9
100
AcDbEntity
  8
CAPA_BASE
 62
    18
420
        0
370
    25
100
AcDbLine
 10
59.85705179608539
 20
-42.69843282746879
 30
0.0
 11
81.82722819662052
 21
-42.69843282746879
 31
0.0
  0
MTEXT
  5
1F4
330
1E9
100
AcDbEntity
  8
CAPA_BASE
100
AcDbMText
 10
68.84745028152131
 20
-42.23951368335559
 30
0.0
 40
0.2
 41
0.0
 46
0.0
 71
     7
 72
     1
  1
\C18;\c0;\FArial Bold|b1|i0|c1;\H2.997200;\W0.700000;Ø
 73
     1
 44
1.0
  0
MTEXT
  5
1F5
330
1E9
100
AcDbEntity
  8
CAPA_BASE
100
AcDbMText
 10
70.79720207139847
 20
-42.23951368335559
 30
0.0
 40
0.2
 41
0.0
 46
0.0
 71
     7
 72
     1
  1
\C18;\c0;\FArial Bold|b1|i0|c1;\H2.997200;\W0.700000;76
 73
     1
 44
1.0
  0
ENDBLK
  5
1EC
330
1E9
100
AcDbEntity
  8
0
100
AcDbBlockEnd
  0
BLOCK
  5
1F8
330
1F6
100
AcDbEntity
  8
0
100
AcDbBlockBegin
  2
Block_1
 70
     0
 10
0.0
 20
0.0
 30
0.0
  3
Block_1
  1

  0
LWPOLYLINE
  5
1FA
330
1F6
100
AcDbEntity
  8
CAPA_BASE
100
AcDbPolyline
 90
        4
 70
     1
 43
0.0
 10
105.0123780256158
 20
10.80183752051777
 10
104.8331476391906
 20
9.356431178377494
 10
105.1916084120416
 20
9.356431178377494
 10
105.1916084120416
 20
9.356431178377494
  0
HATCH
  5
1FB
330
1F6
100
AcDbEntity
  8
CAPA_BASE
 62
    18
420
        0
440
 33554687
100
AcDbHatch
 10
0.0
 20
0.0
 30
0.0
210
0.0
220
0.0
230
1.0
  2
SOLID
 70
     1
 71
     1
 91
        1
 92
        1
 93
        3
 72
     1
 10
105.0123780256158
 20
10.80183752051777
 11
104.8331476391906
 21
9.356431178377494
 72
     1
 10
104.8331476391906
 20
9.356431178377494
 11
105.1916084120416
 21
9.356431178377494
 72
     1
 10
105.1916084120416
 20
9.356431178377494
 11
105.0123780256158
 21
10.80183752051777
 97
        1
330
1FA
 75
     2
 76
     1
 98
        1
 10
0.0
 20
0.0
450
        0
451
        0
460
0.0
461
0.0
452
        0
462
0.0
453
        0
470

  0
LWPOLYLINE
  5
1FC
330
1F6
100
AcDbEntity
  8
CAPA_BASE
100
AcDbPolyline
 90
        4
 70
     1
 43
0.0
 10
105.0123780256158
 20
-36.91680745890705
 10
105.1916084120416
 20
-35.47140111676613
 10
104.8331476391906
 20
-35.47140111676613
 10
104.8331476391906
 20
-35.47140111676613
  0
HATCH
  5
1FD
330
1F6
100
AcDbEntity
  8
CAPA_BASE
 62
    18
420
        0
440
 33554687
100
AcDbHatch
 10
0.0
 20
0.0
 30
0.0
210
0.0
220
0.0
230
1.0
  2
SOLID
 70
     1
 71
     1
 91
        1
 92
        1
 93
        3
 72
     1
 10
105.0123780256158
 20
-36.91680745890705
 11
105.1916084120416
 21
-35.47140111676613
 72
     1
 10
105.1916084120416
 20
-35.47140111676613
 11
104.8331476391906
 21
-35.47140111676613
 72
     1
 10
104.8331476391906
 20
-35.47140111676613
 11
105.0123780256158
 21
-36.91680745890705
 97
        1
330
1FC
 75
     2
 76
     1
 98
        1
 10
0.0
 20
0.0
450
        0
451
        0
460
0.0
461
0.0
452
        0
462
0.0
453
        0
470

  0
LINE
  5
1FE
330
1F6
100
AcDbEntity
  8
CAPA_BASE
 62
    18
420
        0
370
    25
100
AcDbLine
 10
130.219765374972
 20
10.80183752051777
 30
0.0
 11
104.4342154887595
 21
10.80183752051777
 31
0.0
  0
LINE
  5
1FF
330
1F6
100
AcDbEntity
  8
CAPA_BASE
 62
    18
420
        0
370
    25
100
AcDbLine
 10
121.6876375999181
 20
-36.91680745890705
 30
0.0
 11
104.4342154887595
 21
-36.91680745890705
 31
0.0
  0
LINE
  5
200
330
1F6
100
AcDbEntity
  8
CAPA_BASE
 62
    18
420
        0
370
    25
100
AcDbLine
 10
105.0123780256158
 20
10.80183752051777
 30
0.0
 11
105.0123780256158
 21
-36.91680745890705
 31
0.0
  0
MTEXT
  5
201
330
1F6
100
AcDbEntity
  8
CAPA_BASE
100
AcDbMText
 10
104.5534588022585
 20
-14.5872233036455
 30
0.0
 40
0.2
 41
0.0
 46
0.0
 71
     7
 72
     1
  1
\C18;\c0;\FArial Bold|b1|i0|c1;\H2.997200;\W0.700000;165
 11
0.0000000000000003
 21
1.0
 31
0.0
 73
     1
 44
1.0
  0
ENDBLK
  5
1F9
330
1F6
100
AcDbEntity
  8
0
100
AcDbBlockEnd
  0
BLOCK
  5
204
330
202
100
AcDbEntity
  8
0
100
AcDbBlockBegin
  2
Block_2
 70
     0
 10
0.0
 20
0.0
 30
0.0
  3
Block_2
  1

  0
LWPOLYLINE
  5
206
330
202
100
AcDbEntity
  8
CAPA_BASE
100
AcDbPolyline
 90
        4
 70
     1
 43
0.0
 10
87.6268228261272
 20
-54.56846999394432
 10
87.44759243970168
 20
-56.0138763360846
 10
87.8060532125527
 20
-56.0138763360846
 10
87.8060532125527
 20
-56.0138763360846
  0
HATCH
  5
207
330
202
100
AcDbEntity
  8
CAPA_BASE
 62
    18
420
        0
440
 33554687
100
AcDbHatch
 10
0.0
 20
0.0
 30
0.0
210
0.0
220
0.0
230
1.0
  2
SOLID
 70
     1
 71
     1
 91
        1
 92
        1
 93
        3
 72
     1
 10
87.6268228261272
 20
-54.56846999394432
 11
87.44759243970168
 21
-56.0138763360846
 72
     1
 10
87.44759243970168
 20
-56.0138763360846
 11
87.8060532125527
 21
-56.0138763360846
 72
     1
 10
87.8060532125527
 20
-56.0138763360846
 11
87.6268228261272
 21
-54.56846999394432
 97
        1
330
206
 75
     2
 76
     1
 98
        1
 10
0.0
 20
0.0
450
        0
451
        0
460
0.0
461
0.0
452
        0
462
0.0
453
        0
470

  0
LWPOLYLINE
  5
208
330
202
100
AcDbEntity
  8
CAPA_BASE
100
AcDbPolyline
 90
        4
 70
     1
 43
0.0
 10
87.6268228261272
 20
-89.25822220531475
 10
87.8060532125527
 20
-87.81281586317447
 10
87.44759243970168
 20
-87.81281586317447
 10
87.44759243970168
 20
-87.81281586317447
  0
HATCH
  5
209
330
202
100
AcDbEntity
  8
CAPA_BASE
 62
    18
420
        0
440
 33554687
100
AcDbHatch
 10
0.0
 20
0.0
 30
0.0
210
0.0
220
0.0
230
1.0
  2
SOLID
 70
     1
 71
     1
 91
        1
 92
        1
 93
        3
 72
     1
 10
87.6268228261272
 20
-89.25822220531475
 11
87.8060532125527
 21
-87.81281586317447
 72
     1
 10
87.8060532125527
 20
-87.81281586317447
 11
87.44759243970168
 21
-87.81281586317447
 72
     1
 10
87.44759243970168
 20
-87.81281586317447
 11
87.6268228261272
 21
-89.25822220531475
 97
        1
330
208
 75
     2
 76
     1
 98
        1
 10
0.0
 20
0.0
450
        0
451
        0
460
0.0
461
0.0
452
        0
462
0.0
453
        0
470

  0
LINE
  5
20A
330
202
100
AcDbEntity
  8
CAPA_BASE
 62
    18
420
        0
370
    25
100
AcDbLine
 10
77.86681702062508
 20
-54.56846999394432
 30
0.0
 11
88.20498536298343
 21
-54.56846999394432
 31
0.0
  0
LINE
  5
20B
330
202
100
AcDbEntity
  8
CAPA_BASE
 62
    18
420
        0
370
    25
100
AcDbLine
 10
72.28754633849354
 20
-89.25822220531475
 30
0.0
 11
88.20498536298343
 21
-89.25822220531475
 31
0.0
  0
LINE
  5
20C
330
202
100
AcDbEntity
  8
CAPA_BASE
 62
    18
420
        0
370
    25
100
AcDbLine
 10
87.6268228261272
 20
-54.56846999394432
 30
0.0
 11
87.6268228261272
 21
-89.25822220531475
 31
0.0
  0
MTEXT
  5
20D
330
202
100
AcDbEntity
  8
CAPA_BASE
100
AcDbMText
 10
87.16790286110255
 20
-73.44323457365373
 30
0.0
 40
0.2
 41
0.0
 46
0.0
 71
     7
 72
     1
  1
\C18;\c0;\FArial Bold|b1|i0|c1;\H2.997200;\W0.700000;120
 11
0.0000000000000003
 21
1.0
 31
0.0
 73
     1
 44
1.0
  0
ENDBLK
  5
205
330
202
100
AcDbEntity
  8
0
100
AcDbBlockEnd
  0
ENDSEC
  0
SECTION
  2
ENTITIES
  0
SPLINE
  5
78
330
70
100
AcDbEntity
  8
0
 62
    18
420
        0
370
    25
100
AcDbSpline
210
0.0
220
0.0
230
1.0
 70
     8
 71
     3
 72
    11
 73
     7
 74
     0
 42
0.0000000001
 43
0.0000000001
 40
0.0
 40
0.0
 40
0.0
 40
0.0
 40
1.0
 40
1.0
 40
1.0
 40
2.0
 40
2.0
 40
2.0
 40
2.0
 10
59.83908803880508
 20
-11.91001640090225
 30
0.0
 10
59.83839142052448
 20
-11.98984094931967
 30
0.0
 10
59.902537281962
 20
-12.05511625214614
 30
0.0
 10
59.98236183037942
 20
-12.05581287042674
 30
0.0
 10
59.98278226669838
 20
-12.05581653951939
 30
0.0
 10
59.98320271702595
 20
-12.05581837409138
 30
0.0
 10
59.98362316935466
 20
-12.05581837409138
 30
0.0
  0
SPLINE
  5
79
330
70
100
AcDbEntity
  8
0
 62
    18
420
        0
370
    25
100
AcDbSpline
210
0.0
220
0.0
230
1.0
 70
     8
 71
     3
 72
    11
 73
     7
 74
     0
 42
0.0000000001
 43
0.0000000001
 40
0.0
 40
0.0
 40
0.0
 40
0.0
 40
1.0
 40
1.0
 40
1.0
 40
2.0
 40
2.0
 40
2.0
 40
2.0
 10
81.70065682335124
 20
-12.05581837409138
 30
0.0
 10
81.78048441135873
 20
-12.05581837409138
 30
0.0
 10
81.84519745756546
 20
-11.99110532788433
 30
0.0
 10
81.84519745756546
 20
-11.91127773987716
 30
0.0
 10
81.84519745756546
 20
-11.91085728754845
 30
0.0
 10
81.84519562299314
 20
-11.91043683722121
 30
0.0
 10
81.84519195390082
 20
-11.91001640090225
 30
0.0
  0
LINE
  5
7A
330
70
100
AcDbEntity
  8
0
 62
    18
420
        0
370
    25
100
AcDbLine
 10
81.84519180654682
 20
-11.91001661602158
 30
0.0
 11
81.82722784336293
 21
-9.851573237079733
 31
0.0
  0
LINE
  5
7B
330
70
100
AcDbEntity
  8
0
 62
    18
420
        0
370
    25
100
AcDbLine
 10
59.85705214928488
 20
-9.851573237079733
 30
0.0
 11
59.83908818615907
 21
-11.91001661602158
 31
0.0
  0
SPLINE
  5
7C
330
70
100
AcDbEntity
  8
0
 62
    18
420
        0
370
    25
100
AcDbSpline
210
0.0
220
0.0
230
1.0
 70
     8
 71
     3
 72
     8
 73
     4
 74
     0
 42
0.0000000001
 43
0.0000000001
 40
0.0
 40
0.0
 40
0.0
 40
0.0
 40
1.0
 40
1.0
 40
1.0
 40
1.0
 10
81.82722819662307
 20
-9.851573702327579
 30
0.0
 10
81.82722819662307
 20
-9.08980083405566
 30
0.0
 10
81.8071543299035
 20
-8.328160232921938
 30
0.0
 10
81.76702749821368
 20
-7.567444950958991
 30
0.0
  0
SPLINE
  5
7D
330
70
100
AcDbEntity
  8
0
 62
    18
420
        0
370
    25
100
AcDbSpline
210
0.0
220
0.0
230
1.0
 70
     8
 71
     3
 72
     8
 73
     4
 74
     0
 42
0.0000000001
 43
0.0000000001
 40
0.0
 40
0.0
 40
0.0
 40
0.0
 40
1.0
 40
1.0
 40
1.0
 40
1.0
 10
59.91725249449222
 20
-7.567444950958991
 30
0.0
 10
59.8771256628024
 20
-8.328160232921938
 30
0.0
 10
59.85705179608283
 20
-9.08980083405566
 30
0.0
 10
59.85705179608283
 20
-9.851573702327579
 30
0.0
  0
SPLINE
  5
7E
330
70
100
AcDbEntity
  8
0
 62
    18
420
        0
370
    25
100
AcDbSpline
210
0.0
220
0.0
230
1.0
 70
     8
 71
     3
 72
     8
 73
     4
 74
     0
 42
0.0000000001
 43
0.0000000001
 40
0.0
 40
0.0
 40
0.0
 40
0.0
 40
1.0
 40
1.0
 40
1.0
 40
1.0
 10
81.76702749818799
 20
-7.567444950951291
 30
0.0
 10
81.7629783877054
 20
-7.49068284209174
 30
0.0
 10
81.69955636054002
 20
-7.430518079242123
 30
0.0
 10
81.62268753296848
 20
-7.430518079242123
 30
0.0
  0
SPLINE
  5
7F
330
70
100
AcDbEntity
  8
0
 62
    18
420
        0
370
    25
100
AcDbSpline
210
0.0
220
0.0
230
1.0
 70
     8
 71
     3
 72
     8
 73
     4
 74
     0
 42
0.0000000001
 43
0.0000000001
 40
0.0
 40
0.0
 40
0.0
 40
0.0
 40
1.0
 40
1.0
 40
1.0
 40
1.0
 10
60.06159245967968
 20
-7.430518079242123
 30
0.0
 10
59.98472363210813
 20
-7.430518079242123
 30
0.0
 10
59.92130160494274
 20
-7.49068284209174
 30
0.0
 10
59.91725249446014
 20
-7.567444950951291
 30
0.0
  0
LINE
  5
80
330
70
100
AcDbEntity
  8
0
 62
    18
420
        0
370
    25
100
AcDbLine
 10
75.32214278406437
 20
-3.817001913706636
 30
0.0
 11
75.28812206830085
 21
0.0813880867046418
 31
0.0
  0
LINE
  5
81
330
70
100
AcDbEntity
  8
0
 62
    18
420
        0
370
    25
100
AcDbLine
 10
66.39615792434729
 20
0.0813880867046418
 30
0.0
 11
66.36213720858378
 21
-3.817001913706636
 31
0.0
  0
SPLINE
  5
82
330
70
100
AcDbEntity
  8
0
 62
    18
420
        0
370
    25
100
AcDbSpline
210
0.0
220
0.0
230
1.0
 70
     8
 71
     3
 72
     8
 73
     4
 74
     0
 42
0.0000000001
 43
0.0000000001
 40
0.0
 40
0.0
 40
0.0
 40
0.0
 40
1.0
 40
1.0
 40
1.0
 40
1.0
 10
66.53352320317627
 20
0.224488261593159
 30
0.0
 10
66.45706403295712
 20
0.2206908912739621
 30
0.0
 10
66.3968259404766
 20
0.1579373985532764
 30
0.0
 10
66.39615789441812
 20
0.081386902497192
 30
0.0
  0
SPLINE
  5
83
330
70
100
AcDbEntity
  8
0
 62
    18
420
        0
370
    25
100
AcDbSpline
210
0.0
220
0.0
230
1.0
 70
     8
 71
     3
 72
     8
 73
     4
 74
     0
 42
0.0000000001
 43
0.0000000001
 40
0.0
 40
0.0
 40
0.0
 40
0.0
 40
1.0
 40
1.0
 40
1.0
 40
1.0
 10
75.28812209828777
 20
0.081386902497192
 30
0.0
 10
75.28745405222929
 20
0.1579373985532764
 30
0.0
 10
75.22721595974878
 20
0.2206908912739621
 30
0.0
 10
75.15075678952962
 20
0.224488261593159
 30
0.0
  0
SPLINE
  5
84
330
70
100
AcDbEntity
  8
0
 62
    18
420
        0
370
    25
100
AcDbSpline
210
0.0
220
0.0
230
1.0
 70
     8
 71
     3
 72
     8
 73
     4
 74
     0
 42
0.0000000001
 43
0.0000000001
 40
0.0
 40
0.0
 40
0.0
 40
0.0
 40
1.0
 40
1.0
 40
1.0
 40
1.0
 10
75.15075678946385
 20
0.224488261561074
 30
0.0
 10
74.59120242130417
 20
0.2522787168239511
 30
0.0
 10
74.03127367136922
 20
0.2719345153295319
 30
0.0
 10
73.47114796485334
 20
0.2834494287257636
 30
0.0
  0
SPLINE
  5
85
330
70
100
AcDbEntity
  8
0
 62
    18
420
        0
370
    25
100
AcDbSpline
210
0.0
220
0.0
230
1.0
 70
     8
 71
     3
 72
     8
 73
     4
 74
     0
 42
0.0000000001
 43
0.0000000001
 40
0.0
 40
0.0
 40
0.0
 40
0.0
 40
1.0
 40
1.0
 40
1.0
 40
1.0
 10
68.21313202785255
 20
0.2834494287257636
 30
0.0
 10
67.65300632133667
 20
0.2719345153295319
 30
0.0
 10
67.09307757140172
 20
0.2522787168239511
 30
0.0
 10
66.53352320324204
 20
0.224488261561074
 30
0.0
  0
SPLINE
  5
86
330
70
100
AcDbEntity
  8
0
 62
    18
420
        0
370
    25
100
AcDbSpline
210
0.0
220
0.0
230
1.0
 70
     8
 71
     3
 72
     8
 73
     4
 74
     0
 42
0.0000000001
 43
0.0000000001
 40
0.0
 40
0.0
 40
0.0
 40
0.0
 40
1.0
 40
1.0
 40
1.0
 40
1.0
 10
73.1880193032063
 20
0.5699469527520612
 30
0.0
 10
73.18938377931099
 20
0.4135934777860117
 30
0.0
 10
73.31482156605645
 20
0.2866631447208141
 30
0.0
 10
73.47114796484564
 20
0.2834494287238385
 30
0.0
  0
SPLINE
  5
87
330
70
100
AcDbEntity
  8
0
 62
    18
420
        0
370
    25
100
AcDbSpline
210
0.0
220
0.0
230
1.0
 70
     8
 71
     3
 72
     8
 73
     4
 74
     0
 42
0.0000000001
 43
0.0000000001
 40
0.0
 40
0.0
 40
0.0
 40
0.0
 40
1.0
 40
1.0
 40
1.0
 40
1.0
 10
68.21313202786026
 20
0.2834494287238385
 30
0.0
 10
68.36945842664944
 20
0.2866631447208141
 30
0.0
 10
68.49489621339492
 20
0.4135934777860117
 30
0.0
 10
68.49626068949961
 20
0.5699469527520612
 30
0.0
  0
LINE
  5
88
330
70
100
AcDbEntity
  8
0
 62
    18
420
        0
370
    25
100
AcDbLine
 10
73.18801917007428
 20
0.5699484387736704
 30
0.0
 11
73.15927343677298
 21
3.863885163600998
 31
0.0
  0
LINE
  5
89
330
70
100
AcDbEntity
  8
0
 62
    18
420
        0
370
    25
100
AcDbLine
 10
68.52500655587485
 20
3.863885163600998
 30
0.0
 11
68.49626082257386
 21
0.5699484387736704
 31
0.0
  0
LINE
  5
8A
330
70
100
AcDbEntity
  8
0
 62
    18
420
        0
370
    25
100
AcDbLine
 10
73.73295261599515
 20
3.863885163600998
 30
0.0
 11
73.67407301028156
 21
10.61084430910544
 31
0.0
  0
LINE
  5
8B
330
70
100
AcDbEntity
  8
0
 62
    18
420
        0
370
    25
100
AcDbLine
 10
68.01020698236659
 20
10.61084430910544
 30
0.0
 11
67.95132737665267
 21
3.863885163600998
 31
0.0
  0
SPLINE
  5
8C
330
70
100
AcDbEntity
  8
0
 62
    18
420
        0
370
    25
100
AcDbSpline
210
0.0
220
0.0
230
1.0
 70
     8
 71
     3
 72
     8
 73
     4
 74
     0
 42
0.0000000001
 43
0.0000000001
 40
0.0
 40
0.0
 40
0.0
 40
0.0
 40
1.0
 40
1.0
 40
1.0
 40
1.0
 10
68.06246179630109
 20
10.66788636817841
 30
0.0
 10
68.03301432407346
 20
10.66504164736041
 30
0.0
 10
68.01046527117489
 20
10.64042598364595
 30
0.0
 10
68.01020710048156
 20
10.61084255238759
 30
0.0
  0
SPLINE
  5
8D
330
70
100
AcDbEntity
  8
0
 62
    18
420
        0
370
    25
100
AcDbSpline
210
0.0
220
0.0
230
1.0
 70
     8
 71
     3
 72
     8
 73
     4
 74
     0
 42
0.0000000001
 43
0.0000000001
 40
0.0
 40
0.0
 40
0.0
 40
0.0
 40
1.0
 40
1.0
 40
1.0
 40
1.0
 10
73.67407289222433
 20
10.61084255238759
 30
0.0
 10
73.673814721531
 20
10.64042598364595
 30
0.0
 10
73.65126566863243
 20
10.66504164736041
 30
0.0
 10
73.6218181964048
 20
10.66788636817841
 30
0.0
  0
SPLINE
  5
8E
330
70
100
AcDbEntity
  8
0
 62
    18
420
        0
370
    25
100
AcDbSpline
210
0.0
220
0.0
230
1.0
 70
     8
 71
     3
 72
     8
 73
     4
 74
     0
 42
0.0000000001
 43
0.0000000001
 40
0.0
 40
0.0
 40
0.0
 40
0.0
 40
1.0
 40
1.0
 40
1.0
 40
1.0
 10
73.62181819641635
 20
10.66788636814376
 30
0.0
 10
71.77300275091862
 20
10.84648790464286
 30
0.0
 10
69.91127724178729
 20
10.84648790464286
 30
0.0
 10
68.06246179628954
 20
10.66788636814376
 30
0.0
  0
SPLINE
  5
8F
330
70
100
AcDbEntity
  8
0
 62
    18
420
        0
370
    25
100
AcDbSpline
210
0.0
220
0.0
230
1.0
 70
     8
 71
     3
 72
     8
 73
     4
 74
     0
 42
0.0000000001
 43
0.0000000001
 40
0.0
 40
0.0
 40
0.0
 40
0.0
 40
1.0
 40
1.0
 40
1.0
 40
1.0
 10
61.01337686979786
 20
-4.481889141275117
 30
0.0
 10
61.01337686979786
 20
-4.513820176478112
 30
0.0
 10
61.03926208828069
 20
-4.539705394960933
 30
0.0
 10
61.07119312348336
 20
-4.539705394960933
 30
0.0
  0
SPLINE
  5
90
330
70
100
AcDbEntity
  8
0
 62
    18
420
        0
370
    25
100
AcDbSpline
210
0.0
220
0.0
230
1.0
 70
     8
 71
     3
 72
     8
 73
     4
 74
     0
 42
0.0000000001
 43
0.0000000001
 40
0.0
 40
0.0
 40
0.0
 40
0.0
 40
1.0
 40
1.0
 40
1.0
 40
1.0
 10
80.61308686922222
 20
-4.539705394960933
 30
0.0
 10
80.6450179044252
 20
-4.539705394960933
 30
0.0
 10
80.67090312290803
 20
-4.513820176478112
 30
0.0
 10
80.67090312290803
 20
-4.481889141275117
 30
0.0
  0
SPLINE
  5
91
330
70
100
AcDbEntity
  8
0
 62
    18
420
        0
370
    25
100
AcDbSpline
210
0.0
220
0.0
230
1.0
 70
     8
 71
     3
 72
     8
 73
     4
 74
     0
 42
0.0000000001
 43
0.0000000001
 40
0.0
 40
0.0
 40
0.0
 40
0.0
 40
1.0
 40
1.0
 40
1.0
 40
1.0
 10
61.14804818697275
 20
-4.096803363638382
 30
0.0
 10
61.07222844086276
 20
-4.10199248979568
 30
0.0
 10
61.01337686979786
 20
-4.165009551577939
 30
0.0
 10
61.01337686979786
 20
-4.241006662907458
 30
0.0
  0
SPLINE
  5
92
330
70
100
AcDbEntity
  8
0
 62
    18
420
        0
370
    25
100
AcDbSpline
210
0.0
220
0.0
230
1.0
 70
     8
 71
     3
 72
     8
 73
     4
 74
     0
 42
0.0000000001
 43
0.0000000001
 40
0.0
 40
0.0
 40
0.0
 40
0.0
 40
1.0
 40
1.0
 40
1.0
 40
1.0
 10
80.67090312290803
 20
-4.241006662907458
 30
0.0
 10
80.67090312290803
 20
-4.165009551577939
 30
0.0
 10
80.61205155184314
 20
-4.10199248979568
 30
0.0
 10
80.53623180573316
 20
-4.096803363638382
 30
0.0
  0
LINE
  5
93
330
70
100
AcDbEntity
  8
0
 62
    18
420
        0
370
    25
100
AcDbLine
 10
80.67090365707242
 20
-4.481889316978731
 30
0.0
 11
80.67090365707242
 21
-4.241005720329215
 31
0.0
  0
LINE
  5
94
330
70
100
AcDbEntity
  8
0
 62
    18
420
        0
370
    25
100
AcDbLine
 10
61.01337633563346
 20
-4.241005720329215
 30
0.0
 11
61.01337633563346
 21
-4.481889316978731
 31
0.0
  0
SPLINE
  5
95
330
70
100
AcDbEntity
  8
0
 62
    18
420
        0
370
    25
100
AcDbSpline
210
0.0
220
0.0
230
1.0
 70
     8
 71
     3
 72
     8
 73
     4
 74
     0
 42
0.0000000001
 43
0.0000000001
 40
0.0
 40
0.0
 40
0.0
 40
0.0
 40
1.0
 40
1.0
 40
1.0
 40
1.0
 10
66.93954287265563
 20
-3.817002223877
 30
0.0
 10
65.00736795208424
 20
-3.871535010476161
 30
0.0
 10
63.07648132218365
 20
-3.964820821682641
 30
0.0
 10
61.14804818693906
 20
-4.096803363669183
 30
0.0
  0
SPLINE
  5
96
330
70
100
AcDbEntity
  8
0
 62
    18
420
        0
370
    25
100
AcDbSpline
210
0.0
220
0.0
230
1.0
 70
     8
 71
     3
 72
     8
 73
     4
 74
     0
 42
0.0000000001
 43
0.0000000001
 40
0.0
 40
0.0
 40
0.0
 40
0.0
 40
1.0
 40
1.0
 40
1.0
 40
1.0
 10
80.53623180570907
 20
-4.096803363669183
 30
0.0
 10
78.60779867046449
 20
-3.964820821682641
 30
0.0
 10
76.6769120405639
 20
-3.871535010476161
 30
0.0
 10
74.74473711999251
 20
-3.817002223877
 30
0.0
  0
SPLINE
  5
97
330
70
100
AcDbEntity
  8
0
 62
    18
420
        0
370
    25
100
AcDbSpline
210
0.0
220
0.0
230
1.0
 70
     8
 71
     3
 72
    11
 73
     7
 74
     0
 42
0.0000000001
 43
0.0000000001
 40
0.0
 40
0.0
 40
0.0
 40
0.0
 40
1.0
 40
1.0
 40
1.0
 40
2.0
 40
2.0
 40
2.0
 40
2.0
 10
81.63437259085361
 20
-4.685507368150068
 30
0.0
 10
81.6350692091342
 20
-4.605682819732646
 30
0.0
 10
81.57092334769668
 20
-4.540407516906178
 30
0.0
 10
81.49109879927959
 20
-4.539710898625576
 30
0.0
 10
81.4906783629603
 20
-4.539707229532926
 30
0.0
 10
81.49025791263273
 20
-4.539705394960933
 30
0.0
 10
81.48983746030401
 20
-4.539705394960933
 30
0.0
  0
SPLINE
  5
98
330
70
100
AcDbEntity
  8
0
 62
    18
420
        0
370
    25
100
AcDbSpline
210
0.0
220
0.0
230
1.0
 70
     8
 71
     3
 72
    11
 73
     7
 74
     0
 42
0.0000000001
 43
0.0000000001
 40
0.0
 40
0.0
 40
0.0
 40
0.0
 40
1.0
 40
1.0
 40
1.0
 40
2.0
 40
2.0
 40
2.0
 40
2.0
 10
60.19444253240187
 20
-4.539705394960933
 30
0.0
 10
60.11461494439471
 20
-4.539705394960933
 30
0.0
 10
60.04990189818798
 20
-4.604418441167988
 30
0.0
 10
60.04990189818798
 20
-4.684246029175153
 30
0.0
 10
60.04990189818798
 20
-4.684666481503861
 30
0.0
 10
60.04990373275997
 20
-4.685086931831111
 30
0.0
 10
60.0499074018523
 20
-4.685507368150068
 30
0.0
  0
LINE
  5
99
330
70
100
AcDbEntity
  8
0
 62
    18
420
        0
370
    25
100
AcDbLine
 10
60.04990764044049
 20
-4.685507463157462
 30
0.0
 11
60.07261216865723
 21
-7.287239843905464
 31
0.0
  0
LINE
  5
9A
330
70
100
AcDbEntity
  8
0
 62
    18
420
        0
370
    25
100
AcDbLine
 10
81.6116678239909
 20
-7.287239843905464
 30
0.0
 11
81.63437235220765
 21
-4.685507463157462
 31
0.0
  0
SPLINE
  5
9B
330
70
100
AcDbEntity
  8
0
 62
    18
420
        0
370
    25
100
AcDbSpline
210
0.0
220
0.0
230
1.0
 70
     8
 71
     3
 72
     8
 73
     4
 74
     0
 42
0.0000000001
 43
0.0000000001
 40
0.0
 40
0.0
 40
0.0
 40
0.0
 40
1.0
 40
1.0
 40
1.0
 40
1.0
 10
81.46713249418672
 20
-7.430518079242123
 30
0.0
 10
81.54646793639036
 20
-7.430518079242123
 30
0.0
 10
81.61097530118373
 20
-7.366571205356258
 30
0.0
 10
81.6116676247363
 20
-7.28723878400346
 30
0.0
  0
SPLINE
  5
9C
330
70
100
AcDbEntity
  8
0
 62
    18
420
        0
370
    25
100
AcDbSpline
210
0.0
220
0.0
230
1.0
 70
     8
 71
     3
 72
     8
 73
     4
 74
     0
 42
0.0000000001
 43
0.0000000001
 40
0.0
 40
0.0
 40
0.0
 40
0.0
 40
1.0
 40
1.0
 40
1.0
 40
1.0
 10
60.07261236791184
 20
-7.28723878400346
 30
0.0
 10
60.07330469146441
 20
-7.366571205356258
 30
0.0
 10
60.13781205625777
 20
-7.430518079242123
 30
0.0
 10
60.21714749846141
 20
-7.430518079242123
 30
0.0
  0
LINE
  5
9D
330
70
100
AcDbEntity
  8
0
 62
    18
420
        0
370
    25
100
AcDbLine
 10
61.63688556281983
 20
-12.05581752974314
 30
0.0
 11
61.87641117390469
 21
-36.48743656020451
 31
0.0
  0
LINE
  5
9E
330
70
100
AcDbEntity
  8
0
 62
    18
420
        0
370
    25
100
AcDbLine
 10
79.80786881874346
 20
-36.48743656020451
 30
0.0
 11
80.04739442988606
 21
-12.05581752974314
 31
0.0
  0
SPLINE
  5
9F
330
70
100
AcDbEntity
  8
0
 62
    18
420
        0
370
    25
100
AcDbSpline
210
0.0
220
0.0
230
1.0
 70
     8
 71
     3
 72
     8
 73
     4
 74
     0
 42
0.0000000001
 43
0.0000000001
 40
0.0
 40
0.0
 40
0.0
 40
0.0
 40
1.0
 40
1.0
 40
1.0
 40
1.0
 10
79.37426777140685
 20
-36.91680745890705
 30
0.0
 10
79.61209207399554
 20
-36.91680745890705
 30
0.0
 10
79.80553733759499
 20
-36.72524942104584
 30
0.0
 10
79.80786883635939
 20
-36.48743654709845
 30
0.0
  0
SPLINE
  5
A0
330
70
100
AcDbEntity
  8
0
 62
    18
420
        0
370
    25
100
AcDbSpline
210
0.0
220
0.0
230
1.0
 70
     8
 71
     3
 72
     8
 73
     4
 74
     0
 42
0.0000000001
 43
0.0000000001
 40
0.0
 40
0.0
 40
0.0
 40
0.0
 40
1.0
 40
1.0
 40
1.0
 40
1.0
 10
61.87641115634651
 20
-36.48743654709845
 30
0.0
 10
61.8787426551109
 20
-36.72524942104584
 30
0.0
 10
62.07218791871036
 20
-36.91680745890705
 30
0.0
 10
62.31001222129904
 20
-36.91680745890705
 30
0.0
  0
LINE
  5
A1
330
70
100
AcDbEntity
  8
0
 62
    18
420
        0
370
    25
100
AcDbLine
 10
77.27906327924528
 20
-3.306244258825192
 30
0.0
 11
77.33687781931488
 21
-3.306244258825192
 31
0.0
  0
LINE
  5
A2
330
70
100
AcDbEntity
  8
0
 62
    18
420
        0
370
    25
100
AcDbLine
 10
64.40521671346061
 20
-3.248431334083408
 30
0.0
 11
64.40521671346061
 21
-3.306244258825192
 31
0.0
  0
LINE
  5
A3
330
70
100
AcDbEntity
  8
0
 62
    18
420
        0
370
    25
100
AcDbLine
 10
64.34740217333295
 20
-3.306244258825192
 30
0.0
 11
64.40521671346061
 21
-3.306244258825192
 31
0.0
  0
SPLINE
  5
A4
330
70
100
AcDbEntity
  8
0
 62
    18
420
        0
370
    25
100
AcDbSpline
210
0.0
220
0.0
230
1.0
 70
     8
 71
     3
 72
     8
 73
     4
 74
     0
 42
0.0000000001
 43
0.0000000001
 40
0.0
 40
0.0
 40
0.0
 40
0.0
 40
1.0
 40
1.0
 40
1.0
 40
1.0
 10
64.40521671343592
 20
-3.248431334124477
 30
0.0
 10
64.37328815304666
 20
-3.248433501045878
 30
0.0
 10
64.34740523236681
 20
-3.274315698544379
 30
0.0
 10
64.34740217333231
 20
-3.306244258860485
 30
0.0
  0
LINE
  5
A5
330
70
100
AcDbEntity
  8
0
 62
    18
420
        0
370
    25
100
AcDbLine
 10
77.27906327924528
 20
-3.306244258825192
 30
0.0
 11
77.27906327924528
 21
-3.248431334083408
 31
0.0
  0
SPLINE
  5
A6
330
70
100
AcDbEntity
  8
0
 62
    18
420
        0
370
    25
100
AcDbSpline
210
0.0
220
0.0
230
1.0
 70
     8
 71
     3
 72
     8
 73
     4
 74
     0
 42
0.0000000001
 43
0.0000000001
 40
0.0
 40
0.0
 40
0.0
 40
0.0
 40
1.0
 40
1.0
 40
1.0
 40
1.0
 10
77.33687781931585
 20
-3.306244258860485
 30
0.0
 10
77.33687476028134
 20
-3.274315698544379
 30
0.0
 10
77.31099183960117
 20
-3.248433501045878
 30
0.0
 10
77.27906327921222
 20
-3.248431334124477
 30
0.0
  0
LINE
  5
A7
330
70
100
AcDbEntity
  8
0
 62
    18
420
        0
370
    25
100
AcDbLine
 10
77.34646879442365
 20
-3.296653283716412
 30
0.0
 11
77.33687781931488
 21
-3.306244258825192
 31
0.0
  0
LINE
  5
A8
330
70
100
AcDbEntity
  8
0
 62
    18
420
        0
370
    25
100
AcDbLine
 10
77.27906327924528
 20
-3.248431334083408
 30
0.0
 11
77.28865425435405
 21
-3.23884035897527
 31
0.0
  0
SPLINE
  5
A9
330
70
100
AcDbEntity
  8
0
 62
    18
420
        0
370
    25
100
AcDbSpline
210
0.0
220
0.0
230
1.0
 70
     8
 71
     3
 72
    11
 73
     7
 74
     0
 42
0.0000000001
 43
0.0000000001
 40
0.0
 40
0.0
 40
0.0
 40
0.0
 40
1.0
 40
1.0
 40
1.0
 40
2.0
 40
2.0
 40
2.0
 40
2.0
 10
77.34646879440633
 20
-3.296653283746572
 30
0.0
 10
77.3464687053353
 20
-3.264723997991626
 30
0.0
 10
77.32058483285375
 20
-3.23884026992156
 30
0.0
 10
77.28865554709816
 20
-3.238840358992595
 30
0.0
 10
77.28865511616581
 20
-3.238840358993237
 30
0.0
 10
77.28865468523443
 20
-3.238840358999654
 30
0.0
 10
77.2886542543024
 20
-3.238840359010563
 30
0.0
  0
LINE
  5
AA
330
70
100
AcDbEntity
  8
0
 62
    18
420
        0
370
    25
100
AcDbLine
 10
64.39562573835184
 20
-3.23884035897527
 30
0.0
 11
64.40521671346061
 21
-3.248431334083408
 31
0.0
  0
LINE
  5
AB
330
70
100
AcDbEntity
  8
0
 62
    18
420
        0
370
    25
100
AcDbLine
 10
64.34740217333295
 20
-3.306244258825192
 30
0.0
 11
64.33781119822448
 21
-3.296653283716412
 31
0.0
  0
SPLINE
  5
AC
330
70
100
AcDbEntity
  8
0
 62
    18
420
        0
370
    25
100
AcDbSpline
210
0.0
220
0.0
230
1.0
 70
     8
 71
     3
 72
    11
 73
     7
 74
     0
 42
0.0000000001
 43
0.0000000001
 40
0.0
 40
0.0
 40
0.0
 40
0.0
 40
1.0
 40
1.0
 40
1.0
 40
2.0
 40
2.0
 40
2.0
 40
2.0
 10
64.39562573834574
 20
-3.238840359010563
 30
0.0
 10
64.36369645259978
 20
-3.2388395559486
 30
0.0
 10
64.33781200132206
 20
-3.26472270520549
 30
0.0
 10
64.3378111982601
 20
-3.296651990951453
 30
0.0
 10
64.3378111982492
 20
-3.296652421883159
 30
0.0
 10
64.3378111982431
 20
-3.296652852814866
 30
0.0
 10
64.33781119824181
 20
-3.296653283746572
 30
0.0
  0
LINE
  5
AD
330
70
100
AcDbEntity
  8
0
 62
    18
420
        0
370
    25
100
AcDbLine
 10
77.34646879442365
 20
-3.296653283716412
 30
0.0
 11
77.34646879442365
 21
-3.913889500569037
 31
0.0
  0
LINE
  5
AE
330
70
100
AcDbEntity
  8
0
 62
    18
420
        0
370
    25
100
AcDbLine
 10
64.39562573835184
 20
-3.23884035897527
 30
0.0
 11
66.36718280887548
 21
-3.23884035897527
 31
0.0
  0
LINE
  5
AF
330
70
100
AcDbEntity
  8
0
 62
    18
420
        0
370
    25
100
AcDbLine
 10
75.31709718383041
 20
-3.23884035897527
 30
0.0
 11
77.28865425435405
 21
-3.23884035897527
 31
0.0
  0
LINE
  5
B0
330
70
100
AcDbEntity
  8
0
 62
    18
420
        0
370
    25
100
AcDbLine
 10
64.33781119822448
 20
-3.913889500569037
 30
0.0
 11
64.33781119822448
 21
-3.296653283716412
 31
0.0
  0
LINE
  5
B1
330
70
100
AcDbEntity
  8
0
 62
    18
420
        0
370
    25
100
AcDbLine
 10
81.70065734086483
 20
-12.05581752974314
 30
0.0
 11
59.98362265184138
 21
-12.05581752974314
 31
0.0
  0
LINE
  5
B2
330
70
100
AcDbEntity
  8
0
 62
    18
420
        0
370
    25
100
AcDbLine
 10
60.06159213180355
 20
-7.430518630577745
 30
0.0
 11
81.62268786084458
 21
-7.430518630577745
 31
0.0
  0
LINE
  5
B3
330
70
100
AcDbEntity
  8
0
 62
    18
420
        0
370
    25
100
AcDbLine
 10
72.62127772488796
 20
-3.817001913706636
 30
0.0
 11
66.36213720858378
 21
-3.817001913706636
 31
0.0
  0
LINE
  5
B4
330
70
100
AcDbEntity
  8
0
 62
    18
420
        0
370
    25
100
AcDbLine
 10
75.32214278406437
 20
-3.817001913706636
 30
0.0
 11
72.62127772488796
 21
-3.817001913706636
 31
0.0
  0
LINE
  5
B5
330
70
100
AcDbEntity
  8
0
 62
    18
420
        0
370
    25
100
AcDbLine
 10
67.95132737665267
 20
3.863885163600998
 30
0.0
 11
73.73295261599515
 21
3.863885163600998
 31
0.0
  0
LINE
  5
B6
330
70
100
AcDbEntity
  8
0
 62
    18
420
        0
370
    25
100
AcDbLine
 10
81.48983788652534
 20
-4.539704395549331
 30
0.0
 11
60.19444210612249
 21
-4.539704395549331
 31
0.0
  0
LINE
  5
B7
330
70
100
AcDbEntity
  8
0
 62
    18
420
        0
370
    25
100
AcDbLine
 10
79.37426757558309
 20
-36.91680745890705
 30
0.0
 11
62.31001241706506
 21
-36.91680745890705
 31
0.0
  0
CIRCLE
  5
B8
330
70
100
AcDbEntity
  8
0
 62
    18
420
        0
370
    25
100
AcDbCircle
 10
70.84213999635295
 20
8.778268641521258
 30
0.0
 40
0.5781625368562379
  0
CIRCLE
  5
B9
330
70
100
AcDbEntity
  8
0
 62
    18
420
        0
370
    25
100
AcDbCircle
 10
70.84213999635295
 20
8.778268641521096
 30
0.0
 40
0.8672438052842766
  0
LINE
  5
BA
330
70
100
AcDbEntity
  8
0
 62
     8
420
  8421504
370
    25
100
AcDbLine
 10
77.27906327924528
 20
-3.910787995049354
 30
0.0
 11
77.27906327924528
 21
-3.306244258825192
 31
0.0
  0
LINE
  5
BB
330
70
100
AcDbEntity
  8
0
 62
     8
420
  8421504
370
    25
100
AcDbLine
 10
77.33687781931488
 20
-3.306244258825192
 30
0.0
 11
77.33687781931488
 21
-3.913445812972003
 31
0.0
  0
LINE
  5
BC
330
70
100
AcDbEntity
  8
0
 62
     8
420
  8421504
370
    25
100
AcDbLine
 10
64.40521671346061
 20
-3.306244258825192
 30
0.0
 11
64.40521671346061
 21
-3.910787995049354
 31
0.0
  0
LINE
  5
BD
330
70
100
AcDbEntity
  8
0
 62
     8
420
  8421504
370
    25
100
AcDbLine
 10
77.27906327924528
 20
-3.306244258825192
 30
0.0
 11
75.31768544680883
 21
-3.306244258825192
 31
0.0
  0
LINE
  5
BE
330
70
100
AcDbEntity
  8
0
 62
     8
420
  8421504
370
    25
100
AcDbLine
 10
66.36659454589707
 20
-3.306244258825192
 30
0.0
 11
64.40521671346061
 21
-3.306244258825192
 31
0.0
  0
LINE
  5
BF
330
70
100
AcDbEntity
  8
0
 62
     8
420
  8421504
370
    25
100
AcDbLine
 10
64.34740217333295
 20
-3.913445812972003
 30
0.0
 11
64.34740217333295
 21
-3.306244258825192
 31
0.0
  0
LINE
  5
C0
330
70
100
AcDbEntity
  8
0
 62
     8
420
  8421504
370
    25
100
AcDbLine
 10
64.40521671346061
 20
-3.248431334083408
 30
0.0
 11
66.36709907897222
 21
-3.248431334083408
 31
0.0
  0
LINE
  5
C1
330
70
100
AcDbEntity
  8
0
 62
     8
420
  8421504
370
    25
100
AcDbLine
 10
75.31718091367593
 20
-3.248431334083408
 30
0.0
 11
77.27906327924528
 21
-3.248431334083408
 31
0.0
  0
LINE
  5
C2
330
70
100
AcDbEntity
  8
0
 62
     8
420
  8421504
370
    25
100
AcDbLine
 10
59.83908818615907
 20
-11.91001661602158
 30
0.0
 11
81.84519180654682
 21
-11.91001661602158
 31
0.0
  0
LINE
  5
C3
330
70
100
AcDbEntity
  8
0
 62
     8
420
  8421504
370
    25
100
AcDbLine
 10
59.85705214928488
 20
-9.851573237079733
 30
0.0
 11
81.82722784336293
 21
-9.851573237079733
 31
0.0
  0
LINE
  5
C4
330
70
100
AcDbEntity
  8
0
 62
     8
420
  8421504
370
    25
100
AcDbLine
 10
81.76702740550291
 20
-7.567445792420866
 30
0.0
 11
59.91725258714523
 21
-7.567445792420866
 31
0.0
  0
LINE
  5
C5
330
70
100
AcDbEntity
  8
0
 62
     8
420
  8421504
370
    25
100
AcDbLine
 10
72.60776719526404
 20
0.0813880867046418
 30
0.0
 11
66.39615792434729
 21
0.0813880867046418
 31
0.0
  0
LINE
  5
C6
330
70
100
AcDbEntity
  8
0
 62
     8
420
  8421504
370
    25
100
AcDbLine
 10
75.28812206830085
 20
0.0813880867046418
 30
0.0
 11
72.60776719526404
 21
0.0813880867046418
 31
0.0
  0
LINE
  5
C7
330
70
100
AcDbEntity
  8
0
 62
     8
420
  8421504
370
    25
100
AcDbLine
 10
66.5335231199941
 20
0.2244881060985728
 30
0.0
 11
75.15075687271179
 21
0.2244881060985728
 31
0.0
  0
LINE
  5
C8
330
70
100
AcDbEntity
  8
0
 62
     8
420
  8421504
370
    25
100
AcDbLine
 10
73.47114785677359
 20
0.2834511724646159
 30
0.0
 11
68.21313213587456
 21
0.2834511724646159
 31
0.0
  0
LINE
  5
C9
330
70
100
AcDbEntity
  8
0
 62
     8
420
  8421504
370
    25
100
AcDbLine
 10
68.49626082257386
 20
0.5699484387736704
 30
0.0
 11
73.18801917007428
 21
0.5699484387736704
 31
0.0
  0
LINE
  5
CA
330
70
100
AcDbEntity
  8
0
 62
     8
420
  8421504
370
    25
100
AcDbLine
 10
68.01020698236659
 20
10.61084430910544
 30
0.0
 11
73.67407301028156
 21
10.61084430910544
 31
0.0
  0
LINE
  5
CB
330
70
100
AcDbEntity
  8
0
 62
     8
420
  8421504
370
    25
100
AcDbLine
 10
68.06246169692565
 20
10.66788616506719
 30
0.0
 11
73.62181829578024
 21
10.66788616506719
 31
0.0
  0
LINE
  5
CC
330
70
100
AcDbEntity
  8
0
 62
     8
420
  8421504
370
    25
100
AcDbLine
 10
61.01340971989476
 20
-4.481889316978731
 30
0.0
 11
80.67090365707242
 21
-4.481889316978731
 31
0.0
  0
LINE
  5
CD
330
70
100
AcDbEntity
  8
0
 62
     8
420
  8421504
370
    25
100
AcDbLine
 10
80.67090365707242
 20
-4.241005720329215
 30
0.0
 11
61.01340971989476
 21
-4.241005720329215
 31
0.0
  0
LINE
  5
CE
330
70
100
AcDbEntity
  8
0
 62
     8
420
  8421504
370
    25
100
AcDbLine
 10
61.14804844445995
 20
-4.096802943430108
 30
0.0
 11
80.53619924087049
 21
-4.096802943430108
 31
0.0
  0
LINE
  5
CF
330
70
100
AcDbEntity
  8
0
 62
     8
420
  8421504
370
    25
100
AcDbLine
 10
81.63437235220765
 20
-4.685507463157462
 30
0.0
 11
60.04990764044049
 21
-4.685507463157462
 31
0.0
  0
LINE
  5
D0
330
70
100
AcDbEntity
  8
0
 62
     8
420
  8421504
370
    25
100
AcDbLine
 10
81.6116678239909
 20
-7.287239843905464
 30
0.0
 11
60.07261216865723
 21
-7.287239843905464
 31
0.0
  0
LINE
  5
D1
330
70
100
AcDbEntity
  8
0
 62
     8
420
  8421504
370
    25
100
AcDbLine
 10
79.80786881874346
 20
-36.48743656020451
 30
0.0
 11
61.87641117390469
 21
-36.48743656020451
 31
0.0
  0
SPLINE
  5
D2
330
70
100
AcDbEntity
  8
0
 62
    18
420
        0
370
    25
100
AcDbSpline
210
0.0
220
0.0
230
1.0
 70
     8
 71
     3
 72
    11
 73
     7
 74
     0
 42
0.0000000001
 43
0.0000000001
 40
0.0
 40
0.0
 40
0.0
 40
0.0
 40
1.0
 40
1.0
 40
1.0
 40
2.0
 40
2.0
 40
2.0
 40
2.0
 10
141.6564447388262
 20
-12.05581837409138
 30
0.0
 10
141.7362723268341
 20
-12.05581837409138
 30
0.0
 10
141.8009853730405
 20
-11.99110532788433
 30
0.0
 10
141.8009853730405
 20
-11.91127773987716
 30
0.0
 10
141.8009853730405
 20
-11.91085728754845
 30
0.0
 10
141.8009835384685
 20
-11.91043683722121
 30
0.0
 10
141.8009798693758
 20
-11.91001640090225
 30
0.0
  0
LINE
  5
D3
330
70
100
AcDbEntity
  8
0
 62
    18
420
        0
370
    25
100
AcDbLine
 10
141.8009797220225
 20
-11.91001661602158
 30
0.0
 11
141.783015758896
 21
-9.851573237079733
 31
0.0
  0
SPLINE
  5
D4
330
70
100
AcDbEntity
  8
0
 62
    18
420
        0
370
    25
100
AcDbSpline
210
0.0
220
0.0
230
1.0
 70
     8
 71
     3
 72
     8
 73
     4
 74
     0
 42
0.0000000001
 43
0.0000000001
 40
0.0
 40
0.0
 40
0.0
 40
0.0
 40
1.0
 40
1.0
 40
1.0
 40
1.0
 10
141.7830161120981
 20
-9.851573702327579
 30
0.0
 10
141.7830161120981
 20
-9.08980083405566
 30
0.0
 10
141.7629422453785
 20
-8.328160232921938
 30
0.0
 10
141.722815413689
 20
-7.567444950958991
 30
0.0
  0
SPLINE
  5
D5
330
70
100
AcDbEntity
  8
0
 62
    18
420
        0
370
    25
100
AcDbSpline
210
0.0
220
0.0
230
1.0
 70
     8
 71
     3
 72
     8
 73
     4
 74
     0
 42
0.0000000001
 43
0.0000000001
 40
0.0
 40
0.0
 40
0.0
 40
0.0
 40
1.0
 40
1.0
 40
1.0
 40
1.0
 10
141.7228154137211
 20
-7.567444950951291
 30
0.0
 10
141.7187663032381
 20
-7.49068284209174
 30
0.0
 10
141.6553442760728
 20
-7.430518079242123
 30
0.0
 10
141.5784754485015
 20
-7.430518079242123
 30
0.0
  0
LINE
  5
D6
330
70
100
AcDbEntity
  8
0
 62
    18
420
        0
370
    25
100
AcDbLine
 10
112.0076461532299
 20
-12.05581752974314
 30
0.0
 11
119.9394105673167
 21
-12.05581752974314
 31
0.0
  0
LINE
  5
D7
330
70
100
AcDbEntity
  8
0
 62
    18
420
        0
370
    25
100
AcDbLine
 10
120.0173800472789
 20
-7.430518630577745
 30
0.0
 11
112.0076461532299
 21
-7.430518630577745
 31
0.0
  0
LINE
  5
D8
330
70
100
AcDbEntity
  8
0
 62
    18
420
        0
370
    25
100
AcDbLine
 10
135.2779306995971
 20
-3.817001913706636
 30
0.0
 11
135.2439099838339
 21
0.0813880867046418
 31
0.0
  0
LINE
  5
D9
330
70
100
AcDbEntity
  8
0
 62
    18
420
        0
370
    25
100
AcDbLine
 10
126.3519458398804
 20
0.0813880867046418
 30
0.0
 11
126.3179251241165
 21
-3.817001913706636
 31
0.0
  0
SPLINE
  5
DA
330
70
100
AcDbEntity
  8
0
 62
    18
420
        0
370
    25
100
AcDbSpline
210
0.0
220
0.0
230
1.0
 70
     8
 71
     3
 72
     8
 73
     4
 74
     0
 42
0.0000000001
 43
0.0000000001
 40
0.0
 40
0.0
 40
0.0
 40
0.0
 40
1.0
 40
1.0
 40
1.0
 40
1.0
 10
126.489311118651
 20
0.224488261593159
 30
0.0
 10
126.4128519484321
 20
0.2206908912739621
 30
0.0
 10
126.3526138559516
 20
0.1579373985526347
 30
0.0
 10
126.3519458098931
 20
0.081386902497192
 30
0.0
  0
SPLINE
  5
DB
330
70
100
AcDbEntity
  8
0
 62
    18
420
        0
370
    25
100
AcDbSpline
210
0.0
220
0.0
230
1.0
 70
     8
 71
     3
 72
     8
 73
     4
 74
     0
 42
0.0000000001
 43
0.0000000001
 40
0.0
 40
0.0
 40
0.0
 40
0.0
 40
1.0
 40
1.0
 40
1.0
 40
1.0
 10
135.2439100137628
 20
0.081386902497192
 30
0.0
 10
135.2432419677043
 20
0.1579373985532764
 30
0.0
 10
135.1830038752238
 20
0.2206908912739621
 30
0.0
 10
135.106544705005
 20
0.224488261593159
 30
0.0
  0
SPLINE
  5
DC
330
70
100
AcDbEntity
  8
0
 62
    18
420
        0
370
    25
100
AcDbSpline
210
0.0
220
0.0
230
1.0
 70
     8
 71
     3
 72
     8
 73
     4
 74
     0
 42
0.0000000001
 43
0.0000000001
 40
0.0
 40
0.0
 40
0.0
 40
0.0
 40
1.0
 40
1.0
 40
1.0
 40
1.0
 10
135.1065447049389
 20
0.224488261561074
 30
0.0
 10
134.5469903367795
 20
0.2522787168239511
 30
0.0
 10
133.9870615868442
 20
0.2719345153295319
 30
0.0
 10
133.4269358803287
 20
0.2834494287257636
 30
0.0
  0
SPLINE
  5
DD
330
70
100
AcDbEntity
  8
0
 62
    18
420
        0
370
    25
100
AcDbSpline
210
0.0
220
0.0
230
1.0
 70
     8
 71
     3
 72
     8
 73
     4
 74
     0
 42
0.0000000001
 43
0.0000000001
 40
0.0
 40
0.0
 40
0.0
 40
0.0
 40
1.0
 40
1.0
 40
1.0
 40
1.0
 10
128.1689199433279
 20
0.2834494287257636
 30
0.0
 10
127.6087942368117
 20
0.2719345153295319
 30
0.0
 10
127.0488654868771
 20
0.2522787168239511
 30
0.0
 10
126.489311118717
 20
0.224488261561074
 30
0.0
  0
SPLINE
  5
DE
330
70
100
AcDbEntity
  8
0
 62
    18
420
        0
370
    25
100
AcDbSpline
210
0.0
220
0.0
230
1.0
 70
     8
 71
     3
 72
     8
 73
     4
 74
     0
 42
0.0000000001
 43
0.0000000001
 40
0.0
 40
0.0
 40
0.0
 40
0.0
 40
1.0
 40
1.0
 40
1.0
 40
1.0
 10
133.1438072186816
 20
0.5699469527520612
 30
0.0
 10
133.145171694786
 20
0.4135934777860117
 30
0.0
 10
133.2706094815314
 20
0.2866631447208141
 30
0.0
 10
133.426935880321
 20
0.2834494287238385
 30
0.0
  0
SPLINE
  5
DF
330
70
100
AcDbEntity
  8
0
 62
    18
420
        0
370
    25
100
AcDbSpline
210
0.0
220
0.0
230
1.0
 70
     8
 71
     3
 72
     8
 73
     4
 74
     0
 42
0.0000000001
 43
0.0000000001
 40
0.0
 40
0.0
 40
0.0
 40
0.0
 40
1.0
 40
1.0
 40
1.0
 40
1.0
 10
128.1689199433356
 20
0.2834494287238385
 30
0.0
 10
128.3252463421244
 20
0.2866631447208141
 30
0.0
 10
128.4506841288699
 20
0.4135934777860117
 30
0.0
 10
128.4520486049749
 20
0.5699469527520612
 30
0.0
  0
LINE
  5
E0
330
70
100
AcDbEntity
  8
0
 62
    18
420
        0
370
    25
100
AcDbLine
 10
133.1438070856073
 20
0.5699484387736704
 30
0.0
 11
133.115061352306
 21
3.863885163600998
 31
0.0
  0
LINE
  5
E1
330
70
100
AcDbEntity
  8
0
 62
    18
420
        0
370
    25
100
AcDbLine
 10
128.4807944714082
 20
3.863885163600998
 30
0.0
 11
128.4520487381069
 21
0.5699484387736704
 31
0.0
  0
LINE
  5
E2
330
70
100
AcDbEntity
  8
0
 62
    18
420
        0
370
    25
100
AcDbLine
 10
133.6381929911987
 20
9.656075983113156
 30
0.0
 11
133.6298609257566
 21
10.61084430910544
 31
0.0
  0
LINE
  5
E3
330
70
100
AcDbEntity
  8
0
 62
    18
420
        0
370
    25
100
AcDbLine
 10
133.6887405315282
 20
3.863885163600998
 30
0.0
 11
133.6534444831019
 21
7.908407766573194
 31
0.0
  0
LINE
  5
E4
330
70
100
AcDbEntity
  8
0
 62
    18
420
        0
370
    25
100
AcDbLine
 10
127.9659948978993
 20
10.61084430910544
 30
0.0
 11
127.9071152921861
 21
3.863885163600998
 31
0.0
  0
SPLINE
  5
E5
330
70
100
AcDbEntity
  8
0
 62
    18
420
        0
370
    25
100
AcDbSpline
210
0.0
220
0.0
230
1.0
 70
     8
 71
     3
 72
     8
 73
     4
 74
     0
 42
0.0000000001
 43
0.0000000001
 40
0.0
 40
0.0
 40
0.0
 40
0.0
 40
1.0
 40
1.0
 40
1.0
 40
1.0
 10
128.0182497117761
 20
10.66788636817841
 30
0.0
 10
127.9888022395488
 20
10.66504164736041
 30
0.0
 10
127.9662531866499
 20
10.64042598364595
 30
0.0
 10
127.9659950159566
 20
10.61084255238759
 30
0.0
  0
SPLINE
  5
E6
330
70
100
AcDbEntity
  8
0
 62
    18
420
        0
370
    25
100
AcDbSpline
210
0.0
220
0.0
230
1.0
 70
     8
 71
     3
 72
     8
 73
     4
 74
     0
 42
0.0000000001
 43
0.0000000001
 40
0.0
 40
0.0
 40
0.0
 40
0.0
 40
1.0
 40
1.0
 40
1.0
 40
1.0
 10
133.6298608076993
 20
10.61084255238759
 30
0.0
 10
133.629602637006
 20
10.64042598364595
 30
0.0
 10
133.6070535841078
 20
10.66504164736041
 30
0.0
 10
133.5776061118798
 20
10.66788636817841
 30
0.0
  0
SPLINE
  5
E7
330
70
100
AcDbEntity
  8
0
 62
    18
420
        0
370
    25
100
AcDbSpline
210
0.0
220
0.0
230
1.0
 70
     8
 71
     3
 72
     8
 73
     4
 74
     0
 42
0.0000000001
 43
0.0000000001
 40
0.0
 40
0.0
 40
0.0
 40
0.0
 40
1.0
 40
1.0
 40
1.0
 40
1.0
 10
133.5776061118914
 20
10.66788636814376
 30
0.0
 10
131.7287906663936
 20
10.84648790464286
 30
0.0
 10
129.8670651572623
 20
10.84648790464286
 30
0.0
 10
128.0182497117645
 20
10.66788636814376
 30
0.0
  0
SPLINE
  5
E8
330
70
100
AcDbEntity
  8
0
 62
    18
420
        0
370
    25
100
AcDbSpline
210
0.0
220
0.0
230
1.0
 70
     8
 71
     3
 72
     8
 73
     4
 74
     0
 42
0.0000000001
 43
0.0000000001
 40
0.0
 40
0.0
 40
0.0
 40
0.0
 40
1.0
 40
1.0
 40
1.0
 40
1.0
 10
120.9691647852729
 20
-4.481889141275117
 30
0.0
 10
120.9691647852729
 20
-4.513820176478754
 30
0.0
 10
120.9950500037557
 20
-4.539705394960933
 30
0.0
 10
121.0269810389587
 20
-4.539705394960933
 30
0.0
  0
SPLINE
  5
E9
330
70
100
AcDbEntity
  8
0
 62
    18
420
        0
370
    25
100
AcDbSpline
210
0.0
220
0.0
230
1.0
 70
     8
 71
     3
 72
     8
 73
     4
 74
     0
 42
0.0000000001
 43
0.0000000001
 40
0.0
 40
0.0
 40
0.0
 40
0.0
 40
1.0
 40
1.0
 40
1.0
 40
1.0
 10
140.5688747846972
 20
-4.539705394960933
 30
0.0
 10
140.6008058199002
 20
-4.539705394960933
 30
0.0
 10
140.626691038383
 20
-4.513820176478754
 30
0.0
 10
140.626691038383
 20
-4.481889141275117
 30
0.0
  0
SPLINE
  5
EA
330
70
100
AcDbEntity
  8
0
 62
    18
420
        0
370
    25
100
AcDbSpline
210
0.0
220
0.0
230
1.0
 70
     8
 71
     3
 72
     8
 73
     4
 74
     0
 42
0.0000000001
 43
0.0000000001
 40
0.0
 40
0.0
 40
0.0
 40
0.0
 40
1.0
 40
1.0
 40
1.0
 40
1.0
 10
121.1038361024481
 20
-4.096803363638382
 30
0.0
 10
121.0280163563378
 20
-4.10199248979568
 30
0.0
 10
120.9691647852729
 20
-4.165009551577939
 30
0.0
 10
120.9691647852729
 20
-4.241006662907458
 30
0.0
  0
SPLINE
  5
EB
330
70
100
AcDbEntity
  8
0
 62
    18
420
        0
370
    25
100
AcDbSpline
210
0.0
220
0.0
230
1.0
 70
     8
 71
     3
 72
     8
 73
     4
 74
     0
 42
0.0000000001
 43
0.0000000001
 40
0.0
 40
0.0
 40
0.0
 40
0.0
 40
1.0
 40
1.0
 40
1.0
 40
1.0
 10
140.626691038383
 20
-4.241006662907458
 30
0.0
 10
140.626691038383
 20
-4.165009551577939
 30
0.0
 10
140.5678394673181
 20
-4.10199248979568
 30
0.0
 10
140.4920197212085
 20
-4.096803363638382
 30
0.0
  0
LINE
  5
EC
330
70
100
AcDbEntity
  8
0
 62
    18
420
        0
370
    25
100
AcDbLine
 10
140.6266915725474
 20
-4.481889316978731
 30
0.0
 11
140.6266915725474
 21
-4.241005720329215
 31
0.0
  0
LINE
  5
ED
330
70
100
AcDbEntity
  8
0
 62
    18
420
        0
370
    25
100
AcDbLine
 10
120.9691642511085
 20
-4.241005720329215
 30
0.0
 11
120.9691642511085
 21
-4.481889316978731
 31
0.0
  0
SPLINE
  5
EE
330
70
100
AcDbEntity
  8
0
 62
    18
420
        0
370
    25
100
AcDbSpline
210
0.0
220
0.0
230
1.0
 70
     8
 71
     3
 72
     8
 73
     4
 74
     0
 42
0.0000000001
 43
0.0000000001
 40
0.0
 40
0.0
 40
0.0
 40
0.0
 40
1.0
 40
1.0
 40
1.0
 40
1.0
 10
126.8953307881887
 20
-3.817002223877
 30
0.0
 10
124.9631558676176
 20
-3.871535010476161
 30
0.0
 10
123.0322692377167
 20
-3.964820821682641
 30
0.0
 10
121.1038361024718
 20
-4.096803363669183
 30
0.0
  0
SPLINE
  5
EF
330
70
100
AcDbEntity
  8
0
 62
    18
420
        0
370
    25
100
AcDbSpline
210
0.0
220
0.0
230
1.0
 70
     8
 71
     3
 72
     8
 73
     4
 74
     0
 42
0.0000000001
 43
0.0000000001
 40
0.0
 40
0.0
 40
0.0
 40
0.0
 40
1.0
 40
1.0
 40
1.0
 40
1.0
 10
140.4920197212418
 20
-4.096803363669183
 30
0.0
 10
138.5635865859976
 20
-3.964820821682641
 30
0.0
 10
136.6326999560967
 20
-3.871535010476161
 30
0.0
 10
134.7005250355256
 20
-3.817002223877
 30
0.0
  0
SPLINE
  5
F0
330
70
100
AcDbEntity
  8
0
 62
    18
420
        0
370
    25
100
AcDbSpline
210
0.0
220
0.0
230
1.0
 70
     8
 71
     3
 72
    11
 73
     7
 74
     0
 42
0.0000000001
 43
0.0000000001
 40
0.0
 40
0.0
 40
0.0
 40
0.0
 40
1.0
 40
1.0
 40
1.0
 40
2.0
 40
2.0
 40
2.0
 40
2.0
 10
141.5901605063286
 20
-4.685507368150068
 30
0.0
 10
141.5908571246092
 20
-4.605682819732646
 30
0.0
 10
141.526711263172
 20
-4.540407516906178
 30
0.0
 10
141.4468867147546
 20
-4.539710898625576
 30
0.0
 10
141.4464662784356
 20
-4.539707229532926
 30
0.0
 10
141.4460458281077
 20
-4.539705394960933
 30
0.0
 10
141.445625375779
 20
-4.539705394960933
 30
0.0
  0
SPLINE
  5
F1
330
70
100
AcDbEntity
  8
0
 62
    18
420
        0
370
    25
100
AcDbSpline
210
0.0
220
0.0
230
1.0
 70
     8
 71
     3
 72
    11
 73
     7
 74
     0
 42
0.0000000001
 43
0.0000000001
 40
0.0
 40
0.0
 40
0.0
 40
0.0
 40
1.0
 40
1.0
 40
1.0
 40
2.0
 40
2.0
 40
2.0
 40
2.0
 10
120.1502304478769
 20
-4.539705394960933
 30
0.0
 10
120.0704028598697
 20
-4.539705394960933
 30
0.0
 10
120.0056898136633
 20
-4.604418441167988
 30
0.0
 10
120.0056898136633
 20
-4.684246029175153
 30
0.0
 10
120.0056898136633
 20
-4.684666481503861
 30
0.0
 10
120.0056916482353
 20
-4.685086931831111
 30
0.0
 10
120.0056953173273
 20
-4.685507368150068
 30
0.0
  0
LINE
  5
F2
330
70
100
AcDbEntity
  8
0
 62
    18
420
        0
370
    25
100
AcDbLine
 10
120.0056955559732
 20
-4.685507463157462
 30
0.0
 11
120.02840008419
 21
-7.287239843905464
 31
0.0
  0
LINE
  5
F3
330
70
100
AcDbEntity
  8
0
 62
    18
420
        0
370
    25
100
AcDbLine
 10
141.5674557395237
 20
-7.287239843905464
 30
0.0
 11
141.590160267741
 21
-4.685507463157462
 31
0.0
  0
SPLINE
  5
F4
330
70
100
AcDbEntity
  8
0
 62
    18
420
        0
370
    25
100
AcDbSpline
210
0.0
220
0.0
230
1.0
 70
     8
 71
     3
 72
     8
 73
     4
 74
     0
 42
0.0000000001
 43
0.0000000001
 40
0.0
 40
0.0
 40
0.0
 40
0.0
 40
1.0
 40
1.0
 40
1.0
 40
1.0
 10
141.4229204097195
 20
-7.430518079242123
 30
0.0
 10
141.5022558519231
 20
-7.430518079242123
 30
0.0
 10
141.5667632167165
 20
-7.366571205356258
 30
0.0
 10
141.567455540269
 20
-7.28723878400346
 30
0.0
  0
SPLINE
  5
F5
330
70
100
AcDbEntity
  8
0
 62
    18
420
        0
370
    25
100
AcDbSpline
210
0.0
220
0.0
230
1.0
 70
     8
 71
     3
 72
     8
 73
     4
 74
     0
 42
0.0000000001
 43
0.0000000001
 40
0.0
 40
0.0
 40
0.0
 40
0.0
 40
1.0
 40
1.0
 40
1.0
 40
1.0
 10
120.0284002834446
 20
-7.28723878400346
 30
0.0
 10
120.0290926069972
 20
-7.366571205356258
 30
0.0
 10
120.0935999717905
 20
-7.430518079242123
 30
0.0
 10
120.1729354139942
 20
-7.430518079242123
 30
0.0
  0
LINE
  5
F6
330
70
100
AcDbEntity
  8
0
 62
    18
420
        0
370
    25
100
AcDbLine
 10
121.5926734782948
 20
-12.05581752974314
 30
0.0
 11
121.83219908938
 21
-36.48743656020451
 31
0.0
  0
LINE
  5
F7
330
70
100
AcDbEntity
  8
0
 62
    18
420
        0
370
    25
100
AcDbLine
 10
139.7636567342765
 20
-36.48743656020451
 30
0.0
 11
140.003182345361
 21
-12.05581752974314
 31
0.0
  0
SPLINE
  5
F8
330
70
100
AcDbEntity
  8
0
 62
    18
420
        0
370
    25
100
AcDbSpline
210
0.0
220
0.0
230
1.0
 70
     8
 71
     3
 72
     8
 73
     4
 74
     0
 42
0.0000000001
 43
0.0000000001
 40
0.0
 40
0.0
 40
0.0
 40
0.0
 40
1.0
 40
1.0
 40
1.0
 40
1.0
 10
139.3300556868822
 20
-36.91680745890705
 30
0.0
 10
139.5678799894708
 20
-36.91680745890705
 30
0.0
 10
139.7613252530703
 20
-36.72524942104584
 30
0.0
 10
139.7636567518347
 20
-36.48743654709845
 30
0.0
  0
SPLINE
  5
F9
330
70
100
AcDbEntity
  8
0
 62
    18
420
        0
370
    25
100
AcDbSpline
210
0.0
220
0.0
230
1.0
 70
     8
 71
     3
 72
     8
 73
     4
 74
     0
 42
0.0000000001
 43
0.0000000001
 40
0.0
 40
0.0
 40
0.0
 40
0.0
 40
1.0
 40
1.0
 40
1.0
 40
1.0
 10
121.8321990718218
 20
-36.48743654709845
 30
0.0
 10
121.8345305705862
 20
-36.72524942104584
 30
0.0
 10
122.0279758341857
 20
-36.91680745890705
 30
0.0
 10
122.2658001367744
 20
-36.91680745890705
 30
0.0
  0
LINE
  5
FA
330
70
100
AcDbEntity
  8
0
 62
    18
420
        0
370
    25
100
AcDbLine
 10
133.6534218679851
 20
7.911026815692023
 30
0.0
 11
145.5410723259926
 21
7.911026815692023
 31
0.0
  0
LINE
  5
FB
330
70
100
AcDbEntity
  8
0
 62
    18
420
        0
370
    25
100
AcDbLine
 10
145.5410723259926
 20
9.645513633657825
 30
0.0
 11
133.6382850671096
 21
9.645513633657825
 31
0.0
  0
LINE
  5
FC
330
70
100
AcDbEntity
  8
0
 62
    18
420
        0
370
    25
100
AcDbLine
 10
110.8513208899961
 20
-26.30752731466044
 30
0.0
 11
111.9503329155208
 21
-26.29793633955167
 31
0.0
  0
SPLINE
  5
FD
330
70
100
AcDbEntity
  8
0
 62
    18
420
        0
370
    25
100
AcDbSpline
210
0.0
220
0.0
230
1.0
 70
     8
 71
     3
 72
     8
 73
     4
 74
     0
 42
0.0000000001
 43
0.0000000001
 40
0.0
 40
0.0
 40
0.0
 40
0.0
 40
1.0
 40
1.0
 40
1.0
 40
1.0
 10
111.950332915497
 20
-26.35575034124668
 30
0.0
 10
111.9506697927356
 20
-26.33648047958069
 30
0.0
 10
111.9506697927356
 20
-26.31720620126514
 30
0.0
 10
111.950332915497
 20
-26.29793633959915
 30
0.0
  0
LINE
  5
FE
330
70
100
AcDbEntity
  8
0
 62
    18
420
        0
370
    25
100
AcDbLine
 10
111.9503329155208
 20
-26.35575034123641
 30
0.0
 11
110.8513208899961
 21
-26.36534131634519
 31
0.0
  0
LINE
  5
FF
330
70
100
AcDbEntity
  8
0
 62
    18
420
        0
370
    25
100
AcDbLine
 10
110.8513208899961
 20
-26.36534131634519
 30
0.0
 11
110.8513208899961
 21
-26.30752731466044
 31
0.0
  0
LINE
  5
100
330
70
100
AcDbEntity
  8
0
 62
    18
420
        0
370
    25
100
AcDbLine
 10
111.9503329155208
 20
-3.306244258825192
 30
0.0
 11
110.8513208899961
 21
-3.296653283716412
 31
0.0
  0
LINE
  5
101
330
70
100
AcDbEntity
  8
0
 62
    18
420
        0
370
    25
100
AcDbLine
 10
111.9503329155208
 20
-26.29793633955167
 30
0.0
 11
111.9503329155208
 21
-3.306244258825192
 31
0.0
  0
LINE
  5
102
330
70
100
AcDbEntity
  8
0
 62
    18
420
        0
370
    25
100
AcDbLine
 10
110.8513208899961
 20
-26.30752731466044
 30
0.0
 11
110.8513208899961
 21
-3.296653283716412
 31
0.0
  0
LINE
  5
103
330
70
100
AcDbEntity
  8
0
 62
    18
420
        0
370
    25
100
AcDbLine
 10
110.8513208899961
 20
-3.23884035897527
 30
0.0
 11
111.9503329155208
 21
-3.248431334083408
 31
0.0
  0
SPLINE
  5
104
330
70
100
AcDbEntity
  8
0
 62
    18
420
        0
370
    25
100
AcDbSpline
210
0.0
220
0.0
230
1.0
 70
     8
 71
     3
 72
     8
 73
     4
 74
     0
 42
0.0000000001
 43
0.0000000001
 40
0.0
 40
0.0
 40
0.0
 40
0.0
 40
1.0
 40
1.0
 40
1.0
 40
1.0
 10
111.9503329155272
 20
-3.306244258823909
 30
0.0
 10
111.9506697946164
 20
-3.286974756170568
 30
0.0
 10
111.9506697946164
 20
-3.267700836738674
 30
0.0
 10
111.9503329155272
 20
-3.248431334084691
 30
0.0
  0
LINE
  5
105
330
70
100
AcDbEntity
  8
0
 62
    18
420
        0
370
    25
100
AcDbLine
 10
110.8513208899961
 20
-3.296653283716412
 30
0.0
 11
110.8513208899961
 21
-3.23884035897527
 31
0.0
  0
LINE
  5
106
330
70
100
AcDbEntity
  8
0
 62
    18
420
        0
370
    25
100
AcDbLine
 10
111.9503329155208
 20
-26.29793633955167
 30
0.0
 11
112.0076461532299
 21
-26.29793633955167
 31
0.0
  0
SPLINE
  5
107
330
70
100
AcDbEntity
  8
0
 62
    18
420
        0
370
    25
100
AcDbSpline
210
0.0
220
0.0
230
1.0
 70
     8
 71
     3
 72
     8
 73
     4
 74
     0
 42
0.0000000001
 43
0.0000000001
 40
0.0
 40
0.0
 40
0.0
 40
0.0
 40
1.0
 40
1.0
 40
1.0
 40
1.0
 10
111.9503337459069
 20
-26.35575021699257
 30
0.0
 10
111.9820667144481
 20
-26.35547328757155
 30
0.0
 10
112.0076454640021
 20
-26.32967034165497
 30
0.0
 10
112.0076454640021
 20
-26.29793616477274
 30
0.0
  0
LINE
  5
108
330
70
100
AcDbEntity
  8
0
 62
    18
420
        0
370
    25
100
AcDbLine
 10
111.9503329155208
 20
-3.306244258825192
 30
0.0
 11
112.0076461532299
 21
-3.306244258825192
 31
0.0
  0
LINE
  5
109
330
70
100
AcDbEntity
  8
0
 62
    18
420
        0
370
    25
100
AcDbLine
 10
112.0076461532299
 20
-3.306244258825192
 30
0.0
 11
112.0076461532299
 21
-26.29793633955167
 31
0.0
  0
SPLINE
  5
10A
330
70
100
AcDbEntity
  8
0
 62
    18
420
        0
370
    25
100
AcDbSpline
210
0.0
220
0.0
230
1.0
 70
     8
 71
     3
 72
     8
 73
     4
 74
     0
 42
0.0000000001
 43
0.0000000001
 40
0.0
 40
0.0
 40
0.0
 40
0.0
 40
1.0
 40
1.0
 40
1.0
 40
1.0
 10
112.0076454640021
 20
-3.306244683485574
 30
0.0
 10
112.0076454640021
 20
-3.274510506603987
 30
0.0
 10
111.9820667144481
 20
-3.248707560686769
 30
0.0
 10
111.9503337459069
 20
-3.248430631265744
 30
0.0
  0
LINE
  5
10B
330
70
100
AcDbEntity
  8
0
 62
    18
420
        0
370
    25
100
AcDbLine
 10
141.6564452563398
 20
-12.05581752974314
 30
0.0
 11
119.9394105673167
 21
-12.05581752974314
 31
0.0
  0
LWPOLYLINE
  5
10C
330
70
100
AcDbEntity
  8
0
 62
    18
420
        0
370
    25
100
AcDbPolyline
 90
        5
 70
     0
 43
0.0
 10
119.8547168509931
 20
-11.91001661602158
 10
119.8480496910115
 20
-11.99642585258178
 10
119.9245868785144
 20
-12.05501846130272
 10
119.9385091922639
 20
-12.05581537591369
 10
119.9394105673167
 20
-12.05581752974314
  0
SPLINE
  5
10D
330
70
100
AcDbEntity
  8
0
 62
    18
420
        0
370
    25
100
AcDbSpline
210
0.0
220
0.0
230
1.0
 70
     8
 71
     3
 72
     8
 73
     4
 74
     0
 42
0.0000000001
 43
0.0000000001
 40
0.0
 40
0.0
 40
0.0
 40
0.0
 40
1.0
 40
1.0
 40
1.0
 40
1.0
 10
119.8547168509988
 20
-11.9100166160357
 30
0.0
 10
119.9925417172158
 20
-11.23211874619162
 30
0.0
 10
120.0690742510673
 20
-10.54319186362812
 30
0.0
 10
120.0833882696452
 20
-9.85157323710155
 30
0.0
  0
LINE
  5
10E
330
70
100
AcDbEntity
  8
0
 62
    18
420
        0
370
    25
100
AcDbLine
 10
120.0833753467294
 20
-9.851573237079733
 30
0.0
 11
120.0833882696452
 21
-9.851573237079733
 31
0.0
  0
SPLINE
  5
10F
330
70
100
AcDbEntity
  8
0
 62
    18
420
        0
370
    25
100
AcDbSpline
210
0.0
220
0.0
230
1.0
 70
     8
 71
     3
 72
     8
 73
     4
 74
     0
 42
0.0000000001
 43
0.0000000001
 40
0.0
 40
0.0
 40
0.0
 40
0.0
 40
1.0
 40
1.0
 40
1.0
 40
1.0
 10
120.083375346739
 20
-9.851573237100268
 30
0.0
 10
120.0904341103018
 20
-9.087398724537926
 30
0.0
 10
120.0391074353741
 20
-8.323801434356466
 30
0.0
 10
119.9298432842838
 20
-7.567445792426
 30
0.0
  0
LWPOLYLINE
  5
110
330
70
100
AcDbEntity
  8
0
 62
    18
420
        0
370
    25
100
AcDbPolyline
 90
        5
 70
     0
 43
0.0
 10
120.0173800472789
 20
-7.430518630577745
 10
120.0164786722838
 20
-7.430520784406561
 10
119.9891509623332
 20
-7.433583521121782
 10
119.929364058581
 20
-7.481366090815384
 10
119.9298432842678
 20
-7.567445792420866
  0
LINE
  5
111
330
70
100
AcDbEntity
  8
0
 62
    18
420
        0
370
    25
100
AcDbLine
 10
120.0173800472789
 20
-7.430518630577745
 30
0.0
 11
141.5784757763777
 21
-7.430518630577745
 31
0.0
  0
SPLINE
  5
112
330
70
100
AcDbEntity
  8
0
 62
    18
420
        0
370
    25
100
AcDbSpline
210
0.0
220
0.0
230
1.0
 70
     8
 71
     3
 72
     8
 73
     4
 74
     0
 42
0.0000000001
 43
0.0000000001
 40
0.0
 40
0.0
 40
0.0
 40
0.0
 40
1.0
 40
1.0
 40
1.0
 40
1.0
 10
119.854716851011
 20
-11.91001661599142
 30
0.0
 10
119.8464594363503
 20
-11.83683274670251
 30
0.0
 10
119.7846166773303
 20
-11.78148551128559
 30
0.0
 10
119.7109685308479
 20
-11.78136659708752
 30
0.0
  0
SPLINE
  5
113
330
70
100
AcDbEntity
  8
0
 62
    18
420
        0
370
    25
100
AcDbSpline
210
0.0
220
0.0
230
1.0
 70
     8
 71
     3
 72
     8
 73
     4
 74
     0
 42
0.0000000001
 43
0.0000000001
 40
0.0
 40
0.0
 40
0.0
 40
0.0
 40
1.0
 40
1.0
 40
1.0
 40
1.0
 10
119.7109685308498
 20
-11.78136659711704
 30
0.0
 10
119.8504178852777
 20
-11.14475758678059
 30
0.0
 10
119.9279234400856
 20
-10.49614590435783
 30
0.0
 10
119.9424011509524
 20
-9.844603464925656
 30
0.0
  0
SPLINE
  5
114
330
70
100
AcDbEntity
  8
0
 62
    18
420
        0
370
    25
100
AcDbSpline
210
0.0
220
0.0
230
1.0
 70
     8
 71
     3
 72
     8
 73
     4
 74
     0
 42
0.0000000001
 43
0.0000000001
 40
0.0
 40
0.0
 40
0.0
 40
0.0
 40
1.0
 40
1.0
 40
1.0
 40
1.0
 10
120.0833753467397
 20
-9.851573237097058
 30
0.0
 10
120.0365355626846
 20
-9.846820731679175
 30
0.0
 10
119.9894812930223
 20
-9.844494365941125
 30
0.0
 10
119.9424011509723
 20
-9.844603464932074
 30
0.0
  0
SPLINE
  5
115
330
70
100
AcDbEntity
  8
0
 62
    18
420
        0
370
    25
100
AcDbSpline
210
0.0
220
0.0
230
1.0
 70
     8
 71
     3
 72
     8
 73
     4
 74
     0
 42
0.0000000001
 43
0.0000000001
 40
0.0
 40
0.0
 40
0.0
 40
0.0
 40
1.0
 40
1.0
 40
1.0
 40
1.0
 10
119.9424011509305
 20
-9.844603464874321
 30
0.0
 10
119.9492024305784
 20
-9.122768874757966
 30
0.0
 10
119.8969791930519
 20
-8.401586407777763
 30
0.0
 10
119.7862532700904
 20
-7.688262355976808
 30
0.0
  0
SPLINE
  5
116
330
70
100
AcDbEntity
  8
0
 62
    18
420
        0
370
    25
100
AcDbSpline
210
0.0
220
0.0
230
1.0
 70
     8
 71
     3
 72
     8
 73
     4
 74
     0
 42
0.0000000001
 43
0.0000000001
 40
0.0
 40
0.0
 40
0.0
 40
0.0
 40
1.0
 40
1.0
 40
1.0
 40
1.0
 10
119.7862532701373
 20
-7.688262355970391
 30
0.0
 10
119.8573812193628
 20
-7.688965948372834
 30
0.0
 10
119.9183741793102
 20
-7.637646503436798
 30
0.0
 10
119.9298432842889
 20
-7.567445792369531
 30
0.0
  0
LWPOLYLINE
  5
117
330
70
100
AcDbEntity
  8
0
 62
    18
420
        0
370
    25
100
AcDbPolyline
 90
        5
 70
     0
 43
0.0
 10
119.7862532701001
 20
-7.688262356020444
 10
119.8195244553733
 20
-7.5262323837541
 10
119.9836070212026
 20
-7.432433379496241
 10
120.0156106814926
 20
-7.430522938235377
 10
120.0173800472789
 20
-7.430518630577745
  0
LWPOLYLINE
  5
118
330
70
100
AcDbEntity
  8
0
 62
    18
420
        0
370
    25
100
AcDbPolyline
 90
        6
 70
     0
 43
0.0
 10
119.9394105673167
 20
-12.05581752974314
 10
119.9376412014727
 20
-12.05581322214263
 10
119.9094035012695
 20
-12.05431200727421
 10
119.8080176544602
 20
-12.02212742587699
 10
119.7315224664764
 20
-11.94401902426839
 10
119.7109685308351
 20
-11.7813665971273
  0
LINE
  5
119
330
70
100
AcDbEntity
  8
0
 62
    18
420
        0
370
    25
100
AcDbLine
 10
135.2779306995971
 20
-3.817001913706636
 30
0.0
 11
126.3179251241165
 21
-3.817001913706636
 31
0.0
  0
LWPOLYLINE
  5
11A
330
70
100
AcDbEntity
  8
0
 62
    18
420
        0
370
    25
100
AcDbPolyline
 90
        4
 70
     0
 43
0.0
 10
133.5772120616074
 20
8.177243681935973
 10
133.6229541529607
 20
7.998101583647448
 10
133.6506025132997
 20
7.905892101011002
 10
133.6498225600117
 20
7.908377613084637
  0
LWPOLYLINE
  5
11B
330
70
100
AcDbEntity
  8
0
 62
    18
420
        0
370
    25
100
AcDbPolyline
 90
        9
 70
     0
 43
0.0
 10
133.6370062345398
 20
9.656067367797252
 10
133.6380508388382
 20
9.659608253256337
 10
133.6222159299991
 20
9.60554298108563
 10
133.5857328557789
 20
9.465807233700608
 10
133.5418527446814
 20
9.24633264051005
 10
133.5108317662675
 20
8.967968210903457
 10
133.5087937110059
 20
8.676151001091472
 10
133.5348283192204
 20
8.405699718275711
 10
133.5772120616074
 20
8.177243681935973
  0
LINE
  5
11C
330
70
100
AcDbEntity
  8
0
 62
    18
420
        0
370
    25
100
AcDbLine
 10
130.7979279118283
 20
3.863885163600998
 30
0.0
 11
133.6887405315282
 21
3.863885163600998
 31
0.0
  0
LINE
  5
11D
330
70
100
AcDbEntity
  8
0
 62
    18
420
        0
370
    25
100
AcDbLine
 10
127.9071152921861
 20
3.863885163600998
 30
0.0
 11
130.7979279118283
 21
3.863885163600998
 31
0.0
  0
LINE
  5
11E
330
70
100
AcDbEntity
  8
0
 62
    18
420
        0
370
    25
100
AcDbLine
 10
141.4456258020584
 20
-4.539704395549331
 30
0.0
 11
120.1502300215981
 21
-4.539704395549331
 31
0.0
  0
LINE
  5
11F
330
70
100
AcDbEntity
  8
0
 62
    18
420
        0
370
    25
100
AcDbLine
 10
139.3300554911158
 20
-36.91680745890705
 30
0.0
 11
122.2658003325978
 21
-36.91680745890705
 31
0.0
  0
LINE
  5
120
330
70
100
AcDbEntity
  8
0
 62
    18
420
        0
370
    25
100
AcDbLine
 10
145.5410723259926
 20
9.436541082829336
 30
0.0
 11
145.5410723259926
 21
7.911026815692023
 31
0.0
  0
LINE
  5
121
330
70
100
AcDbEntity
  8
0
 62
    18
420
        0
370
    25
100
AcDbLine
 10
145.5410723259926
 20
9.645513633657825
 30
0.0
 11
145.5410723259926
 21
9.436541082829336
 31
0.0
  0
LINE
  5
122
330
70
100
AcDbEntity
  8
0
 62
     8
420
  8421504
370
    25
100
AcDbLine
 10
119.8547168509931
 20
-11.91001661602158
 30
0.0
 11
141.8009797220225
 21
-11.91001661602158
 31
0.0
  0
LINE
  5
123
330
70
100
AcDbEntity
  8
0
 62
     8
420
  8421504
370
    25
100
AcDbLine
 10
120.0833882696452
 20
-9.851573237079733
 30
0.0
 11
141.783015758896
 21
-9.851573237079733
 31
0.0
  0
LINE
  5
124
330
70
100
AcDbEntity
  8
0
 62
     8
420
  8421504
370
    25
100
AcDbLine
 10
141.722815321036
 20
-7.567445792420866
 30
0.0
 11
119.9298432842678
 21
-7.567445792420866
 31
0.0
  0
LINE
  5
125
330
70
100
AcDbEntity
  8
0
 62
     8
420
  8421504
370
    25
100
AcDbLine
 10
135.2439099838339
 20
0.0813880867046418
 30
0.0
 11
126.3519458398804
 21
0.0813880867046418
 31
0.0
  0
LINE
  5
126
330
70
100
AcDbEntity
  8
0
 62
     8
420
  8421504
370
    25
100
AcDbLine
 10
126.843639197094
 20
0.2244881060985728
 30
0.0
 11
135.1065447881871
 21
0.2244881060985728
 31
0.0
  0
LINE
  5
127
330
70
100
AcDbEntity
  8
0
 62
     8
420
  8421504
370
    25
100
AcDbLine
 10
126.4893110354694
 20
0.2244881060985728
 30
0.0
 11
126.843639197094
 21
0.2244881060985728
 31
0.0
  0
LINE
  5
128
330
70
100
AcDbEntity
  8
0
 62
     8
420
  8421504
370
    25
100
AcDbLine
 10
128.385121910115
 20
0.2834511724646159
 30
0.0
 11
128.1689200514073
 21
0.2834511724646159
 31
0.0
  0
LINE
  5
129
330
70
100
AcDbEntity
  8
0
 62
     8
420
  8421504
370
    25
100
AcDbLine
 10
133.4269357723063
 20
0.2834511724646159
 30
0.0
 11
128.385121910115
 21
0.2834511724646159
 31
0.0
  0
LINE
  5
12A
330
70
100
AcDbEntity
  8
0
 62
     8
420
  8421504
370
    25
100
AcDbLine
 10
128.6449668247232
 20
0.5699484387736704
 30
0.0
 11
133.1438070856073
 21
0.5699484387736704
 31
0.0
  0
LINE
  5
12B
330
70
100
AcDbEntity
  8
0
 62
     8
420
  8421504
370
    25
100
AcDbLine
 10
128.4520487381069
 20
0.5699484387736704
 30
0.0
 11
128.6449668247232
 21
0.5699484387736704
 31
0.0
  0
LINE
  5
12C
330
70
100
AcDbEntity
  8
0
 62
     8
420
  8421504
370
    25
100
AcDbLine
 10
130.7979279118283
 20
10.61084430910544
 30
0.0
 11
133.6298609257566
 21
10.61084430910544
 31
0.0
  0
LINE
  5
12D
330
70
100
AcDbEntity
  8
0
 62
     8
420
  8421504
370
    25
100
AcDbLine
 10
127.9659948978993
 20
10.61084430910544
 30
0.0
 11
130.7979279118283
 21
10.61084430910544
 31
0.0
  0
LINE
  5
12E
330
70
100
AcDbEntity
  8
0
 62
     8
420
  8421504
370
    25
100
AcDbLine
 10
130.7979279118283
 20
10.66788616506719
 30
0.0
 11
133.5776062112552
 21
10.66788616506719
 31
0.0
  0
LINE
  5
12F
330
70
100
AcDbEntity
  8
0
 62
     8
420
  8421504
370
    25
100
AcDbLine
 10
128.0182496124006
 20
10.66788616506719
 30
0.0
 11
130.7979279118283
 21
10.66788616506719
 31
0.0
  0
LINE
  5
130
330
70
100
AcDbEntity
  8
0
 62
     8
420
  8421504
370
    25
100
AcDbLine
 10
130.8233564501778
 20
-4.481889316978731
 30
0.0
 11
140.6266915725474
 21
-4.481889316978731
 31
0.0
  0
LINE
  5
131
330
70
100
AcDbEntity
  8
0
 62
     8
420
  8421504
370
    25
100
AcDbLine
 10
120.9691642511085
 20
-4.481889316978731
 30
0.0
 11
130.8233564501778
 21
-4.481889316978731
 31
0.0
  0
LINE
  5
132
330
70
100
AcDbEntity
  8
0
 62
     8
420
  8421504
370
    25
100
AcDbLine
 10
130.8233564501778
 20
-4.241005720329215
 30
0.0
 11
120.9691642511085
 21
-4.241005720329215
 31
0.0
  0
LINE
  5
133
330
70
100
AcDbEntity
  8
0
 62
     8
420
  8421504
370
    25
100
AcDbLine
 10
140.6266915725474
 20
-4.241005720329215
 30
0.0
 11
130.8233564501778
 21
-4.241005720329215
 31
0.0
  0
LINE
  5
134
330
70
100
AcDbEntity
  8
0
 62
     8
420
  8421504
370
    25
100
AcDbLine
 10
121.103836359935
 20
-4.096802943430108
 30
0.0
 11
140.4920194637209
 21
-4.096802943430108
 31
0.0
  0
LINE
  5
135
330
70
100
AcDbEntity
  8
0
 62
     8
420
  8421504
370
    25
100
AcDbLine
 10
141.590160267741
 20
-4.685507463157462
 30
0.0
 11
120.0056955559732
 21
-4.685507463157462
 31
0.0
  0
LINE
  5
136
330
70
100
AcDbEntity
  8
0
 62
     8
420
  8421504
370
    25
100
AcDbLine
 10
141.5674557395237
 20
-7.287239843905464
 30
0.0
 11
120.02840008419
 21
-7.287239843905464
 31
0.0
  0
LINE
  5
137
330
70
100
AcDbEntity
  8
0
 62
     8
420
  8421504
370
    25
100
AcDbLine
 10
139.7636567342765
 20
-36.48743656020451
 30
0.0
 11
121.83219908938
 21
-36.48743656020451
 31
0.0
  0
LINE
  5
138
330
70
100
AcDbEntity
  8
0
 62
    18
420
        0
370
    25
100
AcDbLine
 10
68.52948973907746
 20
-55.72479575688392
 30
0.0
 11
68.52948973907746
 21
-63.6595033704995
 31
0.0
  0
LINE
  5
139
330
70
100
AcDbEntity
  8
0
 62
    18
420
        0
370
    25
100
AcDbLine
 10
73.15479025362844
 20
-63.6595033704995
 30
0.0
 11
73.15479025362844
 21
-55.72479575688392
 31
0.0
  0
LWPOLYLINE
  5
13A
330
70
100
AcDbEntity
  8
0
 62
    18
420
        0
370
    25
100
AcDbPolyline
 90
       10
 70
     0
 43
0.0
 10
73.26301341243983
 20
-63.8000468016402
 10
73.26344121559917
 20
-63.80012541613434
 10
73.25622725371504
 20
-63.79812774506344
 10
73.24907144503761
 20
-63.79571223222707
 10
73.23827621350436
 20
-63.79123012596775
 10
73.21734508953878
 20
-63.77929902186045
 10
73.19039914482086
 20
-63.75533235320467
 10
73.1649126845869
 20
-63.71365264182461
 10
73.15471056213262
 20
-63.66403178399334
 10
73.15530690198402
 20
-63.66022490133036
  0
LWPOLYLINE
  5
13B
330
70
100
AcDbEntity
  8
0
 62
    18
420
        0
370
    25
100
AcDbPolyline
 90
       12
 70
     0
 43
0.0
 10
68.52958262268116
 20
-63.66023028587385
 10
68.5296205838506
 20
-63.66043812981329
 10
68.52142394009003
 20
-63.70816577701487
 10
68.50358866785014
 20
-63.74293063872581
 10
68.48181782206133
 20
-63.76757037714913
 10
68.46022385897225
 20
-63.78363897581707
 10
68.44353630539441
 20
-63.7923468833323
 10
68.4343830948385
 20
-63.79601269057779
 10
68.42852200322639
 20
-63.79798343887417
 10
68.42368936222488
 20
-63.79939096244608
 10
68.41996432482877
 20
-63.80033326013155
 10
68.42042201228455
 20
-63.80024387643493
  0
LWPOLYLINE
  5
13C
330
70
100
AcDbEntity
  8
0
 62
    18
420
        0
370
    25
100
AcDbPolyline
 90
       77
 70
     0
 43
0.0
 10
69.97489618349462
 20
-85.48390399668788
 10
69.17473629319495
 20
-85.39106236691782
 10
68.35309430396559
 20
-85.23290927655109
 10
67.54584591189626
 20
-85.01277776728056
 10
66.7576591252227
 20
-84.73194074857451
 10
65.99309224167743
 20
-84.39202112625757
 10
65.25656652192584
 20
-83.99498534108465
 10
64.55234115165777
 20
-83.54312829170556
 10
63.88448847212454
 20
-83.03906471963799
 10
63.25687028859633
 20
-82.48570820930764
 10
62.67311579322781
 20
-81.8862593420742
 10
62.1366016425588
 20
-81.24418415817471
 10
61.65042988055161
 20
-80.56319638735926
 10
61.21741232351959
 20
-79.84723321856424
 10
60.84005171405205
 20
-79.1004348386782
 10
60.52053202904345
 20
-78.32712100950594
 10
60.26069909506154
 20
-77.53176252971757
 10
60.06205735763163
 20
-76.71895915817987
 10
59.92575480460757
 20
-75.89341121044788
 10
59.85257865834146
 20
-75.05989270305488
 10
59.8429542989717
 20
-74.22322358968931
 10
59.89693449516151
 20
-73.38824219879511
 10
60.01421017324425
 20
-72.55977709931693
 10
60.19410072513848
 20
-71.74261910098263
 10
60.43556693103083
 20
-70.94149375932187
 10
60.73721203655214
 20
-70.16103354448055
 10
61.09729144480445
 20
-69.40575206228455
 10
61.51372456256412
 20
-68.68001645883097
 10
61.98410126147988
 20
-67.98802426634937
 10
62.50570233970804
 20
-67.33377675008441
 10
63.07551136770981
 20
-66.7210571006957
 10
63.69023353427031
 20
-66.15340835747048
 10
64.34631341568683
 20
-65.63411402397986
 10
65.03995759059707
 20
-65.16617599151804
 10
65.76715456322938
 20
-64.75230161584137
 10
66.52369926274999
 20
-64.39488325622605
 10
67.30521646636264
 20
-64.09598750615346
 10
68.10718691444783
 20
-63.85734280877527
 10
68.4387381255394
 20
-63.77771596172484
 10
68.05385474982935
 20
-63.87117143116989
 10
67.25446000520782
 20
-64.11335486023546
 10
66.4757400795491
 20
-64.41548242215827
 10
65.72218273290554
 20
-64.77581059704137
 10
64.99813088081374
 20
-65.19226525297466
 10
64.30775674805719
 20
-65.66244487709536
 10
63.65503844637846
 20
-66.18363995964575
 10
63.04373870497613
 20
-66.75284807094541
 10
62.47737902496513
 20
-67.36678786119695
 10
61.95922352557048
 20
-68.02192167571236
 10
61.49225848272624
 20
-68.71447440070475
 10
61.07917563711674
 20
-69.4404550015744
 10
60.72235388660363
 20
-70.19567913819845
 10
60.42385013234976
 20
-70.97579527978433
 10
60.18538527919321
 20
-71.77630758946259
 10
60.00833346644493
 20
-72.59260271241418
 10
59.89371452934155
 20
-73.41997676576297
 10
59.8421886147929
 20
-74.2536616728436
 10
59.85405295037791
 20
-75.08885301103259
 10
59.92923969068814
 20
-75.92073784339719
 10
60.06731484027056
 20
-76.74452207913756
 10
60.26748363845819
 20
-77.55545862431907
 10
60.52859163579462
 20
-78.34887381702822
 10
60.84913438687032
 20
-79.12019616736616
 10
61.22726498811688
 20
-79.86497964554949
 10
61.66080377041229
 20
-80.57893275874333
 10
62.1472528372107
 20
-81.25794170444684
 10
62.68380898739883
 20
-81.89809244722672
 10
63.26737986933069
 20
-82.49569656477831
 10
63.89460228782517
 20
-83.04731009365431
 10
64.56186158902894
 20
-83.54975345216802
 10
65.26531319830297
 20
-84.00013297873918
 10
66.0009030817978
 20
-84.39585170098041
 10
66.76439170759086
 20
-84.7346297969293
 10
67.55137935319038
 20
-85.01451374886359
 10
68.35733141280915
 20
-85.2338924969282
 10
69.17760262809635
 20
-85.39150066991297
 10
69.97489618349462
 20
-85.48390399668788
  0
SPLINE
  5
13D
330
70
100
AcDbEntity
  8
0
 62
    18
420
        0
370
    25
100
AcDbSpline
210
0.0
220
0.0
230
1.0
 70
     8
 71
     3
 72
    11
 73
     7
 74
     0
 42
0.0000000001
 43
0.0000000001
 40
0.0
 40
0.0
 40
0.0
 40
0.0
 40
1.0
 40
1.0
 40
1.0
 40
2.0
 40
2.0
 40
2.0
 40
2.0
 10
71.70938380163185
 20
-85.48390432955192
 30
0.0
 10
77.76729957457766
 20
-85.00493880151086
 30
0.0
 10
82.28993233846333
 20
-79.70574948314919
 30
0.0
 10
81.81096681042259
 20
-73.64783371020338
 30
0.0
 10
81.4310751012867
 20
-68.84299527809536
 30
0.0
 10
77.96826332425559
 20
-64.8446881810395
 30
0.0
 10
73.26692331556175
 20
-63.78252426149199
 30
0.0
  0
SPLINE
  5
13E
330
70
100
AcDbEntity
  8
0
 62
    18
420
        0
370
    25
100
AcDbSpline
210
0.0
220
0.0
230
1.0
 70
     8
 71
     3
 72
    17
 73
    13
 74
     0
 42
0.0000000001
 43
0.0000000001
 40
0.0
 40
0.0
 40
0.0
 40
0.0
 40
1.0
 40
1.0
 40
1.0
 40
2.0
 40
2.0
 40
2.0
 40
3.0
 40
3.0
 40
3.0
 40
4.0
 40
4.0
 40
4.0
 40
4.0
 10
71.70938380164436
 20
-85.2724141444902
 30
0.0
 10
77.65049677064176
 20
-84.79344861644207
 30
0.0
 10
82.07844215340834
 20
-79.58894667918795
 30
0.0
 10
81.59947662536053
 20
-73.64783371019055
 30
0.0
 10
81.12051109731305
 20
-67.70672074119379
 30
0.0
 10
75.91600916005862
 20
-63.2787753584269
 30
0.0
 10
69.97489619106153
 20
-63.75774088647438
 30
0.0
 10
64.03378322206413
 20
-64.2367064145225
 30
0.0
 10
59.60583783929756
 20
-69.44120835177662
 30
0.0
 10
60.08480336734535
 20
-75.38232132077403
 30
0.0
 10
60.51014332939652
 20
-80.6582600194825
 30
0.0
 10
64.69895749235242
 20
-84.84707418243871
 30
0.0
 10
69.97489619106153
 20
-85.2724141444902
 30
0.0
  0
LINE
  5
13F
330
70
100
AcDbEntity
  8
0
 62
    18
420
        0
370
    25
100
AcDbLine
 10
69.97489618349462
 20
-77.22712334058194
 30
0.0
 11
69.97489618349462
 21
-89.25822192964663
 31
0.0
  0
LINE
  5
140
330
70
100
AcDbEntity
  8
0
 62
    18
420
        0
370
    25
100
AcDbLine
 10
71.70938380915321
 20
-89.25822192964663
 30
0.0
 11
71.70938380915321
 21
-77.22704768755133
 31
0.0
  0
LINE
  5
141
330
70
100
AcDbEntity
  8
0
 62
    18
420
        0
370
    25
100
AcDbLine
 10
64.39562573835184
 20
-54.56847049365013
 30
0.0
 11
64.40521671346061
 21
-55.66748251917481
 31
0.0
  0
SPLINE
  5
142
330
70
100
AcDbEntity
  8
0
 62
    18
420
        0
370
    25
100
AcDbSpline
210
0.0
220
0.0
230
1.0
 70
     8
 71
     3
 72
     8
 73
     4
 74
     0
 42
0.0000000001
 43
0.0000000001
 40
0.0
 40
0.0
 40
0.0
 40
0.0
 40
1.0
 40
1.0
 40
1.0
 40
1.0
 10
64.34740217334578
 20
-55.66748251918763
 30
0.0
 10
64.36667221449178
 20
-55.66781939858742
 30
0.0
 10
64.38594667230178
 20
-55.66781939858742
 30
0.0
 10
64.40521671344811
 20
-55.66748251918763
 30
0.0
  0
LINE
  5
143
330
70
100
AcDbEntity
  8
0
 62
    18
420
        0
370
    25
100
AcDbLine
 10
64.34740217333295
 20
-55.66748251917481
 30
0.0
 11
64.33781119822448
 21
-54.56847049365013
 31
0.0
  0
LINE
  5
144
330
70
100
AcDbEntity
  8
0
 62
    18
420
        0
370
    25
100
AcDbLine
 10
64.33781119822448
 20
-54.56847049365013
 30
0.0
 11
64.39562573835184
 21
-54.56847049365013
 31
0.0
  0
LINE
  5
145
330
70
100
AcDbEntity
  8
0
 62
    18
420
        0
370
    25
100
AcDbLine
 10
64.39562573835184
 20
-54.56847049365013
 30
0.0
 11
77.28865425435405
 21
-54.56847049365013
 31
0.0
  0
LINE
  5
146
330
70
100
AcDbEntity
  8
0
 62
    18
420
        0
370
    25
100
AcDbLine
 10
77.27906327924528
 20
-55.66748251917481
 30
0.0
 11
77.28865425435405
 21
-54.56847049365013
 31
0.0
  0
LINE
  5
147
330
70
100
AcDbEntity
  8
0
 62
    18
420
        0
370
    25
100
AcDbLine
 10
64.40521671346061
 20
-55.66748251917481
 30
0.0
 11
77.27906327924528
 21
-55.66748251917481
 31
0.0
  0
LINE
  5
148
330
70
100
AcDbEntity
  8
0
 62
    18
420
        0
370
    25
100
AcDbLine
 10
77.34646879442365
 20
-54.56847049365013
 30
0.0
 11
77.33687781931488
 21
-55.66748251917481
 31
0.0
  0
SPLINE
  5
149
330
70
100
AcDbEntity
  8
0
 62
    18
420
        0
370
    25
100
AcDbSpline
210
0.0
220
0.0
230
1.0
 70
     8
 71
     3
 72
     8
 73
     4
 74
     0
 42
0.0000000001
 43
0.0000000001
 40
0.0
 40
0.0
 40
0.0
 40
0.0
 40
1.0
 40
1.0
 40
1.0
 40
1.0
 10
77.27906327920003
 20
-55.66748251918763
 30
0.0
 10
77.29833332034636
 20
-55.66781939858742
 30
0.0
 10
77.31760777815637
 20
-55.66781939858742
 30
0.0
 10
77.33687781930235
 20
-55.66748251918763
 30
0.0
  0
LINE
  5
14A
330
70
100
AcDbEntity
  8
0
 62
    18
420
        0
370
    25
100
AcDbLine
 10
77.28865425435405
 20
-54.56847049365013
 30
0.0
 11
77.34646879442365
 21
-54.56847049365013
 31
0.0
  0
LINE
  5
14B
330
70
100
AcDbEntity
  8
0
 62
    18
420
        0
370
    25
100
AcDbLine
 10
64.40521671346061
 20
-55.66748251917481
 30
0.0
 11
64.40521671346061
 21
-55.72479575688392
 31
0.0
  0
SPLINE
  5
14C
330
70
100
AcDbEntity
  8
0
 62
    18
420
        0
370
    25
100
AcDbSpline
210
0.0
220
0.0
230
1.0
 70
     8
 71
     3
 72
     8
 73
     4
 74
     0
 42
0.0000000001
 43
0.0000000001
 40
0.0
 40
0.0
 40
0.0
 40
0.0
 40
1.0
 40
1.0
 40
1.0
 40
1.0
 10
64.34740240095194
 20
-55.66748334956095
 30
0.0
 10
64.34767933037297
 20
-55.69921631810207
 30
0.0
 10
64.37348227629019
 20
-55.72479506765616
 30
0.0
 10
64.40521645317177
 20
-55.72479506765616
 30
0.0
  0
LINE
  5
14D
330
70
100
AcDbEntity
  8
0
 62
    18
420
        0
370
    25
100
AcDbLine
 10
77.27906327924528
 20
-55.72479575688392
 30
0.0
 11
77.27906327924528
 21
-55.66748251917481
 31
0.0
  0
LINE
  5
14E
330
70
100
AcDbEntity
  8
0
 62
    18
420
        0
370
    25
100
AcDbLine
 10
77.27906327924528
 20
-55.72479575688392
 30
0.0
 11
64.40521671346061
 21
-55.72479575688392
 31
0.0
  0
SPLINE
  5
14F
330
70
100
AcDbEntity
  8
0
 62
    18
420
        0
370
    25
100
AcDbSpline
210
0.0
220
0.0
230
1.0
 70
     8
 71
     3
 72
     8
 73
     4
 74
     0
 42
0.0000000001
 43
0.0000000001
 40
0.0
 40
0.0
 40
0.0
 40
0.0
 40
1.0
 40
1.0
 40
1.0
 40
1.0
 10
77.27906353947638
 20
-55.72479506765616
 30
0.0
 10
77.31079771635764
 20
-55.72479506765616
 30
0.0
 10
77.33660066227519
 20
-55.69921631810207
 30
0.0
 10
77.33687759169621
 20
-55.66748334956095
 30
0.0
  0
SPLINE
  5
150
330
70
100
AcDbEntity
  8
0
 62
    18
420
        0
370
    25
100
AcDbSpline
210
0.0
220
0.0
230
1.0
 70
     8
 71
     3
 72
     8
 73
     4
 74
     0
 42
0.0000000001
 43
0.0000000001
 40
0.0
 40
0.0
 40
0.0
 40
0.0
 40
1.0
 40
1.0
 40
1.0
 40
1.0
 10
70.84213999633337
 20
-63.73452965095599
 30
0.0
 10
70.5027597174889
 20
-63.60240240203784
 30
0.0
 10
70.14472988016314
 20
-63.52440944379015
 30
0.0
 10
69.78114315379555
 20
-63.50340287375985
 30
0.0
  0
SPLINE
  5
151
330
70
100
AcDbEntity
  8
0
 62
    18
420
        0
370
    25
100
AcDbSpline
210
0.0
220
0.0
230
1.0
 70
     8
 71
     3
 72
     8
 73
     4
 74
     0
 42
0.0000000001
 43
0.0000000001
 40
0.0
 40
0.0
 40
0.0
 40
0.0
 40
1.0
 40
1.0
 40
1.0
 40
1.0
 10
70.84213999633242
 20
-63.73452965094894
 30
0.0
 10
70.47530172302386
 20
-63.66690446659992
 30
0.0
 10
70.10243101504499
 20
-63.63756811788938
 30
0.0
 10
69.72953068247264
 20
-63.64699288790641
 30
0.0
  0
LWPOLYLINE
  5
152
330
70
100
AcDbEntity
  8
0
 62
    18
420
        0
370
    25
100
AcDbPolyline
 90
        9
 70
     0
 43
0.0
 10
69.78114315380004
 20
-63.50340287375472
 10
69.78158374527879
 20
-63.52988197731643
 10
69.77975481279418
 20
-63.55546185959638
 10
69.77571861525889
 20
-63.57927022226253
 10
69.76961225698082
 20
-63.60050045838539
 10
69.76164338006229
 20
-63.61842888347916
 10
69.75208296228927
 20
-63.632445965411
 10
69.74125602917912
 20
-63.6420767862672
 10
69.72953068248033
 20
-63.64699288792181
  0
LWPOLYLINE
  5
153
330
70
100
AcDbEntity
  8
0
 62
    18
420
        0
370
    25
100
AcDbPolyline
 90
        9
 70
     0
 43
0.0
 10
71.90313683884809
 20
-63.50340287375472
 10
71.90269624742711
 20
-63.52988197731643
 10
71.90452517991172
 20
-63.55546185959638
 10
71.908561377447
 20
-63.57927022226253
 10
71.91466773572507
 20
-63.60050045838539
 10
71.9226366126436
 20
-63.61842888347916
 10
71.93219703035888
 20
-63.632445965411
 10
71.94302396352677
 20
-63.6420767862672
 10
71.95474931022556
 20
-63.64699288792181
  0
SPLINE
  5
154
330
70
100
AcDbEntity
  8
0
 62
    18
420
        0
370
    25
100
AcDbSpline
210
0.0
220
0.0
230
1.0
 70
     8
 71
     3
 72
     8
 73
     4
 74
     0
 42
0.0000000001
 43
0.0000000001
 40
0.0
 40
0.0
 40
0.0
 40
0.0
 40
1.0
 40
1.0
 40
1.0
 40
1.0
 10
71.95474931017519
 20
-63.64699288790641
 30
0.0
 10
71.58184897760316
 20
-63.63756811788938
 30
0.0
 10
71.20897826962428
 20
-63.66690446659992
 30
0.0
 10
70.84213999631541
 20
-63.73452965094894
 30
0.0
  0
SPLINE
  5
155
330
70
100
AcDbEntity
  8
0
 62
    18
420
        0
370
    25
100
AcDbSpline
210
0.0
220
0.0
230
1.0
 70
     8
 71
     3
 72
     8
 73
     4
 74
     0
 42
0.0000000001
 43
0.0000000001
 40
0.0
 40
0.0
 40
0.0
 40
0.0
 40
1.0
 40
1.0
 40
1.0
 40
1.0
 10
71.90313683885259
 20
-63.50340287375985
 30
0.0
 10
71.539550112485
 20
-63.52440944379015
 30
0.0
 10
71.18152027515924
 20
-63.60240240203784
 30
0.0
 10
70.84213999631477
 20
-63.73452965095599
 30
0.0
  0
SPLINE
  5
156
330
70
100
AcDbEntity
  8
0
 62
    18
420
        0
370
    25
100
AcDbSpline
210
0.0
220
0.0
230
1.0
 70
     8
 71
     3
 72
     8
 73
     4
 74
     0
 42
0.0000000001
 43
0.0000000001
 40
0.0
 40
0.0
 40
0.0
 40
0.0
 40
1.0
 40
1.0
 40
1.0
 40
1.0
 10
73.26279291477638
 20
-63.80047541245478
 30
0.0
 10
72.82869020290917
 20
-63.7341610657258
 30
0.0
 10
72.39241180283793
 20
-63.68296926294309
 30
0.0
 10
71.95474931018674
 20
-63.64699288793271
 30
0.0
  0
LINE
  5
157
330
70
100
AcDbEntity
  8
0
 62
    18
420
        0
370
    25
100
AcDbLine
 10
73.26511367417442
 20
-63.80053779958339
 30
0.0
 11
73.26505781835425
 21
-63.80052516858228
 31
0.0
  0
SPLINE
  5
158
330
70
100
AcDbEntity
  8
0
 62
    18
420
        0
370
    25
100
AcDbSpline
210
0.0
220
0.0
230
1.0
 70
     8
 71
     3
 72
    11
 73
     7
 74
     0
 42
0.0000000001
 43
0.0000000001
 40
0.0
 40
0.0
 40
0.0
 40
0.0
 40
1.0
 40
1.0
 40
1.0
 40
2.0
 40
2.0
 40
2.0
 40
2.0
 10
68.41916631849426
 20
-63.80053779956093
 30
0.0
 10
62.50168943193447
 20
-65.13870921108334
 30
0.0
 10
58.78942886890886
 20
-71.02057430678087
 30
0.0
 10
60.12760028043159
 20
-76.93805119334065
 30
0.0
 10
61.18867619196389
 20
-81.63019461182461
 30
0.0
 10
65.17928835321933
 20
-85.08609288701448
 30
0.0
 10
69.9748961910702
 20
-85.46587889939253
 30
0.0
  0
SPLINE
  5
159
330
70
100
AcDbEntity
  8
0
 62
    18
420
        0
370
    25
100
AcDbSpline
210
0.0
220
0.0
230
1.0
 70
     8
 71
     3
 72
    11
 73
     7
 74
     0
 42
0.0000000001
 43
0.0000000001
 40
0.0
 40
0.0
 40
0.0
 40
0.0
 40
1.0
 40
1.0
 40
1.0
 40
2.0
 40
2.0
 40
2.0
 40
2.0
 10
71.70938380163569
 20
-85.46587889939253
 30
0.0
 10
77.75734440439539
 20
-84.98691337134955
 30
0.0
 10
82.27190690830619
 20
-79.69579431295954
 30
0.0
 10
81.79294138026319
 20
-73.64783371019953
 30
0.0
 10
81.41315536788512
 20
-68.85222587234899
 30
0.0
 10
77.95725709269525
 20
-64.86161371109355
 30
0.0
 10
73.26511367421163
 20
-63.80053779956093
 30
0.0
  0
LINE
  5
15A
330
70
100
AcDbEntity
  8
0
 62
    18
420
        0
370
    25
100
AcDbLine
 10
68.41922217435166
 20
-63.80052516858228
 30
0.0
 11
68.4191663184734
 21
-63.80053779958339
 31
0.0
  0
SPLINE
  5
15B
330
70
100
AcDbEntity
  8
0
 62
    18
420
        0
370
    25
100
AcDbSpline
210
0.0
220
0.0
230
1.0
 70
     8
 71
     3
 72
     8
 73
     4
 74
     0
 42
0.0000000001
 43
0.0000000001
 40
0.0
 40
0.0
 40
0.0
 40
0.0
 40
1.0
 40
1.0
 40
1.0
 40
1.0
 10
69.72953068246461
 20
-63.64699288792501
 30
0.0
 10
69.29041847118224
 20
-63.66696313536302
 30
0.0
 10
68.85329198927987
 20
-63.7182543337931
 30
0.0
 10
68.42148411637229
 20
-63.80047541244644
 30
0.0
  0
LINE
  5
15C
330
70
100
AcDbEntity
  8
0
 62
    18
420
        0
370
    25
100
AcDbLine
 10
68.4603078581257
 20
-63.78357651489436
 30
0.0
 11
68.41922206345997
 21
-63.80052495038343
 31
0.0
  0
LWPOLYLINE
  5
15D
330
70
100
AcDbEntity
  8
0
 62
    18
420
        0
370
    25
100
AcDbPolyline
 90
        3
 70
     0
 43
0.0
 10
68.41916633333227
 20
-63.80053787329921
 10
68.42136377152771
 20
-63.7996601903069
 10
68.43494093507786
 20
-63.79578869295014
  0
LWPOLYLINE
  5
15E
330
70
100
AcDbEntity
  8
0
 62
    18
420
        0
370
    25
100
AcDbPolyline
 90
        3
 70
     0
 43
0.0
 10
72.62127772488796
 20
-78.62665806047067
 10
72.11270956604119
 20
-78.81113140985009
 10
71.70938380915321
 20
-78.9103378566727
  0
SPLINE
  5
15F
330
70
100
AcDbEntity
  8
0
 62
    18
420
        0
370
    25
100
AcDbSpline
210
0.0
220
0.0
230
1.0
 70
     8
 71
     3
 72
    17
 73
    13
 74
     0
 42
0.0000000001
 43
0.0000000001
 40
0.0
 40
0.0
 40
0.0
 40
0.0
 40
1.0
 40
1.0
 40
1.0
 40
2.0
 40
2.0
 40
2.0
 40
3.0
 40
3.0
 40
3.0
 40
4.0
 40
4.0
 40
4.0
 40
4.0
 10
72.62127773988094
 20
-78.6266580184413
 30
0.0
 10
74.89204094936695
 20
-77.64406737484278
 30
0.0
 10
75.93631114291113
 20
-75.00670298144062
 30
0.0
 10
74.95372049931228
 20
-72.73593977195462
 30
0.0
 10
73.97112985571343
 20
-70.46517656246796
 30
0.0
 10
71.33376546231096
 20
-69.42090636892409
 30
0.0
 10
69.06300225282496
 20
-70.40349701252264
 30
0.0
 10
66.79223904333894
 20
-71.3860876561218
 30
0.0
 10
65.74796884979476
 20
-74.02345204952395
 30
0.0
 10
66.73055949339361
 20
-76.29421525900996
 30
0.0
 10
67.31585125330368
 20
-77.64682227178557
 30
0.0
 10
68.52896561397419
 20
-78.62503637107896
 30
0.0
 10
69.97489619106795
 20
-78.91033786328349
 30
0.0
  0
CIRCLE
  5
160
330
70
100
AcDbEntity
  8
0
 62
    18
420
        0
370
    25
100
AcDbCircle
 10
70.84213999635295
 20
-74.51507751548229
 30
0.0
 40
2.779678200048484
  0
CIRCLE
  5
161
330
70
100
AcDbEntity
  8
0
 62
    18
420
        0
370
    25
100
AcDbCircle
 10
70.84213999635295
 20
-74.51507751548229
 30
0.0
 40
2.831932895868334
  0
SPLINE
  5
162
330
70
100
AcDbEntity
  8
0
 62
    18
420
        0
370
    25
100
AcDbSpline
210
0.0
220
0.0
230
1.0
 70
     8
 71
     3
 72
     8
 73
     4
 74
     0
 42
0.0000000001
 43
0.0000000001
 40
0.0
 40
0.0
 40
0.0
 40
0.0
 40
1.0
 40
1.0
 40
1.0
 40
1.0
 10
69.97149711382164
 20
-77.22665273019948
 30
0.0
 10
70.54162515939214
 20
-77.39230568473363
 30
0.0
 10
71.14718603572177
 20
-77.39182383627651
 30
0.0
 10
71.71704973739003
 20
-77.22526378340534
 30
0.0
  0
SPLINE
  5
163
330
70
100
AcDbEntity
  8
0
 62
    18
420
        0
370
    25
100
AcDbSpline
210
0.0
220
0.0
230
1.0
 70
     8
 71
     3
 72
     8
 73
     4
 74
     0
 42
0.0000000001
 43
0.0000000001
 40
0.0
 40
0.0
 40
0.0
 40
0.0
 40
1.0
 40
1.0
 40
1.0
 40
1.0
 10
67.95132731207208
 20
-74.51507751548229
 30
0.0
 10
67.95132731207208
 20
-75.77754637672382
 30
0.0
 10
68.77057765376314
 20
-76.89399640059978
 30
0.0
 10
69.97489619106987
 20
-77.27273705897147
 30
0.0
  0
SPLINE
  5
164
330
70
100
AcDbEntity
  8
0
 62
    18
420
        0
370
    25
100
AcDbSpline
210
0.0
220
0.0
230
1.0
 70
     8
 71
     3
 72
    14
 73
    10
 74
     0
 42
0.0000000001
 43
0.0000000001
 40
0.0
 40
0.0
 40
0.0
 40
0.0
 40
1.0
 40
1.0
 40
1.0
 40
2.0
 40
2.0
 40
2.0
 40
3.0
 40
3.0
 40
3.0
 40
3.0
 10
71.70938380163602
 20
-77.27273705897147
 30
0.0
 10
73.23239711273064
 20
-76.79377153092848
 30
0.0
 10
74.07876506788544
 20
-75.17084702129351
 30
0.0
 10
73.59979953984212
 20
-73.64783371019889
 30
0.0
 10
73.12083401179913
 20
-72.12482039910428
 30
0.0
 10
71.49790950216416
 20
-71.27845244395011
 30
0.0
 10
69.97489619106987
 20
-71.75741797199311
 30
0.0
 10
68.77057765376314
 20
-72.1361586303648
 30
0.0
 10
67.95132731207208
 20
-73.25260865424076
 30
0.0
 10
67.95132731207208
 20
-74.51507751548229
 30
0.0
  0
SPLINE
  5
165
330
70
100
AcDbEntity
  8
0
 62
    18
420
        0
370
    25
100
AcDbSpline
210
0.0
220
0.0
230
1.0
 70
     8
 71
     3
 72
    14
 73
    10
 74
     0
 42
0.0000000001
 43
0.0000000001
 40
0.0
 40
0.0
 40
0.0
 40
0.0
 40
1.0
 40
1.0
 40
1.0
 40
2.0
 40
2.0
 40
2.0
 40
3.0
 40
3.0
 40
3.0
 40
3.0
 10
71.70938380163987
 20
-84.3055051251485
 30
0.0
 10
77.11648766478089
 20
-83.82653959710358
 30
0.0
 10
81.11153313406472
 20
-79.05493757333672
 30
0.0
 10
80.63256760601948
 20
-73.64783371019504
 30
0.0
 10
80.15360207797424
 20
-68.24072984705402
 30
0.0
 10
75.38200005420705
 20
-64.24568437777051
 30
0.0
 10
69.97489619106602
 20
-64.72464990581544
 30
0.0
 10
64.89286154078586
 20
-65.1748205464075
 30
0.0
 10
61.00021026748775
 20
-69.43858920146955
 30
0.0
 10
61.01340976364324
 20
-74.54050605355587
 30
0.0
  0
SPLINE
  5
166
330
70
100
AcDbEntity
  8
0
 62
    18
420
        0
370
    25
100
AcDbSpline
210
0.0
220
0.0
230
1.0
 70
     8
 71
     3
 72
     8
 73
     4
 74
     0
 42
0.0000000001
 43
0.0000000001
 40
0.0
 40
0.0
 40
0.0
 40
0.0
 40
1.0
 40
1.0
 40
1.0
 40
1.0
 10
61.01340976364324
 20
-74.54050605355587
 30
0.0
 10
61.02655877942146
 20
-79.6229110480958
 30
0.0
 10
64.91229736050134
 20
-83.85705612480828
 30
0.0
 10
69.97489619106602
 20
-84.3055051251485
 30
0.0
  0
LINE
  5
167
330
70
100
AcDbEntity
  8
0
 62
    18
420
        0
370
    25
100
AcDbLine
 10
70.27752491318217
 20
-89.25822192964663
 30
0.0
 11
69.97489618349462
 21
-89.25822192964663
 31
0.0
  0
LINE
  5
168
330
70
100
AcDbEntity
  8
0
 62
    18
420
        0
370
    25
100
AcDbLine
 10
71.70938380915321
 20
-89.25822192964663
 30
0.0
 11
70.27752491318217
 21
-89.25822192964663
 31
0.0
  0
SPLINE
  5
169
330
70
100
AcDbEntity
  8
0
 62
     8
420
  8421504
370
    25
100
AcDbSpline
210
0.0
220
0.0
230
1.0
 70
     8
 71
     3
 72
    11
 73
     7
 74
     0
 42
0.0000000001
 43
0.0000000001
 40
0.0
 40
0.0
 40
0.0
 40
0.0
 40
1.0
 40
1.0
 40
1.0
 40
2.0
 40
2.0
 40
2.0
 40
2.0
 10
71.70938380163505
 20
-85.40548866981655
 30
0.0
 10
77.72399180156118
 20
-84.92652314177419
 30
0.0
 10
82.21151667872987
 20
-79.6624417101263
 30
0.0
 10
81.7325511506872
 20
-73.64783371020017
 30
0.0
 10
81.31395762630226
 20
-68.39134694220155
 30
0.0
 10
77.20045980080766
 20
-64.18401707265568
 30
0.0
 10
71.95474931413222
 20
-63.64699270562538
 30
0.0
  0
SPLINE
  5
16A
330
70
100
AcDbEntity
  8
0
 62
     8
420
  8421504
370
    25
100
AcDbSpline
210
0.0
220
0.0
230
1.0
 70
     8
 71
     3
 72
    11
 73
     7
 74
     0
 42
0.0000000001
 43
0.0000000001
 40
0.0
 40
0.0
 40
0.0
 40
0.0
 40
1.0
 40
1.0
 40
1.0
 40
2.0
 40
2.0
 40
2.0
 40
2.0
 10
69.72953067857367
 20
-63.64699270562538
 30
0.0
 10
63.72725317822208
 20
-64.26146986435437
 30
0.0
 10
59.35957802776705
 20
-69.62540933290997
 30
0.0
 10
59.97405518649603
 20
-75.62768683326125
 30
0.0
 10
60.51107955352666
 20
-80.87339731993669
 30
0.0
 10
64.71840942307221
 20
-84.98689514543162
 30
0.0
 10
69.97489619107084
 20
-85.40548866981655
 30
0.0
  0
SPLINE
  5
16B
330
70
100
AcDbEntity
  8
0
 62
     8
420
  8421504
370
    25
100
AcDbSpline
210
0.0
220
0.0
230
1.0
 70
     8
 71
     3
 72
     8
 73
     4
 74
     0
 42
0.0000000001
 43
0.0000000001
 40
0.0
 40
0.0
 40
0.0
 40
0.0
 40
1.0
 40
1.0
 40
1.0
 40
1.0
 10
73.15075883486567
 20
-63.65950337052453
 30
0.0
 10
72.73946592371243
 20
-63.57577992443108
 30
0.0
 10
72.32237873449959
 20
-63.52359463303296
 30
0.0
 10
71.90313683887151
 20
-63.50340287379514
 30
0.0
  0
SPLINE
  5
16C
330
70
100
AcDbEntity
  8
0
 62
     8
420
  8421504
370
    25
100
AcDbSpline
210
0.0
220
0.0
230
1.0
 70
     8
 71
     3
 72
     8
 73
     4
 74
     0
 42
0.0000000001
 43
0.0000000001
 40
0.0
 40
0.0
 40
0.0
 40
0.0
 40
1.0
 40
1.0
 40
1.0
 40
1.0
 10
69.78114315381128
 20
-63.50340287378038
 30
0.0
 10
69.36349588408123
 20
-63.54012176262386
 30
0.0
 10
68.94734055198343
 20
-63.59219046152891
 30
0.0
 10
68.53352115780845
 20
-63.65950337050977
 30
0.0
  0
LINE
  5
16D
330
70
100
AcDbEntity
  8
0
 62
     8
420
  8421504
370
    25
100
AcDbLine
 10
73.26505792918819
 20
-63.80052495038343
 30
0.0
 11
73.26279291477735
 21
-63.80047541243424
 31
0.0
  0
LINE
  5
16E
330
70
100
AcDbEntity
  8
0
 62
     8
420
  8421504
370
    25
100
AcDbLine
 10
68.42148411640663
 20
-63.80047541243424
 30
0.0
 11
68.41922206345997
 21
-63.80052495038343
 31
0.0
  0
SPLINE
  5
16F
330
70
100
AcDbEntity
  8
0
 62
     8
420
  8421504
370
    25
100
AcDbSpline
210
0.0
220
0.0
230
1.0
 70
     8
 71
     3
 72
    11
 73
     7
 74
     0
 42
0.0000000001
 43
0.0000000001
 40
0.0
 40
0.0
 40
0.0
 40
0.0
 40
1.0
 40
1.0
 40
1.0
 40
2.0
 40
2.0
 40
2.0
 40
2.0
 10
68.43975754311049
 20
-63.77749347953813
 30
0.0
 10
62.50955363003232
 20
-65.10429267172527
 30
0.0
 10
58.77775676822229
 20
-70.98725605564625
 30
0.0
 10
60.10455596040912
 20
-76.91745996872476
 30
0.0
 10
61.15875885442735
 20
-81.62927933378007
 30
0.0
 10
65.1616063105717
 20
-85.10333869926403
 30
0.0
 10
69.97489619107565
 20
-85.48389880871221
 30
0.0
  0
SPLINE
  5
170
330
70
100
AcDbEntity
  8
0
 62
     8
420
  8421504
370
    25
100
AcDbSpline
210
0.0
220
0.0
230
1.0
 70
     8
 71
     3
 72
    11
 73
     7
 74
     0
 42
0.0000000001
 43
0.0000000001
 40
0.0
 40
0.0
 40
0.0
 40
0.0
 40
1.0
 40
1.0
 40
1.0
 40
2.0
 40
2.0
 40
2.0
 40
2.0
 10
71.70938380163025
 20
-85.48389880871221
 30
0.0
 10
77.76729652550007
 20
-85.00493328067243
 30
0.0
 10
82.28992681762266
 20
-79.70574643407513
 30
0.0
 10
81.81096128958287
 20
-73.64783371020532
 30
0.0
 10
81.43107489404902
 20
-68.84306490242316
 30
0.0
 10
77.96835405341283
 20
-64.8447961047208
 30
0.0
 10
73.26709973466086
 20
-63.78256976341474
 30
0.0
  0
SPLINE
  5
171
330
70
100
AcDbEntity
  8
0
 62
     8
420
  8421504
370
    25
100
AcDbSpline
210
0.0
220
0.0
230
1.0
 70
     8
 71
     3
 72
    11
 73
     7
 74
     0
 42
0.0000000001
 43
0.0000000001
 40
0.0
 40
0.0
 40
0.0
 40
0.0
 40
1.0
 40
1.0
 40
1.0
 40
2.0
 40
2.0
 40
2.0
 40
2.0
 10
69.13106456789984
 20
-70.56078876166726
 30
0.0
 10
66.94717119274061
 20
-71.50578962661196
 30
0.0
 10
65.9428503775932
 20
-74.04225956877552
 30
0.0
 10
66.8878512425379
 20
-76.22615294393508
 30
0.0
 10
67.44600171826663
 20
-77.51603655304363
 30
0.0
 10
68.59819622176916
 20
-78.45261820549608
 30
0.0
 10
69.97489619107051
 20
-78.73551195432904
 30
0.0
  0
SPLINE
  5
172
330
70
100
AcDbEntity
  8
0
 62
     8
420
  8421504
370
    25
100
AcDbSpline
210
0.0
220
0.0
230
1.0
 70
     8
 71
     3
 72
    14
 73
    10
 74
     0
 42
0.0000000001
 43
0.0000000001
 40
0.0
 40
0.0
 40
0.0
 40
0.0
 40
1.0
 40
1.0
 40
1.0
 40
2.0
 40
2.0
 40
2.0
 40
3.0
 40
3.0
 40
3.0
 40
3.0
 10
71.70938380163538
 20
-78.73551195432904
 30
0.0
 10
74.04026537987099
 20
-78.25654642628603
 30
0.0
 10
75.54153996324237
 20
-75.97871528843514
 30
0.0
 10
75.06257443519938
 20
-73.64783371019953
 30
0.0
 10
74.5836089071567
 20
-71.31695213196393
 30
0.0
 10
72.30577776930612
 20
-69.81567754859319
 30
0.0
 10
69.97489619107051
 20
-70.29464307663554
 30
0.0
 10
69.68523097177116
 20
-70.35416547194421
 30
0.0
 10
69.40246314917001
 20
-70.44335084232483
 30
0.0
 10
69.13106456789984
 20
-70.56078876166726
 30
0.0
  0
LWPOLYLINE
  5
173
330
70
100
AcDbEntity
  8
0
 62
     8
420
  8421504
370
    25
100
AcDbPolyline
 90
        3
 70
     0
 43
0.0
 10
72.60776719526404
 20
-78.59543516116177
 10
72.10306097616832
 20
-78.77850744845571
 10
71.70938380915321
 20
-78.87565591717127
  0
SPLINE
  5
174
330
70
100
AcDbEntity
  8
0
 62
     8
420
  8421504
370
    25
100
AcDbSpline
210
0.0
220
0.0
230
1.0
 70
     8
 71
     3
 72
    17
 73
    13
 74
     0
 42
0.0000000001
 43
0.0000000001
 40
0.0
 40
0.0
 40
0.0
 40
0.0
 40
1.0
 40
1.0
 40
1.0
 40
2.0
 40
2.0
 40
2.0
 40
3.0
 40
3.0
 40
3.0
 40
4.0
 40
4.0
 40
4.0
 40
4.0
 10
72.6077671326557
 20
-78.59543505695241
 30
0.0
 10
74.8612863766667
 20
-77.62030611568519
 30
0.0
 10
75.89762647909029
 20
-75.00296962319051
 30
0.0
 10
74.92249753782307
 20
-72.74945037917952
 30
0.0
 10
73.94736859655553
 20
-70.49593113516853
 30
0.0
 10
71.33003210406117
 20
-69.45959103274495
 30
0.0
 10
69.07651286005019
 20
-70.43471997401216
 30
0.0
 10
66.8229936160392
 20
-71.40984891527939
 30
0.0
 10
65.78665351361561
 20
-74.02718540777406
 30
0.0
 10
66.76178245488282
 20
-76.28070465178506
 30
0.0
 10
67.34168680717651
 20
-77.62086138621765
 30
0.0
 10
68.54270339649248
 20
-78.5908176083438
 30
0.0
 10
69.97489619106731
 20
-78.87565603591639
 30
0.0
  0
SPLINE
  5
175
330
70
100
AcDbEntity
  8
0
 62
     8
420
  8421504
370
    25
100
AcDbSpline
210
0.0
220
0.0
230
1.0
 70
     8
 71
     3
 72
    14
 73
    10
 74
     0
 42
0.0000000001
 43
0.0000000001
 40
0.0
 40
0.0
 40
0.0
 40
0.0
 40
1.0
 40
1.0
 40
1.0
 40
2.0
 40
2.0
 40
2.0
 40
3.0
 40
3.0
 40
3.0
 40
3.0
 10
80.53619936259119
 20
-74.48999739304025
 30
0.0
 10
80.52234799344249
 20
-69.13611624111286
 30
0.0
 10
76.17094102583894
 20
-64.80716678009568
 30
0.0
 10
70.81705987391123
 20
-64.82101814924405
 30
0.0
 10
65.46317872198352
 20
-64.83486951839243
 30
0.0
 10
61.13422926096633
 20
-69.1862764859963
 30
0.0
 10
61.14808063011471
 20
-74.54015763792368
 30
0.0
 10
61.16103764707556
 20
-79.54835055720193
 30
0.0
 10
64.98676782954529
 20
-83.7222593317524
 30
0.0
 10
69.97489619107181
 20
-84.17029911785329
 30
0.0
  0
SPLINE
  5
176
330
70
100
AcDbEntity
  8
0
 62
     8
420
  8421504
370
    25
100
AcDbSpline
210
0.0
220
0.0
230
1.0
 70
     8
 71
     3
 72
     8
 73
     4
 74
     0
 42
0.0000000001
 43
0.0000000001
 40
0.0
 40
0.0
 40
0.0
 40
0.0
 40
1.0
 40
1.0
 40
1.0
 40
1.0
 10
71.7093838016341
 20
-84.17029911785329
 30
0.0
 10
76.71667499364215
 20
-83.72053810289701
 30
0.0
 10
80.54920615636214
 20
-79.51743022456135
 30
0.0
 10
80.53619936259119
 20
-74.48999739304025
 30
0.0
  0
SPLINE
  5
177
330
70
100
AcDbEntity
  8
0
 62
     8
420
  8421504
370
    25
100
AcDbSpline
210
0.0
220
0.0
230
1.0
 70
     8
 71
     3
 72
    11
 73
     7
 74
     0
 42
0.0000000001
 43
0.0000000001
 40
0.0
 40
0.0
 40
0.0
 40
0.0
 40
1.0
 40
1.0
 40
1.0
 40
2.0
 40
2.0
 40
2.0
 40
2.0
 10
71.70938380164308
 20
-85.12739816019211
 30
0.0
 10
77.57040665403092
 20
-84.64843263214525
 30
0.0
 10
81.9334261691096
 20
-79.50885656257966
 30
0.0
 10
81.45446064106277
 20
-73.64783371019247
 30
0.0
 10
81.0028833533185
 20
-68.12195627621282
 30
0.0
 10
76.38643828037124
 20
-63.86738005152576
 30
0.0
 10
70.84213999635295
 20
-63.86738005152576
 30
0.0
  0
SPLINE
  5
178
330
70
100
AcDbEntity
  8
0
 62
     8
420
  8421504
370
    25
100
AcDbSpline
210
0.0
220
0.0
230
1.0
 70
     8
 71
     3
 72
    11
 73
     7
 74
     0
 42
0.0000000001
 43
0.0000000001
 40
0.0
 40
0.0
 40
0.0
 40
0.0
 40
1.0
 40
1.0
 40
1.0
 40
2.0
 40
2.0
 40
2.0
 40
2.0
 10
70.84213999635295
 20
-63.86738005152576
 30
0.0
 10
64.96157906619782
 20
-63.86738005152576
 30
0.0
 10
60.19444253239642
 20
-68.63451658532683
 30
0.0
 10
60.19444253239642
 20
-74.51507751548229
 30
0.0
 10
60.19444253239642
 20
-80.0593757995009
 30
0.0
 10
64.44901875708346
 20
-84.67582087244784
 30
0.0
 10
69.97489619106281
 20
-85.12739816019211
 30
0.0
  0
SPLINE
  5
179
330
70
100
AcDbEntity
  8
0
 62
    18
420
        0
370
    25
100
AcDbSpline
210
0.0
220
0.0
230
1.0
 70
     8
 71
     3
 72
     8
 73
     4
 74
     0
 42
0.0000000001
 43
0.0000000001
 40
0.0
 40
0.0
 40
0.0
 40
0.0
 40
1.0
 40
1.0
 40
1.0
 40
1.0
 10
135.6005888355378
 20
-51.50774938203646
 30
0.0
 10
135.5831249610822
 20
-51.51818611522596
 30
0.0
 10
135.5724318449575
 20
-51.53703364438313
 30
0.0
 10
135.5724318449575
 20
-51.55737847937131
 30
0.0
  0
LINE
  5
17A
330
70
100
AcDbEntity
  8
0
 62
    18
420
        0
370
    25
100
AcDbLine
 10
136.3710727533383
 20
-51.04729316663934
 30
0.0
 11
135.6005895346927
 21
-51.50774875067647
 31
0.0
  0
LINE
  5
17B
330
70
100
AcDbEntity
  8
0
 62
    18
420
        0
370
    25
100
AcDbLine
 10
135.5724326239737
 20
-51.55737790091941
 30
0.0
 11
135.5724326239737
 21
-59.29514702919598
 31
0.0
  0
SPLINE
  5
17C
330
70
100
AcDbEntity
  8
0
 62
    18
420
        0
370
    25
100
AcDbSpline
210
0.0
220
0.0
230
1.0
 70
     8
 71
     3
 72
     8
 73
     4
 74
     0
 42
0.0000000001
 43
0.0000000001
 40
0.0
 40
0.0
 40
0.0
 40
0.0
 40
1.0
 40
1.0
 40
1.0
 40
1.0
 10
144.7045268957982
 20
-75.63626120470345
 30
0.0
 10
144.7221440044481
 20
-75.6464313450499
 30
0.0
 10
144.7438095545968
 20
-75.6465950815107
 30
0.0
 10
144.761578362969
 20
-75.63669236870568
 30
0.0
  0
LINE
  5
17D
330
70
100
AcDbEntity
  8
0
 62
    18
420
        0
370
    25
100
AcDbLine
 10
144.7615789438004
 20
-75.63669171213847
 30
0.0
 11
145.5456285148191
 21
-75.19973417908055
 31
0.0
  0
LINE
  5
17E
330
70
100
AcDbEntity
  8
0
 62
    18
420
        0
370
    25
100
AcDbLine
 10
137.1008706219998
 20
-71.24676376645401
 30
0.0
 11
144.7045264756657
 21
-75.63626085766812
 31
0.0
  0
LWPOLYLINE
  5
17F
330
70
100
AcDbEntity
  8
0
 62
    18
420
        0
370
    25
100
AcDbPolyline
 90
        3
 70
     0
 43
0.0
 10
137.8342775797568
 20
-67.2231463809079
 10
137.8224104958187
 20
-66.17426579803201
 10
137.7665398625024
 20
-65.12241163792658
  0
SPLINE
  5
180
330
70
100
AcDbEntity
  8
0
 62
    18
420
        0
370
    25
100
AcDbSpline
210
0.0
220
0.0
230
1.0
 70
     8
 71
     3
 72
     8
 73
     4
 74
     0
 42
0.0000000001
 43
0.0000000001
 40
0.0
 40
0.0
 40
0.0
 40
0.0
 40
1.0
 40
1.0
 40
1.0
 40
1.0
 10
115.9431735073386
 20
-65.12205065993838
 30
0.0
 10
115.8846141589281
 20
-65.82085593998337
 30
0.0
 10
115.8615812322152
 20
-66.522184280323
 30
0.0
 10
115.8741637184727
 20
-67.22332599049645
 30
0.0
  0
LINE
  5
181
330
70
100
AcDbEntity
  8
0
 62
    18
420
        0
370
    25
100
AcDbLine
 10
137.8570644521951
 20
-68.86496793897321
 30
0.0
 11
137.8391008670717
 21
-67.18422865308681
 31
0.0
  0
LINE
  5
182
330
70
100
AcDbEntity
  8
0
 62
    18
420
        0
370
    25
100
AcDbLine
 10
115.869343096338
 20
-67.18422865308681
 30
0.0
 11
115.8513795112146
 21
-68.86496793897321
 31
0.0
  0
SPLINE
  5
183
330
70
100
AcDbEntity
  8
0
 62
    18
420
        0
370
    25
100
AcDbSpline
210
0.0
220
0.0
230
1.0
 70
     8
 71
     3
 72
     8
 73
     4
 74
     0
 42
0.0000000001
 43
0.0000000001
 40
0.0
 40
0.0
 40
0.0
 40
0.0
 40
1.0
 40
1.0
 40
1.0
 40
1.0
 10
116.4913781108093
 20
-71.05436736273678
 30
0.0
 10
117.1482038631094
 20
-72.06208399463072
 30
0.0
 10
118.0461558326314
 20
-72.88993160643648
 30
0.0
 10
119.1038267108399
 20
-73.46285847128768
 30
0.0
  0
LWPOLYLINE
  5
184
330
70
100
AcDbEntity
  8
0
 62
    18
420
        0
370
    25
100
AcDbPolyline
 90
       30
 70
     0
 43
0.0
 10
119.1038267108803
 20
-73.46285847127614
 10
119.4056065405881
 20
-73.63056555001666
 10
120.0075991218986
 20
-73.93000282406146
 10
120.644907181597
 20
-74.2033114181647
 10
121.3141550514548
 20
-74.44911057334309
 10
122.0118733762236
 20
-74.66619139873703
 10
122.7344616334427
 20
-74.85348732247345
 10
123.4781976526498
 20
-75.01007870707987
 10
124.2392577944141
 20
-75.13519482841932
 10
125.0137327516885
 20
-75.2282212391092
 10
125.7976467771832
 20
-75.28869943868288
 10
126.5869765303697
 20
-75.31633203935226
 10
127.3776720186953
 20
-75.31098518394326
 10
128.1656763958982
 20
-75.27268282995134
 10
128.9469373849322
 20
-75.20161730175728
 10
129.7174491595456
 20
-75.09814181619835
 10
130.4732603402087
 20
-74.96276410821417
 10
131.2104936024958
 20
-74.79615049781476
 10
131.9253681409562
 20
-74.59911995494953
 10
132.6142124241881
 20
-74.37263233962866
 10
133.273486658824
 20
-74.11779301837281
 10
133.8997917370592
 20
-73.83583626811827
 10
134.4898864772827
 20
-73.52812763269179
 10
135.0406978447809
 20
-73.19615802213893
 10
135.5493278288025
 20
-72.841537983945
 10
136.0130473271069
 20
-72.46601618012808
 10
136.4293198113675
 20
-72.07148682720418
 10
136.7958336788352
 20
-71.65998157138746
 10
137.1105177677957
 20
-71.23369570276915
 10
137.2218822864894
 20
-71.04655960813416
  0
LINE
  5
185
330
70
100
AcDbEntity
  8
0
 62
    18
420
        0
370
    25
100
AcDbLine
 10
138.984726508933
 20
-57.46170106874967
 30
0.0
 11
135.6698092096667
 21
-59.37536209216197
 31
0.0
  0
LINE
  5
186
330
70
100
AcDbEntity
  8
0
 62
    18
420
        0
370
    25
100
AcDbLine
 10
137.6405323376223
 20
-63.57837883878333
 30
0.0
 11
141.2971887583318
 21
-61.46743601977665
 31
0.0
  0
SPLINE
  5
187
330
70
100
AcDbEntity
  8
0
 62
    18
420
        0
370
    25
100
AcDbSpline
210
0.0
220
0.0
230
1.0
 70
     8
 71
     3
 72
     8
 73
     4
 74
     0
 42
0.0000000001
 43
0.0000000001
 40
0.0
 40
0.0
 40
0.0
 40
0.0
 40
1.0
 40
1.0
 40
1.0
 40
1.0
 10
131.0009182841505
 20
-58.16732951275144
 30
0.0
 10
130.578345502733
 20
-57.57728664497566
 30
0.0
 10
129.9776415189384
 20
-57.13835835612246
 30
0.0
 10
129.2870949835691
 20
-56.91505626500386
 30
0.0
  0
SPLINE
  5
188
330
70
100
AcDbEntity
  8
0
 62
    18
420
        0
370
    25
100
AcDbSpline
210
0.0
220
0.0
230
1.0
 70
     8
 71
     3
 72
     8
 73
     4
 74
     0
 42
0.0000000001
 43
0.0000000001
 40
0.0
 40
0.0
 40
0.0
 40
0.0
 40
1.0
 40
1.0
 40
1.0
 40
1.0
 10
124.4242353658641
 20
-56.914630320341
 30
0.0
 10
123.7135676731042
 20
-57.12149371073957
 30
0.0
 10
123.0993095448538
 20
-57.57372208779728
 30
0.0
 10
122.6907109944709
 20
-58.19088353867133
 30
0.0
  0
LINE
  5
189
330
70
100
AcDbEntity
  8
0
 62
    18
420
        0
370
    25
100
AcDbLine
 10
131.3341396468929
 20
-62.27992453706299
 30
0.0
 11
131.3001194418201
 21
-59.09685122069223
 31
0.0
  0
LINE
  5
18A
330
70
100
AcDbEntity
  8
0
 62
    18
420
        0
370
    25
100
AcDbLine
 10
122.4083245215889
 20
-59.09685122069223
 30
0.0
 11
122.3743043165168
 21
-62.27992453706299
 31
0.0
  0
LINE
  5
18B
330
70
100
AcDbEntity
  8
0
 62
    18
420
        0
370
    25
100
AcDbLine
 10
129.2000565972483
 20
-58.70540176284403
 30
0.0
 11
129.1819759328235
 21
-57.01368894437633
 31
0.0
  0
LINE
  5
18C
330
70
100
AcDbEntity
  8
0
 62
    18
420
        0
370
    25
100
AcDbLine
 10
124.5264680305855
 20
-57.01368894437633
 30
0.0
 11
124.5083873661608
 21
-58.70540176284403
 31
0.0
  0
LINE
  5
18D
330
70
100
AcDbEntity
  8
0
 62
    18
420
        0
370
    25
100
AcDbLine
 10
129.7449796482697
 20
-56.01382710762558
 30
0.0
 11
129.6861009330422
 21
-50.50486929828744
 31
0.0
  0
LINE
  5
18E
330
70
100
AcDbEntity
  8
0
 62
    18
420
        0
370
    25
100
AcDbLine
 10
124.0223430303675
 20
-50.50486929828744
 30
0.0
 11
123.9993302805218
 21
-52.658043431407
 31
0.0
  0
LINE
  5
18F
330
70
100
AcDbEntity
  8
0
 62
    18
420
        0
370
    25
100
AcDbLine
 10
123.9777923493611
 20
-54.67323633467361
 30
0.0
 11
123.9634643151393
 21
-56.01382710762558
 31
0.0
  0
LWPOLYLINE
  5
190
330
70
100
AcDbEntity
  8
0
 62
    18
420
        0
370
    25
100
AcDbPolyline
 90
       14
 70
     0
 43
0.0
 10
136.0832841644151
 20
-60.67515789713218
 10
135.9810291784685
 20
-60.50734562137044
 10
135.6770406187618
 20
-60.10789881857456
 10
135.3215883675738
 20
-59.72309054218905
 10
134.9167551994181
 20
-59.35528015985915
 10
134.4649829796072
 20
-59.00670815340406
 10
133.9690116856774
 20
-58.67944421195949
 10
133.4318324681093
 20
-58.37538563532452
 10
132.8566789411733
 20
-58.09627516588337
 10
132.2469403966906
 20
-57.84366143719955
 10
131.6061718339332
 20
-57.61893465826355
 10
130.9380879038396
 20
-57.42332399528695
 10
130.2465466080054
 20
-57.25789783302853
 10
129.8848731614095
 20
-57.18956726490233
  0
SPLINE
  5
191
330
70
100
AcDbEntity
  8
0
 62
    18
420
        0
370
    25
100
AcDbSpline
210
0.0
220
0.0
230
1.0
 70
     8
 71
     3
 72
     8
 73
     4
 74
     0
 42
0.0000000001
 43
0.0000000001
 40
0.0
 40
0.0
 40
0.0
 40
0.0
 40
1.0
 40
1.0
 40
1.0
 40
1.0
 10
123.8205322604363
 20
-57.18896292406594
 30
0.0
 10
122.44964376805
 20
-57.42477290049883
 30
0.0
 10
121.1291719801474
 20
-57.89326434484198
 30
0.0
 10
119.9162041027864
 20
-58.57418323284046
 30
0.0
  0
SPLINE
  5
192
330
70
100
AcDbEntity
  8
0
 62
    18
420
        0
370
    25
100
AcDbSpline
210
0.0
220
0.0
230
1.0
 70
     8
 71
     3
 72
     8
 73
     4
 74
     0
 42
0.0000000001
 43
0.0000000001
 40
0.0
 40
0.0
 40
0.0
 40
0.0
 40
1.0
 40
1.0
 40
1.0
 40
1.0
 10
119.9162041027415
 20
-58.57418323284303
 30
0.0
 10
118.9749222296753
 20
-59.06468197564603
 30
0.0
 10
118.1802001773071
 20
-59.79553127654887
 30
0.0
 10
117.6127366358716
 20
-60.69251829451318
 30
0.0
  0
LINE
  5
193
330
70
100
AcDbEntity
  8
0
 62
    18
420
        0
370
    25
100
AcDbLine
 10
136.6829850131521
 20
-62.83878893702612
 30
0.0
 11
136.6829850131521
 21
-62.64209764941478
 31
0.0
  0
LINE
  5
194
330
70
100
AcDbEntity
  8
0
 62
    18
420
        0
370
    25
100
AcDbLine
 10
117.0254589502576
 20
-62.64209764941478
 30
0.0
 11
117.0254589502576
 21
-62.83878893702612
 31
0.0
  0
LWPOLYLINE
  5
195
330
70
100
AcDbEntity
  8
0
 62
    18
420
        0
370
    25
100
AcDbPolyline
 90
       17
 70
     0
 43
0.0
 10
137.0651250675219
 20
-60.97400709581212
 10
136.9508486052289
 20
-60.77574291800289
 10
136.6474572452173
 20
-60.35380015571402
 10
136.2920857121098
 20
-59.94578012929071
 10
135.8866097499572
 20
-59.55395258714014
 10
135.4332410155904
 20
-59.18048754011913
 10
134.9344738698032
 20
-58.82741839275045
 10
134.4555453867987
 20
-58.53240838092899
 10
134.1565819334886
 20
-58.36632803857136
 10
133.5599631026666
 20
-58.07000175353088
 10
132.928081526795
 20
-57.79983371236854
 10
132.2643504726478
 20
-57.55721670840473
 10
131.5722768942497
 20
-57.34336639098888
 10
130.8555022440381
 20
-57.1593492216218
 10
130.1177896228557
 20
-57.00609088281321
 10
129.3630056942144
 20
-56.88435528436006
 10
129.3023441369837
 20
-56.87727882213141
  0
LWPOLYLINE
  5
196
330
70
100
AcDbEntity
  8
0
 62
    18
420
        0
370
    25
100
AcDbPolyline
 90
       16
 70
     0
 43
0.0
 10
124.4089542774273
 20
-56.87966563099008
 10
123.9393180851565
 20
-56.94559157787877
 10
123.1932524730376
 20
-57.08428299472503
 10
122.4663446551004
 20
-57.2540988765692
 10
121.7623942837384
 20
-57.45419354871166
 10
121.0850877393589
 20
-57.68357044423931
 10
120.4379750003574
 20
-57.94109457967714
 10
119.8244584108027
 20
-58.22549376305664
 10
119.2477791203903
 20
-58.53536554308321
 10
118.711005548018
 20
-58.86918474941881
 10
118.2170244240208
 20
-59.2252954741988
 10
117.7685576010025
 20
-59.60190048998485
 10
117.3681168111713
 20
-59.99705747210764
 10
117.0179816745952
 20
-60.40867410978018
 10
116.720179662403
 20
-60.83448801790242
 10
116.6912521223073
 20
-60.88641634369428
  0
LINE
  5
197
330
70
100
AcDbEntity
  8
0
 62
    18
420
        0
370
    25
100
AcDbLine
 10
116.0621950136971
 20
-63.0434909404601
 30
0.0
 11
116.0848992642802
 21
-65.16783050479613
 31
0.0
  0
LINE
  5
198
330
70
100
AcDbEntity
  8
0
 62
    18
420
        0
370
    25
100
AcDbLine
 10
137.6235446991288
 20
-65.16783050479613
 30
0.0
 11
137.646248949712
 21
-63.0434909404601
 31
0.0
  0
LWPOLYLINE
  5
199
330
70
100
AcDbEntity
  8
0
 62
    18
420
        0
370
    25
100
AcDbPolyline
 90
       36
 70
     0
 43
0.0
 10
116.7789435827648
 20
-67.34304032446788
 10
116.8487620756532
 20
-67.45734298452008
 10
117.16485111646
 20
-67.87562153083975
 10
117.5324900876471
 20
-68.27940542458908
 10
117.9497116758959
 20
-68.66644503065304
 10
118.4142275991654
 20
-69.03459731870737
 10
118.9234739630193
 20
-69.38186787152137
 10
119.4746538805158
 20
-69.70641086813514
 10
120.0647463957384
 20
-70.00653159857989
 10
120.6905695450301
 20
-70.28069121561763
 10
121.3487867342349
 20
-70.5275069004471
 10
122.0359102369915
 20
-70.74574069456538
 10
122.7483144969208
 20
-70.93429311043981
 10
123.4822503105304
 20
-71.0922236307783
 10
124.2338622462146
 20
-71.2187396616354
 10
124.9992069200836
 20
-71.31320356645533
 10
125.774269748805
 20
-71.375141459172
 10
126.5549877943624
 20
-71.40424584161118
 10
127.3372688012752
 20
-71.40036637081532
 10
128.1170121376441
 20
-71.3635272253105
 10
128.8901221213338
 20
-71.29391237612693
 10
129.6525499018958
 20
-71.19187482040143
 10
130.4002987910518
 20
-71.05792910723917
 10
131.1294537704929
 20
-70.89274529261938
 10
131.836192914228
 20
-70.69715289703499
 10
132.5168090911348
 20
-70.47212441872223
 10
133.1677282407301
 20
-70.21877973070624
 10
133.7855228420464
 20
-69.93837039120123
 10
134.3669245378103
 20
-69.63228202778033
 10
134.908837448488
 20
-69.30202753014878
 10
135.4083451923864
 20
-68.9492412380479
 10
135.862702057176
 20
-68.57570426095829
 10
136.2693601397593
 20
-68.18334111943996
 10
136.6260056481773
 20
-67.77422428723284
 10
136.9305716088068
 20
-67.35059675133317
 10
136.9588376031865
 20
-67.30147517090663
  0
LINE
  5
19A
330
70
100
AcDbEntity
  8
0
 62
    18
420
        0
370
    25
100
AcDbLine
 10
117.6899985180544
 20
-72.4589028080605
 30
0.0
 11
117.8887085897291
 21
-89.00849932024696
 31
0.0
  0
LINE
  5
19B
330
70
100
AcDbEntity
  8
0
 62
    18
420
        0
370
    25
100
AcDbLine
 10
135.8197353736799
 20
-89.00849932024696
 30
0.0
 11
136.0184214583737
 21
-72.46092507555378
 31
0.0
  0
LWPOLYLINE
  5
19C
330
70
100
AcDbEntity
  8
0
 62
    18
420
        0
370
    25
100
AcDbPolyline
 90
       41
 70
     0
 43
0.0
 10
117.8937805040479
 20
-89.00199834591683
 10
117.8912382645747
 20
-89.10378375588312
 10
117.9373020292584
 20
-89.53398259073971
 10
118.0394218504594
 20
-89.95899533279015
 10
118.1968880180533
 20
-90.37688975902094
 10
118.4091337919704
 20
-90.78579271959778
 10
118.6754635497107
 20
-91.18352506077249
 10
118.9947337213915
 20
-91.56755677797338
 10
119.3651510895939
 20
-91.93514810133967
 10
119.7842531811534
 20
-92.28357308799949
 10
120.2490370542554
 20
-92.61031049942443
 10
120.7561297772875
 20
-92.91314225597398
 10
121.301885424047
 20
-93.19014444705189
 10
121.8824879701397
 20
-93.43967806251892
 10
122.494113776249
 20
-93.66039039370088
 10
123.1328305952256
 20
-93.85111604785231
 10
123.7945992857054
 20
-94.01086095208247
 10
124.4752801894114
 20
-94.13879591140286
 10
125.1706422689585
 20
-94.23425636255339
 10
125.8763804320891
 20
-94.29674606989896
 10
126.5881339975455
 20
-94.32594023097806
 10
127.3015103013919
 20
-94.32168814847662
 10
128.012104876734
 20
-94.28401529820201
 10
128.7155006918779
 20
-94.21312594584568
 10
129.4073669542573
 20
-94.10939743895742
 10
130.083442547522
 20
-93.97337184012718
 10
130.7395634457546
 20
-93.8057494084864
 10
131.3716783235659
 20
-93.60737874146337
 10
131.975864643005
 20
-93.37924746035033
 10
132.5483362205538
 20
-93.12247367772373
 10
133.0854425892378
 20
-92.83830303320732
 10
133.5836594339684
 20
-92.52811695477488
 10
134.0395739772684
 20
-92.19346103577903
 10
134.4497458673574
 20
-91.83622104075217
 10
134.8109536618465
 20
-91.45856810010613
 10
135.1201944189763
 20
-91.06310621761025
 10
135.3748465137998
 20
-90.65293848323799
 10
135.5729043680061
 20
-90.23161019267135
 10
135.7131844333338
 20
-89.80288407597749
 10
135.7953691678264
 20
-89.3703930140451
 10
135.8102334824332
 20
-89.10709466719087
  0
LINE
  5
19D
330
70
100
AcDbEntity
  8
0
 62
    18
420
        0
370
    25
100
AcDbLine
 10
124.4579548769382
 20
-52.39328493512325
 30
0.0
 11
115.9956579305634
 21
-57.27846497829546
 31
0.0
  0
LINE
  5
19E
330
70
100
AcDbEntity
  8
0
 62
    18
420
        0
370
    25
100
AcDbLine
 10
116.8628312503184
 20
-58.78061623073103
 30
0.0
 11
125.3173775455477
 21
-53.89991054320198
 31
0.0
  0
SPLINE
  5
19F
330
70
100
AcDbEntity
  8
0
 62
    18
420
        0
370
    25
100
AcDbSpline
210
0.0
220
0.0
230
1.0
 70
     8
 71
     3
 72
     8
 73
     4
 74
     0
 42
0.0000000001
 43
0.0000000001
 40
0.0
 40
0.0
 40
0.0
 40
0.0
 40
1.0
 40
1.0
 40
1.0
 40
1.0
 10
144.7330763159515
 20
-56.76553362423476
 30
0.0
 10
144.708961248119
 20
-56.78114461601159
 30
0.0
 10
144.6938679060832
 20
-56.80743900844401
 30
0.0
 10
144.6925497368983
 20
-56.83613573283658
 30
0.0
  0
SPLINE
  5
1A0
330
70
100
AcDbEntity
  8
0
 62
    18
420
        0
370
    25
100
AcDbSpline
210
0.0
220
0.0
230
1.0
 70
     8
 71
     3
 72
     8
 73
     4
 74
     0
 42
0.0000000001
 43
0.0000000001
 40
0.0
 40
0.0
 40
0.0
 40
0.0
 40
1.0
 40
1.0
 40
1.0
 40
1.0
 10
144.7739573693193
 20
-56.83634036648535
 30
0.0
 10
144.7724186210814
 20
-56.80756426884409
 30
0.0
 10
144.7572280270715
 20
-56.78125387841891
 30
0.0
 10
144.7330763159605
 20
-56.76553362422257
 30
0.0
  0
SPLINE
  5
1A1
330
70
100
AcDbEntity
  8
0
 62
    18
420
        0
370
    25
100
AcDbSpline
210
0.0
220
0.0
230
1.0
 70
     8
 71
     3
 72
     8
 73
     4
 74
     0
 42
0.0000000001
 43
0.0000000001
 40
0.0
 40
0.0
 40
0.0
 40
0.0
 40
1.0
 40
1.0
 40
1.0
 40
1.0
 10
144.6925497369451
 20
-56.83613573282823
 30
0.0
 10
144.7180617232321
 20
-56.84934062551671
 30
0.0
 10
144.7483793198403
 20
-56.84941683459686
 30
0.0
 10
144.7739573693565
 20
-56.8363403664892
 30
0.0
  0
LINE
  5
1A2
330
70
100
AcDbEntity
  8
0
 62
    18
420
        0
370
    25
100
AcDbLine
 10
145.5578580687411
 20
-56.38380285250296
 30
0.0
 11
144.7739573693142
 21
-56.83634036646417
 31
0.0
  0
LINE
  5
1A3
330
70
100
AcDbEntity
  8
0
 62
    18
420
        0
370
    25
100
AcDbLine
 10
144.7330763159939
 20
-56.76553362422577
 30
0.0
 11
145.5169770153631
 21
-56.31299611026456
 31
0.0
  0
SPLINE
  5
1A4
330
70
100
AcDbEntity
  8
0
 62
    18
420
        0
370
    25
100
AcDbSpline
210
0.0
220
0.0
230
1.0
 70
     8
 71
     3
 72
     8
 73
     4
 74
     0
 42
0.0000000001
 43
0.0000000001
 40
0.0
 40
0.0
 40
0.0
 40
0.0
 40
1.0
 40
1.0
 40
1.0
 40
1.0
 10
145.5578580687001
 20
-56.38380285252029
 30
0.0
 10
145.5565455500108
 20
-56.35496009994358
 30
0.0
 10
145.5412995634708
 20
-56.32855376862849
 30
0.0
 10
145.5169770153413
 20
-56.31299611025751
 30
0.0
  0
LINE
  5
1A5
330
70
100
AcDbEntity
  8
0
 62
    18
420
        0
370
    25
100
AcDbLine
 10
144.6925497369002
 20
-75.60979065104543
 30
0.0
 11
144.6925497369002
 21
-56.83613573283015
 31
0.0
  0
LINE
  5
1A6
330
70
100
AcDbEntity
  8
0
 62
    18
420
        0
370
    25
100
AcDbLine
 10
144.7739573693142
 20
-56.83634036646417
 30
0.0
 11
144.7739573693142
 21
-75.60999528467944
 31
0.0
  0
SPLINE
  5
1A7
330
70
100
AcDbEntity
  8
0
 62
    18
420
        0
370
    25
100
AcDbSpline
210
0.0
220
0.0
230
1.0
 70
     8
 71
     3
 72
     8
 73
     4
 74
     0
 42
0.0000000001
 43
0.0000000001
 40
0.0
 40
0.0
 40
0.0
 40
0.0
 40
1.0
 40
1.0
 40
1.0
 40
1.0
 10
144.6925497369451
 20
-75.6097906510435
 30
0.0
 10
144.7180617232321
 20
-75.62299554373197
 30
0.0
 10
144.7483793198403
 20
-75.62307175281212
 30
0.0
 10
144.7739573693565
 20
-75.60999528470446
 30
0.0
  0
LINE
  5
1A8
330
70
100
AcDbEntity
  8
0
 62
    18
420
        0
370
    25
100
AcDbLine
 10
135.6298921093422
 20
-51.51037724090023
 30
0.0
 11
144.7330763159939
 21
-56.76553362422577
 31
0.0
  0
LINE
  5
1A9
330
70
100
AcDbEntity
  8
0
 62
    18
420
        0
370
    25
100
AcDbLine
 10
144.6925497369002
 20
-56.83613573283015
 30
0.0
 11
135.5893655303063
 21
-51.58097934950461
 31
0.0
  0
SPLINE
  5
1AA
330
70
100
AcDbEntity
  8
0
 62
    18
420
        0
370
    25
100
AcDbSpline
210
0.0
220
0.0
230
1.0
 70
     8
 71
     3
 72
     8
 73
     4
 74
     0
 42
0.0000000001
 43
0.0000000001
 40
0.0
 40
0.0
 40
0.0
 40
0.0
 40
1.0
 40
1.0
 40
1.0
 40
1.0
 10
135.629892109357
 20
-51.51037724090921
 30
0.0
 10
135.6057770415244
 20
-51.52598823268604
 30
0.0
 10
135.5906836994886
 20
-51.55228262511911
 30
0.0
 10
135.5893655303043
 20
-51.58097934951102
 30
0.0
  0
LINE
  5
1AB
330
70
100
AcDbEntity
  8
0
 62
    18
420
        0
370
    25
100
AcDbLine
 10
145.5578580687411
 20
-56.38380285250296
 30
0.0
 11
145.5578580687411
 21
-75.17312061590037
 31
0.0
  0
LINE
  5
1AC
330
70
100
AcDbEntity
  8
0
 62
    18
420
        0
370
    25
100
AcDbLine
 10
144.7739573693142
 20
-75.60999528467944
 30
0.0
 11
145.5578580687411
 21
-75.17312061590037
 31
0.0
  0
LINE
  5
1AD
330
70
100
AcDbEntity
  8
0
 62
    18
420
        0
370
    25
100
AcDbLine
 10
136.4002291216673
 20
-51.05000957705724
 30
0.0
 11
135.6298921093422
 21
-51.51037724090023
 31
0.0
  0
LINE
  5
1AE
330
70
100
AcDbEntity
  8
0
 62
    18
420
        0
370
    25
100
AcDbLine
 10
136.4002291216673
 20
-51.05000957705724
 30
0.0
 11
145.5169770153631
 21
-56.31299611026456
 31
0.0
  0
SPLINE
  5
1AF
330
70
100
AcDbEntity
  8
0
 62
    18
420
        0
370
    25
100
AcDbSpline
210
0.0
220
0.0
230
1.0
 70
     8
 71
     3
 72
     8
 73
     4
 74
     0
 42
0.0000000001
 43
0.0000000001
 40
0.0
 40
0.0
 40
0.0
 40
0.0
 40
1.0
 40
1.0
 40
1.0
 40
1.0
 10
136.4002291216577
 20
-51.05000957705211
 30
0.0
 10
136.3917582765322
 20
-51.04378779223591
 30
0.0
 10
136.3805471618041
 20
-51.04274328667438
 30
0.0
 10
136.3710727533363
 20
-51.047293166631
 30
0.0
  0
SPLINE
  5
1B0
330
70
100
AcDbEntity
  8
0
 62
    18
420
        0
370
    25
100
AcDbSpline
210
0.0
220
0.0
230
1.0
 70
     8
 71
     3
 72
     8
 73
     4
 74
     0
 42
0.0000000001
 43
0.0000000001
 40
0.0
 40
0.0
 40
0.0
 40
0.0
 40
1.0
 40
1.0
 40
1.0
 40
1.0
 10
145.5456285148114
 20
-75.1997341790767
 30
0.0
 10
145.5544590103788
 20
-75.19393164127436
 30
0.0
 10
145.5592063854988
 20
-75.18360055573729
 30
0.0
 10
145.5578580687309
 20
-75.17312061590871
 30
0.0
  0
SPLINE
  5
1B1
330
70
100
AcDbEntity
  8
0
 62
    18
420
        0
370
    25
100
AcDbSpline
210
0.0
220
0.0
230
1.0
 70
     8
 71
     3
 72
     8
 73
     4
 74
     0
 42
0.0000000001
 43
0.0000000001
 40
0.0
 40
0.0
 40
0.0
 40
0.0
 40
1.0
 40
1.0
 40
1.0
 40
1.0
 10
137.3229691444105
 20
-67.16163674536161
 30
0.0
 10
137.7889938412369
 20
-66.29295369166555
 30
0.0
 10
137.8999559371086
 20
-65.27738759067974
 30
0.0
 10
137.6325143077916
 20
-64.32856503575249
 30
0.0
  0
SPLINE
  5
1B2
330
70
100
AcDbEntity
  8
0
 62
    18
420
        0
370
    25
100
AcDbSpline
210
0.0
220
0.0
230
1.0
 70
     8
 71
     3
 72
     8
 73
     4
 74
     0
 42
0.0000000001
 43
0.0000000001
 40
0.0
 40
0.0
 40
0.0
 40
0.0
 40
1.0
 40
1.0
 40
1.0
 40
1.0
 10
116.0759296556072
 20
-64.32856503573451
 30
0.0
 10
115.8046723706446
 20
-65.28372397238328
 30
0.0
 10
115.9190413361136
 20
-66.30718506888252
 30
0.0
 10
116.3944474736462
 20
-67.17890641960258
 30
0.0
  0
SPLINE
  5
1B3
330
70
100
AcDbEntity
  8
0
 62
    18
420
        0
370
    25
100
AcDbSpline
210
0.0
220
0.0
230
1.0
 70
     8
 71
     3
 72
     8
 73
     4
 74
     0
 42
0.0000000001
 43
0.0000000001
 40
0.0
 40
0.0
 40
0.0
 40
0.0
 40
1.0
 40
1.0
 40
1.0
 40
1.0
 10
124.9408443057198
 20
-71.37113651507185
 30
0.0
 10
126.559026588255
 20
-71.53997965293155
 30
0.0
 10
128.1924480518308
 20
-71.49364767119583
 30
0.0
 10
129.7984577703613
 20
-71.23335036291148
 30
0.0
  0
SPLINE
  5
1B4
330
70
100
AcDbEntity
  8
0
 62
    18
420
        0
370
    25
100
AcDbSpline
210
0.0
220
0.0
230
1.0
 70
     8
 71
     3
 72
     8
 73
     4
 74
     0
 42
0.0000000001
 43
0.0000000001
 40
0.0
 40
0.0
 40
0.0
 40
0.0
 40
1.0
 40
1.0
 40
1.0
 40
1.0
 10
115.8513795112461
 20
-68.86496793896808
 30
0.0
 10
115.8540392730721
 20
-69.62325572852522
 30
0.0
 10
116.0691000677797
 20
-70.36563032126093
 30
0.0
 10
116.4721778635036
 20
-71.00791977058921
 30
0.0
  0
SPLINE
  5
1B5
330
70
100
AcDbEntity
  8
0
 62
    18
420
        0
370
    25
100
AcDbSpline
210
0.0
220
0.0
230
1.0
 70
     8
 71
     3
 72
     8
 73
     4
 74
     0
 42
0.0000000001
 43
0.0000000001
 40
0.0
 40
0.0
 40
0.0
 40
0.0
 40
1.0
 40
1.0
 40
1.0
 40
1.0
 10
137.2413159310065
 20
-70.99959573043995
 30
0.0
 10
137.6425982092564
 20
-70.35983730999099
 30
0.0
 10
137.8559629839043
 20
-69.62016135137066
 30
0.0
 10
137.8570644522028
 20
-68.86496793896551
 30
0.0
  0
LWPOLYLINE
  5
1B6
330
70
100
AcDbEntity
  8
0
 62
    18
420
        0
370
    25
100
AcDbPolyline
 90
       16
 70
     0
 43
0.0
 10
141.776248313038
 20
-60.40860263854178
 10
141.7539449877047
 20
-60.08490959439429
 10
141.6876436338682
 20
-59.74429740620704
 10
141.5791527937808
 20
-59.39605483682318
 10
141.4314317188457
 20
-59.04968119842202
 10
141.2485098413449
 20
-58.71462354688749
 10
141.0353768346351
 20
-58.40002327646297
 10
140.7978464008333
 20
-58.11445985938254
 10
140.5423977382956
 20
-57.86572566648011
 10
140.2759988633057
 20
-57.66060262409862
 10
140.0059164039014
 20
-57.50468733906227
 10
139.7395175289109
 20
-57.40223278730754
 10
139.4840688663737
 20
-57.35603223231593
 10
139.2465384326291
 20
-57.36734884810729
 10
139.0334054258616
 20
-57.43587098686305
 10
138.984726508933
 20
-57.46170106874967
  0
SPLINE
  5
1B7
330
70
100
AcDbEntity
  8
0
 62
    18
420
        0
370
    25
100
AcDbSpline
210
0.0
220
0.0
230
1.0
 70
     8
 71
     3
 72
     8
 73
     4
 74
     0
 42
0.0000000001
 43
0.0000000001
 40
0.0
 40
0.0
 40
0.0
 40
0.0
 40
1.0
 40
1.0
 40
1.0
 40
1.0
 10
141.2971887583324
 20
-61.46743601980489
 30
0.0
 10
141.63297303074
 20
-61.22411577088531
 30
0.0
 10
141.8151560154037
 20
-60.82144887120982
 30
0.0
 10
141.7762483130559
 20
-60.40860263854114
 30
0.0
  0
SPLINE
  5
1B8
330
70
100
AcDbEntity
  8
0
 62
    18
420
        0
370
    25
100
AcDbSpline
210
0.0
220
0.0
230
1.0
 70
     8
 71
     3
 72
     8
 73
     4
 74
     0
 42
0.0000000001
 43
0.0000000001
 40
0.0
 40
0.0
 40
0.0
 40
0.0
 40
1.0
 40
1.0
 40
1.0
 40
1.0
 10
122.6746415243275
 20
-58.23759326955319
 30
0.0
 10
122.3322581596455
 20
-58.75836899409247
 30
0.0
 10
122.3252793401883
 20
-59.43104975764641
 30
0.0
 10
122.6567844528398
 20
-59.95881683123638
 30
0.0
  0
SPLINE
  5
1B9
330
70
100
AcDbEntity
  8
0
 62
    18
420
        0
370
    25
100
AcDbSpline
210
0.0
220
0.0
230
1.0
 70
     8
 71
     3
 72
     8
 73
     4
 74
     0
 42
0.0000000001
 43
0.0000000001
 40
0.0
 40
0.0
 40
0.0
 40
0.0
 40
1.0
 40
1.0
 40
1.0
 40
1.0
 10
131.0466926820993
 20
-59.96698393425365
 30
0.0
 10
131.3881391805983
 20
-59.42957554025593
 30
0.0
 10
131.3772197779812
 20
-58.74056945074516
 30
0.0
 10
131.0189152797464
 20
-58.21425074518605
 30
0.0
  0
LWPOLYLINE
  5
1BA
330
70
100
AcDbEntity
  8
0
 62
    18
420
        0
370
    25
100
AcDbPolyline
 90
       11
 70
     0
 43
0.0
 10
125.2049358495144
 20
-64.70049632841393
 10
124.7148814993746
 20
-64.56819951266275
 10
124.2560236961274
 20
-64.40276707265815
 10
123.8350533445996
 20
-64.20661156589925
 10
123.4581091016006
 20
-63.98259340586421
 10
123.1306881388422
 20
-63.73397901743192
 10
122.8575644488662
 20
-63.46439411603451
 10
122.6427211321472
 20
-63.17776945097499
 10
122.4892910599852
 20
-62.87828501100801
 10
122.3995113993621
 20
-62.57030772461138
 10
122.3743043165168
 20
-62.27992453706299
  0
LWPOLYLINE
  5
1BB
330
70
100
AcDbEntity
  8
0
 62
    18
420
        0
370
    25
100
AcDbPolyline
 90
       18
 70
     0
 43
0.0
 10
131.3341396468929
 20
-62.27992453706299
 10
131.3337524284886
 20
-62.33343371169237
 10
131.2932507882625
 20
-62.64486515274954
 10
131.1880181800877
 20
-62.95120756784254
 10
131.0195888189623
 20
-63.24799385472392
 10
130.7904191814644
 20
-63.53089620934933
 10
130.5038507398782
 20
-63.795789180746
 10
130.1640626192429
 20
-64.03881019179756
 10
129.7760097378314
 20
-64.25641547143536
 10
129.3453503227988
 20
-64.44543156996399
 10
128.878364977719
 20
-64.60310252006803
 10
128.3818626981015
 20
-64.72712892678629
 10
127.8630842212889
 20
-64.81570222207958
 10
127.3295941088926
 20
-64.86753091699516
 10
126.7891721391358
 20
-64.88185911975154
 10
126.249698607093
 20
-64.8584780205309
 10
125.7190404817134
 20
-64.79772852894054
 10
125.2049358495144
 20
-64.70049632841393
  0
LWPOLYLINE
  5
1BC
330
70
100
AcDbEntity
  8
0
 62
    18
420
        0
370
    25
100
AcDbPolyline
 90
       12
 70
     0
 43
0.0
 10
125.2737054830012
 20
-53.92512231737423
 10
125.350667908587
 20
-53.89630496765782
 10
125.4962787477901
 20
-53.73836627244831
 10
125.5611256528223
 20
-53.51793102410159
 10
125.534675530236
 20
-53.27530658242367
 10
125.4296525225735
 20
-53.03188743471594
 10
125.258410211763
 20
-52.79609197105824
 10
125.0441180959538
 20
-52.58924959829119
 10
124.8281708500256
 20
-52.44076400348117
 10
124.6415015344525
 20
-52.36422085460251
 10
124.4926360329129
 20
-52.3625974926646
 10
124.4579121858209
 20
-52.38908017314403
  0
LWPOLYLINE
  5
1BD
330
70
100
AcDbEntity
  8
0
 62
    18
420
        0
370
    25
100
AcDbPolyline
 90
       23
 70
     0
 43
0.0
 10
123.9634643151393
 20
-56.01382710762558
 10
123.9815860049372
 20
-56.210973231715
 10
124.0619113675554
 20
-56.45604863643903
 10
124.2046121192331
 20
-56.69147554211948
 10
124.4065008944814
 20
-56.9119949350277
 10
124.6630677597313
 20
-57.11268066093876
 10
124.9685813014124
 20
-57.28904987441381
 10
125.3162168421065
 20
-57.43716277304885
 10
125.6982090242968
 20
-57.55371068221603
 10
126.1060245740566
 20
-57.63609007270295
 10
126.5305536253288
 20
-57.68246091749139
 10
126.962312943536
 20
-57.691787080051
 10
127.3916575720366
 20
-57.66386046499959
 10
127.8089970010846
 20
-57.59930491919575
 10
128.2050080995433
 20
-57.49956232959154
 10
128.5708448820787
 20
-57.36686087609336
 10
128.898335188206
 20
-57.20416490302188
 10
129.1801634163973
 20
-57.01510877344432
 10
129.4100339831184
 20
-56.80391569428514
 10
129.582811936758
 20
-56.57530335332203
 10
129.6946375385715
 20
-56.33437842915153
 10
129.7430130963924
 20
-56.08652305082119
 10
129.7449796482697
 20
-56.01382710762558
  0
LWPOLYLINE
  5
1BE
330
70
100
AcDbEntity
  8
0
 62
    18
420
        0
370
    25
100
AcDbPolyline
 90
       28
 70
     0
 43
0.0
 10
124.8517429436801
 20
-49.35894942604178
 10
124.57565510035
 20
-49.54415495068706
 10
124.3504665880926
 20
-49.75104653306451
 10
124.181207677162
 20
-49.97500252409213
 10
124.0716596964783
 20
-50.21102019677295
 10
124.0242694135925
 20
-50.45382737695366
 10
124.0400956823712
 20
-50.69799995381825
 10
124.1187848851919
 20
-50.93808364901151
 10
124.2585791665037
 20
-51.16871548355887
 10
124.4563559351403
 20
-51.38474329400896
 10
124.7076969457862
 20
-51.58134155318609
 10
125.006987816704
 20
-51.75411849527256
 10
125.3475428901801
 20
-51.89921457231671
 10
125.7217545802906
 20
-52.01338867052802
 10
126.1212639232173
 20
-52.09409019135874
 10
126.5371461430815
 20
-52.13951650126145
 10
126.9601112811692
 20
-52.14865281177959
 10
127.3807112265656
 20
-52.12129498372301
 10
127.7895501256926
 20
-52.05805428064921
 10
128.1774953154856
 20
-51.96034319115709
 10
128.535880879682
 20
-51.83034463017382
 10
128.8567010197296
 20
-51.67096251073687
 10
129.1327888630591
 20
-51.48575698609159
 10
129.3579773753164
 20
-51.27886540371415
 10
129.527236286247
 20
-51.05490941268716
 10
129.6367842669307
 20
-50.81889174000635
 10
129.6841745498166
 20
-50.57608455976724
 10
129.6861009330422
 20
-50.50486929828744
  0
LWPOLYLINE
  5
1BF
330
70
100
AcDbEntity
  8
0
 62
    18
420
        0
370
    25
100
AcDbPolyline
 90
       20
 70
     0
 43
0.0
 10
124.1232164803391
 20
-50.76735583214958
 10
124.1885080964315
 20
-50.92314853753491
 10
124.3400016480394
 20
-51.15272824513824
 10
124.5504261721532
 20
-51.36626756412659
 10
124.8148499166064
 20
-51.55876101990362
 10
125.1270746259199
 20
-51.72569694579959
 10
125.4797824140708
 20
-51.86316227260729
 10
125.8647058151058
 20
-51.96793520155601
 10
126.272822629927
 20
-52.03755966165154
 10
126.6945669067042
 20
-52.07040402363475
 10
127.1200534384414
 20
-52.06569816379104
 10
127.5393090657462
 20
-52.02355247653233
 10
127.942506740437
 20
-51.94495485240201
 10
128.3201962099696
 20
-51.83174762621251
 10
128.6635242072861
 20
-51.6865840981828
 10
128.9644438133529
 20
-51.51286690724489
 10
129.2159016653865
 20
-51.31466787320579
 10
129.412003580987
 20
-51.09663238346039
 10
129.5481534114524
 20
-50.86387132030949
 10
129.6150892781481
 20
-50.65474780783121
  0
LWPOLYLINE
  5
1C0
330
70
100
AcDbEntity
  8
0
 62
    18
420
        0
370
    25
100
AcDbPolyline
 90
       15
 70
     0
 43
0.0
 10
129.5259277582667
 20
-50.02548259568668
 10
129.4518110264275
 20
-49.8971434410862
 10
129.2703193252531
 20
-49.67493189154699
 10
129.0321965938807
 20
-49.47131801949327
 10
128.7430237560697
 20
-49.29107453145796
 10
128.4095791811354
 20
-49.13842595298326
 10
128.0396781517407
 20
-49.01695046083607
 10
127.6419913435835
 20
-48.92949509507396
 10
127.2258396509482
 20
-48.8781099562809
 10
126.8009775422666
 20
-48.86399930041868
 10
126.3773635182565
 20
-48.8874939812311
 10
125.9649265716082
 20
-48.94804323518842
 10
125.5733340753659
 20
-49.044227897068
 10
125.2117645485714
 20
-49.17379354856092
 10
124.8886926066304
 20
-49.33370300900701
  0
SPLINE
  5
1C1
330
70
100
AcDbEntity
  8
0
 62
    18
420
        0
370
    25
100
AcDbSpline
210
0.0
220
0.0
230
1.0
 70
     8
 71
     3
 72
     8
 73
     4
 74
     0
 42
0.0000000001
 43
0.0000000001
 40
0.0
 40
0.0
 40
0.0
 40
0.0
 40
1.0
 40
1.0
 40
1.0
 40
1.0
 10
136.0995814156738
 20
-64.56784447750329
 30
0.0
 10
136.8620910170696
 20
-63.3995758324517
 30
0.0
 10
136.863424218215
 20
-61.89141447108884
 30
0.0
 10
136.102981284968
 20
-60.72179954962649
 30
0.0
  0
SPLINE
  5
1C2
330
70
100
AcDbEntity
  8
0
 62
    18
420
        0
370
    25
100
AcDbSpline
210
0.0
220
0.0
230
1.0
 70
     8
 71
     3
 72
     8
 73
     4
 74
     0
 42
0.0000000001
 43
0.0000000001
 40
0.0
 40
0.0
 40
0.0
 40
0.0
 40
1.0
 40
1.0
 40
1.0
 40
1.0
 10
117.5946487372483
 20
-60.73924594301766
 30
0.0
 10
116.8408512514574
 20
-61.91325891107783
 30
0.0
 10
116.8507681436961
 20
-63.42147521390455
 30
0.0
 10
117.6199386323448
 20
-64.58547429386553
 30
0.0
  0
LWPOLYLINE
  5
1C3
330
70
100
AcDbEntity
  8
0
 62
    18
420
        0
370
    25
100
AcDbPolyline
 90
       41
 70
     0
 43
0.0
 10
117.0254589502576
 20
-62.83878893702612
 10
117.0279966207438
 20
-62.96772330955354
 10
117.077831672242
 20
-63.42375656644682
 10
117.1910707927103
 20
-63.87599607791846
 10
117.3669791428243
 20
-64.32150883472631
 10
117.6044154371959
 20
-64.75740589760727
 10
117.9018405111192
 20
-65.18085965131956
 10
118.2573253160382
 20
-65.5891242462191
 10
118.6685640557495
 20
-65.97955197338198
 10
119.1328898916652
 20
-66.34961068354229
 10
119.6472919100911
 20
-66.69690017609318
 10
120.2084337549592
 20
-67.01916823055199
 10
120.8126757583889
 20
-67.31432514115969
 10
121.456098975768
 20
-67.58045671218273
 10
122.1345321468612
 20
-67.81583630595577
 10
122.8435732794853
 20
-68.01893818172297
 10
123.5786256300057
 20
-68.18844463941927
 10
124.3349216904384
 20
-68.32325635009957
 10
125.107556122722
 20
-68.42249949943135
 10
125.8915181221214
 20
-68.48552996399002
 10
126.6817235906392
 20
-68.51193913584428
 10
127.4730480708924
 20
-68.50155579088677
 10
128.2603591100885
 20
-68.45444718792183
 10
129.0385509075116
 20
-68.37091928830905
 10
129.8025762973225
 20
-68.25151279965496
 10
130.547481015612
 20
-68.09700317587149
 10
131.2684328275372
 20
-67.90839171514763
 10
131.9607567463245
 20
-67.68690193337061
 10
132.6199632081698
 20
-67.43397033242667
 10
133.2417771045551
 20
-67.15123755345188
 10
133.8221645025498
 20
-66.84053646783545
 10
134.3573626195899
 20
-66.50388278613021
 10
134.8438994975989
 20
-66.14345930467992
 10
135.2786206370258
 20
-65.76160404641078
 10
135.6587056161278
 20
-65.36079275453089
 10
135.9816909145733
 20
-64.94362571614846
 10
136.2454807173334
 20
-64.51280789810967
 10
136.4483649047881
 20
-64.07113328631123
 10
136.5890272388702
 20
-63.62146653210286
 10
136.6665554526957
 20
-63.16672393993262
 10
136.6829850131521
 20
-62.83878893702612
  0
LWPOLYLINE
  5
1C4
330
70
100
AcDbEntity
  8
0
 62
    18
420
        0
370
    25
100
AcDbPolyline
 90
       21
 70
     0
 43
0.0
 10
133.7771460872419
 20
-66.86654238907017
 10
133.2042032565208
 20
-67.17307857660974
 10
132.5860470418848
 20
-67.45414821253691
 10
131.930718570797
 20
-67.7055919333527
 10
131.2424669183302
 20
-67.925778851466
 10
130.5257558527
 20
-68.11328076254614
 10
129.7852329470455
 20
-68.26688162386355
 10
129.0257018802417
 20
-68.38558563220016
 10
128.2520877891197
 20
-68.46862227918903
 10
127.4694081413928
 20
-68.51545393432002
 10
126.6827382780904
 20
-68.52577595513816
 10
125.8971809538785
 20
-68.49952240157034
 10
125.1178305471188
 20
-68.43686251954039
 10
124.3497406962975
 20
-68.33820315861387
 10
123.5978938405127
 20
-68.20418437588208
 10
122.8671654291931
 20
-68.03567504019293
 10
122.1622944145864
 20
-67.83376810630436
 10
121.4878525061784
 20
-67.5997729768998
 10
120.8482137112926
 20
-67.33520715010197
 10
120.2475260170993
 20
-67.04178646598689
 10
119.9312978761671
 20
-66.86654238907017
  0
SPLINE
  5
1C5
330
70
100
AcDbEntity
  8
0
 62
    18
420
        0
370
    25
100
AcDbSpline
210
0.0
220
0.0
230
1.0
 70
     8
 71
     3
 72
     8
 73
     4
 74
     0
 42
0.0000000001
 43
0.0000000001
 40
0.0
 40
0.0
 40
0.0
 40
0.0
 40
1.0
 40
1.0
 40
1.0
 40
1.0
 10
123.3988688921239
 20
-68.70011833925324
 30
0.0
 10
125.4352866499628
 20
-69.09659780159649
 30
0.0
 10
127.5247062926559
 20
-69.14005482170067
 30
0.0
 10
129.5758482871719
 20
-68.82859091233924
 30
0.0
  0
SPLINE
  5
1C6
330
70
100
AcDbEntity
  8
0
 62
    18
420
        0
370
    25
100
AcDbSpline
210
0.0
220
0.0
230
1.0
 70
     8
 71
     3
 72
     8
 73
     4
 74
     0
 42
0.0000000001
 43
0.0000000001
 40
0.0
 40
0.0
 40
0.0
 40
0.0
 40
1.0
 40
1.0
 40
1.0
 40
1.0
 10
136.9908316696614
 20
-65.14346574687877
 30
0.0
 10
137.8198204616212
 20
-63.9038612537719
 30
0.0
 10
137.8562655221935
 20
-62.2964300952913
 30
0.0
 10
137.0843104657553
 20
-61.02052762748056
 30
0.0
  0
SPLINE
  5
1C7
330
70
100
AcDbEntity
  8
0
 62
    18
420
        0
370
    25
100
AcDbSpline
210
0.0
220
0.0
230
1.0
 70
     8
 71
     3
 72
     8
 73
     4
 74
     0
 42
0.0000000001
 43
0.0000000001
 40
0.0
 40
0.0
 40
0.0
 40
0.0
 40
1.0
 40
1.0
 40
1.0
 40
1.0
 10
116.675213587756
 20
-60.93484393090971
 30
0.0
 10
115.8515420397418
 20
-62.231361570598
 30
0.0
 10
115.8739345624633
 20
-63.89260876473215
 30
0.0
 10
116.7322529201958
 20
-65.16645428354975
 30
0.0
  0
SPLINE
  5
1C8
330
70
100
AcDbEntity
  8
0
 62
    18
420
        0
370
    25
100
AcDbSpline
210
0.0
220
0.0
230
1.0
 70
     8
 71
     3
 72
     8
 73
     4
 74
     0
 42
0.0000000001
 43
0.0000000001
 40
0.0
 40
0.0
 40
0.0
 40
0.0
 40
1.0
 40
1.0
 40
1.0
 40
1.0
 10
136.9750257708281
 20
-67.2546476525642
 30
0.0
 10
137.3807175311922
 20
-66.63272691557714
 30
0.0
 10
137.6052725190001
 20
-65.91014939513292
 30
0.0
 10
137.6235446991321
 20
-65.16783050479357
 30
0.0
  0
SPLINE
  5
1C9
330
70
100
AcDbEntity
  8
0
 62
    18
420
        0
370
    25
100
AcDbSpline
210
0.0
220
0.0
230
1.0
 70
     8
 71
     3
 72
     8
 73
     4
 74
     0
 42
0.0000000001
 43
0.0000000001
 40
0.0
 40
0.0
 40
0.0
 40
0.0
 40
1.0
 40
1.0
 40
1.0
 40
1.0
 10
116.0848992642981
 20
-65.16783050478842
 30
0.0
 10
116.1036095396752
 20
-65.92682666319247
 30
0.0
 10
116.3376464555901
 20
-66.6648746832241
 30
0.0
 10
116.7597341975288
 20
-67.29595881468515
 30
0.0
  0
LINE
  5
1CA
330
70
100
AcDbEntity
  8
0
 62
    18
420
        0
370
    25
100
AcDbLine
 10
135.8197353736799
 20
-89.00849932024696
 30
0.0
 11
135.8172982200465
 21
-89.0985203272471
 31
0.0
  0
LWPOLYLINE
  5
1CB
330
70
100
AcDbEntity
  8
0
 62
    18
420
        0
370
    25
100
AcDbPolyline
 90
       19
 70
     0
 43
0.0
 10
116.1630824798318
 20
-57.51754946310157
 10
116.0730009829806
 20
-57.59228085277365
 10
116.0258877163832
 20
-57.71974870290172
 10
116.0274252629858
 20
-57.88458440707241
 10
116.077428128126
 20
-58.06690271427878
 10
116.169865251449
 20
-58.24471357060486
 10
116.2935873616849
 20
-58.39657202423672
 10
116.4336717363383
 20
-58.50416246648137
 10
116.5732221255073
 20
-58.55450547221606
 10
116.6954067011084
 20
-58.54152822855752
 10
116.7854881979018
 20
-58.46680035625348
 10
116.8326014644992
 20
-58.33933250612478
 10
116.8310639178966
 20
-58.17449680195473
 10
116.7810610527565
 20
-57.99217849474771
 10
116.6886239294905
 20
-57.81436763842164
 10
116.5649018191975
 20
-57.66250918479042
 10
116.4248174445441
 20
-57.55491874254513
 10
116.2852670554328
 20
-57.50457573681043
 10
116.1630824798318
 20
-57.51754946310157
  0
LWPOLYLINE
  5
1CC
330
70
100
AcDbEntity
  8
0
 62
    18
420
        0
370
    25
100
AcDbPolyline
 90
       24
 70
     0
 43
0.0
 10
116.0300014363794
 20
-57.26155565793068
 10
115.9192245512191
 20
-57.34192318299411
 10
115.8462735677517
 20
-57.47328612737355
 10
115.8165588833558
 20
-57.6459048275293
 10
115.8322843020865
 20
-57.84697851819522
 10
115.8922835045209
 20
-58.06158855211202
 10
115.9921066672612
 20
-58.27382471945369
 10
116.1243503317778
 20
-58.46793943606821
 10
116.279206629913
 20
-58.6295441471819
 10
116.4451905561513
 20
-58.7466447120895
 10
116.6099918384901
 20
-58.81056581533808
 10
116.7613879191787
 20
-58.81655891880256
 10
116.8881504628158
 20
-58.76418136540254
 10
116.9808780475392
 20
-58.65732334084674
 10
117.0326935005093
 20
-58.50390344590707
 10
117.0397539071643
 20
-58.31530136257512
 10
117.0015356469138
 20
-58.10550588236527
 10
116.9208731339577
 20
-57.89007502525492
 10
116.803748836114
 20
-57.68499126549144
 10
116.6588492538521
 20
-57.50545903179517
 10
116.4969209243521
 20
-57.36479428868377
 10
116.3299733662884
 20
-57.27343328339061
 10
116.1703883009315
 20
-57.23814747295102
 10
116.0300014363794
 20
-57.26155565793068
  0
LINE
  5
1CD
330
70
100
AcDbEntity
  8
0
 62
     8
420
  8421504
370
    25
100
AcDbLine
 10
137.1109247850289
 20
-71.23301172868299
 30
0.0
 11
144.6925497369002
 21
-75.60979065104543
 31
0.0
  0
LINE
  5
1CE
330
70
100
AcDbEntity
  8
0
 62
     8
420
  8421504
370
    25
100
AcDbLine
 10
135.5893655303063
 20
-51.58097934950461
 30
0.0
 11
135.5893655303063
 21
-59.30909681659297
 31
0.0
  0
SPLINE
  5
1CF
330
70
100
AcDbEntity
  8
0
 62
     8
420
  8421504
370
    25
100
AcDbSpline
210
0.0
220
0.0
230
1.0
 70
     8
 71
     3
 72
     8
 73
     4
 74
     0
 42
0.0000000001
 43
0.0000000001
 40
0.0
 40
0.0
 40
0.0
 40
0.0
 40
1.0
 40
1.0
 40
1.0
 40
1.0
 10
135.5724326239744
 20
-51.55737790095599
 30
0.0
 10
135.5733375427562
 20
-51.56774913651298
 30
0.0
 10
135.5798308054546
 20
-51.57679958553455
 30
0.0
 10
135.5893655303082
 20
-51.58097934951616
 30
0.0
  0
SPLINE
  5
1D0
330
70
100
AcDbEntity
  8
0
 62
     8
420
  8421504
370
    25
100
AcDbSpline
210
0.0
220
0.0
230
1.0
 70
     8
 71
     3
 72
     8
 73
     4
 74
     0
 42
0.0000000001
 43
0.0000000001
 40
0.0
 40
0.0
 40
0.0
 40
0.0
 40
1.0
 40
1.0
 40
1.0
 40
1.0
 10
135.6298921093749
 20
-51.51037724087841
 30
0.0
 10
135.6214151935327
 20
-51.50401040355129
 30
0.0
 10
135.610064236793
 20
-51.5029922036558
 30
0.0
 10
135.6005895346805
 20
-51.5077487506829
 30
0.0
  0
SPLINE
  5
1D1
330
70
100
AcDbEntity
  8
0
 62
     8
420
  8421504
370
    25
100
AcDbSpline
210
0.0
220
0.0
230
1.0
 70
     8
 71
     3
 72
     8
 73
     4
 74
     0
 42
0.0000000001
 43
0.0000000001
 40
0.0
 40
0.0
 40
0.0
 40
0.0
 40
1.0
 40
1.0
 40
1.0
 40
1.0
 10
144.7615789438151
 20
-75.63669171213334
 30
0.0
 10
144.7702926958283
 20
-75.63073974592801
 30
0.0
 10
144.7750444682135
 20
-75.62049164559351
 30
0.0
 10
144.7739573693276
 20
-75.60999528470704
 30
0.0
  0
SPLINE
  5
1D2
330
70
100
AcDbEntity
  8
0
 62
     8
420
  8421504
370
    25
100
AcDbSpline
210
0.0
220
0.0
230
1.0
 70
     8
 71
     3
 72
     8
 73
     4
 74
     0
 42
0.0000000001
 43
0.0000000001
 40
0.0
 40
0.0
 40
0.0
 40
0.0
 40
1.0
 40
1.0
 40
1.0
 40
1.0
 10
144.6925497369477
 20
-75.60979065101976
 30
0.0
 10
144.6912397289367
 20
-75.62016527243241
 30
0.0
 10
144.6958688308082
 20
-75.6303962114123
 30
0.0
 10
144.7045264756804
 20
-75.63626085766941
 30
0.0
  0
LWPOLYLINE
  5
1D3
330
70
100
AcDbEntity
  8
0
 62
     8
420
  8421504
370
    25
100
AcDbPolyline
 90
       36
 70
     0
 43
0.0
 10
137.3229691444054
 20
-67.16163674538215
 10
137.2765905029794
 20
-67.24904543116796
 10
136.9978674706612
 20
-67.70035452983639
 10
136.660599066022
 20
-68.13814615751875
 10
136.2667328036063
 20
-68.55989371490591
 10
135.8185402127349
 20
-68.96316225919928
 10
135.3186102694019
 20
-69.3456254838216
 10
134.7698262421954
 20
-69.70507468872209
 10
134.1753569592095
 20
-70.03943613103671
 10
133.5386327731378
 20
-70.34677962456052
 10
132.86332904669
 20
-70.62533159055161
 10
132.1533429031216
 20
-70.87348408331459
 10
131.4127725945571
 20
-71.0898049419212
 10
130.6458919923042
 20
-71.27304548335974
 10
129.8571272658024
 20
-71.42214869024005
 10
129.0510313728733
 20
-71.53625338668788
 10
128.2322562653139
 20
-71.61470149197288
 10
127.405527378741
 20
-71.65703955899934
 10
126.575616599797
 20
-71.66302382975953
 10
125.747314090956
 20
-71.63261979563753
 10
124.9254001153367
 20
-71.56600219747357
 10
124.1146180035553
 20
-71.46355656428053
 10
123.3196486440947
 20
-71.32587327846478
 10
122.5450794522242
 20
-71.15374724615911
 10
121.7953800025305
 20
-70.94817262206511
 10
121.0748789935903
 20
-70.71033478681629
 10
120.3877340739011
 20
-70.44160699490149
 10
119.7379103298387
 20
-70.14354059366477
 10
119.1291600109439
 20
-69.81785507734183
 10
118.564995021006
 20
-69.46643099856114
 10
118.0486729254318
 20
-69.09129573606174
 10
117.583172298451
 20
-68.69461541753185
 10
117.1711804436413
 20
-68.27867903852212
 10
116.815076165373
 20
-67.84588675841795
 10
116.5169128254737
 20
-67.39873748179125
 10
116.3944474736199
 20
-67.17890641959744
  0
LWPOLYLINE
  5
1D4
330
70
100
AcDbEntity
  8
0
 62
     8
420
  8421504
370
    25
100
AcDbPolyline
 90
       20
 70
     0
 43
0.0
 10
116.0829772597111
 20
-64.98797850813319
 10
116.0756524726829
 20
-65.36567509825804
 10
116.1230861606591
 20
-65.84164046495811
 10
116.2334948171057
 20
-66.31411299225899
 10
116.4062300320454
 20
-66.78032034465694
 10
116.6402778794664
 20
-67.2375262336991
 10
116.93426519987
 20
-67.68304811223505
 10
117.2864672148451
 20
-68.11427080159865
 10
117.6948162845527
 20
-68.52866429554206
 10
118.1569164711214
 20
-68.92379656375958
 10
118.6700559604093
 20
-69.2973486353432
 10
119.2312234817647
 20
-69.64712847392701
 10
119.8371255843894
 20
-69.97108358845631
 10
120.4842068642957
 20
-70.26731271016058
 10
121.1686701915563
 20
-70.53407746964655
 10
121.8864985556529
 20
-70.76981236985284
 10
122.6334790998681
 20
-70.97313426525847
 10
123.4052292500702
 20
-71.14284953282965
 10
124.197218893198
 20
-71.27796247920078
 10
124.9408443057493
 20
-71.3711365150802
  0
LWPOLYLINE
  5
1D5
330
70
100
AcDbEntity
  8
0
 62
     8
420
  8421504
370
    25
100
AcDbPolyline
 90
       20
 70
     0
 43
0.0
 10
129.7984577703671
 20
-71.23335036293266
 10
129.9094622939604
 20
-71.21478584769376
 10
130.6919058793111
 20
-71.06225947797828
 10
131.4518285431173
 20
-70.87560379634467
 10
132.1847709910431
 20
-70.65591428522264
 10
132.8864319381456
 20
-70.40448007084444
 10
133.5526931430814
 20
-70.12277650461367
 10
134.1796448942063
 20
-69.81245660514314
 10
134.7636082355273
 20
-69.47534174387969
 10
135.3011563124691
 20
-69.11341020188483
 10
135.7891340751841
 20
-68.7287857952354
 10
136.2246781014394
 20
-68.32372555241403
 10
136.6052327304691
 20
-67.90060688361134
 10
136.9285648882778
 20
-67.46191286764622
 10
137.1927769381135
 20
-67.0102178003882
 10
137.3963179120237
 20
-66.54817191860367
 10
137.5379934105613
 20
-66.07848733262554
 10
137.6169722657597
 20
-65.6039201127414
 10
137.6327914907261
 20
-65.1272551231179
 10
137.6254667036986
 20
-64.98797850813319
  0
LWPOLYLINE
  5
1D6
330
70
100
AcDbEntity
  8
0
 62
     8
420
  8421504
370
    25
100
AcDbPolyline
 90
       43
 70
     0
 43
0.0
 10
115.8691336861562
 20
-67.22339346965324
 10
115.8923865914214
 20
-67.63575601296953
 10
115.9779972763033
 20
-68.11393102761769
 10
116.1261062360325
 20
-68.58698844235212
 10
116.3358636460312
 20
-69.05220977254041
 10
116.6060642555521
 20
-69.50692148285196
 10
116.9351544316014
 20
-69.94851136180876
 10
117.3212439617284
 20
-70.37444105096807
 10
117.7621134790139
 20
-70.78226351850019
 10
118.2552303576729
 20
-71.1696348737662
 10
118.7977599455886
 20
-71.53432964329468
 10
119.3865857434646
 20
-71.87425154102765
 10
120.0183240637263
 20
-72.18744720557797
 10
120.6893436389044
 20
-72.47211752024458
 10
121.3957894179964
 20
-72.72662607517595
 10
122.1336012234831
 20
-72.94951081670582
 10
122.8985402127257
 20
-73.13949053150763
 10
123.6862093433064
 20
-73.29547402318791
 10
124.4920836422026
 20
-73.41656439849383
 10
125.3115319082777
 20
-73.50206588096026
 10
126.1398450779734
 20
-73.55148787735846
 10
126.9722634484979
 20
-73.56454530730478
 10
127.8040033300801
 20
-73.54116387841512
 10
128.6302848403793
 20
-73.48147766854895
 10
129.4463608412318
 20
-73.38582956555494
 10
130.2475416870745
 20
-73.25476972843548
 10
131.0292226386905
 20
-73.0890507518871
 10
131.7869122285596
 20
-72.88962491869224
 10
132.5162573905191
 20
-72.65763892474312
 10
133.2130654472868
 20
-72.39442470221439
 10
133.8733333332191
 20
-72.1014957378211
 10
134.4932660242307
 20
-71.78053467504895
 10
135.0693021317158
 20
-71.43338645200386
 10
135.598131059292
 20
-71.06204575927129
 10
136.0767134443728
 20
-70.66864611831035
 10
136.5023003977976
 20
-70.25544877512699
 10
136.8724448665176
 20
-69.82482734826362
 10
137.1850203854318
 20
-69.37925700386507
 10
137.4382315478505
 20
-68.92129786073439
 10
137.6306220013698
 20
-68.45358158239783
 10
137.7610875831449
 20
-67.97879632105888
 10
137.8288774625696
 20
-67.4996697928721
 10
137.8393102772535
 20
-67.22332269411801
  0
LWPOLYLINE
  5
1D7
330
70
100
AcDbEntity
  8
0
 62
     8
420
  8421504
370
    25
100
AcDbPolyline
 90
       34
 70
     0
 43
0.0
 10
116.4721778634844
 20
-71.00791977055199
 10
116.7445089359272
 20
-71.41126590425802
 10
117.1030853965001
 20
-71.84676721748387
 10
117.517854791662
 20
-72.26531108212963
 10
117.9864281321302
 20
-72.66448530476218
 10
118.5061045978133
 20
-73.04198956998644
 10
119.0738894329834
 20
-73.39564840885763
 10
119.6865108892123
 20
-73.72342361729455
 10
120.3404383111083
 20
-74.02342645519413
 10
121.0319032674017
 20
-74.29392808688955
 10
121.7569210633336
 20
-74.53336936204125
 10
122.5113132045836
 20
-74.74037114653457
 10
123.2907332878496
 20
-74.91373959751982
 10
124.0906881323429
 20
-75.0524766038692
 10
124.906569572136
 20
-75.15578143463739
 10
125.7336742547606
 20
-75.22305997092641
 10
126.567236766277
 20
-75.25392360651082
 10
127.4024528567032
 20
-75.24819518284982
 10
128.2345098994628
 20
-75.20590723014212
 10
129.0586127825465
 20
-75.12730416596518
 10
129.8700120831836
 20
-75.01283789880782
 10
130.6640314819922
 20
-74.86316826770963
 10
131.4360961281575
 20
-74.6791585366348
 10
132.1817564364279
 20
-74.4618686904517
 10
132.8967155004592
 20
-74.21255103869627
 10
133.5768525088013
 20
-73.93264197340549
 10
134.2182486833541
 20
-73.62375490795868
 10
134.8172072206531
 20
-73.2876696441494
 10
135.3702768031393
 20
-72.92632319558824
 10
135.8742705412668
 20
-72.54179797364686
 10
136.3262835351317
 20
-72.13630989043223
 10
136.7237107222351
 20
-71.71219541835435
 10
137.0642619168766
 20
-71.27189851197321
 10
137.2413159309789
 20
-70.99959573041108
  0
LWPOLYLINE
  5
1D8
330
70
100
AcDbEntity
  8
0
 62
     8
420
  8421504
370
    25
100
AcDbPolyline
 90
        9
 70
     0
 43
0.0
 10
125.2174603861828
 20
-61.49904142523396
 10
124.7311275403452
 20
-61.36774914977724
 10
124.2757540368062
 20
-61.20357314068293
 10
123.8579806408659
 20
-61.00890712134399
 10
123.483898987315
 20
-60.78659007477578
 10
123.1589642705497
 20
-60.53986375335047
 10
122.8879146455329
 20
-60.27232593036557
 10
122.6747029195659
 20
-59.98787799817141
 10
122.656784452859
 20
-59.95881683118504
  0
LWPOLYLINE
  5
1D9
330
70
100
AcDbEntity
  8
0
 62
     8
420
  8421504
370
    25
100
AcDbPolyline
 90
       15
 70
     0
 43
0.0
 10
131.0466926820704
 20
-59.96698393425109
 10
130.9879575080076
 20
-60.05756905761842
 10
130.7605279738129
 20
-60.33832303351019
 10
130.476135970171
 20
-60.6012045614839
 10
130.1389279970461
 20
-60.84238000943653
 10
129.7538218498759
 20
-61.05833275132063
 10
129.3264330171741
 20
-61.24591357054408
 10
128.8629937001358
 20
-61.40238718841427
 10
128.3702620410003
 20
-61.52547169788203
 10
127.8554230454212
 20
-61.61337246057855
 10
127.3259842582987
 20
-61.66480760383985
 10
126.7896661567639
 20
-61.6790268958066
 10
126.254289449132
 20
-61.65582339487668
 10
125.7276609465388
 20
-61.59553515320684
 10
125.2174603861828
 20
-61.49904142523396
  0
LWPOLYLINE
  5
1DA
330
70
100
AcDbEntity
  8
0
 62
     8
420
  8421504
370
    25
100
AcDbPolyline
 90
       44
 70
     0
 43
0.0
 10
124.4349744904925
 20
-56.93763122862679
 10
124.3909528556706
 20
-56.95510652565453
 10
123.9752086323916
 20
-57.14532325338968
 10
123.6031071542512
 20
-57.36359185456971
 10
123.2802894315338
 20
-57.60660375088833
 10
123.0116488326006
 20
-57.87067508295808
 10
122.8012577664636
 20
-58.15180266366553
 10
122.6523054548595
 20
-58.44572495847554
 10
122.5670498154293
 20
-58.74798656957906
 10
122.5467834799197
 20
-59.05400532939967
 10
122.591813519879
 20
-59.35914225218795
 10
122.7014571628737
 20
-59.65877203481583
 10
122.8740525489727
 20
-59.9483523484579
 10
123.1069834787045
 20
-60.22349351538834
 10
123.3967184400138
 20
-60.48002477842985
 10
123.7388657030438
 20
-60.71405731847708
 10
124.1282387311321
 20
-60.92204333582603
 10
124.5589346977738
 20
-61.10083016907732
 10
125.0244249493962
 20
-61.24770746285243
 10
125.5176531962088
 20
-61.36044868587439
 10
126.0311423528796
 20
-61.43734489433165
 10
126.5571085482585
 20
-61.47723032470508
 10
127.0875785852236
 20
-61.4795005274891
 10
127.6145113037036
 20
-61.44412088416022
 10
128.1299187527358
 20
-61.37162765134126
 10
128.6259879340347
 20
-61.26312010316659
 10
129.0951990712677
 20
-61.12024280944245
 10
129.5304392385935
 20
-60.94516180170808
 10
129.925110513538
 20
-60.74053093117154
 10
130.2732303657843
 20
-60.50945237922396
 10
130.5695216739573
 20
-60.2554290873843
 10
130.809492640464
 20
-59.98231159022251
 10
130.989505715465
 20
-59.69424020257616
 10
131.106832141706
 20
-59.39558188032613
 10
131.1596933605032
 20
-59.09086367626077
 10
131.1472880924067
 20
-58.78470523358531
 10
131.0698040451103
 20
-58.48174718667987
 10
130.9284163903427
 20
-58.18658236328198
 10
130.7252679653217
 20
-57.90368500918488
 10
130.4634385272897
 20
-57.6373435842394
 10
130.146897017753
 20
-57.39159561939869
 10
129.780441773249
 20
-57.17016638563571
 10
129.3696281956499
 20
-56.97641241203264
 10
129.2734694729165
 20
-56.93763122862679
  0
LWPOLYLINE
  5
1DB
330
70
100
AcDbEntity
  8
0
 62
     8
420
  8421504
370
    25
100
AcDbPolyline
 90
       28
 70
     0
 43
0.0
 10
129.1952649594181
 20
-58.25706844478275
 10
129.2670279685012
 20
-58.34497412550369
 10
129.4006485048982
 20
-58.57028946869837
 10
129.4715675433571
 20
-58.80489789465219
 10
129.4780387935415
 20
-59.04302240387423
 10
129.4199029133354
 20
-59.27879961557642
 10
129.298591506723
 20
-59.50642384629444
 10
129.1170916671017
 20
-59.72029033734506
 10
128.8798723740127
 20
-59.91513291775163
 10
128.5927750051707
 20
-60.08615402999364
 10
128.2628684626361
 20
-60.22914232254152
 10
127.8982764569889
 20
-60.34057719268819
 10
127.5079765450276
 20
-60.41771468641091
 10
127.1015787972977
 20
-60.45865537586713
 10
126.6890903548688
 20
-60.46239114904699
 10
126.280667991554
 20
-60.42883001977218
 10
125.8863685357122
 20
-60.35879843542544
 10
125.5159007662488
 20
-60.25402080827014
 10
125.1783869471649
 20
-60.11707702529379
 10
124.8821375924313
 20
-59.95133924210077
 10
124.6344477670116
 20
-59.76088824897646
 10
124.4414159949079
 20
-59.55041376416017
 10
124.3077954585108
 20
-59.3250984209655
 10
124.236876420052
 20
-59.09048999501231
 10
124.2304051698676
 20
-58.85236548578962
 10
124.2885410500736
 20
-58.61658827408745
 10
124.409852456686
 20
-58.38896404336942
 10
124.513179003991
 20
-58.25706844478275
  0
LWPOLYLINE
  5
1DC
330
70
100
AcDbEntity
  8
0
 62
     8
420
  8421504
370
    25
100
AcDbPolyline
 90
       21
 70
     0
 43
0.0
 10
124.5083873661608
 20
-58.70540176284403
 10
124.5098928348598
 20
-58.76298064160894
 10
124.5559008203307
 20
-58.98506377309661
 10
124.6646011181247
 20
-59.19974638098143
 10
124.8330284803108
 20
-59.40117244772153
 10
125.0565887333045
 20
-59.58384769143329
 10
125.3291838529819
 20
-59.74278902975468
 10
125.6433778983142
 20
-59.87366114408892
 10
125.9906005915845
 20
-59.97289411394414
 10
126.3613807629648
 20
-60.03778103551328
 10
126.745604258125
 20
-60.06655206666341
 10
127.1327905264488
 20
-60.05842243945656
 10
127.5123782991822
 20
-60.01361379464193
 10
127.8740132904532
 20
-59.93334849409193
 10
128.2078309248226
 20
-59.81981586796649
 10
128.5047255960764
 20
-59.67611282747494
 10
128.75659898451
 20
-59.50615931062748
 10
128.9565803901015
 20
-59.31459108858991
 10
129.099214987208
 20
-59.10663372422475
 10
129.1806120063498
 20
-58.88795966095316
 10
129.2000565972483
 20
-58.70540176284403
  0
LWPOLYLINE
  5
1DD
330
70
100
AcDbEntity
  8
0
 62
     8
420
  8421504
370
    25
100
AcDbPolyline
 90
        8
 70
     0
 43
0.0
 10
124.8886926066304
 20
-49.33370300900701
 10
124.6116912828537
 20
-49.520208471178
 10
124.3872526731928
 20
-49.72893811609356
 10
124.2206378987789
 20
-49.95499965233614
 10
124.115752150025
 20
-50.19309443359695
 10
124.0750537594107
 20
-50.4376416043395
 10
124.0994967807486
 20
-50.68290927903853
 10
124.1232164803391
 20
-50.76735583214958
  0
SPLINE
  5
1DE
330
70
100
AcDbEntity
  8
0
 62
     8
420
  8421504
370
    25
100
AcDbSpline
210
0.0
220
0.0
230
1.0
 70
     8
 71
     3
 72
     8
 73
     4
 74
     0
 42
0.0000000001
 43
0.0000000001
 40
0.0
 40
0.0
 40
0.0
 40
0.0
 40
1.0
 40
1.0
 40
1.0
 40
1.0
 10
129.6150892781058
 20
-50.65474780780875
 30
0.0
 10
129.65719314966
 20
-50.44094011607747
 30
0.0
 10
129.6257712833066
 20
-50.21917755053628
 30
0.0
 10
129.5259277582231
 20
-50.02548259566551
 30
0.0
  0
LWPOLYLINE
  5
1DF
330
70
100
AcDbEntity
  8
0
 62
     8
420
  8421504
370
    25
100
AcDbPolyline
 90
       26
 70
     0
 43
0.0
 10
133.7266913348301
 20
-66.47126669133078
 10
134.2611026184481
 20
-66.13475424392129
 10
134.7462230746172
 20
-65.77421561481078
 10
135.1788226034843
 20
-65.39204917495208
 10
135.5560238141763
 20
-64.99079872295128
 10
135.8753156883445
 20
-64.57313460718821
 10
136.1345740454377
 20
-64.14183619680215
 10
136.3320729648271
 20
-63.69977341847106
 10
136.4664983025505
 20
-63.24988884256734
 10
136.5369556867807
 20
-62.79517548379833
 10
136.5429760388141
 20
-62.33865998610031
 10
136.4845189994948
 20
-61.88338042287223
 10
136.3619744526133
 20
-61.43236607580176
 10
136.1761568132411
 20
-60.98861875136655
 10
135.9283036955259
 20
-60.5550917902978
 10
135.6200635382234
 20
-60.13466973591667
 10
135.2534885610561
 20
-59.73015064033692
 10
134.831018011706
 20
-59.34422628245894
 10
134.3554627933935
 20
-58.97946538061779
 10
133.8299883787896
 20
-58.6382949373597
 10
133.2580911086474
 20
-58.32298567743249
 10
132.6435774412004
 20
-58.03563567289596
 10
131.9905366809875
 20
-57.77815723733348
 10
131.3033142795396
 20
-57.55226415019136
 10
130.5864838501145
 20
-57.35945945778429
 10
129.9914054452609
 20
-57.22921826522598
  0
LWPOLYLINE
  5
1E0
330
70
100
AcDbEntity
  8
0
 62
     8
420
  8421504
370
    25
100
AcDbPolyline
 90
       47
 70
     0
 43
0.0
 10
123.7196787996502
 20
-57.22869722965749
 10
123.6288044949342
 20
-57.24691435119495
 10
122.8943969373493
 20
-57.41624419971991
 10
122.186341745878
 20
-57.61956818321677
 10
121.5093499830749
 20
-57.85553205989732
 10
120.8679279654081
 20
-58.12256656874648
 10
120.2663432579944
 20
-58.41889387233595
 10
119.7086001878519
 20
-58.74254257211068
 10
119.1984102407674
 20
-59.09135864328963
 10
118.7391677415237
 20
-59.4630203537755
 10
118.3339300310173
 20
-59.85505498264654
 10
117.9853936459079
 20
-60.26485345085096
 10
117.6958776133589
 20
-60.68968831691863
 10
117.4673086974327
 20
-61.12673240530187
 10
117.3012083581679
 20
-61.57307776397727
 10
117.1986819005115
 20
-62.0257533583579
 10
117.160411240118
 20
-62.48174727105958
 10
117.1866514766372
 20
-62.93802450572138
 10
117.2772274670601
 20
-63.39154874730945
 10
117.431536871481
 20
-63.83930214383171
 10
117.6485526283235
 20
-64.27830475879163
 10
117.9268309496393
 20
-64.70563501252714
 10
118.2645195072494
 20
-65.11844891490563
 10
118.6593710444848
 20
-65.51399979193715
 10
119.1087575588597
 20
-65.88965526566049
 10
119.6096893871025
 20
-66.24291486555079
 10
120.1588321362957
 20
-66.57142815501005
 10
120.7525313491034
 20
-66.87300897041858
 10
121.3868371332607
 20
-67.14564963930232
 10
122.0575268873524
 20
-67.38753673728807
 10
122.7601377951069
 20
-67.59706017560457
 10
123.4899941082526
 20
-67.77282543401792
 10
124.2422394144626
 20
-67.91366295765017
 10
125.0118663359434
 20
-68.01863562967255
 10
125.7937540324692
 20
-68.08704459658063
 10
126.5826988517456
 20
-68.11843465285453
 10
127.3734510711136
 20
-68.11259698862002
 10
128.1607476419657
 20
-68.06957094806745
 10
128.939349502614
 20
-67.98964183139888
 10
129.7040750838545
 20
-67.87334221361283
 10
130.4498355282576
 20
-67.72144611998093
 10
131.171668005164
 20
-67.53496429997449
 10
131.8647680741438
 20
-67.31513741402221
 10
132.5245235713913
 20
-67.06342833984419
 10
133.1465448790768
 20
-66.781513051476
 10
133.7266913348301
 20
-66.47126669133078
 10
133.7266913348301
 20
-66.47126669133078
  0
LWPOLYLINE
  5
1E1
330
70
100
AcDbEntity
  8
0
 62
     8
420
  8421504
370
    25
100
AcDbPolyline
 90
       32
 70
     0
 43
0.0
 10
136.09958141567
 20
-64.56784447750329
 10
135.9816909145733
 20
-64.74693442853776
 10
135.6587056161278
 20
-65.1641014669202
 10
135.2786206370258
 20
-65.56491275879944
 10
134.8438994975989
 20
-65.94676801701083
 10
134.3573626195899
 20
-66.30719149851952
 10
133.8221645025498
 20
-66.64384518022476
 10
133.2417771045551
 20
-66.95454626584117
 10
132.6199632081698
 20
-67.23727904481598
 10
131.9607567463245
 20
-67.49021064575926
 10
131.2684328275372
 20
-67.71170042753692
 10
130.547481015612
 20
-67.90031188826015
 10
129.8025762973225
 20
-68.05482151204427
 10
129.0385509075116
 20
-68.17422800069836
 10
128.2603591100885
 20
-68.25775590031113
 10
127.4730480708924
 20
-68.30486450327606
 10
126.6817235906392
 20
-68.3152478482336
 10
125.8915181221214
 20
-68.28883867637931
 10
125.107556122722
 20
-68.22580821182
 10
124.3349216904384
 20
-68.12656506248888
 10
123.5786256300057
 20
-67.99175335180793
 10
122.8435732794853
 20
-67.82224689411228
 10
122.1345321468612
 20
-67.61914501834508
 10
121.456098975768
 20
-67.38376542457203
 10
120.8126757583889
 20
-67.11763385354898
 10
120.2084337549592
 20
-66.8224769429413
 10
119.6472919100911
 20
-66.50020888842473
 10
119.1328898916652
 20
-66.1529193959316
 10
118.6685640557495
 20
-65.7828606857713
 10
118.2573253160382
 20
-65.39243295860839
 10
117.9018405111192
 20
-64.98416836370886
 10
117.6199386323634
 20
-64.58547429384627
  0
LWPOLYLINE
  5
1E2
330
70
100
AcDbEntity
  8
0
 62
     8
420
  8421504
370
    25
100
AcDbPolyline
 90
       29
 70
     0
 43
0.0
 10
134.3832813639163
 20
-58.53956384328658
 10
134.9440857014315
 20
-58.88944965287755
 10
135.4562369174904
 20
-59.26337107064632
 10
135.9166543981303
 20
-59.65907932433005
 10
136.3225697409159
 20
-60.07419464101833
 10
136.6715416992269
 20
-60.50622014930491
 10
136.9614708408756
 20
-60.95255825458398
 10
137.1906127791848
 20
-61.41052443135088
 10
137.3575918796581
 20
-61.87736392805064
 10
137.4614018313189
 20
-62.35026968086515
 10
137.5014189725532
 20
-62.8263974796707
 10
137.477402671997
 20
-63.3028833324543
 10
137.3894972324279
 20
-63.77686214817277
 10
137.2382315095841
 20
-64.24548334246066
 10
137.0245147243558
 20
-64.70592820216097
 10
136.7496336071873
 20
-65.15542823817184
 10
136.4152394522634
 20
-65.59127925295047
 10
136.0233441203808
 20
-66.01086035309716
 10
135.576305093973
 20
-66.41164829125749
 10
135.0768102001993
 20
-66.7912324400687
 10
134.527864237124
 20
-67.147330425326
 10
133.9327672709402
 20
-67.47779977549926
 10
133.295099501695
 20
-67.78065369220943
 10
132.618695610339
 20
-68.05407058425015
 10
131.9076229135419
 20
-68.29640579919328
 10
131.1661591850946
 20
-68.50620266849674
 10
130.3987624818907
 20
-68.6821984970317
 10
129.6100487753419
 20
-68.82333571769011
 10
129.5758482871642
 20
-68.82859091230844
  0
LWPOLYLINE
  5
1E3
330
70
100
AcDbEntity
  8
0
 62
     8
420
  8421504
370
    25
100
AcDbPolyline
 90
       35
 70
     0
 43
0.0
 10
123.3988688920963
 20
-68.70011833924426
 10
123.1156513463828
 20
-68.64142969101902
 10
122.3543107853237
 20
-68.45687617512576
 10
121.6200332523885
 20
-68.23881878782095
 10
120.9172348273285
 20
-67.98856896489656
 10
120.2501417880935
 20
-67.70763189574124
 10
119.6227670997995
 20
-67.39769646741965
 10
119.0388830012037
 20
-67.06062735199518
 10
118.5020009199803
 20
-66.69845165358022
 10
118.0153509129076
 20
-66.3133470392346
 10
117.5818585352089
 20
-65.90763014432184
 10
117.2041311338777
 20
-65.48374074733499
 10
116.8844404285066
 20
-65.04422819671828
 10
116.6247091852208
 20
-64.59173580556788
 10
116.4264994134886
 20
-64.12898524546505
 10
116.2910030379331
 20
-63.65875885279367
 10
116.2190356159586
 20
-63.1838850121548
 10
116.2110289133346
 20
-62.70721980271474
 10
116.2670320461824
 20
-62.23162963430318
 10
116.3867076737757
 20
-61.75997498226063
 10
116.5693358058557
 20
-61.29509236356525
 10
116.8138191332318
 20
-60.83977763244483
 10
117.1186858830367
 20
-60.39676894539786
 10
117.4821040970888
 20
-59.96873104598268
 10
117.9018864861416
 20
-59.55823751574873
 10
118.3755097528293
 20
-59.16775786086024
 10
118.9001249670249
 20
-58.79964009327204
 10
119.47257669822
 20
-58.45609792720773
 10
120.0894233377653
 20
-58.1391981681012
 10
120.7469536140255
 20
-57.85084590371717
 10
121.4412139105605
 20
-57.59277576695859
 10
122.1680284457884
 20
-57.36653940737387
 10
122.923026353483
 20
-57.17349777077675
 10
123.7016676212851
 20
-57.0148122795539
 10
124.4197442316083
 20
-56.90203253656875
  0
SPLINE
  5
1E4
330
70
100
AcDbEntity
  8
0
 62
     8
420
  8421504
370
    25
100
AcDbSpline
210
0.0
220
0.0
230
1.0
 70
     8
 71
     3
 72
     8
 73
     4
 74
     0
 42
0.0000000001
 43
0.0000000001
 40
0.0
 40
0.0
 40
0.0
 40
0.0
 40
1.0
 40
1.0
 40
1.0
 40
1.0
 10
134.3832813639073
 20
-58.53956384329942
 30
0.0
 10
132.8053497676916
 20
-57.67665890280916
 30
0.0
 10
131.0779423062494
 20
-57.12116619641492
 30
0.0
 10
129.2928098823139
 20
-56.90259060840626
 30
0.0
  0
LWPOLYLINE
  5
1E5
330
70
100
AcDbEntity
  8
0
 62
     8
420
  8421504
370
    25
100
AcDbPolyline
 90
       34
 70
     0
 43
0.0
 10
136.9908316696787
 20
-65.1434657468929
 10
136.9394842960581
 20
-65.22290053366724
 10
136.6158020424469
 20
-65.66207008664189
 10
136.2348350658148
 20
-66.08564747775364
 10
135.7988186292529
 20
-66.49114660589599
 10
135.3103112491867
 20
-66.87618753326754
 10
134.7721807977947
 20
-67.23851154164768
 10
134.1875845141922
 20
-67.57599179267263
 10
133.5599529177555
 20
-67.88664788978519
 10
132.892970199565
 20
-68.16865719755765
 10
132.1905489983865
 20
-68.42036412866043
 10
131.4568119340455
 20
-68.64029168300212
 10
130.6960655267472
 20
-68.82714947060055
 10
129.9127736398723
 20
-68.97984112981683
 10
129.1115322554402
 20
-69.09747009706591
 10
128.2970451066392
 20
-69.17934664045784
 10
127.4740901720365
 20
-69.2249896179852
 10
126.6474979732049
 20
-69.23413153338447
 10
125.8221188303743
 20
-69.20671897524804
 10
125.0027965911286
 20
-69.14291239738355
 10
124.1943389322202
 20
-69.04308655861775
 10
123.4014907074334
 20
-68.90782700577998
 10
122.6289040587804
 20
-68.7379277657335
 10
121.8811138586965
 20
-68.53438552096396
 10
121.1625076310227
 20
-68.29839499353474
 10
120.4773027061815
 20
-68.03134103240698
 10
119.8295202829589
 20
-67.73479067318993
 10
119.2229612987128
 20
-67.41048448339384
 10
118.6611856311957
 20
-67.06032543511387
 10
118.147489681974
 20
-66.68636860211375
 10
117.6848885291308
 20
-66.29080821870238
 10
117.2760966521365
 20
-65.87596567366425
 10
116.923512939516
 20
-65.44427557995632
 10
116.7322529202003
 20
-65.16645428352217
  0
LWPOLYLINE
  5
1E6
330
70
100
AcDbEntity
  8
0
 62
     8
420
  8421504
370
    25
100
AcDbPolyline
 90
       34
 70
     0
 43
0.0
 10
136.9750257707806
 20
-67.25464765258603
 10
136.9182672383987
 20
-67.34265551278082
 10
136.595265567835
 20
-67.78090113704512
 10
136.2150996802631
 20
-68.20358701996795
 10
135.7800005554568
 20
-68.60823304997693
 10
135.2925212841339
 20
-68.99246417971487
 10
134.7555227661205
 20
-69.35402571612943
 10
134.1721563389398
 20
-69.69079598621894
 10
133.5458455257369
 20
-70.00079863206444
 10
132.8802655701228
 20
-70.28221442529238
 10
132.179322138397
 20
-70.53339180356751
 10
131.447129378916
 20
-70.75285689905143
 10
130.6879834364691
 20
-70.93932179439009
 10
129.9063390364623
 20
-71.09169188648298
 10
129.1067839750015
 20
-71.20907357887666
 10
128.2940098014234
 20
-71.29077757937274
 10
127.4727864985397
 20
-71.33632472420451
 10
126.6479331656281
 20
-71.34544751699357
 10
125.8242902234464
 20
-71.31809254639009
 10
125.0066916202783
 20
-71.25442026625818
 10
124.1999351334623
 20
-71.1548041165803
 10
123.4087545750938
 20
-71.01982942430892
 10
122.6377935204903
 20
-70.8502874689364
 10
121.8915765618972
 20
-70.6471733942863
 10
121.1744820852947
 20
-70.41167928478476
 10
120.4907183783547
 20
-70.14518740685791
 10
119.8442985965817
 20
-69.84926103192954
 10
119.2390158245576
 20
-69.52563707334897
 10
118.6784219442762
 20
-69.17621476671978
 10
118.165806884718
 20
-68.803044569931
 10
117.7041793940113
 20
-68.4083161839176
 10
117.2962474312827
 20
-67.99434635418371
 10
116.9444054114079
 20
-67.56356447339847
 10
116.7597341975211
 20
-67.29595881471981
  0
LWPOLYLINE
  5
1E7
330
70
100
AcDbEntity
  8
0
 62
     8
420
  8421504
370
    25
100
AcDbPolyline
 90
       39
 70
     0
 43
0.0
 10
135.8172982200465
 20
-89.0985203272471
 10
135.8017774997621
 20
-89.30200179736283
 10
135.7211572496199
 20
-89.7388643310888
 10
135.5766501447863
 20
-90.17020637175916
 10
135.3692977154105
 20
-90.5929196197508
 10
135.100594007839
 20
-91.00395852839282
 10
134.7724751142668
 20
-91.4003617343133
 10
134.387304989943
 20
-91.7792729933388
 10
133.9478590811153
 20
-92.13796250128064
 10
133.4573029794404
 20
-92.47384537062172
 10
132.9191716238014
 20
-92.78450198975709
 10
132.3373423862653
 20
-93.06769399930317
 10
131.7160066113921
 20
-93.32138072261031
 10
131.0596419406968
 20
-93.5437347024324
 10
130.3729770462353
 20
-93.73315370780572
 10
129.6609596239904
 20
-93.88827305636651
 10
128.9287194615995
 20
-94.00797506592075
 10
128.1815321724732
 20
-94.09139724186477
 10
127.424782072733
 20
-94.13793832163994
 10
126.663921060958
 20
-94.14726355006285
 10
125.9044311146927
 20
-94.11930522886661
 10
125.1517839312877
 20
-94.05426491447398
 10
124.4114036149111
 20
-93.95261122016718
 10
123.6886232714573
 20
-93.81507673881889
 10
122.9886513125397
 20
-93.64265221830882
 10
122.3165310966245
 20
-93.43657996734922
 10
121.6771047578548
 20
-93.19834484389678
 10
121.0749798436383
 20
-92.92966334730719
 10
120.5144943331024
 20
-92.63247133735141
 10
119.9996868917845
 20
-92.30890993931092
 10
119.5342664594169
 20
-91.96131062518226
 10
119.1215864066385
 20
-91.59217765702363
 10
118.7646201198851
 20
-91.20417091535292
 10
118.4659397272629
 20
-90.80008570468136
 10
118.2276972037352
 20
-90.3828334938222
 10
118.0516087608467
 20
-89.95542103491361
 10
117.9389434242593
 20
-89.52092706439357
 10
117.8905129438879
 20
-89.08248285095368
 10
117.8887085897291
 20
-89.00849932024696
  0
INSERT
  5
1EA
330
70
100
AcDbEntity
  8
CAPA_BASE
100
AcDbBlockReference
  2
Block_0
 10
0.0
 20
0.0
 30
0.0
  0
INSERT
  5
1F7
330
70
100
AcDbEntity
  8
CAPA_BASE
100
AcDbBlockReference
  2
Block_1
 10
0.0
 20
0.0
 30
0.0
  0
INSERT
  5
203
330
70
100
AcDbEntity
  8
CAPA_BASE
100
AcDbBlockReference
  2
Block_2
 10
0.0
 20
0.0
 30
0.0
  0
ENDSEC
  0
SECTION
  2
OBJECTS
  0
DICTIONARY
  5
C
330
0
100
AcDbDictionary
281
     1
  3
ACAD_COLOR
350
63
  3
ACAD_DETAILVIEWSTYLE
350
6A
  3
ACAD_GROUP
350
D
  3
ACAD_LAYOUT
350
62
  3
ACAD_MATERIAL
350
10
  3
ACAD_MLEADERSTYLE
350
66
  3
ACAD_MLINESTYLE
350
5F
  3
ACAD_PLOTSETTINGS
350
61
  3
ACAD_PLOTSTYLENAME
350
E
  3
ACAD_SCALELIST
350
42
  3
ACAD_SECTIONVIEWSTYLE
350
68
  3
ACAD_TABLESTYLE
350
64
  3
ACAD_VISUALSTYLE
350
29
  3
ACDB_RECOMPOSE_DATA
350
216
  3
AcDbVariableDictionary
350
20E
  0
DICTIONARY
  5
63
102
{ACAD_REACTORS
330
C
102
}
330
C
100
AcDbDictionary
281
     1
  0
DICTIONARY
  5
6A
102
{ACAD_REACTORS
330
C
102
}
330
C
100
AcDbDictionary
281
     1
  3
Imperial24
350
6B
  0
DICTIONARY
  5
D
102
{ACAD_REACTORS
330
C
102
}
330
C
100
AcDbDictionary
281
     1
  0
DICTIONARY
  5
62
102
{ACAD_REACTORS
330
C
102
}
330
C
100
AcDbDictionary
281
     1
  3
Layout1
350
6F
  3
Layout2
350
77
  3
Model
350
73
  0
DICTIONARY
  5
10
102
{ACAD_REACTORS
330
C
102
}
330
C
100
AcDbDictionary
281
     1
  3
ByBlock
350
19
  3
ByLayer
350
11
  3
Global
350
21
  0
DICTIONARY
  5
66
102
{ACAD_REACTORS
330
C
102
}
330
C
100
AcDbDictionary
281
     1
  3
Standard
350
67
  0
DICTIONARY
  5
5F
102
{ACAD_REACTORS
330
C
102
}
330
C
100
AcDbDictionary
281
     1
  3
Standard
350
60
  0
DICTIONARY
  5
61
102
{ACAD_REACTORS
330
C
102
}
330
C
100
AcDbDictionary
281
     1
  0
ACDBDICTIONARYWDFLT
  5
E
102
{ACAD_REACTORS
330
C
102
}
330
C
100
AcDbDictionary
281
     1
  3
Normal
350
F
100
AcDbDictionaryWithDefault
340
F
  0
DICTIONARY
  5
42
102
{ACAD_REACTORS
330
C
102
}
330
C
100
AcDbDictionary
281
     1
  3
A0
350
43
  3
A1
350
44
  3
A2
350
45
  3
A3
350
46
  3
A4
350
47
  3
A5
350
48
  3
A6
350
49
  3
A7
350
4A
  3
A8
350
4B
  3
A9
350
4C
  3
B0
350
4D
  3
B1
350
4E
  3
B2
350
4F
  3
B3
350
50
  3
B4
350
51
  3
B5
350
52
  3
B6
350
53
  0
DICTIONARY
  5
68
102
{ACAD_REACTORS
330
C
102
}
330
C
100
AcDbDictionary
281
     1
  3
Imperial24
350
69
  0
DICTIONARY
  5
64
102
{ACAD_REACTORS
330
C
102
}
330
C
100
AcDbDictionary
281
     1
  3
Standard
350
65
  0
DICTIONARY
  5
29
102
{ACAD_REACTORS
330
C
102
}
330
C
100
AcDbDictionary
281
     1
  3
2dWireframe
350
2F
  3
Basic
350
2E
  3
Brighten
350
35
  3
ColorChange
350
39
  3
Conceptual
350
32
  3
Dim
350
34
  3
EdgeColorOff
350
41
  3
Facepattern
350
38
  3
Flat
350
2A
  3
FlatWithEdges
350
2B
  3
Gouraud
350
2C
  3
GouraudWithEdges
350
2D
  3
Hidden
350
31
  3
JitterOff
350
3F
  3
Linepattern
350
37
  3
OverhangOff
350
40
  3
Realistic
350
33
  3
Shaded
350
3E
  3
Shaded with edges
350
3D
  3
Shades of Gray
350
3A
  3
Sketchy
350
3B
  3
Thicken
350
36
  3
Wireframe
350
30
  3
X-Ray
350
3C
  0
XRECORD
  5
216
102
{ACAD_REACTORS
330
C
102
}
330
C
100
AcDbXrecord
280
     1
 90
        1
330
65
  0
DICTIONARY
  5
20E
102
{ACAD_REACTORS
330
C
102
}
330
C
100
AcDbDictionary
281
     1
  3
CANNOSCALE
350
213
  3
CMLEADERSTYLE
350
210
  3
CTABLESTYLE
350
20F
  3
CVIEWDETAILSTYLE
350
211
  3
CVIEWSECTIONSTYLE
350
212
  0
ACDBDETAILVIEWSTYLE
  5
6B
102
{ACAD_REACTORS
330
6A
102
}
330
6A
100
AcDbModelDocViewStyle
 70
     0
  3
Imperial24
290
     1
300
Imperial24
 90
        0
100
AcDbDetailViewStyle
 70
     0
 71
     0
 90
        3
 71
     1
340
55
 62
   256
 40
0.24
340
0
 62
   256
 40
0.24
300

 40
0.36
280
     3
 71
     2
340
5D
 90
       25
 62
   256
 71
     3
340
55
 62
   256
 40
0.24
 90
        1
 40
0.75
 90
        1
300
%<\AcVar ViewType \f "%tc1">% %<\AcVar ViewDetailId>%\PSCALE %<\AcVar ViewScale \f "%sn">%
 71
     4
340
5D
 90
       25
 62
   256
340
5D
 90
       25
 62
   256
280
     0
  0
LAYOUT
  5
6F
102
{ACAD_REACTORS
330
62
102
}
330
62
100
AcDbPlotSettings
  1

  2

  4

  6

 40
0.0
 41
0.0
 42
0.0
 43
0.0
 44
0.0
 45
0.0
 46
0.0
 47
0.0
 48
0.0
 49
0.0
140
0.0
141
0.0
142
1.0
143
1.0
 70
   688
 72
     0
 73
     0
 74
     5
  7

 75
    16
147
1.0
 76
     0
 77
     2
 78
   300
148
0.0
149
0.0
100
AcDbLayout
  1
Layout1
 70
     1
 71
     1
 10
0.0
 20
0.0
 11
12.0
 21
9.0
 12
0.0
 22
0.0
 32
0.0
 14
0.0
 24
0.0
 34
0.0
 15
0.0
 25
0.0
 35
0.0
146
0.0
 13
0.0
 23
0.0
 33
0.0
 16
1.0
 26
0.0
 36
0.0
 17
0.0
 27
1.0
 37
0.0
 76
     0
330
6C
  0
LAYOUT
  5
77
102
{ACAD_REACTORS
330
62
102
}
330
62
100
AcDbPlotSettings
  1

  2

  4

  6

 40
0.0
 41
0.0
 42
0.0
 43
0.0
 44
0.0
 45
0.0
 46
0.0
 47
0.0
 48
0.0
 49
0.0
140
0.0
141
0.0
142
1.0
143
1.0
 70
   688
 72
     0
 73
     0
 74
     5
  7

 75
    16
147
1.0
 76
     0
 77
     2
 78
   300
148
0.0
149
0.0
100
AcDbLayout
  1
Layout2
 70
     1
 71
     2
 10
0.0
 20
0.0
 11
12.0
 21
9.0
 12
0.0
 22
0.0
 32
0.0
 14
0.0
 24
0.0
 34
0.0
 15
0.0
 25
0.0
 35
0.0
146
0.0
 13
0.0
 23
0.0
 33
0.0
 16
1.0
 26
0.0
 36
0.0
 17
0.0
 27
1.0
 37
0.0
 76
     0
330
74
  0
LAYOUT
  5
73
102
{ACAD_REACTORS
330
62
102
}
330
62
100
AcDbPlotSettings
  1

  2

  4

  6

 40
0.0
 41
0.0
 42
0.0
 43
0.0
 44
0.0
 45
0.0
 46
0.0
 47
0.0
 48
0.0
 49
0.0
140
0.0
141
0.0
142
1.0
143
1.0
 70
  1712
 72
     0
 73
     0
 74
     0
  7

 75
     0
147
1.0
 76
     0
 77
     2
 78
   300
148
0.0
149
0.0
100
AcDbLayout
  1
Model
 70
     1
 71
     0
 10
0.0
 20
0.0
 11
12.0
 21
9.0
 12
0.0
 22
0.0
 32
0.0
 14
0.0
 24
0.0
 34
0.0
 15
0.0
 25
0.0
 35
0.0
146
0.0
 13
0.0
 23
0.0
 33
0.0
 16
1.0
 26
0.0
 36
0.0
 17
0.0
 27
1.0
 37
0.0
 76
     0
330
70
  0
MATERIAL
  5
19
102
{ACAD_XDICTIONARY
360
1A
102
}
102
{ACAD_REACTORS
330
10
102
}
330
10
100
AcDbMaterial
  1
ByBlock
 72
     0
 43
0.0208333333333333
 43
0.0
 43
0.0
 43
0.0
 43
0.0
 43
0.0208333333333333
 43
0.0
 43
0.0
 43
0.0
 43
0.0
 43
1.0
 43
0.0
 43
0.0
 43
0.0
 43
0.0
 43
1.0
 77
     0
 47
0.0208333333333333
 47
0.0
 47
0.0
 47
0.0
 47
0.0
 47
0.0208333333333333
 47
0.0
 47
0.0
 47
0.0
 47
0.0
 47
1.0
 47
0.0
 47
0.0
 47
0.0
 47
0.0
 47
1.0
171
     0
 49
0.0208333333333333
 49
0.0
 49
0.0
 49
0.0
 49
0.0
 49
0.0208333333333333
 49
0.0
 49
0.0
 49
0.0
 49
0.0
 49
1.0
 49
0.0
 49
0.0
 49
0.0
 49
0.0
 49
1.0
175
     0
142
0.0208333333333333
142
0.0
142
0.0
142
0.0
142
0.0
142
0.0208333333333333
142
0.0
142
0.0
142
0.0
142
0.0
142
1.0
142
0.0
142
0.0
142
0.0
142
0.0
142
1.0
179
     0
144
0.0208333333333333
144
0.0
144
0.0
144
0.0
144
0.0
144
0.0208333333333333
144
0.0
144
0.0
144
0.0
144
0.0
144
1.0
144
0.0
144
0.0
144
0.0
144
0.0
144
1.0
147
0.0208333333333333
147
0.0
147
0.0
147
0.0
147
0.0
147
0.0208333333333333
147
0.0
147
0.0
147
0.0
147
0.0
147
1.0
147
0.0
147
0.0
147
0.0
147
0.0
147
1.0
  0
MATERIAL
  5
11
102
{ACAD_XDICTIONARY
360
12
102
}
102
{ACAD_REACTORS
330
10
102
}
330
10
100
AcDbMaterial
  1
ByLayer
 72
     0
 43
0.0208333333333333
 43
0.0
 43
0.0
 43
0.0
 43
0.0
 43
0.0208333333333333
 43
0.0
 43
0.0
 43
0.0
 43
0.0
 43
1.0
 43
0.0
 43
0.0
 43
0.0
 43
0.0
 43
1.0
 77
     0
 47
0.0208333333333333
 47
0.0
 47
0.0
 47
0.0
 47
0.0
 47
0.0208333333333333
 47
0.0
 47
0.0
 47
0.0
 47
0.0
 47
1.0
 47
0.0
 47
0.0
 47
0.0
 47
0.0
 47
1.0
171
     0
 49
0.0208333333333333
 49
0.0
 49
0.0
 49
0.0
 49
0.0
 49
0.0208333333333333
 49
0.0
 49
0.0
 49
0.0
 49
0.0
 49
1.0
 49
0.0
 49
0.0
 49
0.0
 49
0.0
 49
1.0
175
     0
142
0.0208333333333333
142
0.0
142
0.0
142
0.0
142
0.0
142
0.0208333333333333
142
0.0
142
0.0
142
0.0
142
0.0
142
1.0
142
0.0
142
0.0
142
0.0
142
0.0
142
1.0
179
     0
144
0.0208333333333333
144
0.0
144
0.0
144
0.0
144
0.0
144
0.0208333333333333
144
0.0
144
0.0
144
0.0
144
0.0
144
1.0
144
0.0
144
0.0
144
0.0
144
0.0
144
1.0
147
0.0208333333333333
147
0.0
147
0.0
147
0.0
147
0.0
147
0.0208333333333333
147
0.0
147
0.0
147
0.0
147
0.0
147
1.0
147
0.0
147
0.0
147
0.0
147
0.0
147
1.0
  0
MATERIAL
  5
21
102
{ACAD_XDICTIONARY
360
22
102
}
102
{ACAD_REACTORS
330
10
102
}
330
10
100
AcDbMaterial
  1
Global
 72
     0
 43
0.0208333333333333
 43
0.0
 43
0.0
 43
0.0
 43
0.0
 43
0.0208333333333333
 43
0.0
 43
0.0
 43
0.0
 43
0.0
 43
1.0
 43
0.0
 43
0.0
 43
0.0
 43
0.0
 43
1.0
 77
     0
 47
0.0208333333333333
 47
0.0
 47
0.0
 47
0.0
 47
0.0
 47
0.0208333333333333
 47
0.0
 47
0.0
 47
0.0
 47
0.0
 47
1.0
 47
0.0
 47
0.0
 47
0.0
 47
0.0
 47
1.0
171
     0
 49
0.0208333333333333
 49
0.0
 49
0.0
 49
0.0
 49
0.0
 49
0.0208333333333333
 49
0.0
 49
0.0
 49
0.0
 49
0.0
 49
1.0
 49
0.0
 49
0.0
 49
0.0
 49
0.0
 49
1.0
175
     0
142
0.0208333333333333
142
0.0
142
0.0
142
0.0
142
0.0
142
0.0208333333333333
142
0.0
142
0.0
142
0.0
142
0.0
142
1.0
142
0.0
142
0.0
142
0.0
142
0.0
142
1.0
179
     0
144
0.0208333333333333
144
0.0
144
0.0
144
0.0
144
0.0
144
0.0208333333333333
144
0.0
144
0.0
144
0.0
144
0.0
144
1.0
144
0.0
144
0.0
144
0.0
144
0.0
144
1.0
147
0.0208333333333333
147
0.0
147
0.0
147
0.0
147
0.0
147
0.0208333333333333
147
0.0
147
0.0
147
0.0
147
0.0
147
1.0
147
0.0
147
0.0
147
0.0
147
0.0
147
1.0
  0
MLEADERSTYLE
  5
67
102
{ACAD_REACTORS
330
66
102
}
330
66
100
AcDbMLeaderStyle
179
     2
170
     2
171
     1
172
     0
 90
        2
 40
0.0
 41
0.0
173
     1
 91
-1056964608
340
5B
 92
       -2
290
     1
 42
0.09
291
     1
 43
0.36
  3
Standard
 44
0.18
300

342
55
174
     1
178
     6
175
     1
176
     0
 93
-1056964608
 45
0.18
292
     0
297
     0
 46
0.18
 94
-1056964608
 47
1.0
 49
1.0
140
1.0
293
     1
141
0.0
294
     1
177
     0
142
1.0
295
     1
296
     0
143
0.125
271
     0
272
     9
273
     9
298
     1
  0
MLINESTYLE
  5
60
102
{ACAD_REACTORS
330
5F
102
}
330
5F
100
AcDbMlineStyle
  2
STANDARD
 70
     0
  3

 62
   256
 51
90.0
 52
90.0
 71
     2
 49
0.5
 62
   256
  6
BYLAYER
 49
-0.5
 62
   256
  6
BYLAYER
  0
ACDBPLACEHOLDER
  5
F
102
{ACAD_REACTORS
330
E
102
}
330
E
  0
SCALE
  5
43
102
{ACAD_REACTORS
330
42
102
}
330
42
100
AcDbScale
 70
     0
300
1:1
140
1.0
141
1.0
290
     1
  0
SCALE
  5
44
102
{ACAD_REACTORS
330
42
102
}
330
42
100
AcDbScale
 70
     0
300
1/128" = 1'-0"
140
0.0078125
141
12.0
290
     0
  0
SCALE
  5
45
102
{ACAD_REACTORS
330
42
102
}
330
42
100
AcDbScale
 70
     0
300
1/64" = 1'-0"
140
0.015625
141
12.0
290
     0
  0
SCALE
  5
46
102
{ACAD_REACTORS
330
42
102
}
330
42
100
AcDbScale
 70
     0
300
1/32" = 1'-0"
140
0.03125
141
12.0
290
     0
  0
SCALE
  5
47
102
{ACAD_REACTORS
330
42
102
}
330
42
100
AcDbScale
 70
     0
300
1/16" = 1'-0"
140
0.0625
141
12.0
290
     0
  0
SCALE
  5
48
102
{ACAD_REACTORS
330
42
102
}
330
42
100
AcDbScale
 70
     0
300
3/32" = 1'-0"
140
0.09375
141
12.0
290
     0
  0
SCALE
  5
49
102
{ACAD_REACTORS
330
42
102
}
330
42
100
AcDbScale
 70
     0
300
1/8" = 1'-0"
140
0.125
141
12.0
290
     0
  0
SCALE
  5
4A
102
{ACAD_REACTORS
330
42
102
}
330
42
100
AcDbScale
 70
     0
300
3/16" = 1'-0"
140
0.1875
141
12.0
290
     0
  0
SCALE
  5
4B
102
{ACAD_REACTORS
330
42
102
}
330
42
100
AcDbScale
 70
     0
300
1/4" = 1'-0"
140
0.25
141
12.0
290
     0
  0
SCALE
  5
4C
102
{ACAD_REACTORS
330
42
102
}
330
42
100
AcDbScale
 70
     0
300
3/8" = 1'-0"
140
0.375
141
12.0
290
     0
  0
SCALE
  5
4D
102
{ACAD_REACTORS
330
42
102
}
330
42
100
AcDbScale
 70
     0
300
1/2" = 1'-0"
140
0.5
141
12.0
290
     0
  0
SCALE
  5
4E
102
{ACAD_REACTORS
330
42
102
}
330
42
100
AcDbScale
 70
     0
300
3/4" = 1'-0"
140
0.75
141
12.0
290
     0
  0
SCALE
  5
4F
102
{ACAD_REACTORS
330
42
102
}
330
42
100
AcDbScale
 70
     0
300
1" = 1'-0"
140
1.0
141
12.0
290
     0
  0
SCALE
  5
50
102
{ACAD_REACTORS
330
42
102
}
330
42
100
AcDbScale
 70
     0
300
1-1/2" = 1'-0"
140
1.5
141
12.0
290
     0
  0
SCALE
  5
51
102
{ACAD_REACTORS
330
42
102
}
330
42
100
AcDbScale
 70
     0
300
3" = 1'-0"
140
3.0
141
12.0
290
     0
  0
SCALE
  5
52
102
{ACAD_REACTORS
330
42
102
}
330
42
100
AcDbScale
 70
     0
300
6" = 1'-0"
140
6.0
141
12.0
290
     0
  0
SCALE
  5
53
102
{ACAD_REACTORS
330
42
102
}
330
42
100
AcDbScale
 70
     0
300
1'-0" = 1'-0"
140
12.0
141
12.0
290
     0
  0
ACDBSECTIONVIEWSTYLE
  5
69
102
{ACAD_REACTORS
330
68
102
}
330
68
100
AcDbModelDocViewStyle
 70
     0
  3
Imperial24
290
     1
300
Imperial24
 90
        0
100
AcDbSectionViewStyle
 70
     0
 71
     0
 90
       78
 71
     1
340
55
 62
   256
 40
0.24
340
0
340
0
 62
   256
 40
0.24
300
I, O, Q, S, X, Z
 40
0.48
 90
        3
 40
0.18
 90
        1
 71
     2
340
5D
 90
       25
 62
   256
340
5D
 90
       50
 62
   256
 40
0.24
 40
0.0
 40
0.24
 71
     3
340
55
 62
   256
 40
0.24
 90
        1
 40
0.75
 90
        1
300
%<\AcVar ViewType \f "%tc1">% %<\AcVar ViewSectionStartId>%-%<\AcVar ViewSectionEndId>%\PSCALE %<\AcVar ViewScale \f "%sn">%
 71
     4
 62
   256
 62
   257
300
ANSI31
 40
1.0
 90
        0
290
     0
290
     0
 90
        6
 40
0.0
 40
1.570796326794896
 40
0.2617993877991494
 40
1.308996938995747
 40
-0.2617993877991494
 40
1.832595714594046
  0
TABLESTYLE
  5
65
102
{ACAD_XDICTIONARY
360
214
102
}
102
{ACAD_REACTORS
330
64
102
}
330
64
100
AcDbTableStyle
280
     0
  3
Standard
 70
     0
 71
     0
 40
0.06
 41
0.06
280
     0
281
     0
  7
Standard
140
0.18
170
     2
 62
     0
 63
     7
283
     0
 90
      512
 91
        0
  1

274
    -2
284
     1
 64
     0
275
    -2
285
     1
 65
     0
276
    -2
286
     1
 66
     0
277
    -2
287
     1
 67
     0
278
    -2
288
     1
 68
     0
279
    -2
289
     1
 69
     0
  7
Standard
140
0.25
170
     5
 62
     0
 63
     7
283
     0
 90
      512
 91
        0
  1

274
    -2
284
     1
 64
     0
275
    -2
285
     1
 65
     0
276
    -2
286
     1
 66
     0
277
    -2
287
     1
 67
     0
278
    -2
288
     1
 68
     0
279
    -2
289
     1
 69
     0
  7
Standard
140
0.18
170
     5
 62
     0
 63
     7
283
     0
 90
      512
 91
        0
  1

274
    -2
284
     1
 64
     0
275
    -2
285
     1
 65
     0
276
    -2
286
     1
 66
     0
277
    -2
287
     1
 67
     0
278
    -2
288
     1
 68
     0
279
    -2
289
     1
 69
     0
  0
VISUALSTYLE
  5
2F
102
{ACAD_REACTORS
330
29
102
}
330
29
100
AcDbVisualStyle
  2
2dWireframe
 70
     4
177
     3
291
     0
 70
    58
 90
        0
176
     1
 90
        2
176
     1
 90
        0
176
     1
 90
        0
176
     1
 40
0.6
176
     1
 40
30.0
176
     1
 62
     7
420
 16777215
176
     1
 90
        1
176
     1
 90
        4
176
     1
 62
     7
176
     1
 62
   257
176
     1
 90
        1
176
     1
 90
        1
176
     1
 40
1.0
176
     1
 90
        0
176
     1
 62
   257
176
     1
 40
1.0
176
     1
 90
        1
176
     1
 90
        6
176
     1
 90
        2
176
     1
 62
     7
176
     1
 90
        5
176
     1
 90
        0
176
     1
 90
        0
176
     1
290
     0
176
     1
 90
        1
176
     1
 40
0.0
176
     1
 90
        0
176
     1
290
     1
176
     1
290
     1
176
     1
290
     0
176
     1
290
     0
176
     1
290
     0
176
     1
290
     0
176
     1
290
     0
176
     1
290
     0
176
     1
290
     0
176
     1
 90
       50
176
     1
 40
0.0
176
     1
 40
1.0
176
     1
 90
        0
176
     1
 62
    18
420
        0
176
     1
 90
       50
176
     1
 90
        3
176
     1
 62
     5
420
      255
176
     1
290
     0
176
     1
 90
       50
176
     1
 90
       50
176
     1
 90
       50
176
     1
290
     0
176
     1
 90
       50
176
     1
 62
   256
176
     0
 40
1.0
176
     0
 90
        2
176
     1
  1
strokes_ogs.tif
176
     1
290
     0
176
     1
 40
1.0
176
     1
 40
1.0
176
     1
  0
VISUALSTYLE
  5
2E
102
{ACAD_REACTORS
330
29
102
}
330
29
100
AcDbVisualStyle
  2
Basic
 70
     7
177
     3
291
     1
 70
    58
 90
        1
176
     1
 90
        0
176
     1
 90
        1
176
     1
 90
        0
176
     1
 40
0.6
176
     1
 40
30.0
176
     1
 62
     7
420
 16777215
176
     1
 90
        0
176
     1
 90
        4
176
     1
 62
     7
176
     1
 62
   257
176
     1
 90
        1
176
     1
 90
        1
176
     1
 40
1.0
176
     1
 90
        8
176
     1
 62
     7
176
     1
 40
1.0
176
     1
 90
        1
176
     1
 90
        6
176
     1
 90
        2
176
     1
 62
     7
176
     1
 90
        5
176
     1
 90
        0
176
     1
 90
        0
176
     1
290
     0
176
     1
 90
        1
176
     1
 40
0.0
176
     1
 90
        0
176
     1
290
     0
176
     1
290
     1
176
     1
290
     1
176
     1
290
     0
176
     1
290
     0
176
     1
290
     0
176
     1
290
     0
176
     1
290
     0
176
     1
290
     0
176
     1
 90
       50
176
     1
 40
0.0
176
     1
 40
1.0
176
     1
 90
        0
176
     1
 62
    18
420
        0
176
     1
 90
       50
176
     1
 90
        3
176
     1
 62
     5
420
      255
176
     1
290
     0
176
     1
 90
       50
176
     1
 90
       50
176
     1
 90
       50
176
     1
290
     0
176
     1
 90
       50
176
     1
 62
   256
176
     0
 40
1.0
176
     0
 90
        2
176
     1
  1
strokes_ogs.tif
176
     1
290
     0
176
     1
 40
1.0
176
     1
 40
1.0
176
     1
  0
VISUALSTYLE
  5
35
102
{ACAD_REACTORS
330
29
102
}
330
29
100
AcDbVisualStyle
  2
Brighten
 70
    12
177
     3
291
     1
 70
    58
 90
        2
176
     1
 90
        2
176
     1
 90
        0
176
     1
 90
        0
176
     1
 40
0.6
176
     1
 40
30.0
176
     1
 62
     7
420
 16777215
176
     1
 90
        1
176
     1
 90
        4
176
     1
 62
     7
176
     1
 62
   257
176
     1
 90
        1
176
     1
 90
        1
176
     1
 40
1.0
176
     1
 90
        8
176
     1
 62
     7
176
     1
 40
1.0
176
     1
 90
        1
176
     1
 90
        6
176
     1
 90
        2
176
     1
 62
     7
176
     1
 90
        5
176
     1
 90
        0
176
     1
 90
        0
176
     1
290
     0
176
     1
 90
        1
176
     1
 40
50.0
176
     1
 90
        0
176
     1
290
     0
176
     1
290
     1
176
     1
290
     1
176
     1
290
     0
176
     1
290
     0
176
     1
290
     0
176
     1
290
     0
176
     1
290
     0
176
     1
290
     0
176
     1
 90
       50
176
     1
 40
0.0
176
     1
 40
1.0
176
     1
 90
        0
176
     1
 62
    18
420
        0
176
     1
 90
       50
176
     1
 90
        3
176
     1
 62
     5
420
      255
176
     1
290
     0
176
     1
 90
       50
176
     1
 90
       50
176
     1
 90
       50
176
     1
290
     0
176
     1
 90
       50
176
     1
 62
   256
176
     0
 40
1.0
176
     0
 90
        2
176
     1
  1
strokes_ogs.tif
176
     1
290
     0
176
     1
 40
1.0
176
     1
 40
1.0
176
     1
  0
VISUALSTYLE
  5
39
102
{ACAD_REACTORS
330
29
102
}
330
29
100
AcDbVisualStyle
  2
ColorChange
 70
    16
177
     3
291
     1
 70
    58
 90
        2
176
     1
 90
        2
176
     1
 90
        3
176
     1
 90
        0
176
     1
 40
0.6
176
     1
 40
30.0
176
     1
 62
     8
420
  8421504
176
     1
 90
        1
176
     1
 90
        4
176
     1
 62
     7
176
     1
 62
   257
176
     1
 90
        1
176
     1
 90
        1
176
     1
 40
1.0
176
     1
 90
        8
176
     1
 62
     8
420
  8421504
176
     1
 40
1.0
176
     1
 90
        1
176
     1
 90
        6
176
     1
 90
        2
176
     1
 62
     7
176
     1
 90
        5
176
     1
 90
        0
176
     1
 90
        0
176
     1
290
     0
176
     1
 90
        1
176
     1
 40
0.0
176
     1
 90
        0
176
     1
290
     0
176
     1
290
     1
176
     1
290
     1
176
     1
290
     0
176
     1
290
     0
176
     1
290
     0
176
     1
290
     0
176
     1
290
     0
176
     1
290
     0
176
     1
 90
       50
176
     1
 40
0.0
176
     1
 40
1.0
176
     1
 90
        0
176
     1
 62
    18
420
        0
176
     1
 90
       50
176
     1
 90
        3
176
     1
 62
     5
420
      255
176
     1
290
     0
176
     1
 90
       50
176
     1
 90
       50
176
     1
 90
       50
176
     1
290
     0
176
     1
 90
       50
176
     1
 62
   256
176
     0
 40
1.0
176
     0
 90
        2
176
     1
  1
strokes_ogs.tif
176
     1
290
     0
176
     1
 40
1.0
176
     1
 40
1.0
176
     1
  0
VISUALSTYLE
  5
32
102
{ACAD_REACTORS
330
29
102
}
330
29
100
AcDbVisualStyle
  2
Conceptual
 70
     9
177
     3
291
     0
 70
    58
 90
        3
176
     1
 90
        2
176
     1
 90
        0
176
     1
 90
        0
176
     1
 40
0.6
176
     1
 40
30.0
176
     1
 62
     7
420
 16777215
176
     1
 90
        2
176
     1
 90
        2
176
     1
 62
     7
176
     1
 62
   257
176
     1
 90
        1
176
     1
 90
        1
176
     1
 40
179.0
176
     1
 90
        8
176
     1
 62
     7
176
     1
 40
1.0
176
     1
 90
        1
176
     1
 90
        6
176
     1
 90
        2
176
     1
 62
     7
176
     1
 90
        3
176
     1
 90
        0
176
     1
 90
        0
176
     1
290
     0
176
     1
 90
        1
176
     1
 40
0.0
176
     1
 90
        0
176
     1
290
     0
176
     1
290
     1
176
     1
290
     1
176
     1
290
     0
176
     1
290
     0
176
     1
290
     0
176
     1
290
     0
176
     1
290
     0
176
     1
290
     0
176
     1
 90
       50
176
     1
 40
0.0
176
     1
 40
1.0
176
     1
 90
        0
176
     1
 62
    18
420
        0
176
     1
 90
       50
176
     1
 90
        3
176
     1
 62
     5
420
      255
176
     1
290
     0
176
     1
 90
       50
176
     1
 90
       50
176
     1
 90
       50
176
     1
290
     0
176
     1
 90
       50
176
     1
 62
   256
176
     0
 40
1.0
176
     0
 90
        2
176
     1
  1
strokes_ogs.tif
176
     1
290
     0
176
     1
 40
1.0
176
     1
 40
1.0
176
     1
  0
VISUALSTYLE
  5
34
102
{ACAD_REACTORS
330
29
102
}
330
29
100
AcDbVisualStyle
  2
Dim
 70
    11
177
     3
291
     1
 70
    58
 90
        2
176
     1
 90
        2
176
     1
 90
        0
176
     1
 90
        0
176
     1
 40
0.6
176
     1
 40
30.0
176
     1
 62
     7
420
 16777215
176
     1
 90
        1
176
     1
 90
        4
176
     1
 62
     7
176
     1
 62
   257
176
     1
 90
        1
176
     1
 90
        1
176
     1
 40
1.0
176
     1
 90
        8
176
     1
 62
     7
176
     1
 40
1.0
176
     1
 90
        1
176
     1
 90
        6
176
     1
 90
        2
176
     1
 62
     7
176
     1
 90
        5
176
     1
 90
        0
176
     1
 90
        0
176
     1
290
     0
176
     1
 90
        1
176
     1
 40
-50.0
176
     1
 90
        0
176
     1
290
     0
176
     1
290
     1
176
     1
290
     1
176
     1
290
     0
176
     1
290
     0
176
     1
290
     0
176
     1
290
     0
176
     1
290
     0
176
     1
290
     0
176
     1
 90
       50
176
     1
 40
0.0
176
     1
 40
1.0
176
     1
 90
        0
176
     1
 62
    18
420
        0
176
     1
 90
       50
176
     1
 90
        3
176
     1
 62
     5
420
      255
176
     1
290
     0
176
     1
 90
       50
176
     1
 90
       50
176
     1
 90
       50
176
     1
290
     0
176
     1
 90
       50
176
     1
 62
   256
176
     0
 40
1.0
176
     0
 90
        2
176
     1
  1
strokes_ogs.tif
176
     1
290
     0
176
     1
 40
1.0
176
     1
 40
1.0
176
     1
  0
VISUALSTYLE
  5
41
102
{ACAD_REACTORS
330
29
102
}
330
29
100
AcDbVisualStyle
  2
EdgeColorOff
 70
    22
177
     3
291
     1
 70
    58
 90
        2
176
     0
 90
        2
176
     0
 90
        0
176
     0
 90
        0
176
     0
 40
0.6
176
     0
 40
30.0
176
     0
 62
     7
420
 16777215
176
     0
 90
        1
176
     0
 90
        4
176
     0
 62
     7
176
     0
 62
   257
176
     0
 90
        1
176
     0
 90
        1
176
     0
 40
1.0
176
     0
 90
        8
176
     2
 62
     7
176
     0
 40
1.0
176
     0
 90
        1
176
     0
 90
        6
176
     0
 90
        2
176
     0
 62
     7
176
     0
 90
        5
176
     0
 90
        0
176
     0
 90
        0
176
     0
290
     0
176
     0
 90
        1
176
     0
 40
0.0
176
     0
 90
        0
176
     0
290
     0
176
     0
290
     1
176
     0
290
     1
176
     0
290
     0
176
     0
290
     0
176
     0
290
     0
176
     0
290
     0
176
     0
290
     0
176
     0
290
     0
176
     0
 90
       50
176
     0
 40
0.0
176
     0
 40
1.0
176
     0
 90
        0
176
     0
 62
    18
420
        0
176
     0
 90
       50
176
     0
 90
        3
176
     0
 62
     5
420
      255
176
     0
290
     0
176
     0
 90
       50
176
     0
 90
       50
176
     0
 90
       50
176
     0
290
     0
176
     0
 90
       50
176
     0
 62
   256
176
     0
 40
1.0
176
     0
 90
        2
176
     0
  1
strokes_ogs.tif
176
     0
290
     0
176
     0
 40
1.0
176
     0
 40
1.0
176
     0
  0
VISUALSTYLE
  5
38
102
{ACAD_REACTORS
330
29
102
}
330
29
100
AcDbVisualStyle
  2
Facepattern
 70
    15
177
     3
291
     1
 70
    58
 90
        2
176
     1
 90
        2
176
     1
 90
        0
176
     1
 90
        0
176
     1
 40
0.6
176
     1
 40
30.0
176
     1
 62
     7
420
 16777215
176
     1
 90
        1
176
     1
 90
        4
176
     1
 62
     7
176
     1
 62
   257
176
     1
 90
        1
176
     1
 90
        1
176
     1
 40
1.0
176
     1
 90
        8
176
     1
 62
     7
176
     1
 40
1.0
176
     1
 90
        1
176
     1
 90
        6
176
     1
 90
        2
176
     1
 62
     7
176
     1
 90
        5
176
     1
 90
        0
176
     1
 90
        0
176
     1
290
     0
176
     1
 90
        1
176
     1
 40
0.0
176
     1
 90
        0
176
     1
290
     0
176
     1
290
     1
176
     1
290
     1
176
     1
290
     0
176
     1
290
     0
176
     1
290
     0
176
     1
290
     0
176
     1
290
     0
176
     1
290
     0
176
     1
 90
       50
176
     1
 40
0.0
176
     1
 40
1.0
176
     1
 90
        0
176
     1
 62
    18
420
        0
176
     1
 90
       50
176
     1
 90
        3
176
     1
 62
     5
420
      255
176
     1
290
     0
176
     1
 90
       50
176
     1
 90
       50
176
     1
 90
       50
176
     1
290
     0
176
     1
 90
       50
176
     1
 62
   256
176
     0
 40
1.0
176
     0
 90
        2
176
     1
  1
strokes_ogs.tif
176
     1
290
     0
176
     1
 40
1.0
176
     1
 40
1.0
176
     1
  0
VISUALSTYLE
  5
2A
102
{ACAD_REACTORS
330
29
102
}
330
29
100
AcDbVisualStyle
  2
Flat
 70
     0
177
     3
291
     1
 70
    58
 90
        2
176
     1
 90
        1
176
     1
 90
        1
176
     1
 90
        2
176
     1
 40
0.6
176
     1
 40
30.0
176
     1
 62
     7
420
 16777215
176
     1
 90
        0
176
     1
 90
        0
176
     1
 62
     7
176
     1
 62
   257
176
     1
 90
        1
176
     1
 90
        1
176
     1
 40
1.0
176
     1
 90
        8
176
     1
 62
     7
176
     1
 40
1.0
176
     1
 90
        1
176
     1
 90
        6
176
     1
 90
        2
176
     1
 62
     7
176
     1
 90
        5
176
     1
 90
        0
176
     1
 90
        0
176
     1
290
     0
176
     1
 90
       13
176
     1
 40
0.0
176
     1
 90
        0
176
     1
290
     0
176
     1
290
     1
176
     1
290
     1
176
     1
290
     0
176
     1
290
     0
176
     1
290
     0
176
     1
290
     0
176
     1
290
     0
176
     1
290
     0
176
     1
 90
       50
176
     1
 40
0.0
176
     1
 40
1.0
176
     1
 90
        0
176
     1
 62
    18
420
        0
176
     1
 90
       50
176
     1
 90
        3
176
     1
 62
     5
420
      255
176
     1
290
     0
176
     1
 90
       50
176
     1
 90
       50
176
     1
 90
       50
176
     1
290
     0
176
     1
 90
       50
176
     1
 62
   256
176
     0
 40
1.0
176
     0
 90
        2
176
     1
  1
strokes_ogs.tif
176
     1
290
     0
176
     1
 40
1.0
176
     1
 40
1.0
176
     1
  0
VISUALSTYLE
  5
2B
102
{ACAD_REACTORS
330
29
102
}
330
29
100
AcDbVisualStyle
  2
FlatWithEdges
 70
     1
177
     3
291
     1
 70
    58
 90
        2
176
     1
 90
        1
176
     1
 90
        1
176
     1
 90
        2
176
     1
 40
0.6
176
     1
 40
30.0
176
     1
 62
     7
420
 16777215
176
     1
 90
        1
176
     1
 90
        0
176
     1
 62
     7
176
     1
 62
   257
176
     1
 90
        1
176
     1
 90
        1
176
     1
 40
1.0
176
     1
 90
        0
176
     1
 62
   257
176
     1
 40
1.0
176
     1
 90
        1
176
     1
 90
        6
176
     1
 90
        2
176
     1
 62
     7
176
     1
 90
        5
176
     1
 90
        0
176
     1
 90
        0
176
     1
290
     0
176
     1
 90
       13
176
     1
 40
0.0
176
     1
 90
        0
176
     1
290
     0
176
     1
290
     1
176
     1
290
     1
176
     1
290
     0
176
     1
290
     0
176
     1
290
     0
176
     1
290
     0
176
     1
290
     0
176
     1
290
     0
176
     1
 90
       50
176
     1
 40
0.0
176
     1
 40
1.0
176
     1
 90
        0
176
     1
 62
    18
420
        0
176
     1
 90
       50
176
     1
 90
        3
176
     1
 62
     5
420
      255
176
     1
290
     0
176
     1
 90
       50
176
     1
 90
       50
176
     1
 90
       50
176
     1
290
     0
176
     1
 90
       50
176
     1
 62
   256
176
     0
 40
1.0
176
     0
 90
        2
176
     1
  1
strokes_ogs.tif
176
     1
290
     0
176
     1
 40
1.0
176
     1
 40
1.0
176
     1
  0
VISUALSTYLE
  5
2C
102
{ACAD_REACTORS
330
29
102
}
330
29
100
AcDbVisualStyle
  2
Gouraud
 70
     2
177
     3
291
     1
 70
    58
 90
        2
176
     1
 90
        2
176
     1
 90
        1
176
     1
 90
        2
176
     1
 40
0.6
176
     1
 40
30.0
176
     1
 62
     7
420
 16777215
176
     1
 90
        0
176
     1
 90
        0
176
     1
 62
     7
176
     1
 62
   257
176
     1
 90
        1
176
     1
 90
        1
176
     1
 40
1.0
176
     1
 90
        0
176
     1
 62
     7
176
     1
 40
1.0
176
     1
 90
        1
176
     1
 90
        6
176
     1
 90
        2
176
     1
 62
     7
176
     1
 90
        5
176
     1
 90
        0
176
     1
 90
        0
176
     1
290
     0
176
     1
 90
       13
176
     1
 40
0.0
176
     1
 90
        0
176
     1
290
     0
176
     1
290
     1
176
     1
290
     1
176
     1
290
     0
176
     1
290
     0
176
     1
290
     0
176
     1
290
     0
176
     1
290
     0
176
     1
290
     0
176
     1
 90
       50
176
     1
 40
0.0
176
     1
 40
1.0
176
     1
 90
        0
176
     1
 62
    18
420
        0
176
     1
 90
       50
176
     1
 90
        3
176
     1
 62
     5
420
      255
176
     1
290
     0
176
     1
 90
       50
176
     1
 90
       50
176
     1
 90
       50
176
     1
290
     0
176
     1
 90
       50
176
     1
 62
   256
176
     0
 40
1.0
176
     0
 90
        2
176
     1
  1
strokes_ogs.tif
176
     1
290
     0
176
     1
 40
1.0
176
     1
 40
1.0
176
     1
  0
VISUALSTYLE
  5
2D
102
{ACAD_REACTORS
330
29
102
}
330
29
100
AcDbVisualStyle
  2
GouraudWithEdges
 70
     3
177
     3
291
     1
 70
    58
 90
        2
176
     1
 90
        2
176
     1
 90
        1
176
     1
 90
        2
176
     1
 40
0.6
176
     1
 40
30.0
176
     1
 62
     7
420
 16777215
176
     1
 90
        1
176
     1
 90
        0
176
     1
 62
     7
176
     1
 62
   257
176
     1
 90
        1
176
     1
 90
        1
176
     1
 40
1.0
176
     1
 90
        0
176
     1
 62
   257
176
     1
 40
1.0
176
     1
 90
        1
176
     1
 90
        6
176
     1
 90
        2
176
     1
 62
     7
176
     1
 90
        5
176
     1
 90
        0
176
     1
 90
        0
176
     1
290
     0
176
     1
 90
       13
176
     1
 40
0.0
176
     1
 90
        0
176
     1
290
     0
176
     1
290
     1
176
     1
290
     1
176
     1
290
     0
176
     1
290
     0
176
     1
290
     0
176
     1
290
     0
176
     1
290
     0
176
     1
290
     0
176
     1
 90
       50
176
     1
 40
0.0
176
     1
 40
1.0
176
     1
 90
        0
176
     1
 62
    18
420
        0
176
     1
 90
       50
176
     1
 90
        3
176
     1
 62
     5
420
      255
176
     1
290
     0
176
     1
 90
       50
176
     1
 90
       50
176
     1
 90
       50
176
     1
290
     0
176
     1
 90
       50
176
     1
 62
   256
176
     0
 40
1.0
176
     0
 90
        2
176
     1
  1
strokes_ogs.tif
176
     1
290
     0
176
     1
 40
1.0
176
     1
 40
1.0
176
     1
  0
VISUALSTYLE
  5
31
102
{ACAD_REACTORS
330
29
102
}
330
29
100
AcDbVisualStyle
  2
Hidden
 70
     6
177
     3
291
     0
 70
    58
 90
        1
176
     1
 90
        2
176
     1
 90
        2
176
     1
 90
        0
176
     1
 40
0.6
176
     1
 40
30.0
176
     1
 62
     7
420
 16777215
176
     1
 90
        2
176
     1
 90
        2
176
     1
 62
     7
176
     1
 62
   257
176
     1
 90
        2
176
     1
 90
        1
176
     1
 40
40.0
176
     1
 90
        0
176
     1
 62
   257
176
     1
 40
1.0
176
     1
 90
        1
176
     1
 90
        6
176
     1
 90
        2
176
     1
 62
     7
176
     1
 90
        3
176
     1
 90
        0
176
     1
 90
        0
176
     1
290
     0
176
     1
 90
        1
176
     1
 40
0.0
176
     1
 90
        0
176
     1
290
     0
176
     1
290
     1
176
     1
290
     1
176
     1
290
     0
176
     1
290
     0
176
     1
290
     0
176
     1
290
     0
176
     1
290
     0
176
     1
290
     0
176
     1
 90
       50
176
     1
 40
0.0
176
     1
 40
1.0
176
     1
 90
        0
176
     1
 62
    18
420
        0
176
     1
 90
       50
176
     1
 90
        3
176
     1
 62
     5
420
      255
176
     1
290
     0
176
     1
 90
       50
176
     1
 90
       50
176
     1
 90
       50
176
     1
290
     0
176
     1
 90
       50
176
     1
 62
   256
176
     0
 40
1.0
176
     0
 90
        2
176
     1
  1
strokes_ogs.tif
176
     1
290
     0
176
     1
 40
1.0
176
     1
 40
1.0
176
     1
  0
VISUALSTYLE
  5
3F
102
{ACAD_REACTORS
330
29
102
}
330
29
100
AcDbVisualStyle
  2
JitterOff
 70
    20
177
     3
291
     1
 70
    58
 90
        2
176
     0
 90
        2
176
     0
 90
        0
176
     0
 90
        0
176
     0
 40
0.6
176
     0
 40
30.0
176
     0
 62
     7
420
 16777215
176
     0
 90
        1
176
     0
 90
        4
176
     0
 62
     7
176
     0
 62
   257
176
     0
 90
        1
176
     0
 90
        1
176
     0
 40
1.0
176
     0
 90
       10
176
     2
 62
     7
176
     0
 40
1.0
176
     0
 90
        1
176
     0
 90
        6
176
     0
 90
        2
176
     0
 62
     7
176
     0
 90
        5
176
     0
 90
        0
176
     0
 90
        0
176
     0
290
     0
176
     0
 90
        1
176
     0
 40
0.0
176
     0
 90
        0
176
     0
290
     0
176
     0
290
     1
176
     0
290
     1
176
     0
290
     0
176
     0
290
     0
176
     0
290
     0
176
     0
290
     0
176
     0
290
     0
176
     0
290
     0
176
     0
 90
       50
176
     0
 40
0.0
176
     0
 40
1.0
176
     0
 90
        0
176
     0
 62
    18
420
        0
176
     0
 90
       50
176
     0
 90
        3
176
     0
 62
     5
420
      255
176
     0
290
     0
176
     0
 90
       50
176
     0
 90
       50
176
     0
 90
       50
176
     0
290
     0
176
     0
 90
       50
176
     0
 62
   256
176
     0
 40
1.0
176
     0
 90
        2
176
     0
  1
strokes_ogs.tif
176
     0
290
     0
176
     0
 40
1.0
176
     0
 40
1.0
176
     0
  0
VISUALSTYLE
  5
37
102
{ACAD_REACTORS
330
29
102
}
330
29
100
AcDbVisualStyle
  2
Linepattern
 70
    14
177
     3
291
     1
 70
    58
 90
        2
176
     1
 90
        2
176
     1
 90
        0
176
     1
 90
        0
176
     1
 40
0.6
176
     1
 40
30.0
176
     1
 62
     7
420
 16777215
176
     1
 90
        1
176
     1
 90
        4
176
     1
 62
     7
176
     1
 62
   257
176
     1
 90
        7
176
     1
 90
        7
176
     1
 40
1.0
176
     1
 90
        8
176
     1
 62
     7
176
     1
 40
1.0
176
     1
 90
        1
176
     1
 90
        6
176
     1
 90
        2
176
     1
 62
     7
176
     1
 90
        5
176
     1
 90
        0
176
     1
 90
        0
176
     1
290
     0
176
     1
 90
        1
176
     1
 40
0.0
176
     1
 90
        0
176
     1
290
     0
176
     1
290
     1
176
     1
290
     1
176
     1
290
     0
176
     1
290
     0
176
     1
290
     0
176
     1
290
     0
176
     1
290
     0
176
     1
290
     0
176
     1
 90
       50
176
     1
 40
0.0
176
     1
 40
1.0
176
     1
 90
        0
176
     1
 62
    18
420
        0
176
     1
 90
       50
176
     1
 90
        3
176
     1
 62
     5
420
      255
176
     1
290
     0
176
     1
 90
       50
176
     1
 90
       50
176
     1
 90
       50
176
     1
290
     0
176
     1
 90
       50
176
     1
 62
   256
176
     0
 40
1.0
176
     0
 90
        2
176
     1
  1
strokes_ogs.tif
176
     1
290
     0
176
     1
 40
1.0
176
     1
 40
1.0
176
     1
  0
VISUALSTYLE
  5
40
102
{ACAD_REACTORS
330
29
102
}
330
29
100
AcDbVisualStyle
  2
OverhangOff
 70
    21
177
     3
291
     1
 70
    58
 90
        2
176
     0
 90
        2
176
     0
 90
        0
176
     0
 90
        0
176
     0
 40
0.6
176
     0
 40
30.0
176
     0
 62
     7
420
 16777215
176
     0
 90
        1
176
     0
 90
        4
176
     0
 62
     7
176
     0
 62
   257
176
     0
 90
        1
176
     0
 90
        1
176
     0
 40
1.0
176
     0
 90
        9
176
     2
 62
     7
176
     0
 40
1.0
176
     0
 90
        1
176
     0
 90
        6
176
     0
 90
        2
176
     0
 62
     7
176
     0
 90
        5
176
     0
 90
        0
176
     0
 90
        0
176
     0
290
     0
176
     0
 90
        1
176
     0
 40
0.0
176
     0
 90
        0
176
     0
290
     0
176
     0
290
     1
176
     0
290
     1
176
     0
290
     0
176
     0
290
     0
176
     0
290
     0
176
     0
290
     0
176
     0
290
     0
176
     0
290
     0
176
     0
 90
       50
176
     0
 40
0.0
176
     0
 40
1.0
176
     0
 90
        0
176
     0
 62
    18
420
        0
176
     0
 90
       50
176
     0
 90
        3
176
     0
 62
     5
420
      255
176
     0
290
     0
176
     0
 90
       50
176
     0
 90
       50
176
     0
 90
       50
176
     0
290
     0
176
     0
 90
       50
176
     0
 62
   256
176
     0
 40
1.0
176
     0
 90
        2
176
     0
  1
strokes_ogs.tif
176
     0
290
     0
176
     0
 40
1.0
176
     0
 40
1.0
176
     0
  0
VISUALSTYLE
  5
33
102
{ACAD_REACTORS
330
29
102
}
330
29
100
AcDbVisualStyle
  2
Realistic
 70
     8
177
     3
291
     0
 70
    58
 90
        2
176
     1
 90
        3
176
     1
 90
        0
176
     1
 90
        2
176
     1
 40
0.6
176
     1
 40
30.0
176
     1
 62
     7
420
 16777215
176
     1
 90
        0
176
     1
 90
        0
176
     1
 62
     7
176
     1
 62
   257
176
     1
 90
        1
176
     1
 90
        1
176
     1
 40
1.0
176
     1
 90
        8
176
     1
 62
   257
176
     1
 40
1.0
176
     1
 90
        1
176
     1
 90
        6
176
     1
 90
        2
176
     1
 62
     7
176
     1
 90
        3
176
     1
 90
        0
176
     1
 90
        0
176
     1
290
     0
176
     1
 90
       13
176
     1
 40
0.0
176
     1
 90
        0
176
     1
290
     0
176
     1
290
     1
176
     1
290
     1
176
     1
290
     0
176
     1
290
     0
176
     1
290
     0
176
     1
290
     0
176
     1
290
     0
176
     1
290
     0
176
     1
 90
       50
176
     1
 40
0.0
176
     1
 40
1.0
176
     1
 90
        0
176
     1
 62
    18
420
        0
176
     1
 90
       50
176
     1
 90
        3
176
     1
 62
     5
420
      255
176
     1
290
     0
176
     1
 90
       50
176
     1
 90
       50
176
     1
 90
       50
176
     1
290
     0
176
     1
 90
       50
176
     1
 62
   256
176
     0
 40
1.0
176
     0
 90
        2
176
     1
  1
strokes_ogs.tif
176
     1
290
     0
176
     1
 40
1.0
176
     1
 40
1.0
176
     1
  0
VISUALSTYLE
  5
3E
102
{ACAD_REACTORS
330
29
102
}
330
29
100
AcDbVisualStyle
  2
Shaded
 70
    27
177
     3
291
     0
 70
    58
 90
        2
176
     1
 90
        2
176
     1
 90
        1
176
     1
 90
        2
176
     1
 40
0.6
176
     1
 40
30.0
176
     1
 62
     7
420
 16777215
176
     1
 90
        0
176
     1
 90
        4
176
     1
 62
     7
176
     1
 62
   257
176
     1
 90
        1
176
     1
 90
        1
176
     1
 40
1.0
176
     1
 90
        8
176
     1
 62
   257
176
     1
 40
1.0
176
     1
 90
        1
176
     1
 90
        6
176
     1
 90
        2
176
     1
 62
     8
420
  7895160
176
     1
 90
        3
176
     1
 90
        0
176
     1
 90
        0
176
     1
290
     0
176
     1
 90
        5
176
     1
 40
0.0
176
     1
 90
        0
176
     1
290
     0
176
     1
290
     1
176
     1
290
     1
176
     1
290
     0
176
     1
290
     0
176
     1
290
     0
176
     1
290
     0
176
     1
290
     0
176
     1
290
     0
176
     1
 90
       50
176
     1
 40
0.0
176
     1
 40
1.0
176
     1
 90
        0
176
     1
 62
    18
420
        0
176
     1
 90
       50
176
     1
 90
        3
176
     1
 62
     5
420
      255
176
     1
290
     0
176
     1
 90
       50
176
     1
 90
       50
176
     1
 90
       50
176
     1
290
     0
176
     1
 90
       50
176
     1
 62
   256
176
     0
 40
1.0
176
     0
 90
        2
176
     1
  1
strokes_ogs.tif
176
     1
290
     0
176
     1
 40
1.0
176
     1
 40
1.0
176
     1
  0
VISUALSTYLE
  5
3D
102
{ACAD_REACTORS
330
29
102
}
330
29
100
AcDbVisualStyle
  2
Shaded with edges
 70
    26
177
     3
291
     0
 70
    58
 90
        2
176
     1
 90
        2
176
     1
 90
        1
176
     1
 90
        2
176
     1
 40
0.6
176
     1
 40
30.0
176
     1
 62
     7
420
 16777215
176
     1
 90
        1
176
     1
 90
        2
176
     1
 62
     7
176
     1
 62
   257
176
     1
 90
        2
176
     1
 90
        1
176
     1
 40
1.0
176
     1
 90
        8
176
     1
 62
   257
176
     1
 40
1.0
176
     1
 90
        1
176
     1
 90
        6
176
     1
 90
        2
176
     1
 62
     7
176
     1
 90
        3
176
     1
 90
        0
176
     1
 90
        0
176
     1
290
     0
176
     1
 90
        5
176
     1
 40
0.0
176
     1
 90
        0
176
     1
290
     0
176
     1
290
     1
176
     1
290
     1
176
     1
290
     0
176
     1
290
     0
176
     1
290
     0
176
     1
290
     0
176
     1
290
     0
176
     1
290
     0
176
     1
 90
       50
176
     1
 40
0.0
176
     1
 40
1.0
176
     1
 90
        0
176
     1
 62
    18
420
        0
176
     1
 90
       50
176
     1
 90
        3
176
     1
 62
     5
420
      255
176
     1
290
     0
176
     1
 90
       50
176
     1
 90
       50
176
     1
 90
       50
176
     1
290
     0
176
     1
 90
       50
176
     1
 62
   256
176
     0
 40
1.0
176
     0
 90
        2
176
     1
  1
strokes_ogs.tif
176
     1
290
     0
176
     1
 40
1.0
176
     1
 40
1.0
176
     1
  0
VISUALSTYLE
  5
3A
102
{ACAD_REACTORS
330
29
102
}
330
29
100
AcDbVisualStyle
  2
Shades of Gray
 70
    23
177
     3
291
     0
 70
    58
 90
        2
176
     1
 90
        2
176
     1
 90
        3
176
     1
 90
        0
176
     1
 40
0.6
176
     1
 40
30.0
176
     1
 62
     7
420
 16777215
176
     1
 90
        2
176
     1
 90
        2
176
     1
 62
     7
176
     1
 62
     7
176
     1
 90
        1
176
     1
 90
        1
176
     1
 40
40.0
176
     1
 90
        8
176
     1
 62
     7
176
     1
 40
1.0
176
     1
 90
        1
176
     1
 90
        6
176
     1
 90
        2
176
     1
 62
     7
176
     1
 90
        3
176
     1
 90
        0
176
     1
 90
        0
176
     1
290
     0
176
     1
 90
        1
176
     1
 40
0.0
176
     1
 90
        0
176
     1
290
     0
176
     1
290
     1
176
     1
290
     1
176
     1
290
     0
176
     1
290
     0
176
     1
290
     0
176
     1
290
     0
176
     1
290
     0
176
     1
290
     0
176
     1
 90
       50
176
     1
 40
0.0
176
     1
 40
1.0
176
     1
 90
        0
176
     1
 62
    18
420
        0
176
     1
 90
       50
176
     1
 90
        3
176
     1
 62
     5
420
      255
176
     1
290
     0
176
     1
 90
       50
176
     1
 90
       50
176
     1
 90
       50
176
     1
290
     0
176
     1
 90
       50
176
     1
 62
   256
176
     0
 40
1.0
176
     0
 90
        2
176
     1
  1
strokes_ogs.tif
176
     1
290
     0
176
     1
 40
1.0
176
     1
 40
1.0
176
     1
  0
VISUALSTYLE
  5
3B
102
{ACAD_REACTORS
330
29
102
}
330
29
100
AcDbVisualStyle
  2
Sketchy
 70
    24
177
     3
291
     0
 70
    58
 90
        1
176
     1
 90
        2
176
     1
 90
        2
176
     1
 90
        0
176
     1
 40
0.6
176
     1
 40
30.0
176
     1
 62
     7
420
 16777215
176
     1
 90
        2
176
     1
 90
        2
176
     1
 62
     7
176
     1
 62
     7
176
     1
 90
        1
176
     1
 90
        1
176
     1
 40
40.0
176
     1
 90
       11
176
     1
 62
     7
176
     1
 40
1.0
176
     1
 90
        1
176
     1
 90
        6
176
     1
 90
        2
176
     1
 62
     7
176
     1
 90
        6
176
     1
 90
        0
176
     1
 90
        0
176
     1
290
     0
176
     1
 90
        1
176
     1
 40
0.0
176
     1
 90
        0
176
     1
290
     0
176
     1
290
     1
176
     1
290
     1
176
     1
290
     0
176
     1
290
     0
176
     1
290
     0
176
     1
290
     0
176
     1
290
     0
176
     1
290
     0
176
     1
 90
       50
176
     1
 40
0.0
176
     1
 40
1.0
176
     1
 90
        0
176
     1
 62
    18
420
        0
176
     1
 90
       50
176
     1
 90
        3
176
     1
 62
     5
420
      255
176
     1
290
     0
176
     1
 90
       50
176
     1
 90
       50
176
     1
 90
       50
176
     1
290
     0
176
     1
 90
       50
176
     1
 62
   256
176
     0
 40
1.0
176
     0
 90
        2
176
     1
  1
strokes_ogs.tif
176
     1
290
     0
176
     1
 40
1.0
176
     1
 40
1.0
176
     1
  0
VISUALSTYLE
  5
36
102
{ACAD_REACTORS
330
29
102
}
330
29
100
AcDbVisualStyle
  2
Thicken
 70
    13
177
     3
291
     1
 70
    58
 90
        2
176
     1
 90
        2
176
     1
 90
        0
176
     1
 90
        0
176
     1
 40
0.6
176
     1
 40
30.0
176
     1
 62
     7
420
 16777215
176
     1
 90
        1
176
     1
 90
        4
176
     1
 62
     7
176
     1
 62
   257
176
     1
 90
        1
176
     1
 90
        1
176
     1
 40
1.0
176
     1
 90
       12
176
     1
 62
     7
176
     1
 40
1.0
176
     1
 90
        1
176
     1
 90
        6
176
     1
 90
        2
176
     1
 62
     7
176
     1
 90
        5
176
     1
 90
        0
176
     1
 90
        0
176
     1
290
     0
176
     1
 90
        1
176
     1
 40
0.0
176
     1
 90
        0
176
     1
290
     0
176
     1
290
     1
176
     1
290
     1
176
     1
290
     0
176
     1
290
     0
176
     1
290
     0
176
     1
290
     0
176
     1
290
     0
176
     1
290
     0
176
     1
 90
       50
176
     1
 40
0.0
176
     1
 40
1.0
176
     1
 90
        0
176
     1
 62
    18
420
        0
176
     1
 90
       50
176
     1
 90
        3
176
     1
 62
     5
420
      255
176
     1
290
     0
176
     1
 90
       50
176
     1
 90
       50
176
     1
 90
       50
176
     1
290
     0
176
     1
 90
       50
176
     1
 62
   256
176
     0
 40
1.0
176
     0
 90
        2
176
     1
  1
strokes_ogs.tif
176
     1
290
     0
176
     1
 40
1.0
176
     1
 40
1.0
176
     1
  0
VISUALSTYLE
  5
30
102
{ACAD_REACTORS
330
29
102
}
330
29
100
AcDbVisualStyle
  2
Wireframe
 70
     5
177
     3
291
     0
 70
    58
 90
        0
176
     1
 90
        2
176
     1
 90
        0
176
     1
 90
        0
176
     1
 40
0.6
176
     1
 40
30.0
176
     1
 62
     7
420
 16777215
176
     1
 90
        1
176
     1
 90
        4
176
     1
 62
     7
176
     1
 62
   257
176
     1
 90
        1
176
     1
 90
        1
176
     1
 40
1.0
176
     1
 90
        0
176
     1
 62
   257
176
     1
 40
1.0
176
     1
 90
        1
176
     1
 90
        6
176
     1
 90
        2
176
     1
 62
     7
176
     1
 90
        3
176
     1
 90
        0
176
     1
 90
        0
176
     1
290
     0
176
     1
 90
        1
176
     1
 40
0.0
176
     1
 90
        0
176
     1
290
     0
176
     1
290
     1
176
     1
290
     1
176
     1
290
     0
176
     1
290
     0
176
     1
290
     0
176
     1
290
     0
176
     1
290
     0
176
     1
290
     0
176
     1
 90
       50
176
     1
 40
0.0
176
     1
 40
1.0
176
     1
 90
        0
176
     1
 62
    18
420
        0
176
     1
 90
       50
176
     1
 90
        3
176
     1
 62
     5
420
      255
176
     1
290
     0
176
     1
 90
       50
176
     1
 90
       50
176
     1
 90
       50
176
     1
290
     0
176
     1
 90
       50
176
     1
 62
   256
176
     0
 40
1.0
176
     0
 90
        2
176
     1
  1
strokes_ogs.tif
176
     1
290
     0
176
     1
 40
1.0
176
     1
 40
1.0
176
     1
  0
VISUALSTYLE
  5
3C
102
{ACAD_REACTORS
330
29
102
}
330
29
100
AcDbVisualStyle
  2
X-Ray
 70
    25
177
     3
291
     0
 70
    58
 90
        2
176
     1
 90
        2
176
     1
 90
        1
176
     1
 90
        1
176
     1
 40
0.5
176
     1
 40
30.0
176
     1
 62
     7
420
 16777215
176
     1
 90
        1
176
     1
 90
        0
176
     1
 62
     7
176
     1
 62
   257
176
     1
 90
        1
176
     1
 90
        1
176
     1
 40
1.0
176
     1
 90
        8
176
     1
 62
     7
176
     1
 40
1.0
176
     1
 90
        1
176
     1
 90
        6
176
     1
 90
        2
176
     1
 62
     7
176
     1
 90
        3
176
     1
 90
        0
176
     1
 90
        0
176
     1
290
     0
176
     1
 90
       13
176
     1
 40
0.0
176
     1
 90
        0
176
     1
290
     0
176
     1
290
     1
176
     1
290
     1
176
     1
290
     0
176
     1
290
     0
176
     1
290
     0
176
     1
290
     0
176
     1
290
     0
176
     1
290
     0
176
     1
 90
       50
176
     1
 40
0.0
176
     1
 40
1.0
176
     1
 90
        0
176
     1
 62
    18
420
        0
176
     1
 90
       50
176
     1
 90
        3
176
     1
 62
     5
420
      255
176
     1
290
     0
176
     1
 90
       50
176
     1
 90
       50
176
     1
 90
       50
176
     1
290
     0
176
     1
 90
       50
176
     1
 62
   256
176
     0
 40
1.0
176
     0
 90
        2
176
     1
  1
strokes_ogs.tif
176
     1
290
     0
176
     1
 40
1.0
176
     1
 40
1.0
176
     1
  0
DICTIONARYVAR
  5
213
102
{ACAD_REACTORS
330
20E
102
}
330
20E
100
DictionaryVariables
280
     0
  1
1:1
  0
DICTIONARYVAR
  5
210
102
{ACAD_REACTORS
330
20E
102
}
330
20E
100
DictionaryVariables
280
     0
  1
STANDARD
  0
DICTIONARYVAR
  5
20F
102
{ACAD_REACTORS
330
20E
102
}
330
20E
100
DictionaryVariables
280
     0
  1
STANDARD
  0
DICTIONARYVAR
  5
211
102
{ACAD_REACTORS
330
20E
102
}
330
20E
100
DictionaryVariables
280
     0
  1
Imperial24
  0
DICTIONARYVAR
  5
212
102
{ACAD_REACTORS
330
20E
102
}
330
20E
100
DictionaryVariables
280
     0
  1
Imperial24
  0
DICTIONARY
  5
1A
330
19
100
AcDbDictionary
280
     1
281
     1
  3
BUMPTILE
360
1C
  3
DIFFUSETILE
360
1B
  3
OPACITYTILE
360
1F
  3
REFLECTIONTILE
360
1E
  3
REFRACTIONTILE
360
20
  3
SPECULARTILE
360
1D
  0
DICTIONARY
  5
12
330
11
100
AcDbDictionary
280
     1
281
     1
  3
BUMPTILE
360
14
  3
DIFFUSETILE
360
13
  3
OPACITYTILE
360
17
  3
REFLECTIONTILE
360
16
  3
REFRACTIONTILE
360
18
  3
SPECULARTILE
360
15
  0
DICTIONARY
  5
22
330
21
100
AcDbDictionary
280
     1
281
     1
  3
BUMPTILE
360
24
  3
DIFFUSETILE
360
23
  3
OPACITYTILE
360
27
  3
REFLECTIONTILE
360
26
  3
REFRACTIONTILE
360
28
  3
SPECULARTILE
360
25
  0
DICTIONARY
  5
214
330
65
100
AcDbDictionary
280
     1
281
     1
  3
ACAD_ROUNDTRIP_2008_TABLESTYLE_CELLSTYLEMAP
360
215
  0
XRECORD
  5
1C
102
{ACAD_REACTORS
330
1A
102
}
330
1A
100
AcDbXrecord
280
     1
270
     1
271
     1
  0
XRECORD
  5
1B
102
{ACAD_REACTORS
330
1A
102
}
330
1A
100
AcDbXrecord
280
     1
270
     1
271
     1
  0
XRECORD
  5
1F
102
{ACAD_REACTORS
330
1A
102
}
330
1A
100
AcDbXrecord
280
     1
270
     1
271
     1
  0
XRECORD
  5
1E
102
{ACAD_REACTORS
330
1A
102
}
330
1A
100
AcDbXrecord
280
     1
270
     1
271
     1
  0
XRECORD
  5
20
102
{ACAD_REACTORS
330
1A
102
}
330
1A
100
AcDbXrecord
280
     1
270
     1
271
     1
  0
XRECORD
  5
1D
102
{ACAD_REACTORS
330
1A
102
}
330
1A
100
AcDbXrecord
280
     1
270
     1
271
     1
  0
XRECORD
  5
14
102
{ACAD_REACTORS
330
12
102
}
330
12
100
AcDbXrecord
280
     1
270
     1
271
     1
  0
XRECORD
  5
13
102
{ACAD_REACTORS
330
12
102
}
330
12
100
AcDbXrecord
280
     1
270
     1
271
     1
  0
XRECORD
  5
17
102
{ACAD_REACTORS
330
12
102
}
330
12
100
AcDbXrecord
280
     1
270
     1
271
     1
  0
XRECORD
  5
16
102
{ACAD_REACTORS
330
12
102
}
330
12
100
AcDbXrecord
280
     1
270
     1
271
     1
  0
XRECORD
  5
18
102
{ACAD_REACTORS
330
12
102
}
330
12
100
AcDbXrecord
280
     1
270
     1
271
     1
  0
XRECORD
  5
15
102
{ACAD_REACTORS
330
12
102
}
330
12
100
AcDbXrecord
280
     1
270
     1
271
     1
  0
XRECORD
  5
24
102
{ACAD_REACTORS
330
22
102
}
330
22
100
AcDbXrecord
280
     1
270
     1
271
     1
  0
XRECORD
  5
23
102
{ACAD_REACTORS
330
22
102
}
330
22
100
AcDbXrecord
280
     1
270
     1
271
     1
  0
XRECORD
  5
27
102
{ACAD_REACTORS
330
22
102
}
330
22
100
AcDbXrecord
280
     1
270
     1
271
     1
  0
XRECORD
  5
26
102
{ACAD_REACTORS
330
22
102
}
330
22
100
AcDbXrecord
280
     1
270
     1
271
     1
  0
XRECORD
  5
28
102
{ACAD_REACTORS
330
22
102
}
330
22
100
AcDbXrecord
280
     1
270
     1
271
     1
  0
XRECORD
  5
25
102
{ACAD_REACTORS
330
22
102
}
330
22
100
AcDbXrecord
280
     1
270
     1
271
     1
  0
CELLSTYLEMAP
  5
215
102
{ACAD_REACTORS
330
214
102
}
330
214
100
AcDbCellStyleMap
 90
        3
300
CELLSTYLE
  1
TABLEFORMAT_BEGIN
 90
        5
170
     1
 91
        0
 92
    32768
 62
   257
 93
        1
300
CONTENTFORMAT
  1
CONTENTFORMAT_BEGIN
 90
        0
 91
        0
 92
      512
 93
        0
300

 40
0.0
140
1.0
 94
        5
 62
     0
340
55
144
0.25
309
CONTENTFORMAT_END
171
     0
 94
        0
309
TABLEFORMAT_END
  1
CELLSTYLE_BEGIN
 90
        1
 91
        1
300
_TITLE
309
CELLSTYLE_END
300
CELLSTYLE
  1
TABLEFORMAT_BEGIN
 90
        5
170
     1
 91
        0
 92
        0
 62
   257
 93
        1
300
CONTENTFORMAT
  1
CONTENTFORMAT_BEGIN
 90
        0
 91
        0
 92
      512
 93
        0
300

 40
0.0
140
1.0
 94
        5
 62
     0
340
55
144
0.18
309
CONTENTFORMAT_END
171
     0
 94
        0
309
TABLEFORMAT_END
  1
CELLSTYLE_BEGIN
 90
        2
 91
        1
300
_HEADER
309
CELLSTYLE_END
300
CELLSTYLE
  1
TABLEFORMAT_BEGIN
 90
        5
170
     1
 91
        0
 92
        0
 62
   257
 93
        1
300
CONTENTFORMAT
  1
CONTENTFORMAT_BEGIN
 90
        0
 91
        0
 92
      512
 93
        0
300

 40
0.0
140
1.0
 94
        2
 62
     0
340
55
144
0.18
309
CONTENTFORMAT_END
171
     0
 94
        0
309
TABLEFORMAT_END
  1
CELLSTYLE_BEGIN
 90
        3
 91
        2
300
_DATA
309
CELLSTYLE_END
  0
ENDSEC
  0
EOF
