  0
SECTION
  2
HEADER
  9
$ACADVER
  1
AC1032
  9
$ACADMAINTVER
 90
      251
  9
$DWGCODEPAGE
  3
ANSI_1252
  9
$REQUIREDVERSIONS
160
                 0
  9
$INSBASE
 10
0.0
 20
0.0
 30
0.0
  9
$EXTMIN
 10
1.000000000000000E+20
 20
1.000000000000000E+20
 30
1.000000000000000E+20
  9
$EXTMAX
 10
-1.000000000000000E+20
 20
-1.000000000000000E+20
 30
-1.000000000000000E+20
  9
$LIMMIN
 10
0.0
 20
0.0
  9
$LIMMAX
 10
12.0
 20
9.0
  9
$ORTHOMODE
 70
     0
  9
$REGENMODE
 70
     1
  9
$FILLMODE
 70
     1
  9
$QTEXTMODE
 70
     0
  9
$MIRRTEXT
 70
     0
  9
$LTSCALE
 40
1.0
  9
$ATTMODE
 70
     1
  9
$TEXTSIZE
 40
0.2
  9
$TRACEWID
 40
0.05
  9
$TEXTSTYLE
  7
Standard
  9
$CLAYER
  8
0
  9
$CELTYPE
  6
ByLayer
  9
$CECOLOR
 62
   256
  9
$CELTSCALE
 40
1.0
  9
$DISPSILH
 70
     0
  9
$DIMSCALE
 40
1.0
  9
$DIMASZ
 40
0.18
  9
$DIMEXO
 40
0.0625
  9
$DIMDLI
 40
0.38
  9
$DIMRND
 40
0.0
  9
$DIMDLE
 40
0.0
  9
$DIMEXE
 40
0.18
  9
$DIMTP
 40
0.0
  9
$DIMTM
 40
0.0
  9
$DIMTXT
 40
0.18
  9
$DIMCEN
 40
0.09
  9
$DIMTSZ
 40
0.0
  9
$DIMTOL
 70
     0
  9
$DIMLIM
 70
     0
  9
$DIMTIH
 70
     1
  9
$DIMTOH
 70
     1
  9
$DIMSE1
 70
     0
  9
$DIMSE2
 70
     0
  9
$DIMTAD
 70
     0
  9
$DIMZIN
 70
     0
  9
$DIMBLK
  1

  9
$DIMASO
 70
     1
  9
$DIMSHO
 70
     1
  9
$DIMPOST
  1

  9
$DIMAPOST
  1

  9
$DIMALT
 70
     0
  9
$DIMALTD
 70
     2
  9
$DIMALTF
 40
25.4
  9
$DIMLFAC
 40
1.0
  9
$DIMTOFL
 70
     0
  9
$DIMTVP
 40
0.0
  9
$DIMTIX
 70
     0
  9
$DIMSOXD
 70
     0
  9
$DIMSAH
 70
     0
  9
$DIMBLK1
  1

  9
$DIMBLK2
  1

  9
$DIMSTYLE
  2
Standard
  9
$DIMCLRD
 70
     0
  9
$DIMCLRE
 70
     0
  9
$DIMCLRT
 70
     0
  9
$DIMTFAC
 40
1.0
  9
$DIMGAP
 40
0.09
  9
$DIMJUST
 70
     0
  9
$DIMSD1
 70
     0
  9
$DIMSD2
 70
     0
  9
$DIMTOLJ
 70
     1
  9
$DIMTZIN
 70
     0
  9
$DIMALTZ
 70
     0
  9
$DIMALTTZ
 70
     0
  9
$DIMUPT
 70
     0
  9
$DIMDEC
 70
     4
  9
$DIMTDEC
 70
     4
  9
$DIMALTU
 70
     2
  9
$DIMALTTD
 70
     2
  9
$DIMTXSTY
  7
Standard
  9
$DIMAUNIT
 70
     0
  9
$DIMADEC
 70
     0
  9
$DIMALTRND
 40
0.0
  9
$DIMAZIN
 70
     0
  9
$DIMDSEP
 70
    46
  9
$DIMATFIT
 70
     3
  9
$DIMFRAC
 70
     0
  9
$DIMLDRBLK
  1

  9
$DIMLUNIT
 70
     2
  9
$DIMLWD
 70
    -2
  9
$DIMLWE
 70
    -2
  9
$DIMTMOVE
 70
     0
  9
$DIMFXL
 40
1.0
  9
$DIMFXLON
 70
     0
  9
$DIMJOGANG
 40
0.7853981633974483
  9
$DIMTFILL
 70
     0
  9
$DIMTFILLCLR
 70
     0
  9
$DIMARCSYM
 70
     0
  9
$DIMLTYPE
  6

  9
$DIMLTEX1
  6

  9
$DIMLTEX2
  6

  9
$DIMTXTDIRECTION
 70
     0
  9
$LUNITS
 70
     2
  9
$LUPREC
 70
     4
  9
$SKETCHINC
 40
0.1
  9
$FILLETRAD
 40
0.0
  9
$AUNITS
 70
     0
  9
$AUPREC
 70
     0
  9
$MENU
  1
.
  9
$ELEVATION
 40
0.0
  9
$PELEVATION
 40
0.0
  9
$THICKNESS
 40
0.0
  9
$LIMCHECK
 70
     0
  9
$CHAMFERA
 40
0.0
  9
$CHAMFERB
 40
0.0
  9
$CHAMFERC
 40
0.0
  9
$CHAMFERD
 40
0.0
  9
$SKPOLY
 70
     0
  9
$TDCREATE
 40
2460038.419224537
  9
$TDUCREATE
 40
2460038.335891204
  9
$TDUPDATE
 40
2460038.419224537
  9
$TDUUPDATE
 40
2460038.335891204
  9
$TDINDWG
 40
0.0000000000
  9
$TDUSRTIMER
 40
0.0000000000
  9
$USRTIMER
 70
     1
  9
$ANGBASE
 50
0.0
  9
$ANGDIR
 70
     0
  9
$PDMODE
 70
     0
  9
$PDSIZE
 40
0.0
  9
$PLINEWID
 40
0.0
  9
$SPLFRAME
 70
     0
  9
$SPLINETYPE
 70
     6
  9
$SPLINESEGS
 70
     8
  9
$HANDSEED
  5
1B3
  9
$SURFTAB1
 70
     6
  9
$SURFTAB2
 70
     6
  9
$SURFTYPE
 70
     6
  9
$SURFU
 70
     6
  9
$SURFV
 70
     6
  9
$UCSBASE
  2

  9
$UCSNAME
  2

  9
$UCSORG
 10
0.0
 20
0.0
 30
0.0
  9
$UCSXDIR
 10
1.0
 20
0.0
 30
0.0
  9
$UCSYDIR
 10
0.0
 20
1.0
 30
0.0
  9
$UCSORTHOREF
  2

  9
$UCSORTHOVIEW
 70
     0
  9
$UCSORGTOP
 10
0.0
 20
0.0
 30
0.0
  9
$UCSORGBOTTOM
 10
0.0
 20
0.0
 30
0.0
  9
$UCSORGLEFT
 10
0.0
 20
0.0
 30
0.0
  9
$UCSORGRIGHT
 10
0.0
 20
0.0
 30
0.0
  9
$UCSORGFRONT
 10
0.0
 20
0.0
 30
0.0
  9
$UCSORGBACK
 10
0.0
 20
0.0
 30
0.0
  9
$PUCSBASE
  2

  9
$PUCSNAME
  2

  9
$PUCSORG
 10
0.0
 20
0.0
 30
0.0
  9
$PUCSXDIR
 10
1.0
 20
0.0
 30
0.0
  9
$PUCSYDIR
 10
0.0
 20
1.0
 30
0.0
  9
$PUCSORTHOREF
  2

  9
$PUCSORTHOVIEW
 70
     0
  9
$PUCSORGTOP
 10
0.0
 20
0.0
 30
0.0
  9
$PUCSORGBOTTOM
 10
0.0
 20
0.0
 30
0.0
  9
$PUCSORGLEFT
 10
0.0
 20
0.0
 30
0.0
  9
$PUCSORGRIGHT
 10
0.0
 20
0.0
 30
0.0
  9
$PUCSORGFRONT
 10
0.0
 20
0.0
 30
0.0
  9
$PUCSORGBACK
 10
0.0
 20
0.0
 30
0.0
  9
$USERI1
 70
     0
  9
$USERI2
 70
     0
  9
$USERI3
 70
     0
  9
$USERI4
 70
     0
  9
$USERI5
 70
     0
  9
$USERR1
 40
0.0
  9
$USERR2
 40
0.0
  9
$USERR3
 40
0.0
  9
$USERR4
 40
0.0
  9
$USERR5
 40
0.0
  9
$WORLDVIEW
 70
     1
  9
$SHADEDGE
 70
     3
  9
$SHADEDIF
 70
    70
  9
$TILEMODE
 70
     1
  9
$MAXACTVP
 70
    64
  9
$PINSBASE
 10
0.0
 20
0.0
 30
0.0
  9
$PLIMCHECK
 70
     0
  9
$PEXTMIN
 10
1.000000000000000E+20
 20
1.000000000000000E+20
 30
1.000000000000000E+20
  9
$PEXTMAX
 10
-1.000000000000000E+20
 20
-1.000000000000000E+20
 30
-1.000000000000000E+20
  9
$PLIMMIN
 10
0.0
 20
0.0
  9
$PLIMMAX
 10
12.0
 20
9.0
  9
$UNITMODE
 70
     0
  9
$VISRETAIN
 70
     1
  9
$PLINEGEN
 70
     0
  9
$PSLTSCALE
 70
     1
  9
$TREEDEPTH
 70
  3020
  9
$CMLSTYLE
  2
Standard
  9
$CMLJUST
 70
     0
  9
$CMLSCALE
 40
1.0
  9
$PROXYGRAPHICS
 70
     1
  9
$MEASUREMENT
 70
     0
  9
$CELWEIGHT
370
    -1
  9
$ENDCAPS
280
     0
  9
$JOINSTYLE
280
     0
  9
$LWDISPLAY
290
     1
  9
$INSUNITS
 70
     4
  9
$HYPERLINKBASE
  1

  9
$STYLESHEET
  1

  9
$XEDIT
290
     1
  9
$CEPSNTYPE
380
     0
  9
$PSTYLEMODE
290
     1
  9
$FINGERPRINTGUID
  2
{75DE3AB0-4CB8-D246-AE2C-D32FB0DA631D}
  9
$VERSIONGUID
  2
{77413C0F-064B-E242-A59E-BBB0E7F18CDC}
  9
$EXTNAMES
290
     1
  9
$PSVPSCALE
 40
0.0
  9
$OLESTARTUP
290
     0
  9
$SORTENTS
280
   127
  9
$INDEXCTL
280
     0
  9
$HIDETEXT
280
     1
  9
$XCLIPFRAME
280
     2
  9
$HALOGAP
280
     0
  9
$OBSCOLOR
 70
   257
  9
$OBSLTYPE
280
     0
  9
$INTERSECTIONDISPLAY
280
     0
  9
$INTERSECTIONCOLOR
 70
   257
  9
$DIMASSOC
280
     2
  9
$PROJECTNAME
  1

  9
$CAMERADISPLAY
290
     0
  9
$LENSLENGTH
 40
50.0
  9
$CAMERAHEIGHT
 40
0.0
  9
$STEPSPERSEC
 40
2.0
  9
$STEPSIZE
 40
6.0
  9
$3DDWFPREC
 40
2.0
  9
$PSOLWIDTH
 40
0.25
  9
$PSOLHEIGHT
 40
4.0
  9
$LOFTANG1
 40
1.570796326794896
  9
$LOFTANG2
 40
1.570796326794896
  9
$LOFTMAG1
 40
0.0
  9
$LOFTMAG2
 40
0.0
  9
$LOFTPARAM
 70
     7
  9
$LOFTNORMALS
280
     1
  9
$LATITUDE
 40
37.795
  9
$LONGITUDE
 40
-122.394
  9
$NORTHDIRECTION
 40
0.0
  9
$TIMEZONE
 70
 -8000
  9
$LIGHTGLYPHDISPLAY
280
     1
  9
$TILEMODELIGHTSYNCH
280
     1
  9
$CMATERIAL
347
11
  9
$SOLIDHIST
280
     0
  9
$SHOWHIST
280
     1
  9
$DWFFRAME
280
     2
  9
$DGNFRAME
280
     0
  9
$REALWORLDSCALE
290
     1
  9
$INTERFERECOLOR
 62
     1
  9
$INTERFEREOBJVS
345
33
  9
$INTERFEREVPVS
346
30
  9
$CSHADOW
280
     0
  9
$SHADOWPLANELOCATION
 40
0.0
  0
ENDSEC
  0
SECTION
  2
CLASSES
  0
CLASS
  1
ACDBDICTIONARYWDFLT
  2
AcDbDictionaryWithDefault
  3
ObjectDBX Classes
 90
        0
 91
        1
280
     0
281
     0
  0
CLASS
  1
MATERIAL
  2
AcDbMaterial
  3
ObjectDBX Classes
 90
     1153
 91
        3
280
     0
281
     0
  0
CLASS
  1
VISUALSTYLE
  2
AcDbVisualStyle
  3
ObjectDBX Classes
 90
     4095
 91
       24
280
     0
281
     0
  0
CLASS
  1
SCALE
  2
AcDbScale
  3
ObjectDBX Classes
 90
     1153
 91
       17
280
     0
281
     0
  0
CLASS
  1
TABLESTYLE
  2
AcDbTableStyle
  3
ObjectDBX Classes
 90
     4095
 91
        1
280
     0
281
     0
  0
CLASS
  1
MLEADERSTYLE
  2
AcDbMLeaderStyle
  3
ACDB_MLEADERSTYLE_CLASS
 90
     4095
 91
        1
280
     0
281
     0
  0
CLASS
  1
ACDBSECTIONVIEWSTYLE
  2
AcDbSectionViewStyle
  3
ObjectDBX Classes
 90
     1025
 91
        1
280
     0
281
     0
  0
CLASS
  1
ACDBDETAILVIEWSTYLE
  2
AcDbDetailViewStyle
  3
ObjectDBX Classes
 90
     1025
 91
        1
280
     0
281
     0
  0
CLASS
  1
DICTIONARYVAR
  2
AcDbDictionaryVar
  3
ObjectDBX Classes
 90
        0
 91
        5
280
     0
281
     0
  0
CLASS
  1
CELLSTYLEMAP
  2
AcDbCellStyleMap
  3
ObjectDBX Classes
 90
     1152
 91
        1
280
     0
281
     0
  0
ENDSEC
  0
SECTION
  2
TABLES
  0
TABLE
  2
VPORT
  5
8
330
0
100
AcDbSymbolTable
 70
     1
  0
VPORT
  5
57
330
8
100
AcDbSymbolTableRecord
100
AcDbViewportTableRecord
  2
*Active
 70
     0
 10
0.0
 20
0.0
 11
1.0
 21
1.0
 12
0.0
 22
0.0
 13
0.0
 23
0.0
 14
1.0
 24
1.0
 15
0.0
 25
0.0
 16
0.0
 26
0.0
 36
1.0
 17
104.9999999737499
 27
-43.49999998912136
 37
0.0
 40
302.9399999242646
 41
0.7070707070707073
 42
50.0
 43
0.0
 44
0.0
 50
0.0
 51
0.0
 71
     0
 72
   100
 73
     1
 74
     1
 75
     0
 76
     0
 77
     0
 78
     0
281
     0
 65
     1
110
0.0
120
0.0
130
0.0
111
1.0
121
0.0
131
0.0
112
0.0
122
1.0
132
0.0
 79
     0
146
0.0
 60
     3
 61
     5
292
     1
282
     1
141
0.0
142
0.0
 63
   250
421
  3355443
  0
ENDTAB
  0
TABLE
  2
LTYPE
  5
5
330
0
100
AcDbSymbolTable
 70
     1
  0
LTYPE
  5
5B
330
5
100
AcDbSymbolTableRecord
100
AcDbLinetypeTableRecord
  2
ByBlock
 70
     0
  3

 72
    65
 73
     0
 40
0.0
  0
LTYPE
  5
5C
330
5
100
AcDbSymbolTableRecord
100
AcDbLinetypeTableRecord
  2
ByLayer
 70
     0
  3

 72
    65
 73
     0
 40
0.0
  0
LTYPE
  5
5D
330
5
100
AcDbSymbolTableRecord
100
AcDbLinetypeTableRecord
  2
Continuous
 70
     0
  3
Solid line
 72
    65
 73
     0
 40
0.0
  0
ENDTAB
  0
TABLE
  2
LAYER
  5
2
330
0
100
AcDbSymbolTable
 70
     2
  0
LAYER
  5
54
330
2
100
AcDbSymbolTableRecord
100
AcDbLayerTableRecord
  2
0
 70
     0
 62
     7
  6
Continuous
370
     0
390
F
347
21
348
0
  0
LAYER
  5
184
330
2
100
AcDbSymbolTableRecord
100
AcDbLayerTableRecord
  2
CAPA_BASE
 70
     0
 62
     7
  6
Continuous
370
     0
390
F
347
21
348
0
  0
ENDTAB
  0
TABLE
  2
STYLE
  5
3
330
0
100
AcDbSymbolTable
 70
     2
  0
STYLE
  5
55
330
3
100
AcDbSymbolTableRecord
100
AcDbTextStyleTableRecord
  2
Standard
 70
     0
 40
0.0
 41
1.0
 50
0.0
 71
     0
 42
0.2
  3
txt
  4

  0
STYLE
  5
5A
330
3
100
AcDbSymbolTableRecord
100
AcDbTextStyleTableRecord
  2
Annotative
 70
     0
 40
0.0
 41
1.0
 50
0.0
 71
     0
 42
0.2
  3
txt
  4

1001
AcadAnnotative
1000
AnnotativeData
1002
{
1070
     1
1070
     1
1002
}
  0
ENDTAB
  0
TABLE
  2
VIEW
  5
6
330
0
100
AcDbSymbolTable
 70
     0
  0
ENDTAB
  0
TABLE
  2
UCS
  5
7
330
0
100
AcDbSymbolTable
 70
     0
  0
ENDTAB
  0
TABLE
  2
APPID
  5
9
330
0
100
AcDbSymbolTable
 70
     2
  0
APPID
  5
56
330
9
100
AcDbSymbolTableRecord
100
AcDbRegAppTableRecord
  2
ACAD
 70
     0
  0
APPID
  5
5E
330
9
100
AcDbSymbolTableRecord
100
AcDbRegAppTableRecord
  2
AcadAnnotative
 70
     0
  0
ENDTAB
  0
TABLE
  2
DIMSTYLE
  5
A
330
0
100
AcDbSymbolTable
 70
     2
100
AcDbDimStyleTable
 71
     0
  0
DIMSTYLE
105
58
330
A
100
AcDbSymbolTableRecord
100
AcDbDimStyleTableRecord
  2
Standard
 70
     0
340
55
  0
DIMSTYLE
105
59
330
A
100
AcDbSymbolTableRecord
100
AcDbDimStyleTableRecord
  2
Annotative
 70
     0
340
55
1001
AcadAnnotative
1000
AnnotativeData
1002
{
1070
     1
1070
     1
1002
}
  0
ENDTAB
  0
TABLE
  2
BLOCK_RECORD
  5
1
330
0
100
AcDbSymbolTable
 70
     4
  0
BLOCK_RECORD
  5
70
330
1
100
AcDbSymbolTableRecord
100
AcDbBlockTableRecord
  2
*Model_Space
340
73
 70
     0
280
     1
281
     0
  0
BLOCK_RECORD
  5
6C
330
1
100
AcDbSymbolTableRecord
100
AcDbBlockTableRecord
  2
*Paper_Space
340
6F
 70
     0
280
     1
281
     0
  0
BLOCK_RECORD
  5
74
330
1
100
AcDbSymbolTableRecord
100
AcDbBlockTableRecord
  2
*Paper_Space0
340
77
 70
     0
280
     1
281
     0
  0
BLOCK_RECORD
  5
185
330
1
100
AcDbSymbolTableRecord
100
AcDbBlockTableRecord
  2
Block_0
340
0
102
{BLKREFS
331
186
102
}
 70
     0
280
     1
281
     0
  0
BLOCK_RECORD
  5
192
330
1
100
AcDbSymbolTableRecord
100
AcDbBlockTableRecord
  2
Block_1
340
0
102
{BLKREFS
331
193
102
}
 70
     0
280
     1
281
     0
  0
BLOCK_RECORD
  5
19E
330
1
100
AcDbSymbolTableRecord
100
AcDbBlockTableRecord
  2
Block_2
340
0
102
{BLKREFS
331
19F
102
}
 70
     0
280
     1
281
     0
  0
ENDTAB
  0
ENDSEC
  0
SECTION
  2
BLOCKS
  0
BLOCK
  5
71
330
70
100
AcDbEntity
  8
0
100
AcDbBlockBegin
  2
*Model_Space
 70
     0
 10
0.0
 20
0.0
 30
0.0
  3
*Model_Space
  1

  0
ENDBLK
  5
72
330
70
100
AcDbEntity
  8
0
100
AcDbBlockEnd
  0
BLOCK
  5
6D
330
6C
100
AcDbEntity
 67
     1
  8
0
100
AcDbBlockBegin
  2
*Paper_Space
 70
     0
 10
0.0
 20
0.0
 30
0.0
  3
*Paper_Space
  1

  0
ENDBLK
  5
6E
330
6C
100
AcDbEntity
 67
     1
  8
0
100
AcDbBlockEnd
  0
BLOCK
  5
75
330
74
100
AcDbEntity
 67
     1
  8
0
100
AcDbBlockBegin
  2
*Paper_Space0
 70
     0
 10
0.0
 20
0.0
 30
0.0
  3
*Paper_Space0
  1

  0
ENDBLK
  5
76
330
74
100
AcDbEntity
 67
     1
  8
0
100
AcDbBlockEnd
  0
BLOCK
  5
187
330
185
100
AcDbEntity
  8
0
100
AcDbBlockBegin
  2
Block_0
 70
     0
 10
0.0
 20
0.0
 30
0.0
  3
Block_0
  1

  0
LWPOLYLINE
  5
189
330
185
100
AcDbEntity
  8
CAPA_BASE
100
AcDbPolyline
 90
        4
 70
     1
 43
0.0
 10
59.00923011770916
 20
-51.61892776332331
 10
60.40812976532091
 20
-51.7923913196274
 10
60.40812976532091
 20
-51.44546420701987
 10
60.40812976532091
 20
-51.44546420701987
  0
HATCH
  5
18A
330
185
100
AcDbEntity
  8
CAPA_BASE
 62
    18
420
        0
440
 33554687
100
AcDbHatch
 10
0.0
 20
0.0
 30
0.0
210
0.0
220
0.0
230
1.0
  2
SOLID
 70
     1
 71
     1
 91
        1
 92
        1
 93
        3
 72
     1
 10
59.00923011770916
 20
-51.61892776332331
 11
60.40812976532091
 21
-51.7923913196274
 72
     1
 10
60.40812976532091
 20
-51.7923913196274
 11
60.40812976532091
 21
-51.44546420701987
 72
     1
 10
60.40812976532091
 20
-51.44546420701987
 11
59.00923011770916
 21
-51.61892776332331
 97
        1
330
189
 75
     2
 76
     1
 98
        1
 10
0.0
 20
0.0
450
        0
451
        0
460
0.0
461
0.0
452
        0
462
0.0
453
        0
470

  0
LWPOLYLINE
  5
18B
330
185
100
AcDbEntity
  8
CAPA_BASE
100
AcDbPolyline
 90
        4
 70
     1
 43
0.0
 10
73.18474654687712
 20
-51.61892776332331
 10
71.78584689926537
 20
-51.44546420701987
 10
71.78584689926537
 20
-51.7923913196274
 10
71.78584689926537
 20
-51.7923913196274
  0
HATCH
  5
18C
330
185
100
AcDbEntity
  8
CAPA_BASE
 62
    18
420
        0
440
 33554687
100
AcDbHatch
 10
0.0
 20
0.0
 30
0.0
210
0.0
220
0.0
230
1.0
  2
SOLID
 70
     1
 71
     1
 91
        1
 92
        1
 93
        3
 72
     1
 10
73.18474654687712
 20
-51.61892776332331
 11
71.78584689926537
 21
-51.44546420701987
 72
     1
 10
71.78584689926537
 20
-51.44546420701987
 11
71.78584689926537
 21
-51.7923913196274
 72
     1
 10
71.78584689926537
 20
-51.7923913196274
 11
73.18474654687712
 21
-51.61892776332331
 97
        1
330
18B
 75
     2
 76
     1
 98
        1
 10
0.0
 20
0.0
450
        0
451
        0
460
0.0
461
0.0
452
        0
462
0.0
453
        0
470

  0
LINE
  5
18D
330
185
100
AcDbEntity
  8
CAPA_BASE
 62
    18
420
        0
370
    25
100
AcDbLine
 10
59.00923011770916
 20
-29.11995843092309
 30
0.0
 11
59.00923011770916
 21
-52.17848762236789
 31
0.0
  0
LINE
  5
18E
330
185
100
AcDbEntity
  8
CAPA_BASE
 62
    18
420
        0
370
    25
100
AcDbLine
 10
73.18474654687712
 20
-29.11995843092309
 30
0.0
 11
73.18474654687712
 21
-52.17848762236789
 31
0.0
  0
LINE
  5
18F
330
185
100
AcDbEntity
  8
CAPA_BASE
 62
    18
420
        0
370
    25
100
AcDbLine
 10
59.00923011770916
 20
-51.61892776332331
 30
0.0
 11
73.18474654687712
 21
-51.61892776332331
 31
0.0
  0
MTEXT
  5
190
330
185
100
AcDbEntity
  8
CAPA_BASE
100
AcDbMText
 10
64.16647523759336
 20
-51.17477792943993
 30
0.0
 40
0.2
 41
0.0
 46
0.0
 71
     7
 72
     1
  1
\C18;\c0;\FArial Bold|b1|i0|c1;\H2.997200;\W0.700000;Ø
 73
     1
 44
1.0
  0
MTEXT
  5
191
330
185
100
AcDbEntity
  8
CAPA_BASE
100
AcDbMText
 10
66.05349937483047
 20
-51.17477792943993
 30
0.0
 40
0.2
 41
0.0
 46
0.0
 71
     7
 72
     1
  1
\C18;\c0;\FArial Bold|b1|i0|c1;\H2.997200;\W0.700000;76
 73
     1
 44
1.0
  0
ENDBLK
  5
188
330
185
100
AcDbEntity
  8
0
100
AcDbBlockEnd
  0
BLOCK
  5
194
330
192
100
AcDbEntity
  8
0
100
AcDbBlockBegin
  2
Block_1
 70
     0
 10
0.0
 20
0.0
 30
0.0
  3
Block_1
  1

  0
LWPOLYLINE
  5
196
330
192
100
AcDbEntity
  8
CAPA_BASE
100
AcDbPolyline
 90
        4
 70
     1
 43
0.0
 10
88.02180320313324
 20
22.98905344260802
 10
87.84833964682949
 20
21.59015379499626
 10
88.195266759437
 20
21.59015379499626
 10
88.195266759437
 20
21.59015379499626
  0
HATCH
  5
197
330
192
100
AcDbEntity
  8
CAPA_BASE
 62
    18
420
        0
440
 33554687
100
AcDbHatch
 10
0.0
 20
0.0
 30
0.0
210
0.0
220
0.0
230
1.0
  2
SOLID
 70
     1
 71
     1
 91
        1
 92
        1
 93
        3
 72
     1
 10
88.02180320313324
 20
22.98905344260802
 11
87.84833964682949
 21
21.59015379499626
 72
     1
 10
87.84833964682949
 20
21.59015379499626
 11
88.195266759437
 21
21.59015379499626
 72
     1
 10
88.195266759437
 20
21.59015379499626
 11
88.02180320313324
 21
22.98905344260802
 97
        1
330
196
 75
     2
 76
     1
 98
        1
 10
0.0
 20
0.0
450
        0
451
        0
460
0.0
461
0.0
452
        0
462
0.0
453
        0
470

  0
LWPOLYLINE
  5
198
330
192
100
AcDbEntity
  8
CAPA_BASE
100
AcDbPolyline
 90
        4
 70
     1
 43
0.0
 10
88.02180320313324
 20
-46.02332917287696
 10
88.195266759437
 20
-44.62442952526584
 10
87.84833964682949
 20
-44.62442952526584
 10
87.84833964682949
 20
-44.62442952526584
  0
HATCH
  5
199
330
192
100
AcDbEntity
  8
CAPA_BASE
 62
    18
420
        0
440
 33554687
100
AcDbHatch
 10
0.0
 20
0.0
 30
0.0
210
0.0
220
0.0
230
1.0
  2
SOLID
 70
     1
 71
     1
 91
        1
 92
        1
 93
        3
 72
     1
 10
88.02180320313324
 20
-46.02332917287696
 11
88.195266759437
 21
-44.62442952526584
 72
     1
 10
88.195266759437
 20
-44.62442952526584
 11
87.84833964682949
 21
-44.62442952526584
 72
     1
 10
87.84833964682949
 20
-44.62442952526584
 11
88.02180320313324
 21
-46.02332917287696
 97
        1
330
198
 75
     2
 76
     1
 98
        1
 10
0.0
 20
0.0
450
        0
451
        0
460
0.0
461
0.0
452
        0
462
0.0
453
        0
470

  0
LINE
  5
19A
330
192
100
AcDbEntity
  8
CAPA_BASE
 62
    18
420
        0
370
    25
100
AcDbLine
 10
105.9647005540287
 20
22.98905344260802
 30
0.0
 11
87.46224334408868
 21
22.98905344260802
 31
0.0
  0
LINE
  5
19B
330
192
100
AcDbEntity
  8
CAPA_BASE
 62
    18
420
        0
370
    25
100
AcDbLine
 10
100.4596324450541
 20
-46.02332917287696
 30
0.0
 11
87.46224334408868
 21
-46.02332917287696
 31
0.0
  0
LINE
  5
19C
330
192
100
AcDbEntity
  8
CAPA_BASE
 62
    18
420
        0
370
    25
100
AcDbLine
 10
88.02180320313324
 20
22.98905344260802
 30
0.0
 11
88.02180320313324
 21
-46.02332917287696
 31
0.0
  0
MTEXT
  5
19D
330
192
100
AcDbEntity
  8
CAPA_BASE
100
AcDbMText
 10
87.57765390537946
 20
-12.99765624675123
 30
0.0
 40
0.2
 41
0.0
 46
0.0
 71
     7
 72
     1
  1
\C18;\c0;\FArial Bold|b1|i0|c1;\H2.997200;\W0.700000;370
 11
0.0000000000000003
 21
1.0
 31
0.0
 73
     1
 44
1.0
  0
ENDBLK
  5
195
330
192
100
AcDbEntity
  8
0
100
AcDbBlockEnd
  0
BLOCK
  5
1A0
330
19E
100
AcDbEntity
  8
0
100
AcDbBlockBegin
  2
Block_2
 70
     0
 10
0.0
 20
0.0
 30
0.0
  3
Block_2
  1

  0
LWPOLYLINE
  5
1A2
330
19E
100
AcDbEntity
  8
CAPA_BASE
100
AcDbPolyline
 90
        4
 70
     1
 43
0.0
 10
78.79193919779422
 20
-59.74473588661338
 10
78.61847564149046
 20
-61.14363553422513
 10
78.96540275409797
 20
-61.14363553422513
 10
78.96540275409797
 20
-61.14363553422513
  0
HATCH
  5
1A3
330
19E
100
AcDbEntity
  8
CAPA_BASE
 62
    18
420
        0
440
 33554687
100
AcDbHatch
 10
0.0
 20
0.0
 30
0.0
210
0.0
220
0.0
230
1.0
  2
SOLID
 70
     1
 71
     1
 91
        1
 92
        1
 93
        3
 72
     1
 10
78.79193919779422
 20
-59.74473588661338
 11
78.61847564149046
 21
-61.14363553422513
 72
     1
 10
78.61847564149046
 20
-61.14363553422513
 11
78.96540275409797
 21
-61.14363553422513
 72
     1
 10
78.96540275409797
 20
-61.14363553422513
 11
78.79193919779422
 21
-59.74473588661338
 97
        1
330
1A2
 75
     2
 76
     1
 98
        1
 10
0.0
 20
0.0
450
        0
451
        0
460
0.0
461
0.0
452
        0
462
0.0
453
        0
470

  0
LWPOLYLINE
  5
1A4
330
19E
100
AcDbEntity
  8
CAPA_BASE
100
AcDbPolyline
 90
        4
 70
     1
 43
0.0
 10
78.79193919779422
 20
-79.70237085922363
 10
78.96540275409797
 20
-78.30347121161188
 10
78.61847564149046
 20
-78.30347121161188
 10
78.61847564149046
 20
-78.30347121161188
  0
HATCH
  5
1A5
330
19E
100
AcDbEntity
  8
CAPA_BASE
 62
    18
420
        0
440
 33554687
100
AcDbHatch
 10
0.0
 20
0.0
 30
0.0
210
0.0
220
0.0
230
1.0
  2
SOLID
 70
     1
 71
     1
 91
        1
 92
        1
 93
        3
 72
     1
 10
78.79193919779422
 20
-79.70237085922363
 11
78.96540275409797
 21
-78.30347121161188
 72
     1
 10
78.96540275409797
 20
-78.30347121161188
 11
78.61847564149046
 21
-78.30347121161188
 72
     1
 10
78.61847564149046
 20
-78.30347121161188
 11
78.79193919779422
 21
-79.70237085922363
 97
        1
330
1A4
 75
     2
 76
     1
 98
        1
 10
0.0
 20
0.0
450
        0
451
        0
460
0.0
461
0.0
452
        0
462
0.0
453
        0
470

  0
LINE
  5
1A6
330
19E
100
AcDbEntity
  8
CAPA_BASE
 62
    18
420
        0
370
    25
100
AcDbLine
 10
70.8159445639935
 20
-59.74473588661338
 30
0.0
 11
79.35149905683879
 21
-59.74473588661338
 31
0.0
  0
LINE
  5
1A7
330
19E
100
AcDbEntity
  8
CAPA_BASE
 62
    18
420
        0
370
    25
100
AcDbLine
 10
66.65654819133788
 20
-79.70237085922363
 30
0.0
 11
79.35149905683879
 21
-79.70237085922363
 31
0.0
  0
LINE
  5
1A8
330
19E
100
AcDbEntity
  8
CAPA_BASE
 62
    18
420
        0
370
    25
100
AcDbLine
 10
78.79193919779422
 20
-59.74473588661338
 30
0.0
 11
78.79193919779422
 21
-79.70237085922363
 31
0.0
  0
MTEXT
  5
1A9
330
19E
100
AcDbEntity
  8
CAPA_BASE
100
AcDbMText
 10
78.34779093161269
 20
-71.20392250824133
 30
0.0
 40
0.2
 41
0.0
 46
0.0
 71
     7
 72
     1
  1
\C18;\c0;\FArial Bold|b1|i0|c1;\H2.997200;\W0.700000;107
 11
0.0000000000000003
 21
1.0
 31
0.0
 73
     1
 44
1.0
  0
ENDBLK
  5
1A1
330
19E
100
AcDbEntity
  8
0
100
AcDbBlockEnd
  0
ENDSEC
  0
SECTION
  2
ENTITIES
  0
SPLINE
  5
78
330
70
100
AcDbEntity
  8
0
 62
    18
420
        0
370
    25
100
AcDbSpline
210
0.0
220
0.0
230
1.0
 70
     8
 71
     3
 72
    11
 73
     7
 74
     0
 42
0.0000000001
 43
0.0000000001
 40
0.0
 40
0.0
 40
0.0
 40
0.0
 40
1.0
 40
1.0
 40
1.0
 40
2.0
 40
2.0
 40
2.0
 40
2.0
 10
58.99763960831108
 20
-29.88853940061376
 30
0.0
 10
58.9971901388257
 20
-29.94004350221551
 30
0.0
 10
59.03857809566734
 20
-29.98216019307747
 30
0.0
 10
59.09008219726876
 20
-29.98260966256253
 30
0.0
 10
59.09035346964464
 20
-29.98261202992055
 30
0.0
 10
59.09062475105884
 20
-29.98261321361657
 30
0.0
 10
59.09089603376447
 20
-29.98261321361657
 30
0.0
  0
SPLINE
  5
79
330
70
100
AcDbEntity
  8
0
 62
    18
420
        0
370
    25
100
AcDbSpline
210
0.0
220
0.0
230
1.0
 70
     8
 71
     3
 72
    11
 73
     7
 74
     0
 42
0.0000000001
 43
0.0000000001
 40
0.0
 40
0.0
 40
0.0
 40
0.0
 40
1.0
 40
1.0
 40
1.0
 40
2.0
 40
2.0
 40
2.0
 40
2.0
 10
73.10308063082182
 20
-29.98261321361657
 30
0.0
 10
73.15458669361658
 20
-29.98261321361657
 30
0.0
 10
73.19634060732925
 20
-29.9408592999039
 30
0.0
 10
73.19634060732925
 20
-29.88935323710946
 30
0.0
 10
73.19634060732925
 20
-29.88908195440383
 30
0.0
 10
73.19633942363323
 20
-29.88881067298931
 30
0.0
 10
73.19633705627521
 20
-29.88853940061376
 30
0.0
  0
LINE
  5
7A
330
70
100
AcDbEntity
  8
0
 62
    18
420
        0
370
    25
100
AcDbLine
 10
73.19633705626912
 20
-29.88853940060413
 30
0.0
 11
73.18474654687712
 21
-28.56039857187852
 31
0.0
  0
LINE
  5
7B
330
70
100
AcDbEntity
  8
0
 62
    18
420
        0
370
    25
100
AcDbLine
 10
59.00923011770916
 20
-28.56039857187852
 30
0.0
 11
58.99763960831685
 21
-29.88853940060413
 31
0.0
  0
SPLINE
  5
7C
330
70
100
AcDbEntity
  8
0
 62
    18
420
        0
370
    25
100
AcDbSpline
210
0.0
220
0.0
230
1.0
 70
     8
 71
     3
 72
     8
 73
     4
 74
     0
 42
0.0000000001
 43
0.0000000001
 40
0.0
 40
0.0
 40
0.0
 40
0.0
 40
1.0
 40
1.0
 40
1.0
 40
1.0
 10
73.18474654687872
 20
-28.56039857187852
 30
0.0
 10
73.18474654687872
 20
-28.06889028297863
 30
0.0
 10
73.17179456040904
 20
-27.57746733499567
 30
0.0
 10
73.14590407361915
 20
-27.08664141804488
 30
0.0
  0
SPLINE
  5
7D
330
70
100
AcDbEntity
  8
0
 62
    18
420
        0
370
    25
100
AcDbSpline
210
0.0
220
0.0
230
1.0
 70
     8
 71
     3
 72
     8
 73
     4
 74
     0
 42
0.0000000001
 43
0.0000000001
 40
0.0
 40
0.0
 40
0.0
 40
0.0
 40
1.0
 40
1.0
 40
1.0
 40
1.0
 10
59.04807259096714
 20
-27.08664141804488
 30
0.0
 10
59.02218210417724
 20
-27.57746733499567
 30
0.0
 10
59.00923011770755
 20
-28.06889028297863
 30
0.0
 10
59.00923011770755
 20
-28.56039857187852
 30
0.0
  0
SPLINE
  5
7E
330
70
100
AcDbEntity
  8
0
 62
    18
420
        0
370
    25
100
AcDbSpline
210
0.0
220
0.0
230
1.0
 70
     8
 71
     3
 72
     8
 73
     4
 74
     0
 42
0.0000000001
 43
0.0000000001
 40
0.0
 40
0.0
 40
0.0
 40
0.0
 40
1.0
 40
1.0
 40
1.0
 40
1.0
 10
73.14590407362107
 20
-27.08664141803975
 30
0.0
 10
73.1432915214448
 20
-27.03711325242897
 30
0.0
 10
73.10237059429056
 20
-26.99829396537885
 30
0.0
 10
73.05277357202456
 20
-26.99829396537885
 30
0.0
  0
SPLINE
  5
7F
330
70
100
AcDbEntity
  8
0
 62
    18
420
        0
370
    25
100
AcDbSpline
210
0.0
220
0.0
230
1.0
 70
     8
 71
     3
 72
     8
 73
     4
 74
     0
 42
0.0000000001
 43
0.0000000001
 40
0.0
 40
0.0
 40
0.0
 40
0.0
 40
1.0
 40
1.0
 40
1.0
 40
1.0
 10
59.14120309256173
 20
-26.99829396537885
 30
0.0
 10
59.09160607029572
 20
-26.99829396537885
 30
0.0
 10
59.05068514314148
 20
-27.03711325242897
 30
0.0
 10
59.04807259096521
 20
-27.08664141803975
 30
0.0
  0
LINE
  5
80
330
70
100
AcDbEntity
  8
0
 62
    18
420
        0
370
    25
100
AcDbLine
 10
65.16438856720009
 20
25.16423118950789
 30
0.0
 11
65.16438856720009
 21
25.04077292579006
 31
0.0
  0
LINE
  5
81
330
70
100
AcDbEntity
  8
0
 62
    18
420
        0
370
    25
100
AcDbLine
 10
67.02958809738619
 20
25.04077292579006
 30
0.0
 11
67.02958809738619
 21
25.16423118950789
 31
0.0
  0
SPLINE
  5
82
330
70
100
AcDbEntity
  8
0
 62
    18
420
        0
370
    25
100
AcDbSpline
210
0.0
220
0.0
230
1.0
 70
     8
 71
     3
 72
     8
 73
     4
 74
     0
 42
0.0000000001
 43
0.0000000001
 40
0.0
 40
0.0
 40
0.0
 40
0.0
 40
1.0
 40
1.0
 40
1.0
 40
1.0
 10
67.0295880973676
 20
25.16423118950789
 30
0.0
 10
67.0295880973676
 20
25.20278224993764
 30
0.0
 10
67.0058680130201
 20
25.23735991763043
 30
0.0
 10
66.96990171240262
 20
25.25123829938478
 30
0.0
  0
SPLINE
  5
83
330
70
100
AcDbEntity
  8
0
 62
    18
420
        0
370
    25
100
AcDbSpline
210
0.0
220
0.0
230
1.0
 70
     8
 71
     3
 72
     8
 73
     4
 74
     0
 42
0.0000000001
 43
0.0000000001
 40
0.0
 40
0.0
 40
0.0
 40
0.0
 40
1.0
 40
1.0
 40
1.0
 40
1.0
 10
65.22407495218335
 20
25.25123829938478
 30
0.0
 10
65.18810865156618
 20
25.23735991763043
 30
0.0
 10
65.16438856721869
 20
25.20278224993764
 30
0.0
 10
65.16438856721869
 20
25.16423118950789
 30
0.0
  0
SPLINE
  5
84
330
70
100
AcDbEntity
  8
0
 62
    18
420
        0
370
    25
100
AcDbSpline
210
0.0
220
0.0
230
1.0
 70
     8
 71
     3
 72
     8
 73
     4
 74
     0
 42
0.0000000001
 43
0.0000000001
 40
0.0
 40
0.0
 40
0.0
 40
0.0
 40
1.0
 40
1.0
 40
1.0
 40
1.0
 10
66.96990171240294
 20
25.25123829940147
 30
0.0
 10
66.40814510336621
 20
25.46800434260106
 30
0.0
 10
65.78583156121975
 20
25.46800434260106
 30
0.0
 10
65.22407495218335
 20
25.25123829940147
 30
0.0
  0
SPLINE
  5
85
330
70
100
AcDbEntity
  8
0
 62
    18
420
        0
370
    25
100
AcDbSpline
210
0.0
220
0.0
230
1.0
 70
     8
 71
     3
 72
    11
 73
     7
 74
     0
 42
0.0000000001
 43
0.0000000001
 40
0.0
 40
0.0
 40
0.0
 40
0.0
 40
1.0
 40
1.0
 40
1.0
 40
2.0
 40
2.0
 40
2.0
 40
2.0
 10
73.06031296204922
 20
-25.22716824825169
 30
0.0
 10
73.0607624315346
 20
-25.17566414664994
 30
0.0
 10
73.01937447469329
 20
-25.13354745578798
 30
0.0
 10
72.96787037309153
 20
-25.13309798630292
 30
0.0
 10
72.96759910071566
 20
-25.13309561894426
 30
0.0
 10
72.96732781930145
 20
-25.13309443524824
 30
0.0
 10
72.96705653659614
 20
-25.13309443524824
 30
0.0
  0
SPLINE
  5
86
330
70
100
AcDbEntity
  8
0
 62
    18
420
        0
370
    25
100
AcDbSpline
210
0.0
220
0.0
230
1.0
 70
     8
 71
     3
 72
    11
 73
     7
 74
     0
 42
0.0000000001
 43
0.0000000001
 40
0.0
 40
0.0
 40
0.0
 40
0.0
 40
1.0
 40
1.0
 40
1.0
 40
2.0
 40
2.0
 40
2.0
 40
2.0
 10
59.22692012799013
 20
-25.13309443524824
 30
0.0
 10
59.17541406519569
 20
-25.13309443524824
 30
0.0
 10
59.1336601514827
 20
-25.17484834896155
 30
0.0
 10
59.1336601514827
 20
-25.226354411756
 30
0.0
 10
59.1336601514827
 20
-25.22662569446162
 30
0.0
 10
59.13366133517872
 20
-25.22689697587614
 30
0.0
 10
59.13366370253706
 20
-25.22716824825169
 30
0.0
  0
LINE
  5
87
330
70
100
AcDbEntity
  8
0
 62
    18
420
        0
370
    25
100
AcDbLine
 10
59.13366370248701
 20
-25.22716824826068
 30
0.0
 11
59.14831331723508
 21
-26.90584782539504
 31
0.0
  0
LINE
  5
88
330
70
100
AcDbEntity
  8
0
 62
    18
420
        0
370
    25
100
AcDbLine
 10
73.04566334735088
 20
-26.90584782539504
 30
0.0
 11
73.06031296204344
 21
-25.22716824826068
 31
0.0
  0
SPLINE
  5
89
330
70
100
AcDbEntity
  8
0
 62
    18
420
        0
370
    25
100
AcDbSpline
210
0.0
220
0.0
230
1.0
 70
     8
 71
     3
 72
     8
 73
     4
 74
     0
 42
0.0000000001
 43
0.0000000001
 40
0.0
 40
0.0
 40
0.0
 40
0.0
 40
1.0
 40
1.0
 40
1.0
 40
1.0
 10
72.95240692190358
 20
-26.99829396539746
 30
0.0
 10
73.00359544419247
 20
-26.99829396539746
 30
0.0
 10
73.04521664890003
 20
-26.95703439857249
 30
0.0
 10
73.04566334735698
 20
-26.90584782538541
 30
0.0
  0
SPLINE
  5
8A
330
70
100
AcDbEntity
  8
0
 62
    18
420
        0
370
    25
100
AcDbSpline
210
0.0
220
0.0
230
1.0
 70
     8
 71
     3
 72
     8
 73
     4
 74
     0
 42
0.0000000001
 43
0.0000000001
 40
0.0
 40
0.0
 40
0.0
 40
0.0
 40
1.0
 40
1.0
 40
1.0
 40
1.0
 10
59.1483133172293
 20
-26.90584782538541
 30
0.0
 10
59.14876001568593
 20
-26.95703439857249
 30
0.0
 10
59.19038122039349
 20
-26.99829396539746
 30
0.0
 10
59.24156974268237
 20
-26.99829396539746
 30
0.0
  0
LINE
  5
8B
330
70
100
AcDbEntity
  8
0
 62
    18
420
        0
370
    25
100
AcDbLine
 10
60.15760786764435
 20
-29.98261321363517
 30
0.0
 11
60.31215373862104
 21
-45.74629205207267
 31
0.0
  0
LINE
  5
8C
330
70
100
AcDbEntity
  8
0
 62
    18
420
        0
370
    25
100
AcDbLine
 10
71.88182292596525
 20
-45.74629205207267
 30
0.0
 11
72.03636879694194
 21
-29.98261321363517
 31
0.0
  0
SPLINE
  5
8D
330
70
100
AcDbEntity
  8
0
 62
    18
420
        0
370
    25
100
AcDbSpline
210
0.0
220
0.0
230
1.0
 70
     8
 71
     3
 72
     8
 73
     4
 74
     0
 42
0.0000000001
 43
0.0000000001
 40
0.0
 40
0.0
 40
0.0
 40
0.0
 40
1.0
 40
1.0
 40
1.0
 40
1.0
 10
71.60205644126765
 20
-46.02332917287696
 30
0.0
 10
71.75550456326402
 20
-46.02332917287696
 30
0.0
 10
71.88031860491284
 20
-45.8997328000795
 30
0.0
 10
71.8818229259723
 20
-45.74629205202839
 30
0.0
  0
SPLINE
  5
8E
330
70
100
AcDbEntity
  8
0
 62
    18
420
        0
370
    25
100
AcDbSpline
210
0.0
220
0.0
230
1.0
 70
     8
 71
     3
 72
     8
 73
     4
 74
     0
 42
0.0000000001
 43
0.0000000001
 40
0.0
 40
0.0
 40
0.0
 40
0.0
 40
1.0
 40
1.0
 40
1.0
 40
1.0
 10
60.31215373861399
 20
-45.74629205202839
 30
0.0
 10
60.31365805967343
 20
-45.8997328000795
 30
0.0
 10
60.43847210132227
 20
-46.02332917287696
 30
0.0
 10
60.59192022331863
 20
-46.02332917287696
 30
0.0
  0
LINE
  5
8F
330
70
100
AcDbEntity
  8
0
 62
    18
420
        0
370
    25
100
AcDbLine
 10
67.02958809738619
 20
-25.13309443523028
 30
0.0
 11
67.02958809738619
 21
25.04077292579006
 31
0.0
  0
LINE
  5
90
330
70
100
AcDbEntity
  8
0
 62
    18
420
        0
370
    25
100
AcDbLine
 10
65.16438856720009
 20
25.04077292579006
 30
0.0
 11
65.16438856720009
 21
-25.13309443523028
 31
0.0
  0
LINE
  5
91
330
70
100
AcDbEntity
  8
0
 62
    18
420
        0
370
    25
100
AcDbLine
 10
73.10308063082182
 20
-29.98261321363517
 30
0.0
 11
59.09089603376447
 21
-29.98261321363517
 31
0.0
  0
LINE
  5
92
330
70
100
AcDbEntity
  8
0
 62
    18
420
        0
370
    25
100
AcDbLine
 10
59.14120309256173
 20
-26.9982939653596
 30
0.0
 11
73.05277357202456
 21
-26.9982939653596
 31
0.0
  0
LINE
  5
93
330
70
100
AcDbEntity
  8
0
 62
    18
420
        0
370
    25
100
AcDbLine
 10
70.25019647113985
 20
-24.33724545065084
 30
0.0
 11
70.25019647113985
 21
-24.29994288047218
 31
0.0
  0
SPLINE
  5
94
330
70
100
AcDbEntity
  8
0
 62
    18
420
        0
370
    25
100
AcDbSpline
210
0.0
220
0.0
230
1.0
 70
     8
 71
     3
 72
     8
 73
     4
 74
     0
 42
0.0000000001
 43
0.0000000001
 40
0.0
 40
0.0
 40
0.0
 40
0.0
 40
1.0
 40
1.0
 40
1.0
 40
1.0
 10
70.28749904132879
 20
-24.33724545064314
 30
0.0
 10
70.28749720396411
 20
-24.31664457111204
 30
0.0
 10
70.27079735067864
 20
-24.29994471782658
 30
0.0
 10
70.25019647114723
 20
-24.29994288046191
 30
0.0
  0
LINE
  5
95
330
70
100
AcDbEntity
  8
0
 62
    18
420
        0
370
    25
100
AcDbLine
 10
70.25019647113985
 20
-24.33724545065084
 30
0.0
 11
70.28749904131884
 21
-24.33724545065084
 31
0.0
  0
LINE
  5
96
330
70
100
AcDbEntity
  8
0
 62
    18
420
        0
370
    25
100
AcDbLine
 10
61.94378019344643
 20
-24.29994288047218
 30
0.0
 11
61.94378019344643
 21
-24.33724545065084
 31
0.0
  0
LINE
  5
97
330
70
100
AcDbEntity
  8
0
 62
    18
420
        0
370
    25
100
AcDbLine
 10
61.9064776232113
 20
-24.33724545065084
 30
0.0
 11
61.94378019344643
 21
-24.33724545065084
 31
0.0
  0
SPLINE
  5
98
330
70
100
AcDbEntity
  8
0
 62
    18
420
        0
370
    25
100
AcDbSpline
210
0.0
220
0.0
230
1.0
 70
     8
 71
     3
 72
     8
 73
     4
 74
     0
 42
0.0000000001
 43
0.0000000001
 40
0.0
 40
0.0
 40
0.0
 40
0.0
 40
1.0
 40
1.0
 40
1.0
 40
1.0
 10
61.94378019343873
 20
-24.29994288046191
 30
0.0
 10
61.92317931390732
 20
-24.29994471782658
 30
0.0
 10
61.90647946062185
 20
-24.31664457111204
 30
0.0
 10
61.90647762325751
 20
-24.33724545064314
 30
0.0
  0
LINE
  5
99
330
70
100
AcDbEntity
  8
0
 62
    18
420
        0
370
    25
100
AcDbLine
 10
70.29368727512791
 20
-24.33105721684176
 30
0.0
 11
70.28749904131884
 21
-24.33724545065084
 31
0.0
  0
LINE
  5
9A
330
70
100
AcDbEntity
  8
0
 62
    18
420
        0
370
    25
100
AcDbLine
 10
70.25019647113985
 20
-24.29994288047218
 30
0.0
 11
70.25638470494893
 21
-24.2937546466631
 31
0.0
  0
SPLINE
  5
9B
330
70
100
AcDbEntity
  8
0
 62
    18
420
        0
370
    25
100
AcDbSpline
210
0.0
220
0.0
230
1.0
 70
     8
 71
     3
 72
    11
 73
     7
 74
     0
 42
0.0000000001
 43
0.0000000001
 40
0.0
 40
0.0
 40
0.0
 40
0.0
 40
1.0
 40
1.0
 40
1.0
 40
2.0
 40
2.0
 40
2.0
 40
2.0
 10
70.29368727513464
 20
-24.33105721683727
 30
0.0
 10
70.29368754374665
 20
-24.31045584480858
 30
0.0
 10
70.27698704971188
 20
-24.29375491526805
 30
0.0
 10
70.25638567768318
 20
-24.29375464665604
 30
0.0
 10
70.25638535344004
 20
-24.29375464665155
 30
0.0
 10
70.25638502919656
 20
-24.29375464665155
 30
0.0
 10
70.25638470495342
 20
-24.29375464665604
 30
0.0
  0
LINE
  5
9C
330
70
100
AcDbEntity
  8
0
 62
    18
420
        0
370
    25
100
AcDbLine
 10
61.93759195963735
 20
-24.2937546466631
 30
0.0
 11
61.94378019344643
 21
-24.29994288047218
 31
0.0
  0
LINE
  5
9D
330
70
100
AcDbEntity
  8
0
 62
    18
420
        0
370
    25
100
AcDbLine
 10
61.9064776232113
 20
-24.33724545065084
 30
0.0
 11
61.90028938945837
 21
-24.33105721684176
 31
0.0
  0
SPLINE
  5
9E
330
70
100
AcDbEntity
  8
0
 62
    18
420
        0
370
    25
100
AcDbSpline
210
0.0
220
0.0
230
1.0
 70
     8
 71
     3
 72
    11
 73
     7
 74
     0
 42
0.0000000001
 43
0.0000000001
 40
0.0
 40
0.0
 40
0.0
 40
0.0
 40
1.0
 40
1.0
 40
1.0
 40
2.0
 40
2.0
 40
2.0
 40
2.0
 10
61.93759195963287
 20
-24.29375464665604
 30
0.0
 10
61.91699058760417
 20
-24.29375437804403
 30
0.0
 10
61.90028965806333
 20
-24.31045487207882
 30
0.0
 10
61.90028938945132
 20
-24.33105624410751
 30
0.0
 10
61.90028938944714
 20
-24.33105656835098
 30
0.0
 10
61.90028938944714
 20
-24.3310568925938
 30
0.0
 10
61.90028938945132
 20
-24.33105721683727
 30
0.0
  0
LINE
  5
9F
330
70
100
AcDbEntity
  8
0
 62
    18
420
        0
370
    25
100
AcDbLine
 10
61.93759195963735
 20
-24.2937546466631
 30
0.0
 11
65.16438856720009
 21
-24.2937546466631
 31
0.0
  0
LINE
  5
A0
330
70
100
AcDbEntity
  8
0
 62
    18
420
        0
370
    25
100
AcDbLine
 10
67.02958809738619
 20
-24.2937546466631
 30
0.0
 11
70.25638470494893
 21
-24.2937546466631
 31
0.0
  0
LINE
  5
A1
330
70
100
AcDbEntity
  8
0
 62
    18
420
        0
370
    25
100
AcDbLine
 10
70.29368727512791
 20
-24.33105721684176
 30
0.0
 11
70.29368727512791
 21
-25.13309443523028
 31
0.0
  0
LINE
  5
A2
330
70
100
AcDbEntity
  8
0
 62
    18
420
        0
370
    25
100
AcDbLine
 10
61.90028938945837
 20
-25.13309443523028
 30
0.0
 11
61.90028938945837
 21
-24.33105721684176
 31
0.0
  0
LINE
  5
A3
330
70
100
AcDbEntity
  8
0
 62
    18
420
        0
370
    25
100
AcDbLine
 10
66.23206167556459
 20
25.04077292579006
 30
0.0
 11
67.02958809738619
 21
25.04077292579006
 31
0.0
  0
LINE
  5
A4
330
70
100
AcDbEntity
  8
0
 62
    18
420
        0
370
    25
100
AcDbLine
 10
65.16438856720009
 20
25.04077292579006
 30
0.0
 11
66.23206167556459
 21
25.04077292579006
 31
0.0
  0
LINE
  5
A5
330
70
100
AcDbEntity
  8
0
 62
    18
420
        0
370
    25
100
AcDbLine
 10
72.96705653659614
 20
-25.13309443523028
 30
0.0
 11
59.22692012799013
 21
-25.13309443523028
 31
0.0
  0
LINE
  5
A6
330
70
100
AcDbEntity
  8
0
 62
    18
420
        0
370
    25
100
AcDbLine
 10
71.60205644126765
 20
-46.02332917287696
 30
0.0
 11
60.59192022331863
 21
-46.02332917287696
 31
0.0
  0
LINE
  5
A7
330
70
100
AcDbEntity
  8
0
 62
     8
420
  8421504
370
    25
100
AcDbLine
 10
58.99763960831685
 20
-29.88853940060413
 30
0.0
 11
73.19633705626912
 21
-29.88853940060413
 31
0.0
  0
LINE
  5
A8
330
70
100
AcDbEntity
  8
0
 62
     8
420
  8421504
370
    25
100
AcDbLine
 10
59.00923011770916
 20
-28.56039857187852
 30
0.0
 11
73.18474654687712
 21
-28.56039857187852
 31
0.0
  0
LINE
  5
A9
330
70
100
AcDbEntity
  8
0
 62
     8
420
  8421504
370
    25
100
AcDbLine
 10
73.14590407361754
 20
-27.08664141804745
 30
0.0
 11
59.04807259096875
 21
-27.08664141804745
 31
0.0
  0
LINE
  5
AA
330
70
100
AcDbEntity
  8
0
 62
     8
420
  8421504
370
    25
100
AcDbLine
 10
61.94378019344643
 20
-24.29994288047218
 30
0.0
 11
65.16438856720009
 21
-24.29994288047218
 31
0.0
  0
LINE
  5
AB
330
70
100
AcDbEntity
  8
0
 62
     8
420
  8421504
370
    25
100
AcDbLine
 10
67.02958809738619
 20
-24.29994288047218
 30
0.0
 11
70.25019647113985
 21
-24.29994288047218
 31
0.0
  0
LINE
  5
AC
330
70
100
AcDbEntity
  8
0
 62
     8
420
  8421504
370
    25
100
AcDbLine
 10
70.25019647113985
 20
-24.33724545065084
 30
0.0
 11
67.02958809738619
 21
-24.33724545065084
 31
0.0
  0
LINE
  5
AD
330
70
100
AcDbEntity
  8
0
 62
     8
420
  8421504
370
    25
100
AcDbLine
 10
65.16438856720009
 20
-24.33724545065084
 30
0.0
 11
61.94378019344643
 21
-24.33724545065084
 31
0.0
  0
LINE
  5
AE
330
70
100
AcDbEntity
  8
0
 62
     8
420
  8421504
370
    25
100
AcDbLine
 10
61.94378019344643
 20
-24.33724545065084
 30
0.0
 11
61.94378019344643
 21
-25.13309443523028
 31
0.0
  0
LINE
  5
AF
330
70
100
AcDbEntity
  8
0
 62
     8
420
  8421504
370
    25
100
AcDbLine
 10
70.25019647113985
 20
-25.13309443523028
 30
0.0
 11
70.25019647113985
 21
-24.33724545065084
 31
0.0
  0
LINE
  5
B0
330
70
100
AcDbEntity
  8
0
 62
     8
420
  8421504
370
    25
100
AcDbLine
 10
61.9064776232113
 20
-25.13309443523028
 30
0.0
 11
61.9064776232113
 21
-24.33724545065084
 31
0.0
  0
LINE
  5
B1
330
70
100
AcDbEntity
  8
0
 62
     8
420
  8421504
370
    25
100
AcDbLine
 10
70.28749904131884
 20
-24.33724545065084
 30
0.0
 11
70.28749904131884
 21
-25.13309443523028
 31
0.0
  0
LINE
  5
B2
330
70
100
AcDbEntity
  8
0
 62
     8
420
  8421504
370
    25
100
AcDbLine
 10
67.02958809738619
 20
25.16423118950789
 30
0.0
 11
65.16438856720009
 21
25.16423118950789
 31
0.0
  0
LINE
  5
B3
330
70
100
AcDbEntity
  8
0
 62
     8
420
  8421504
370
    25
100
AcDbLine
 10
65.22407495218367
 20
25.25123829942393
 30
0.0
 11
66.96990171240262
 21
25.25123829942393
 31
0.0
  0
LINE
  5
B4
330
70
100
AcDbEntity
  8
0
 62
     8
420
  8421504
370
    25
100
AcDbLine
 10
73.06031296204344
 20
-25.22716824826068
 30
0.0
 11
59.13366370248701
 21
-25.22716824826068
 31
0.0
  0
LINE
  5
B5
330
70
100
AcDbEntity
  8
0
 62
     8
420
  8421504
370
    25
100
AcDbLine
 10
73.04566334735088
 20
-26.90584782539504
 30
0.0
 11
59.14831331723508
 21
-26.90584782539504
 31
0.0
  0
LINE
  5
B6
330
70
100
AcDbEntity
  8
0
 62
     8
420
  8421504
370
    25
100
AcDbLine
 10
71.88182292596525
 20
-45.74629205207267
 30
0.0
 11
60.31215373862104
 21
-45.74629205207267
 31
0.0
  0
SPLINE
  5
B7
330
70
100
AcDbEntity
  8
0
 62
    18
420
        0
370
    25
100
AcDbSpline
210
0.0
220
0.0
230
1.0
 70
     8
 71
     3
 72
    11
 73
     7
 74
     0
 42
0.0000000001
 43
0.0000000001
 40
0.0
 40
0.0
 40
0.0
 40
0.0
 40
1.0
 40
1.0
 40
1.0
 40
2.0
 40
2.0
 40
2.0
 40
2.0
 10
113.5303527116018
 20
-29.98261321361657
 30
0.0
 10
113.5818587743963
 20
-29.98261321361657
 30
0.0
 10
113.6236126881096
 20
-29.9408592999039
 30
0.0
 10
113.6236126881096
 20
-29.88935323710946
 30
0.0
 10
113.6236126881096
 20
-29.88908195440383
 30
0.0
 10
113.6236115044136
 20
-29.88881067298931
 30
0.0
 10
113.6236091370549
 20
-29.88853940061376
 30
0.0
  0
LINE
  5
B8
330
70
100
AcDbEntity
  8
0
 62
    18
420
        0
370
    25
100
AcDbLine
 10
113.6236091370491
 20
-29.88853940060413
 30
0.0
 11
113.6120186276571
 21
-28.56039857187852
 31
0.0
  0
SPLINE
  5
B9
330
70
100
AcDbEntity
  8
0
 62
    18
420
        0
370
    25
100
AcDbSpline
210
0.0
220
0.0
230
1.0
 70
     8
 71
     3
 72
     8
 73
     4
 74
     0
 42
0.0000000001
 43
0.0000000001
 40
0.0
 40
0.0
 40
0.0
 40
0.0
 40
1.0
 40
1.0
 40
1.0
 40
1.0
 10
113.6120186276584
 20
-28.56039857187852
 30
0.0
 10
113.6120186276584
 20
-28.06889028297863
 30
0.0
 10
113.5990666411887
 20
-27.57746733499567
 30
0.0
 10
113.5731761543991
 20
-27.08664141804488
 30
0.0
  0
SPLINE
  5
BA
330
70
100
AcDbEntity
  8
0
 62
    18
420
        0
370
    25
100
AcDbSpline
210
0.0
220
0.0
230
1.0
 70
     8
 71
     3
 72
     8
 73
     4
 74
     0
 42
0.0000000001
 43
0.0000000001
 40
0.0
 40
0.0
 40
0.0
 40
0.0
 40
1.0
 40
1.0
 40
1.0
 40
1.0
 10
113.5731761544011
 20
-27.08664141803975
 30
0.0
 10
113.5705636022251
 20
-27.03711325242897
 30
0.0
 10
113.5296426750709
 20
-26.99829396537885
 30
0.0
 10
113.4800456528046
 20
-26.99829396537885
 30
0.0
  0
LINE
  5
BB
330
70
100
AcDbEntity
  8
0
 62
    18
420
        0
370
    25
100
AcDbLine
 10
94.40046346708772
 20
-29.98261321363517
 30
0.0
 11
99.51816811454417
 21
-29.98261321363517
 31
0.0
  0
LINE
  5
BC
330
70
100
AcDbEntity
  8
0
 62
    18
420
        0
370
    25
100
AcDbLine
 10
99.56847517334175
 20
-26.9982939653596
 30
0.0
 11
94.40046346708772
 21
-26.9982939653596
 31
0.0
  0
SPLINE
  5
BD
330
70
100
AcDbEntity
  8
0
 62
    18
420
        0
370
    25
100
AcDbSpline
210
0.0
220
0.0
230
1.0
 70
     8
 71
     3
 72
     8
 73
     4
 74
     0
 42
0.0000000001
 43
0.0000000001
 40
0.0
 40
0.0
 40
0.0
 40
0.0
 40
1.0
 40
1.0
 40
1.0
 40
1.0
 10
107.4568601781476
 20
25.16423118950789
 30
0.0
 10
107.4568601781476
 20
25.20278224993764
 30
0.0
 10
107.4331400938001
 20
25.23735991763043
 30
0.0
 10
107.3971737931829
 20
25.25123829938478
 30
0.0
  0
SPLINE
  5
BE
330
70
100
AcDbEntity
  8
0
 62
    18
420
        0
370
    25
100
AcDbSpline
210
0.0
220
0.0
230
1.0
 70
     8
 71
     3
 72
     8
 73
     4
 74
     0
 42
0.0000000001
 43
0.0000000001
 40
0.0
 40
0.0
 40
0.0
 40
0.0
 40
1.0
 40
1.0
 40
1.0
 40
1.0
 10
105.6513470329637
 20
25.25123829938478
 30
0.0
 10
105.6153807323459
 20
25.23735991763043
 30
0.0
 10
105.591660647999
 20
25.20278224993764
 30
0.0
 10
105.591660647999
 20
25.16423118950789
 30
0.0
  0
LINE
  5
BF
330
70
100
AcDbEntity
  8
0
 62
    18
420
        0
370
    25
100
AcDbLine
 10
105.5916606479798
 20
25.16423118950789
 30
0.0
 11
105.5916606479798
 21
25.04077292579006
 31
0.0
  0
LINE
  5
C0
330
70
100
AcDbEntity
  8
0
 62
    18
420
        0
370
    25
100
AcDbLine
 10
107.4568601781662
 20
25.04077292579006
 30
0.0
 11
107.4568601781662
 21
25.16423118950789
 31
0.0
  0
SPLINE
  5
C1
330
70
100
AcDbEntity
  8
0
 62
    18
420
        0
370
    25
100
AcDbSpline
210
0.0
220
0.0
230
1.0
 70
     8
 71
     3
 72
     8
 73
     4
 74
     0
 42
0.0000000001
 43
0.0000000001
 40
0.0
 40
0.0
 40
0.0
 40
0.0
 40
1.0
 40
1.0
 40
1.0
 40
1.0
 10
107.3971737931829
 20
25.25123829940147
 30
0.0
 10
106.8354171841465
 20
25.46800434260106
 30
0.0
 10
106.2131036420001
 20
25.46800434260106
 30
0.0
 10
105.651347032963
 20
25.25123829940147
 30
0.0
  0
SPLINE
  5
C2
330
70
100
AcDbEntity
  8
0
 62
    18
420
        0
370
    25
100
AcDbSpline
210
0.0
220
0.0
230
1.0
 70
     8
 71
     3
 72
    11
 73
     7
 74
     0
 42
0.0000000001
 43
0.0000000001
 40
0.0
 40
0.0
 40
0.0
 40
0.0
 40
1.0
 40
1.0
 40
1.0
 40
2.0
 40
2.0
 40
2.0
 40
2.0
 10
113.4875850428292
 20
-25.22716824825169
 30
0.0
 10
113.4880345123149
 20
-25.17566414664994
 30
0.0
 10
113.446646555473
 20
-25.13354745578798
 30
0.0
 10
113.3951424538712
 20
-25.13309798630292
 30
0.0
 10
113.3948711814956
 20
-25.13309561894426
 30
0.0
 10
113.3945999000811
 20
-25.13309443524824
 30
0.0
 10
113.3943286173761
 20
-25.13309443524824
 30
0.0
  0
SPLINE
  5
C3
330
70
100
AcDbEntity
  8
0
 62
    18
420
        0
370
    25
100
AcDbSpline
210
0.0
220
0.0
230
1.0
 70
     8
 71
     3
 72
    11
 73
     7
 74
     0
 42
0.0000000001
 43
0.0000000001
 40
0.0
 40
0.0
 40
0.0
 40
0.0
 40
1.0
 40
1.0
 40
1.0
 40
2.0
 40
2.0
 40
2.0
 40
2.0
 10
99.65419220877016
 20
-25.13309443524824
 30
0.0
 10
99.60268614597572
 20
-25.13309443524824
 30
0.0
 10
99.56093223226273
 20
-25.17484834896155
 30
0.0
 10
99.56093223226273
 20
-25.226354411756
 30
0.0
 10
99.56093223226273
 20
-25.22662569446162
 30
0.0
 10
99.56093341595874
 20
-25.22689697587614
 30
0.0
 10
99.56093578331708
 20
-25.22716824825169
 30
0.0
  0
LINE
  5
C4
330
70
100
AcDbEntity
  8
0
 62
    18
420
        0
370
    25
100
AcDbLine
 10
99.56093578326703
 20
-25.22716824826068
 30
0.0
 11
99.5755853980151
 21
-26.90584782539504
 31
0.0
  0
LINE
  5
C5
330
70
100
AcDbEntity
  8
0
 62
    18
420
        0
370
    25
100
AcDbLine
 10
113.4729354281309
 20
-26.90584782539504
 30
0.0
 11
113.4875850428235
 21
-25.22716824826068
 31
0.0
  0
SPLINE
  5
C6
330
70
100
AcDbEntity
  8
0
 62
    18
420
        0
370
    25
100
AcDbSpline
210
0.0
220
0.0
230
1.0
 70
     8
 71
     3
 72
     8
 73
     4
 74
     0
 42
0.0000000001
 43
0.0000000001
 40
0.0
 40
0.0
 40
0.0
 40
0.0
 40
1.0
 40
1.0
 40
1.0
 40
1.0
 10
113.3796790026836
 20
-26.99829396539746
 30
0.0
 10
113.4308675249725
 20
-26.99829396539746
 30
0.0
 10
113.47248872968
 20
-26.95703439857249
 30
0.0
 10
113.4729354281373
 20
-26.90584782538541
 30
0.0
  0
SPLINE
  5
C7
330
70
100
AcDbEntity
  8
0
 62
    18
420
        0
370
    25
100
AcDbSpline
210
0.0
220
0.0
230
1.0
 70
     8
 71
     3
 72
     8
 73
     4
 74
     0
 42
0.0000000001
 43
0.0000000001
 40
0.0
 40
0.0
 40
0.0
 40
0.0
 40
1.0
 40
1.0
 40
1.0
 40
1.0
 10
99.57558539800933
 20
-26.90584782538541
 30
0.0
 10
99.57603209646595
 20
-26.95703439857249
 30
0.0
 10
99.61765330117351
 20
-26.99829396539746
 30
0.0
 10
99.66884182346239
 20
-26.99829396539746
 30
0.0
  0
LINE
  5
C8
330
70
100
AcDbEntity
  8
0
 62
    18
420
        0
370
    25
100
AcDbLine
 10
100.5848799484243
 20
-29.98261321363517
 30
0.0
 11
100.7394258194007
 21
-45.74629205207267
 31
0.0
  0
LINE
  5
C9
330
70
100
AcDbEntity
  8
0
 62
    18
420
        0
370
    25
100
AcDbLine
 10
112.3090950067455
 20
-45.74629205207267
 30
0.0
 11
112.4636408777219
 21
-29.98261321363517
 31
0.0
  0
SPLINE
  5
CA
330
70
100
AcDbEntity
  8
0
 62
    18
420
        0
370
    25
100
AcDbSpline
210
0.0
220
0.0
230
1.0
 70
     8
 71
     3
 72
     8
 73
     4
 74
     0
 42
0.0000000001
 43
0.0000000001
 40
0.0
 40
0.0
 40
0.0
 40
0.0
 40
1.0
 40
1.0
 40
1.0
 40
1.0
 10
112.0293285220473
 20
-46.02332917287696
 30
0.0
 10
112.1827766440437
 20
-46.02332917287696
 30
0.0
 10
112.3075906856932
 20
-45.8997328000795
 30
0.0
 10
112.309095006752
 20
-45.74629205202839
 30
0.0
  0
SPLINE
  5
CB
330
70
100
AcDbEntity
  8
0
 62
    18
420
        0
370
    25
100
AcDbSpline
210
0.0
220
0.0
230
1.0
 70
     8
 71
     3
 72
     8
 73
     4
 74
     0
 42
0.0000000001
 43
0.0000000001
 40
0.0
 40
0.0
 40
0.0
 40
0.0
 40
1.0
 40
1.0
 40
1.0
 40
1.0
 10
100.739425819394
 20
-45.74629205202839
 30
0.0
 10
100.7409301404531
 20
-45.8997328000795
 30
0.0
 10
100.8657441821023
 20
-46.02332917287696
 30
0.0
 10
101.0191923040986
 20
-46.02332917287696
 30
0.0
  0
LINE
  5
CC
330
70
100
AcDbEntity
  8
0
 62
    18
420
        0
370
    25
100
AcDbLine
 10
107.4568601781662
 20
-25.13309443523028
 30
0.0
 11
107.4568601781662
 21
25.04077292579006
 31
0.0
  0
LINE
  5
CD
330
70
100
AcDbEntity
  8
0
 62
    18
420
        0
370
    25
100
AcDbLine
 10
105.5916606479798
 20
25.04077292579006
 30
0.0
 11
105.5916606479798
 21
-25.13309443523028
 31
0.0
  0
LINE
  5
CE
330
70
100
AcDbEntity
  8
0
 62
    18
420
        0
370
    25
100
AcDbLine
 10
113.5303527010824
 20
-29.98261321363517
 30
0.0
 11
99.51816811454417
 21
-29.98261321363517
 31
0.0
  0
LWPOLYLINE
  5
CF
330
70
100
AcDbEntity
  8
0
 62
    18
420
        0
370
    25
100
AcDbPolyline
 90
        5
 70
     0
 43
0.0
 10
99.46352221802415
 20
-29.88853940060413
 10
99.45922033654415
 20
-29.94429177744854
 10
99.50860362748288
 20
-29.98209719878029
 10
99.51758616999663
 20
-29.9826113927718
 10
99.51816811454417
 20
-29.98261321363517
  0
SPLINE
  5
D0
330
70
100
AcDbEntity
  8
0
 62
    18
420
        0
370
    25
100
AcDbSpline
210
0.0
220
0.0
230
1.0
 70
     8
 71
     3
 72
     8
 73
     4
 74
     0
 42
0.0000000001
 43
0.0000000001
 40
0.0
 40
0.0
 40
0.0
 40
0.0
 40
1.0
 40
1.0
 40
1.0
 40
1.0
 10
99.46352221800779
 20
-29.88853940060798
 30
0.0
 10
99.55277890016427
 20
-29.45120058858689
 30
0.0
 10
99.60216218467254
 20
-29.00666389726385
 30
0.0
 10
99.6110644967284
 20
-28.56039857186889
 30
0.0
  0
LINE
  5
D1
330
70
100
AcDbEntity
  8
0
 62
    18
420
        0
370
    25
100
AcDbLine
 10
99.61105634697446
 20
-28.56039857187852
 30
0.0
 11
99.61106449673996
 21
-28.56039857187852
 31
0.0
  0
SPLINE
  5
D2
330
70
100
AcDbEntity
  8
0
 62
    18
420
        0
370
    25
100
AcDbSpline
210
0.0
220
0.0
230
1.0
 70
     8
 71
     3
 72
     8
 73
     4
 74
     0
 42
0.0000000001
 43
0.0000000001
 40
0.0
 40
0.0
 40
0.0
 40
0.0
 40
1.0
 40
1.0
 40
1.0
 40
1.0
 10
99.61105634697863
 20
-28.56039857189649
 30
0.0
 10
99.61561060342731
 20
-28.06734041883848
 30
0.0
 10
99.58249370914479
 20
-27.5746547095579
 30
0.0
 10
99.51199469582498
 20
-27.08664141806927
 30
0.0
  0
LWPOLYLINE
  5
D3
330
70
100
AcDbEntity
  8
0
 62
    18
420
        0
370
    25
100
AcDbPolyline
 90
        5
 70
     0
 43
0.0
 10
99.56847517334175
 20
-26.9982939653596
 10
99.56789323450148
 20
-26.99829578622362
 10
99.55026141655544
 20
-27.00027229008102
 10
99.51168527761762
 20
-27.03110175570173
 10
99.51199469581021
 20
-27.08664141804745
  0
LINE
  5
D4
330
70
100
AcDbEntity
  8
0
 62
    18
420
        0
370
    25
100
AcDbLine
 10
99.56847517334175
 20
-26.9982939653596
 30
0.0
 11
113.4800456408856
 21
-26.9982939653596
 31
0.0
  0
SPLINE
  5
D5
330
70
100
AcDbEntity
  8
0
 62
    18
420
        0
370
    25
100
AcDbSpline
210
0.0
220
0.0
230
1.0
 70
     8
 71
     3
 72
     8
 73
     4
 74
     0
 42
0.0000000001
 43
0.0000000001
 40
0.0
 40
0.0
 40
0.0
 40
0.0
 40
1.0
 40
1.0
 40
1.0
 40
1.0
 10
99.46352221797829
 20
-29.88853940060542
 30
0.0
 10
99.45819390704874
 20
-29.8413201566307
 30
0.0
 10
99.41829183689847
 20
-29.80560963872271
 30
0.0
 10
99.37077297706421
 20
-29.80553309501447
 30
0.0
  0
SPLINE
  5
D6
330
70
100
AcDbEntity
  8
0
 62
    18
420
        0
370
    25
100
AcDbSpline
210
0.0
220
0.0
230
1.0
 70
     8
 71
     3
 72
     8
 73
     4
 74
     0
 42
0.0000000001
 43
0.0000000001
 40
0.0
 40
0.0
 40
0.0
 40
0.0
 40
1.0
 40
1.0
 40
1.0
 40
1.0
 10
99.37077297709469
 20
-29.80553309503886
 30
0.0
 10
99.46075329992366
 20
-29.39478310983642
 30
0.0
 10
99.51076124779476
 20
-28.97628740044846
 30
0.0
 10
99.52009719379994
 20
-28.55590085338381
 30
0.0
  0
SPLINE
  5
D7
330
70
100
AcDbEntity
  8
0
 62
    18
420
        0
370
    25
100
AcDbSpline
210
0.0
220
0.0
230
1.0
 70
     8
 71
     3
 72
     8
 73
     4
 74
     0
 42
0.0000000001
 43
0.0000000001
 40
0.0
 40
0.0
 40
0.0
 40
0.0
 40
1.0
 40
1.0
 40
1.0
 40
1.0
 10
99.61105635535794
 20
-28.56039772386297
 30
0.0
 10
99.58083435487472
 20
-28.55733272129882
 30
0.0
 10
99.55047413866918
 20
-28.55583176242725
 30
0.0
 10
99.52009719378743
 20
-28.55590085336712
 30
0.0
  0
SPLINE
  5
D8
330
70
100
AcDbEntity
  8
0
 62
    18
420
        0
370
    25
100
AcDbSpline
210
0.0
220
0.0
230
1.0
 70
     8
 71
     3
 72
     8
 73
     4
 74
     0
 42
0.0000000001
 43
0.0000000001
 40
0.0
 40
0.0
 40
0.0
 40
0.0
 40
1.0
 40
1.0
 40
1.0
 40
1.0
 10
99.52009719377429
 20
-28.55590085338188
 30
0.0
 10
99.52467041285789
 20
-28.09015583763267
 30
0.0
 10
99.49097416221375
 20
-27.62482226450931
 30
0.0
 10
99.41934841550413
 20
-27.16459505275855
 30
0.0
  0
SPLINE
  5
D9
330
70
100
AcDbEntity
  8
0
 62
    18
420
        0
370
    25
100
AcDbSpline
210
0.0
220
0.0
230
1.0
 70
     8
 71
     3
 72
     8
 73
     4
 74
     0
 42
0.0000000001
 43
0.0000000001
 40
0.0
 40
0.0
 40
0.0
 40
0.0
 40
1.0
 40
1.0
 40
1.0
 40
1.0
 10
99.41934841555195
 20
-27.16459505275662
 30
0.0
 10
99.46524154230651
 20
-27.16504900808694
 30
0.0
 10
99.50459522305981
 20
-27.1319363731957
 30
0.0
 10
99.51199469585128
 20
-27.08664141805515
 30
0.0
  0
LWPOLYLINE
  5
DA
330
70
100
AcDbEntity
  8
0
 62
    18
420
        0
370
    25
100
AcDbPolyline
 90
        5
 70
     0
 43
0.0
 10
99.41934841555227
 20
-27.16459505273288
 10
99.44081524990309
 20
-27.06004980598994
 10
99.54668411719454
 20
-26.99952935932258
 10
99.56733337164088
 20
-26.99829725926494
 10
99.56847517334175
 20
-26.9982939653596
  0
LWPOLYLINE
  5
DB
330
70
100
AcDbEntity
  8
0
 62
    18
420
        0
370
    25
100
AcDbPolyline
 90
        5
 70
     0
 43
0.0
 10
99.51816811454417
 20
-29.98261321363517
 10
99.51702630780756
 20
-29.98260991973048
 10
99.49880697338443
 20
-29.98164189158196
 10
99.38403466346445
 20
-29.91047874559789
 10
99.37077297707352
 20
-29.80553309505426
  0
LINE
  5
DC
330
70
100
AcDbEntity
  8
0
 62
    18
420
        0
370
    25
100
AcDbLine
 10
94.36348501110151
 20
-24.33724545065084
 30
0.0
 11
93.65438365504688
 21
-24.33105721684176
 31
0.0
  0
LINE
  5
DD
330
70
100
AcDbEntity
  8
0
 62
    18
420
        0
370
    25
100
AcDbLine
 10
94.36348501110151
 20
-39.17186008388383
 30
0.0
 11
94.36348501110151
 21
-24.33724545065084
 31
0.0
  0
LINE
  5
DE
330
70
100
AcDbEntity
  8
0
 62
    18
420
        0
370
    25
100
AcDbLine
 10
93.65438365504688
 20
-39.17804831769291
 30
0.0
 11
94.36348501110151
 21
-39.17186008388383
 31
0.0
  0
LINE
  5
DF
330
70
100
AcDbEntity
  8
0
 62
    18
420
        0
370
    25
100
AcDbLine
 10
93.65438365504688
 20
-39.17804831769291
 30
0.0
 11
93.65438365504688
 21
-24.33105721684176
 31
0.0
  0
LINE
  5
E0
330
70
100
AcDbEntity
  8
0
 62
    18
420
        0
370
    25
100
AcDbLine
 10
93.65438365504688
 20
-24.2937546466631
 30
0.0
 11
94.36348501110151
 21
-24.29994288047218
 31
0.0
  0
SPLINE
  5
E1
330
70
100
AcDbEntity
  8
0
 62
    18
420
        0
370
    25
100
AcDbSpline
210
0.0
220
0.0
230
1.0
 70
     8
 71
     3
 72
     8
 73
     4
 74
     0
 42
0.0000000001
 43
0.0000000001
 40
0.0
 40
0.0
 40
0.0
 40
0.0
 40
1.0
 40
1.0
 40
1.0
 40
1.0
 10
94.36348501109508
 20
-24.33724545065212
 30
0.0
 10
94.36370199024763
 20
-24.32481220717394
 30
0.0
 10
94.36370199024763
 20
-24.31237612394907
 30
0.0
 10
94.36348501109508
 20
-24.29994288047089
 30
0.0
  0
LINE
  5
E2
330
70
100
AcDbEntity
  8
0
 62
    18
420
        0
370
    25
100
AcDbLine
 10
93.65438365504688
 20
-24.33105721684176
 30
0.0
 11
93.65438365504688
 21
-24.2937546466631
 31
0.0
  0
SPLINE
  5
E3
330
70
100
AcDbEntity
  8
0
 62
    18
420
        0
370
    25
100
AcDbSpline
210
0.0
220
0.0
230
1.0
 70
     8
 71
     3
 72
     8
 73
     4
 74
     0
 42
0.0000000001
 43
0.0000000001
 40
0.0
 40
0.0
 40
0.0
 40
0.0
 40
1.0
 40
1.0
 40
1.0
 40
1.0
 10
94.36348501109316
 20
-39.20916265406378
 30
0.0
 10
94.36370199024571
 20
-39.19672941058624
 30
0.0
 10
94.36370199024571
 20
-39.18429332736072
 30
0.0
 10
94.36348501109316
 20
-39.17186008388319
 30
0.0
  0
LINE
  5
E4
330
70
100
AcDbEntity
  8
0
 62
    18
420
        0
370
    25
100
AcDbLine
 10
94.36348501110151
 20
-39.20916265406249
 30
0.0
 11
93.65438365504688
 21
-39.21535088787157
 31
0.0
  0
LINE
  5
E5
330
70
100
AcDbEntity
  8
0
 62
    18
420
        0
370
    25
100
AcDbLine
 10
93.65438365504688
 20
-39.21535088787157
 30
0.0
 11
93.65438365504688
 21
-39.17804831769291
 31
0.0
  0
SPLINE
  5
E6
330
70
100
AcDbEntity
  8
0
 62
    18
420
        0
370
    25
100
AcDbSpline
210
0.0
220
0.0
230
1.0
 70
     8
 71
     3
 72
     8
 73
     4
 74
     0
 42
0.0000000001
 43
0.0000000001
 40
0.0
 40
0.0
 40
0.0
 40
0.0
 40
1.0
 40
1.0
 40
1.0
 40
1.0
 10
94.40046346712493
 20
-24.33724545065084
 30
0.0
 10
94.40046346712493
 20
-24.31677004173529
 30
0.0
 10
94.38395964039475
 20
-24.30012155985252
 30
0.0
 10
94.36348501112011
 20
-24.29994288046961
 30
0.0
  0
LINE
  5
E7
330
70
100
AcDbEntity
  8
0
 62
    18
420
        0
370
    25
100
AcDbLine
 10
94.36348501110151
 20
-24.33724545065084
 30
0.0
 11
94.40046346708772
 21
-24.33724545065084
 31
0.0
  0
LINE
  5
E8
330
70
100
AcDbEntity
  8
0
 62
    18
420
        0
370
    25
100
AcDbLine
 10
94.40046346708772
 20
-24.33724545065084
 30
0.0
 11
94.40046346708772
 21
-39.17186008388383
 31
0.0
  0
LINE
  5
E9
330
70
100
AcDbEntity
  8
0
 62
    18
420
        0
370
    25
100
AcDbLine
 10
94.36348501110151
 20
-39.17186008388383
 30
0.0
 11
94.40046346708772
 21
-39.17186008388383
 31
0.0
  0
SPLINE
  5
EA
330
70
100
AcDbEntity
  8
0
 62
    18
420
        0
370
    25
100
AcDbSpline
210
0.0
220
0.0
230
1.0
 70
     8
 71
     3
 72
     8
 73
     4
 74
     0
 42
0.0000000001
 43
0.0000000001
 40
0.0
 40
0.0
 40
0.0
 40
0.0
 40
1.0
 40
1.0
 40
1.0
 40
1.0
 10
94.36348501112011
 20
-39.20916265406506
 30
0.0
 10
94.38395964039475
 20
-39.20898397468215
 30
0.0
 10
94.40046346712493
 20
-39.19233549279938
 30
0.0
 10
94.40046346712493
 20
-39.17186008388383
 30
0.0
  0
LINE
  5
EB
330
70
100
AcDbEntity
  8
0
 62
    18
420
        0
370
    25
100
AcDbLine
 10
105.5916606479798
 20
25.04077292579006
 30
0.0
 11
107.4568601781662
 21
25.04077292579006
 31
0.0
  0
LINE
  5
EC
330
70
100
AcDbEntity
  8
0
 62
    18
420
        0
370
    25
100
AcDbLine
 10
99.65419220877016
 20
-25.13309443523028
 30
0.0
 11
113.3943286173761
 21
-25.13309443523028
 31
0.0
  0
LINE
  5
ED
330
70
100
AcDbEntity
  8
0
 62
    18
420
        0
370
    25
100
AcDbLine
 10
112.0293285187458
 20
-46.02332917287696
 30
0.0
 11
101.0191923040986
 21
-46.02332917287696
 31
0.0
  0
LINE
  5
EE
330
70
100
AcDbEntity
  8
0
 62
     8
420
  8421504
370
    25
100
AcDbLine
 10
99.46352221802415
 20
-29.88853940060413
 30
0.0
 11
113.6236091370491
 21
-29.88853940060413
 31
0.0
  0
LINE
  5
EF
330
70
100
AcDbEntity
  8
0
 62
     8
420
  8421504
370
    25
100
AcDbLine
 10
99.61106449673996
 20
-28.56039857187852
 30
0.0
 11
113.6120186276571
 21
-28.56039857187852
 31
0.0
  0
LINE
  5
F0
330
70
100
AcDbEntity
  8
0
 62
     8
420
  8421504
370
    25
100
AcDbLine
 10
113.5731761543972
 20
-27.08664141804745
 30
0.0
 11
99.51199469581021
 21
-27.08664141804745
 31
0.0
  0
LINE
  5
F1
330
70
100
AcDbEntity
  8
0
 62
     8
420
  8421504
370
    25
100
AcDbLine
 10
105.6513470329637
 20
25.25123829942393
 30
0.0
 11
107.3971737931829
 21
25.25123829942393
 31
0.0
  0
LINE
  5
F2
330
70
100
AcDbEntity
  8
0
 62
     8
420
  8421504
370
    25
100
AcDbLine
 10
105.6014941838438
 20
25.16423118950789
 30
0.0
 11
105.5916606479798
 21
25.16423118950789
 31
0.0
  0
LINE
  5
F3
330
70
100
AcDbEntity
  8
0
 62
     8
420
  8421504
370
    25
100
AcDbLine
 10
107.4568601781662
 20
25.16423118950789
 30
0.0
 11
105.6014941838438
 21
25.16423118950789
 31
0.0
  0
LINE
  5
F4
330
70
100
AcDbEntity
  8
0
 62
     8
420
  8421504
370
    25
100
AcDbLine
 10
113.4875850428235
 20
-25.22716824826068
 30
0.0
 11
99.56093578326703
 21
-25.22716824826068
 31
0.0
  0
LINE
  5
F5
330
70
100
AcDbEntity
  8
0
 62
     8
420
  8421504
370
    25
100
AcDbLine
 10
113.4729354281309
 20
-26.90584782539504
 30
0.0
 11
99.5755853980151
 21
-26.90584782539504
 31
0.0
  0
LINE
  5
F6
330
70
100
AcDbEntity
  8
0
 62
     8
420
  8421504
370
    25
100
AcDbLine
 10
112.3090950067455
 20
-45.74629205207267
 30
0.0
 11
100.7394258194007
 21
-45.74629205207267
 31
0.0
  0
LINE
  5
F7
330
70
100
AcDbEntity
  8
0
 62
    18
420
        0
370
    25
100
AcDbLine
 10
64.60482870815552
 20
-60.49081569871002
 30
0.0
 11
64.60482870815552
 21
-65.61041884849927
 31
0.0
  0
LINE
  5
F8
330
70
100
AcDbEntity
  8
0
 62
    18
420
        0
370
    25
100
AcDbLine
 10
67.58914795643076
 20
-65.61077897367008
 30
0.0
 11
67.58914795643076
 21
-60.49081569871002
 31
0.0
  0
SPLINE
  5
F9
330
70
100
AcDbEntity
  8
0
 62
    18
420
        0
370
    25
100
AcDbSpline
210
0.0
220
0.0
230
1.0
 70
     8
 71
     3
 72
     8
 73
     4
 74
     0
 42
0.0000000001
 43
0.0000000001
 40
0.0
 40
0.0
 40
0.0
 40
0.0
 40
1.0
 40
1.0
 40
1.0
 40
1.0
 10
67.5902804080482
 20
-65.61093163603665
 30
0.0
 10
67.58916012824553
 20
-65.653101752815
 30
0.0
 10
67.61736870939286
 20
-65.69043532827416
 30
0.0
 10
67.65824114032828
 20
-65.70087650471231
 30
0.0
  0
SPLINE
  5
FA
330
70
100
AcDbEntity
  8
0
 62
    18
420
        0
370
    25
100
AcDbSpline
210
0.0
220
0.0
230
1.0
 70
     8
 71
     3
 72
     8
 73
     4
 74
     0
 42
0.0000000001
 43
0.0000000001
 40
0.0
 40
0.0
 40
0.0
 40
0.0
 40
1.0
 40
1.0
 40
1.0
 40
1.0
 10
64.53441101282587
 20
-65.70123220963489
 30
0.0
 10
64.57620377257885
 20
-65.69100207280897
 30
0.0
 10
64.60523882038879
 20
-65.65305726342081
 30
0.0
 10
64.60418786239069
 20
-65.61004347546263
 30
0.0
  0
LWPOLYLINE
  5
FB
330
70
100
AcDbEntity
  8
0
 62
    18
420
        0
370
    25
100
AcDbPolyline
 90
       91
 70
     0
 43
0.0
 10
67.65917859097469
 20
-65.68927046389473
 10
68.1743704478778
 20
-65.82599818578613
 10
68.82921726766255
 20
-66.06207666461982
 10
69.45779621680421
 20
-66.36115175580821
 10
70.05406408637078
 20
-66.7203481272188
 10
70.61228830865414
 20
-67.13621243576385
 10
71.12710207073681
 20
-67.60474652832805
 10
71.59355591133837
 20
-68.12144588005931
 10
72.0071653053955
 20
-68.6813429015616
 10
72.36395377859671
 20
-69.27905469738246
 10
72.66049113774105
 20
-69.90883481786172
 10
72.89392644851314
 20
-70.56462850581503
 10
73.062015444905
 20
-71.24013090760517
 10
73.16314210573342
 20
-71.92884768824495
 10
73.19633419098697
 20
-72.62415746882361
 10
73.16127258932962
 20
-73.3193754847186
 10
73.0582943858315
 20
-74.0078178535107
 10
72.88838962127832
 20
-74.68286583438963
 10
72.6531917738897
 20
-75.33802946129911
 10
72.35496205482476
 20
-75.967009938117
 10
71.99656766877716
 20
-76.56376019539698
 10
71.58145424849113
 20
-77.12254302779843
 10
71.11361272803296
 20
-77.63798625180424
 10
70.59754097371532
 20
-78.1051343545504
 10
70.03820054125701
 20
-78.5194961362631
 10
69.44096897492702
 20
-78.87708788908901
 10
68.81158810745779
 20
-79.17447169695067
 10
68.1561088575646
 20
-79.40878848779622
 10
67.48083305591847
 20
-79.57778552102856
 10
66.79225285891551
 20
-79.67983804537944
 10
66.09698833229298
 20
-79.71396491969468
 10
65.40144303716684
 20
-79.67981041028497
 10
64.71259018594946
 20
-79.57767551223223
 10
64.03705782862594
 20
-79.40854295376957
 10
63.38134584737936
 20
-79.17404010591315
 10
62.75176341514596
 20
-78.87642332357019
 10
62.15436829002848
 20
-78.51855623579007
 10
61.59490852801731
 20
-78.10388219175369
 10
61.07876717620386
 20
-77.63639112979038
 10
60.61091047774034
 20
-77.12058118636814
 10
60.19584008715965
 20
-76.56141541582008
 10
59.83754975641625
 20
-75.96427403643795
 10
59.53948690705398
 20
-75.33490266285308
 10
59.30451946006014
 20
-74.67935702224593
 10
59.13490824077682
 20
-74.00394468715441
 10
59.03228522567718
 20
-73.3151643848878
 10
58.99763783977216
 20
-72.61964346732229
 10
59.03129945545245
 20
-71.92407414391166
 10
59.13294618525873
 20
-71.23514908966424
 10
59.30159999790288
 20
-70.55949704936988
 10
59.53563812894614
 20
-69.90361905667288
 10
59.83280869475647
 20
-69.2738258819984
 10
60.19025235984174
 20
-68.67617731106928
 10
60.60452984906593
 20
-68.1164238385501
 10
61.07165503979421
 20
-67.59995133758931
 10
61.58713331586053
 20
-67.13172923752913
 10
62.14600481421469
 20
-66.71626270889664
 10
62.74289214788064
 20
-66.35754931503187
 10
63.37205214683376
 20
-66.059040548333
 10
64.02743111755691
 20
-65.82360862021277
 10
64.54820719938074
 20
-65.68625932462518
 10
63.99700007662958
 20
-65.83295709081318
 10
63.34369520254268
 20
-66.07089965686512
 10
62.71679879209474
 20
-66.37160684634331
 10
62.12232377973457
 20
-66.73219439872077
 10
61.56597212709367
 20
-67.14920370539636
 10
61.05308013205167
 20
-67.61863498331284
 10
60.58856724529431
 20
-68.13598563927411
 10
60.17688888470044
 20
-68.69629345705861
 10
59.82199370108389
 20
-69.29418419284802
 10
59.52728570421557
 20
-69.92392312272689
 10
59.29559161278776
 20
-70.57947004797188
 10
59.1291337419463
 20
-71.25453723020324
 10
59.02950868769801
 20
-71.94264970052007
 10
58.99767201282018
 20
-72.63720736505317
 10
59.03392908177387
 20
-73.3315483102625
 10
59.13793213146423
 20
-74.01901270126046
 10
59.30868360716784
 20
-74.69300666027158
 10
59.54454573044731
 20
-75.34706551239549
 10
59.84325620801144
 20
-75.97491579216896
 10
60.20194993105289
 20
-76.57053541600358
 10
60.617186455739
 20
-77.12821144370401
 10
61.08498300280468
 20
-77.64259487437453
 10
61.60085265881779
 20
-78.10875195223687
 10
62.15984741265332
 20
-78.52221148888954
 10
62.75660561484407
 20
-78.87900774920581
 10
63.38540340426535
 20
-79.17571848920323
 10
64.04020960934895
 20
-79.40949778055816
 10
64.71474359622281
 20
-79.57810330771876
 10
65.40253551025263
 20
-79.67991787537861
 10
66.09698833229298
 20
-79.71396491969468
  0
CIRCLE
  5
FC
330
70
100
AcDbEntity
  8
0
 62
    18
420
        0
370
    25
100
AcDbCircle
 10
66.09698833229306
 20
-72.61461264463981
 30
0.0
 40
2.70453931871563
  0
CIRCLE
  5
FD
330
70
100
AcDbEntity
  8
0
 62
    18
420
        0
370
    25
100
AcDbCircle
 10
66.09698833229306
 20
-72.61461264463981
 30
0.0
 40
6.963328180832454
  0
SPLINE
  5
FE
330
70
100
AcDbEntity
  8
0
 62
    18
420
        0
370
    25
100
AcDbSpline
210
0.0
220
0.0
230
1.0
 70
     8
 71
     3
 72
     8
 73
     4
 74
     0
 42
0.0000000001
 43
0.0000000001
 40
0.0
 40
0.0
 40
0.0
 40
0.0
 40
1.0
 40
1.0
 40
1.0
 40
1.0
 10
66.09698833226859
 20
-65.65882740494128
 30
0.0
 10
65.87801625250012
 20
-65.57357138898129
 30
0.0
 10
65.64700869975614
 20
-65.52324887641173
 30
0.0
 10
65.41241584935723
 20
-65.50970064710559
 30
0.0
  0
SPLINE
  5
FF
330
70
100
AcDbEntity
  8
0
 62
    18
420
        0
370
    25
100
AcDbSpline
210
0.0
220
0.0
230
1.0
 70
     8
 71
     3
 72
     8
 73
     4
 74
     0
 42
0.0000000001
 43
0.0000000001
 40
0.0
 40
0.0
 40
0.0
 40
0.0
 40
1.0
 40
1.0
 40
1.0
 40
1.0
 10
66.09698833230838
 20
-65.65882740493293
 30
0.0
 10
65.86029966754901
 20
-65.61518400461331
 30
0.0
 10
65.61971631274032
 20
-65.59625551774406
 30
0.0
 10
65.37911463954262
 20
-65.60234692739595
 30
0.0
  0
LWPOLYLINE
  5
100
330
70
100
AcDbEntity
  8
0
 62
    18
420
        0
370
    25
100
AcDbPolyline
 90
        9
 70
     0
 43
0.0
 10
65.41241584938162
 20
-65.50970064711908
 10
65.41270013018706
 20
-65.52678548304857
 10
65.41152008458415
 20
-65.54328945667553
 10
65.40891583251192
 20
-65.55865145413038
 10
65.40497591519666
 20
-65.57234918733346
 10
65.39983428477782
 20
-65.58391695106514
 10
65.39366574999409
 20
-65.59296145627236
 10
65.38668003315255
 20
-65.59917520147807
 10
65.37911463954777
 20
-65.60234692743254
  0
SPLINE
  5
101
330
70
100
AcDbEntity
  8
0
 62
    18
420
        0
370
    25
100
AcDbSpline
210
0.0
220
0.0
230
1.0
 70
     8
 71
     3
 72
     8
 73
     4
 74
     0
 42
0.0000000001
 43
0.0000000001
 40
0.0
 40
0.0
 40
0.0
 40
0.0
 40
1.0
 40
1.0
 40
1.0
 40
1.0
 10
66.81486202504366
 20
-65.60234692739659
 30
0.0
 10
66.57426035184596
 20
-65.5962555177447
 30
0.0
 10
66.33367699703727
 20
-65.61518400461395
 30
0.0
 10
66.0969883322779
 20
-65.65882740493357
 30
0.0
  0
SPLINE
  5
102
330
70
100
AcDbEntity
  8
0
 62
    18
420
        0
370
    25
100
AcDbSpline
210
0.0
220
0.0
230
1.0
 70
     8
 71
     3
 72
    17
 73
    13
 74
     0
 42
0.0000000001
 43
0.0000000001
 40
0.0
 40
0.0
 40
0.0
 40
0.0
 40
1.0
 40
1.0
 40
1.0
 40
2.0
 40
2.0
 40
2.0
 40
3.0
 40
3.0
 40
3.0
 40
4.0
 40
4.0
 40
4.0
 40
4.0
 10
65.37911463952659
 20
-65.60234692739403
 30
0.0
 10
61.50634722213069
 20
-65.99881762021404
 30
0.0
 10
58.68825192222783
 20
-69.45971892000999
 30
0.0
 10
59.08472261504752
 20
-73.3324863374062
 30
0.0
 10
59.48119330786721
 20
-77.20525375480241
 30
0.0
 10
62.94209460766349
 20
-80.02334905470496
 30
0.0
 10
66.81486202505969
 20
-79.62687836188559
 30
0.0
 10
70.6876294424556
 20
-79.23040766906557
 30
0.0
 10
73.50572474235845
 20
-75.76950636926962
 30
0.0
 10
73.10925404953876
 20
-71.8967389518734
 30
0.0
 10
72.76884863812203
 20
-68.57162309863378
 30
0.0
 10
70.13997787829932
 20
-65.94275233881107
 30
0.0
 10
66.81486202505969
 20
-65.60234692739403
 30
0.0
  0
LWPOLYLINE
  5
103
330
70
100
AcDbEntity
  8
0
 62
    18
420
        0
370
    25
100
AcDbPolyline
 90
        9
 70
     0
 43
0.0
 10
66.78156081520434
 20
-65.50970064711908
 10
66.78127653439922
 20
-65.52678548304857
 10
66.78245658000213
 20
-65.54328945667553
 10
66.78506083207436
 20
-65.55865145413038
 10
66.78900074938963
 20
-65.57234918733346
 10
66.79414237980815
 20
-65.58391695106514
 10
66.80031091453637
 20
-65.59296145627236
 10
66.80729663143342
 20
-65.59917520147807
 10
66.81486202503821
 20
-65.60234692743254
  0
SPLINE
  5
104
330
70
100
AcDbEntity
  8
0
 62
    18
420
        0
370
    25
100
AcDbSpline
210
0.0
220
0.0
230
1.0
 70
     8
 71
     3
 72
     8
 73
     4
 74
     0
 42
0.0000000001
 43
0.0000000001
 40
0.0
 40
0.0
 40
0.0
 40
0.0
 40
1.0
 40
1.0
 40
1.0
 40
1.0
 10
66.78156081521557
 20
-65.50970064709339
 30
0.0
 10
66.54665222729962
 20
-65.52089919811141
 30
0.0
 10
66.31527021485408
 20
-65.5713032827031
 30
0.0
 10
66.09698833230325
 20
-65.65882740492972
 30
0.0
  0
SPLINE
  5
105
330
70
100
AcDbEntity
  8
0
 62
    18
420
        0
370
    25
100
AcDbSpline
210
0.0
220
0.0
230
1.0
 70
     8
 71
     3
 72
     8
 73
     4
 74
     0
 42
0.0000000001
 43
0.0000000001
 40
0.0
 40
0.0
 40
0.0
 40
0.0
 40
1.0
 40
1.0
 40
1.0
 40
1.0
 10
67.66029445992265
 20
-65.70140857854832
 30
0.0
 10
67.38110708970754
 20
-65.6489193826767
 30
0.0
 10
67.09862105552002
 20
-65.61581971460116
 30
0.0
 10
66.81486202504558
 20
-65.60234692739339
 30
0.0
  0
SPLINE
  5
106
330
70
100
AcDbEntity
  8
0
 62
    18
420
        0
370
    25
100
AcDbSpline
210
0.0
220
0.0
230
1.0
 70
     8
 71
     3
 72
     8
 73
     4
 74
     0
 42
0.0000000001
 43
0.0000000001
 40
0.0
 40
0.0
 40
0.0
 40
0.0
 40
1.0
 40
1.0
 40
1.0
 40
1.0
 10
65.37911463953813
 20
-65.60234692740173
 30
0.0
 10
65.09535560906529
 20
-65.6158197146095
 30
0.0
 10
64.81286957487938
 20
-65.6489193826844
 30
0.0
 10
64.53368220466522
 20
-65.70140857855474
 30
0.0
  0
LINE
  5
107
330
70
100
AcDbEntity
  8
0
 62
    18
420
        0
370
    25
100
AcDbLine
 10
64.55908884564142
 20
-65.69092769291247
 30
0.0
 11
64.53368216755769
 21
-65.70140858693469
 31
0.0
  0
LINE
  5
108
330
70
100
AcDbEntity
  8
0
 62
    18
420
        0
370
    25
100
AcDbLine
 10
67.66033049905395
 20
-65.70141672830644
 30
0.0
 11
67.66029445992971
 21
-65.70140857854126
 31
0.0
  0
SPLINE
  5
109
330
70
100
AcDbEntity
  8
0
 62
    18
420
        0
370
    25
100
AcDbSpline
210
0.0
220
0.0
230
1.0
 70
     8
 71
     3
 72
    17
 73
    13
 74
     0
 42
0.0000000001
 43
0.0000000001
 40
0.0
 40
0.0
 40
0.0
 40
0.0
 40
1.0
 40
1.0
 40
1.0
 40
2.0
 40
2.0
 40
2.0
 40
3.0
 40
3.0
 40
3.0
 40
4.0
 40
4.0
 40
4.0
 40
4.0
 10
64.53364616554582
 20
-65.70141672829231
 30
0.0
 10
60.7155934883545
 20
-66.56482676575397
 30
0.0
 10
58.32038237848355
 20
-70.35990213419565
 30
0.0
 10
59.1837924159455
 20
-74.17795481138729
 30
0.0
 10
60.04720245340746
 20
-77.9960074885783
 30
0.0
 10
63.84227782184915
 20
-80.39121859844957
 30
0.0
 10
67.66033049904047
 20
-79.52780856098728
 30
0.0
 10
71.4783831762318
 20
-78.66439852352565
 30
0.0
 10
73.87359428610274
 20
-74.86932315508394
 30
0.0
 10
73.01018424864079
 20
-71.05127047789231
 30
0.0
 10
72.40740314506438
 20
-68.38573509329707
 30
0.0
 10
70.32586588363604
 20
-66.30419783186841
 30
0.0
 10
67.66033049904047
 20
-65.70141672829231
 30
0.0
  0
LINE
  5
10A
330
70
100
AcDbEntity
  8
0
 62
    18
420
        0
370
    25
100
AcDbLine
 10
64.53368220465657
 20
-65.70140857854126
 30
0.0
 11
64.53364616553233
 21
-65.70141672830644
 31
0.0
  0
LINE
  5
10B
330
70
100
AcDbEntity
  8
0
 62
    18
420
        0
370
    25
100
AcDbLine
 10
70.29368727512791
 20
-59.74473588661338
 30
0.0
 11
70.28749904131884
 21
-60.45383724266798
 31
0.0
  0
SPLINE
  5
10C
330
70
100
AcDbEntity
  8
0
 62
    18
420
        0
370
    25
100
AcDbSpline
210
0.0
220
0.0
230
1.0
 70
     8
 71
     3
 72
     8
 73
     4
 74
     0
 42
0.0000000001
 43
0.0000000001
 40
0.0
 40
0.0
 40
0.0
 40
0.0
 40
1.0
 40
1.0
 40
1.0
 40
1.0
 10
70.25019647113921
 20
-60.45383724265899
 30
0.0
 10
70.26262971461675
 20
-60.45405422181186
 30
0.0
 10
70.27506579784194
 20
-60.45405422181186
 30
0.0
 10
70.28749904131948
 20
-60.45383724265899
 30
0.0
  0
LINE
  5
10D
330
70
100
AcDbEntity
  8
0
 62
    18
420
        0
370
    25
100
AcDbLine
 10
70.25019647113985
 20
-60.45383724266798
 30
0.0
 11
70.25638470494893
 21
-59.74473588661338
 31
0.0
  0
LINE
  5
10E
330
70
100
AcDbEntity
  8
0
 62
    18
420
        0
370
    25
100
AcDbLine
 10
70.25638470494893
 20
-59.74473588661338
 30
0.0
 11
70.29368727512791
 21
-59.74473588661338
 31
0.0
  0
LINE
  5
10F
330
70
100
AcDbEntity
  8
0
 62
    18
420
        0
370
    25
100
AcDbLine
 10
61.93759195963735
 20
-59.74473588661338
 30
0.0
 11
61.94378019344643
 21
-60.45383724266798
 31
0.0
  0
LINE
  5
110
330
70
100
AcDbEntity
  8
0
 62
    18
420
        0
370
    25
100
AcDbLine
 10
61.94378019344643
 20
-60.45383724266798
 30
0.0
 11
70.25019647113985
 21
-60.45383724266798
 31
0.0
  0
LINE
  5
111
330
70
100
AcDbEntity
  8
0
 62
    18
420
        0
370
    25
100
AcDbLine
 10
61.93759195963735
 20
-59.74473588661338
 30
0.0
 11
70.25638470494893
 21
-59.74473588661338
 31
0.0
  0
SPLINE
  5
112
330
70
100
AcDbEntity
  8
0
 62
    18
420
        0
370
    25
100
AcDbSpline
210
0.0
220
0.0
230
1.0
 70
     8
 71
     3
 72
     8
 73
     4
 74
     0
 42
0.0000000001
 43
0.0000000001
 40
0.0
 40
0.0
 40
0.0
 40
0.0
 40
1.0
 40
1.0
 40
1.0
 40
1.0
 10
61.90647762326649
 20
-60.45383724265963
 30
0.0
 10
61.91891086674402
 20
-60.4540542218125
 30
0.0
 10
61.93134694996953
 20
-60.4540542218125
 30
0.0
 10
61.94378019344707
 20
-60.45383724265963
 30
0.0
  0
LINE
  5
113
330
70
100
AcDbEntity
  8
0
 62
    18
420
        0
370
    25
100
AcDbLine
 10
61.9064776232113
 20
-60.45383724266798
 30
0.0
 11
61.90028938945837
 21
-59.74473588661338
 31
0.0
  0
LINE
  5
114
330
70
100
AcDbEntity
  8
0
 62
    18
420
        0
370
    25
100
AcDbLine
 10
61.90028938945837
 20
-59.74473588661338
 30
0.0
 11
61.93759195963735
 21
-59.74473588661338
 31
0.0
  0
LINE
  5
115
330
70
100
AcDbEntity
  8
0
 62
    18
420
        0
370
    25
100
AcDbLine
 10
70.25019647113985
 20
-60.49081569871002
 30
0.0
 11
70.25019647113985
 21
-60.45383724266798
 31
0.0
  0
SPLINE
  5
116
330
70
100
AcDbEntity
  8
0
 62
    18
420
        0
370
    25
100
AcDbSpline
210
0.0
220
0.0
230
1.0
 70
     8
 71
     3
 72
     8
 73
     4
 74
     0
 42
0.0000000001
 43
0.0000000001
 40
0.0
 40
0.0
 40
0.0
 40
0.0
 40
1.0
 40
1.0
 40
1.0
 40
1.0
 10
70.25019647113985
 20
-60.49081569869141
 30
0.0
 10
70.2706718800554
 20
-60.49081569869141
 30
0.0
 10
70.2873203619385
 20
-60.47431187196155
 30
0.0
 10
70.2874990413214
 20
-60.45383724268659
 30
0.0
  0
LINE
  5
117
330
70
100
AcDbEntity
  8
0
 62
    18
420
        0
370
    25
100
AcDbLine
 10
70.25019647113985
 20
-60.49081569871002
 30
0.0
 11
61.94378019344643
 21
-60.49081569871002
 31
0.0
  0
LINE
  5
118
330
70
100
AcDbEntity
  8
0
 62
    18
420
        0
370
    25
100
AcDbLine
 10
61.94378019344643
 20
-60.45383724266798
 30
0.0
 11
61.94378019344643
 21
-60.49081569871002
 31
0.0
  0
SPLINE
  5
119
330
70
100
AcDbEntity
  8
0
 62
    18
420
        0
370
    25
100
AcDbSpline
210
0.0
220
0.0
230
1.0
 70
     8
 71
     3
 72
     8
 73
     4
 74
     0
 42
0.0000000001
 43
0.0000000001
 40
0.0
 40
0.0
 40
0.0
 40
0.0
 40
1.0
 40
1.0
 40
1.0
 40
1.0
 10
61.90647762326488
 20
-60.45383724268659
 30
0.0
 10
61.9066563026478
 20
-60.47431187196155
 30
0.0
 10
61.92330478453088
 20
-60.49081569869141
 30
0.0
 10
61.94378019344643
 20
-60.49081569869141
 30
0.0
  0
CIRCLE
  5
11A
330
70
100
AcDbEntity
  8
0
 62
    18
420
        0
370
    25
100
AcDbCircle
 10
66.09698833229306
 20
-72.61461264463981
 30
0.0
 40
2.518019365700773
  0
CIRCLE
  5
11B
330
70
100
AcDbEntity
  8
0
 62
    18
420
        0
370
    25
100
AcDbCircle
 10
67.71182923340216
 20
-72.37823429392853
 30
0.0
 40
0.1865199530148572
  0
CIRCLE
  5
11C
330
70
100
AcDbEntity
  8
0
 62
    18
420
        0
370
    25
100
AcDbCircle
 10
66.09698833229306
 20
-72.61461264463981
 30
0.0
 40
0.8729133801095139
  0
CIRCLE
  5
11D
330
70
100
AcDbEntity
  8
0
 62
    18
420
        0
370
    25
100
AcDbCircle
 10
66.09698833229306
 20
-72.61461264463981
 30
0.0
 40
0.9325997650743261
  0
CIRCLE
  5
11E
330
70
100
AcDbEntity
  8
0
 62
    18
420
        0
370
    25
100
AcDbCircle
 10
66.09698833229306
 20
-72.61461264463981
 30
0.0
 40
6.870068204325185
  0
CIRCLE
  5
11F
330
70
100
AcDbEntity
  8
0
 62
    18
420
        0
370
    25
100
AcDbCircle
 10
66.09698833229306
 20
-72.61461264463981
 30
0.0
 40
5.508414586237392
  0
CIRCLE
  5
120
330
70
100
AcDbEntity
  8
0
 62
    18
420
        0
370
    25
100
AcDbCircle
 10
66.09698833229306
 20
-72.61461264463981
 30
0.0
 40
5.310024393582356
  0
CIRCLE
  5
121
330
70
100
AcDbEntity
  8
0
 62
    18
420
        0
370
    25
100
AcDbCircle
 10
66.09698833229298
 20
-72.61461264463981
 30
0.0
 40
4.975209148384549
  0
SPLINE
  5
122
330
70
100
AcDbEntity
  8
0
 62
    18
420
        0
370
    25
100
AcDbSpline
210
0.0
220
0.0
230
1.0
 70
     8
 71
     3
 72
    14
 73
    10
 74
     0
 42
0.0000000001
 43
0.0000000001
 40
0.0
 40
0.0
 40
0.0
 40
0.0
 40
1.0
 40
1.0
 40
1.0
 40
2.0
 40
2.0
 40
2.0
 40
3.0
 40
3.0
 40
3.0
 40
3.0
 10
66.09698833229298
 20
-73.54721240971409
 30
0.0
 10
66.61204896023936
 20
-73.54721240971409
 30
0.0
 10
67.0295880973676
 20
-73.12967327258617
 30
0.0
 10
67.0295880973676
 20
-72.61461264463981
 30
0.0
 10
67.0295880973676
 20
-72.09955201669342
 30
0.0
 10
66.61204896023936
 20
-71.68201287956552
 30
0.0
 10
66.09698833229298
 20
-71.68201287956552
 30
0.0
 10
66.05178506838981
 20
-71.68201287956552
 30
0.0
 10
66.00664161982762
 20
-71.6852993882883
 30
0.0
 10
65.96191498902458
 20
-71.69184641543786
 30
0.0
  0
LWPOLYLINE
  5
123
330
70
100
AcDbEntity
  8
0
 62
     8
420
  8421504
370
    25
100
AcDbPolyline
 90
       15
 70
     0
 43
0.0
 10
66.78156081520434
 20
-65.50970064711908
 10
66.88922327462889
 20
-65.51895581144883
 10
66.99206522076879
 20
-65.52905956928801
 10
67.09065013224893
 20
-65.53990247901047
 10
67.18262005292068
 20
-65.55103625096927
 10
67.26375260737353
 20
-65.56166896337368
 10
67.337348600439
 20
-65.57196334915573
 10
67.40362442051666
 20
-65.58175005187371
 10
67.46077809673659
 20
-65.5905642406762
 10
67.5062696920536
 20
-65.59780291572891
 10
67.54230112901389
 20
-65.60364045423725
 10
67.56870716477909
 20
-65.60791890688971
 10
67.58443522556636
 20
-65.61036342493399
 10
67.58890802572462
 20
-65.61091365318148
 10
67.58856103526975
 20
-65.61077897367008
  0
SPLINE
  5
124
330
70
100
AcDbEntity
  8
0
 62
     8
420
  8421504
370
    25
100
AcDbSpline
210
0.0
220
0.0
230
1.0
 70
     8
 71
     3
 72
     8
 73
     4
 74
     0
 42
0.0000000001
 43
0.0000000001
 40
0.0
 40
0.0
 40
0.0
 40
0.0
 40
1.0
 40
1.0
 40
1.0
 40
1.0
 10
65.41241584934858
 20
-65.50970064711778
 30
0.0
 10
65.14294310486455
 20
-65.53339314919417
 30
0.0
 10
64.8744329079646
 20
-65.56698858990038
 30
0.0
 10
64.60742971077161
 20
-65.61041884851275
 30
0.0
  0
SPLINE
  5
125
330
70
100
AcDbEntity
  8
0
 62
     8
420
  8421504
370
    25
100
AcDbSpline
210
0.0
220
0.0
230
1.0
 70
     8
 71
     3
 72
    17
 73
    13
 74
     0
 42
0.0000000001
 43
0.0000000001
 40
0.0
 40
0.0
 40
0.0
 40
0.0
 40
1.0
 40
1.0
 40
1.0
 40
2.0
 40
2.0
 40
2.0
 40
3.0
 40
3.0
 40
3.0
 40
4.0
 40
4.0
 40
4.0
 40
4.0
 10
64.54824424224354
 20
-65.68625468273539
 30
0.0
 10
60.72181779851469
 20
-66.54160242506057
 30
0.0
 10
58.31328262806373
 20
-70.33693029096069
 30
0.0
 10
59.16863037038858
 20
-74.16335673468956
 30
0.0
 10
60.02397811271375
 20
-77.98978317841778
 30
0.0
 10
63.8193059786142
 20
-80.39831834886937
 30
0.0
 10
67.64573242234274
 20
-79.5429706065442
 30
0.0
 10
71.47215886607128
 20
-78.68762286421902
 30
0.0
 10
73.88069403652257
 20
-74.8922949983189
 30
0.0
 10
73.02534629419771
 20
-71.06586855459005
 30
0.0
 10
72.42651727365966
 20
-68.38698710547291
 30
0.0
 10
70.3369933475367
 20
-66.29336974551633
 30
0.0
 10
67.65928900199313
 20
-65.68929901114962
 30
0.0
  0
LWPOLYLINE
  5
126
330
70
100
AcDbEntity
  8
0
 62
    18
420
        0
370
    25
100
AcDbPolyline
 90
        3
 70
     0
 43
0.0
 10
142.3373826649379
 20
-54.90824113850333
 10
142.3308521283313
 20
-54.16645386838485
 10
142.2929066586227
 20
-53.55240719753446
  0
LWPOLYLINE
  5
127
330
70
100
AcDbEntity
  8
0
 62
    18
420
        0
370
    25
100
AcDbPolyline
 90
        3
 70
     0
 43
0.0
 10
128.2153215582334
 20
-53.55328546198567
 10
128.1717308131053
 20
-54.53631996590865
 10
128.175005916177
 20
-54.90833070702594
  0
LINE
  5
128
330
70
100
AcDbEntity
  8
0
 62
    18
420
        0
370
    25
100
AcDbLine
 10
142.3554087822229
 20
-55.96758239860839
 30
0.0
 11
142.3438184934092
 21
-54.88314249067975
 31
0.0
  0
LINE
  5
129
330
70
100
AcDbEntity
  8
0
 62
    18
420
        0
370
    25
100
AcDbLine
 10
128.1685718746604
 20
-54.88314249067975
 30
0.0
 11
128.1569815858467
 21
-55.96758239860839
 31
0.0
  0
LWPOLYLINE
  5
12A
330
70
100
AcDbEntity
  8
0
 62
    18
420
        0
370
    25
100
AcDbPolyline
 90
        3
 70
     0
 43
0.0
 10
130.0524109967577
 20
-58.80902203325288
 10
130.1105659896777
 20
-58.84805320106458
 10
130.2555136113739
 20
-58.93421612215821
  0
SPLINE
  5
12B
330
70
100
AcDbEntity
  8
0
 62
    18
420
        0
370
    25
100
AcDbSpline
210
0.0
220
0.0
230
1.0
 70
     8
 71
     3
 72
     8
 73
     4
 74
     0
 42
0.0000000001
 43
0.0000000001
 40
0.0
 40
0.0
 40
0.0
 40
0.0
 40
1.0
 40
1.0
 40
1.0
 40
1.0
 10
139.3980297557509
 20
-59.3545980114966
 30
0.0
 10
139.7758768893232
 20
-59.20894541426631
 30
0.0
 10
140.1369515958397
 20
-59.02305170247972
 30
0.0
 10
140.4750168532429
 20
-58.80012791019694
 30
0.0
  0
LINE
  5
12C
330
70
100
AcDbEntity
  8
0
 62
    18
420
        0
370
    25
100
AcDbLine
 10
130.2555136113739
 20
-58.93421612215821
 30
0.0
 11
130.4768198108178
 21
-59.05595925388409
 31
0.0
  0
LINE
  5
12D
330
70
100
AcDbEntity
  8
0
 62
    18
420
        0
370
    25
100
AcDbLine
 10
143.0829950381309
 20
-48.61000824788591
 30
0.0
 11
140.9275776422584
 21
-49.85430422495365
 31
0.0
  0
LINE
  5
12E
330
70
100
AcDbEntity
  8
0
 62
    18
420
        0
370
    25
100
AcDbLine
 10
142.215698711144
 20
-52.55658946145165
 30
0.0
 11
144.5750333983731
 21
-51.1945745378427
 31
0.0
  0
SPLINE
  5
12F
330
70
100
AcDbEntity
  8
0
 62
    18
420
        0
370
    25
100
AcDbSpline
210
0.0
220
0.0
230
1.0
 70
     8
 71
     3
 72
     8
 73
     4
 74
     0
 42
0.0000000001
 43
0.0000000001
 40
0.0
 40
0.0
 40
0.0
 40
0.0
 40
1.0
 40
1.0
 40
1.0
 40
1.0
 10
140.899493843617
 20
-44.76842189593728
 30
0.0
 10
140.8882258667583
 20
-44.77515584654865
 30
0.0
 10
140.8813264936925
 20
-44.78731658000569
 30
0.0
 10
140.8813264936925
 20
-44.8004433996259
 30
0.0
  0
LINE
  5
130
330
70
100
AcDbEntity
  8
0
 62
    18
420
        0
370
    25
100
AcDbLine
 10
141.3966229694136
 20
-44.47132836952299
 30
0.0
 11
140.8994938435875
 21
-44.76842189591482
 31
0.0
  0
LINE
  5
131
330
70
100
AcDbEntity
  8
0
 62
    18
420
        0
370
    25
100
AcDbLine
 10
140.8813264936739
 20
-44.8004433996259
 30
0.0
 11
140.8813264936739
 21
-49.81727105313396
 31
0.0
  0
SPLINE
  5
132
330
70
100
AcDbEntity
  8
0
 62
    18
420
        0
370
    25
100
AcDbSpline
210
0.0
220
0.0
230
1.0
 70
     8
 71
     3
 72
     8
 73
     4
 74
     0
 42
0.0000000001
 43
0.0000000001
 40
0.0
 40
0.0
 40
0.0
 40
0.0
 40
1.0
 40
1.0
 40
1.0
 40
1.0
 10
146.7735032821141
 20
-60.33653156953795
 30
0.0
 10
146.7848701281761
 20
-60.34309351009468
 30
0.0
 10
146.7988490947751
 20
-60.34319915553199
 30
0.0
 10
146.8103138199738
 20
-60.33680976358994
 30
0.0
  0
LINE
  5
133
330
70
100
AcDbEntity
  8
0
 62
    18
420
        0
370
    25
100
AcDbLine
 10
146.8103138200174
 20
-60.33680976360469
 30
0.0
 11
147.3161960932123
 21
-60.05487713428186
 31
0.0
  0
LINE
  5
134
330
70
100
AcDbEntity
  8
0
 62
    18
420
        0
370
    25
100
AcDbLine
 10
141.8586140757797
 20
-57.49922642447442
 30
0.0
 11
146.7735032821257
 21
-60.33653156957967
 31
0.0
  0
LWPOLYLINE
  5
135
330
70
100
AcDbEntity
  8
0
 62
    18
420
        0
370
    25
100
AcDbPolyline
 90
        3
 70
     0
 43
0.0
 10
136.4358118324771
 20
-55.20471627352825
 10
136.2998901981381
 20
-55.16347783081257
 10
136.1887949490998
 20
-55.141382356532
  0
LINE
  5
136
330
70
100
AcDbEntity
  8
0
 62
    18
420
        0
370
    25
100
AcDbLine
 10
134.3235954189698
 20
-55.13867439608342
 30
0.0
 11
134.0755780127954
 21
-55.20407726064614
 31
0.0
  0
SPLINE
  5
137
330
70
100
AcDbEntity
  8
0
 62
    18
420
        0
370
    25
100
AcDbSpline
210
0.0
220
0.0
230
1.0
 70
     8
 71
     3
 72
     8
 73
     4
 74
     0
 42
0.0000000001
 43
0.0000000001
 40
0.0
 40
0.0
 40
0.0
 40
0.0
 40
1.0
 40
1.0
 40
1.0
 40
1.0
 10
136.182250915851
 20
-11.03340642310874
 30
0.0
 10
136.1635530065772
 20
-10.81168811520443
 30
0.0
 10
136.0087547117966
 20
-10.62507015859212
 30
0.0
 10
135.7943101934685
 20
-10.56572229906615
 30
0.0
  0
LWPOLYLINE
  5
138
330
70
100
AcDbEntity
  8
0
 62
    18
420
        0
370
    25
100
AcDbPolyline
 90
       11
 70
     0
 43
0.0
 10
135.7943101934717
 20
-10.56572229906615
 10
135.6882163502144
 20
-10.52636497578719
 10
135.4683357155159
 20
-10.47697990516837
 10
135.2354087802638
 20
-10.4623737352077
 10
135.0037677998517
 20
-10.48323611839383
 10
134.7873144229029
 20
-10.53870106909106
 10
134.5988819856281
 20
-10.62682869242095
 10
134.4502668227302
 20
-10.74533005506289
 10
134.3615804700401
 20
-10.87382545715949
 10
134.3246680187833
 20
-11.0117584679659
 10
134.3298190418623
 20
-11.05280874261946
  0
LINE
  5
139
330
70
100
AcDbEntity
  8
0
 62
    18
420
        0
370
    25
100
AcDbLine
 10
134.3235954189698
 20
-11.04003460828829
 30
0.0
 11
134.3235954189698
 21
-11.1408433192588
 31
0.0
  0
LINE
  5
13A
330
70
100
AcDbEntity
  8
0
 62
    18
420
        0
370
    25
100
AcDbLine
 10
136.1887949490998
 20
-11.1408433192588
 30
0.0
 11
136.1887949490998
 21
-11.04003460828829
 31
0.0
  0
LINE
  5
13B
330
70
100
AcDbEntity
  8
0
 62
    18
420
        0
370
    25
100
AcDbLine
 10
140.3799637807047
 20
-49.43533535957148
 30
0.0
 11
140.1606931973018
 21
-49.30084688460405
 31
0.0
  0
SPLINE
  5
13C
330
70
100
AcDbEntity
  8
0
 62
    18
420
        0
370
    25
100
AcDbSpline
210
0.0
220
0.0
230
1.0
 70
     8
 71
     3
 72
     8
 73
     4
 74
     0
 42
0.0000000001
 43
0.0000000001
 40
0.0
 40
0.0
 40
0.0
 40
0.0
 40
1.0
 40
1.0
 40
1.0
 40
1.0
 10
131.1726032531105
 20
-48.89906792441481
 30
0.0
 10
130.7337611008682
 20
-49.0699628672631
 30
0.0
 10
130.318139303706
 20
-49.29533945351721
 30
0.0
 10
129.9355103736856
 20
-49.56989840526964
 30
0.0
  0
LINE
  5
13D
330
70
100
AcDbEntity
  8
0
 62
    18
420
        0
370
    25
100
AcDbLine
 10
140.1211532636212
 20
-49.27910581281969
 30
0.0
 11
139.9921962924044
 21
-49.20819869406421
 31
0.0
  0
LINE
  5
13E
330
70
100
AcDbEntity
  8
0
 62
    18
420
        0
370
    25
100
AcDbLine
 10
140.1606931973018
 20
-49.30084688460405
 30
0.0
 11
140.1211532636212
 21
-49.27910581281969
 31
0.0
  0
LINE
  5
13F
330
70
100
AcDbEntity
  8
0
 62
    18
420
        0
370
    25
100
AcDbLine
 10
128.2930030910452
 20
-52.21147053552925
 30
0.0
 11
128.3076524269086
 21
-53.58212874185291
 31
0.0
  0
LINE
  5
140
330
70
100
AcDbEntity
  8
0
 62
    18
420
        0
370
    25
100
AcDbLine
 10
142.2047379411045
 20
-53.58212874185291
 30
0.0
 11
142.2193872770244
 21
-52.21147053552925
 31
0.0
  0
LINE
  5
141
330
70
100
AcDbEntity
  8
0
 62
    18
420
        0
370
    25
100
AcDbLine
 10
129.3429813256702
 20
-58.26085666815956
 30
0.0
 11
129.4714995519339
 21
-68.96451797608417
 31
0.0
  0
LINE
  5
142
330
70
100
AcDbEntity
  8
0
 62
    18
420
        0
370
    25
100
AcDbLine
 10
141.0408908161357
 20
-68.96451797608417
 30
0.0
 11
141.1694090423993
 21
-58.26085666815956
 31
0.0
  0
LWPOLYLINE
  5
143
330
70
100
AcDbEntity
  8
0
 62
    18
420
        0
370
    25
100
AcDbPolyline
 90
       33
 70
     0
 43
0.0
 10
129.4786791889443
 20
-68.97846647872395
 10
129.4784066724933
 20
-69.11185179900016
 10
129.536422707004
 20
-69.4620210455803
 10
129.651838552002
 20
-69.8049642383165
 10
129.8236762291323
 20
-70.13852869693675
 10
130.0510384639621
 20
-70.46021536589528
 10
130.3324207443967
 20
-70.76689948208898
 10
130.6652454389201
 20
-71.05508165759281
 10
131.0458717205009
 20
-71.32135108185775
 10
131.4699108247449
 20
-71.56271667270066
 10
131.9324650052858
 20
-71.77666645976589
 10
132.4284434705713
 20
-71.96119431128597
 10
132.9526815810257
 20
-72.11470526673508
 10
133.4998437348615
 20
-72.23590254569163
 10
134.0644355136058
 20
-72.32377057286372
 10
134.6408285478207
 20
-72.37757423499211
 10
135.2232981454898
 20
-72.39686418877929
 10
135.8060703412687
 20
-72.38148185859755
 10
136.3833491946646
 20
-72.33156361164666
 10
136.9493931383421
 20
-72.24754057576075
 10
137.4986081114951
 20
-72.13012060221924
 10
138.0255637049885
 20
-71.98027127336882
 10
138.5250324551669
 20
-71.79919853571907
 10
138.9920145181493
 20
-71.58832492198353
 10
139.4217415847872
 20
-71.34927644736584
 10
139.8096560495989
 20
-71.08389598986194
 10
140.1513063298713
 20
-70.79437520280881
 10
140.4423501921382
 20
-70.48347251789067
 10
140.678839921113
 20
-70.1546209141329
 10
140.8574951745095
 20
-69.81213210325089
 10
140.9762207128346
 20
-69.46100998106754
 10
141.0344302791244
 20
-69.10630314776141
 10
141.0341173362083
 20
-69.03897135160973
  0
LINE
  5
144
330
70
100
AcDbEntity
  8
0
 62
    18
420
        0
370
    25
100
AcDbLine
 10
136.1887949490998
 20
-55.24388744590228
 30
0.0
 11
136.1887949490998
 21
-11.1408433192588
 31
0.0
  0
LINE
  5
145
330
70
100
AcDbEntity
  8
0
 62
    18
420
        0
370
    25
100
AcDbLine
 10
134.3235954189698
 20
-11.1408433192588
 30
0.0
 11
134.3235954189698
 21
-55.24388744590228
 31
0.0
  0
LWPOLYLINE
  5
146
330
70
100
AcDbEntity
  8
0
 62
    18
420
        0
370
    25
100
AcDbPolyline
 90
       38
 70
     0
 43
0.0
 10
142.2105254731476
 20
-53.04062103825938
 10
142.2667218566546
 20
-53.28089295010933
 10
142.3048899241989
 20
-53.67278182076349
 10
142.2774772920072
 20
-54.0649704900485
 10
142.1847390057839
 20
-54.45381005441529
 10
142.0275378978228
 20
-54.83568277018701
 10
141.8073365593928
 20
-55.2070357129337
 10
141.5261837325774
 20
-55.56441383358382
 10
141.1866952490939
 20
-55.9044921042381
 10
140.7920296925689
 20
-56.22410645372244
 10
140.3458590115218
 20
-56.52028320641817
 10
139.852334355269
 20
-56.7902667486964
 10
139.3160474524284
 20
-57.03154516733137
 10
138.7419878891418
 20
-57.24187362008187
 10
138.1354966867035
 20
-57.41929522176164
 10
137.5022166084999
 20
-57.56215925058676
 10
136.8480396604289
 20
-57.66913650697268
 10
136.1790522717679
 20
-57.73923167991974
 10
135.5014786673852
 20
-57.77179260739202
 10
134.8216229578783
 20
-57.76651634429779
 10
134.1458104864
 20
-57.72345198059816
 10
133.4803289780695
 20
-57.64300018499104
 10
132.8313700392182
 20
-57.52590947700678
 10
132.2049715509849
 20
-57.37326926255864
 10
131.6069614932516
 20
-57.18649969852656
 10
131.0429037214501
 20
-56.96733847953099
 10
130.5180462005582
 20
-56.71782467051613
 10
130.0372721784094
 20
-56.44027973520664
 10
129.6050547522885
 20
-56.13728593782634
 10
129.2254152512176
 20
-55.81166231722018
 10
128.9018858219372
 20
-55.46643845921934
 10
128.6374765659575
 20
-55.10482630909401
 10
128.4346475336421
 20
-54.73019028803659
 10
128.2952858360263
 20
-54.34601599065257
 10
128.2206880872859
 20
-53.95587775516853
 10
128.2115483411304
 20
-53.5634054081154
 10
128.2679516333666
 20
-53.17225049226379
 10
128.3018648949219
 20
-53.04062103825938
  0
LWPOLYLINE
  5
147
330
70
100
AcDbEntity
  8
0
 62
    18
420
        0
370
    25
100
AcDbPolyline
 90
       24
 70
     0
 43
0.0
 10
129.0000423172109
 20
-55.3880002489977
 10
129.1217402709129
 20
-55.52575382317012
 10
129.4726711274784
 20
-55.86375160041161
 10
129.8793004823804
 20
-56.18026472255216
 10
130.337712272564
 20
-56.47224499520523
 10
130.8434917418547
 20
-56.7368804887337
 10
131.391767957547
 20
-56.97162261871051
 10
131.9772607199873
 20
-57.17421069000265
 10
132.5943314136927
 20
-57.34269366879828
 10
133.2370373106799
 20
-57.4754489719556
 10
133.899188801742
 20
-57.57119809327161
 10
134.5744090060796
 20
-57.62901891637244
 10
135.2561951840069
 20
-57.64835459509717
 10
135.9379813619893
 20
-57.62901891637244
 10
136.6132015663276
 20
-57.57119809327161
 10
137.2753530573897
 20
-57.4754489719556
 10
137.9180589543769
 20
-57.34269366879828
 10
138.5351296480822
 20
-57.17421069000265
 10
139.1206224104661
 20
-56.97162261871051
 10
139.668898626159
 20
-56.7368804887337
 10
140.1746780955056
 20
-56.47224499520523
 10
140.6330898856886
 20
-56.18026472255216
 10
141.0397192405347
 20
-55.86375160041161
 10
141.255997698233
 20
-55.66450123004085
  0
LINE
  5
148
330
70
100
AcDbEntity
  8
0
 62
    18
420
        0
370
    25
100
AcDbLine
 10
128.1685718746604
 20
-54.88314249067975
 30
0.0
 11
128.168436970374
 21
-54.90845369056103
 31
0.0
  0
LINE
  5
149
330
70
100
AcDbEntity
  8
0
 62
    18
420
        0
370
    25
100
AcDbLine
 10
142.3439533985349
 20
-54.9084062388781
 30
0.0
 11
142.3438184934092
 21
-54.88314249067975
 31
0.0
  0
LWPOLYLINE
  5
14A
330
70
100
AcDbEntity
  8
0
 62
    18
420
        0
370
    25
100
AcDbPolyline
 90
       10
 70
     0
 43
0.0
 10
128.1569815858467
 20
-55.96758239860839
 10
128.1705941572291
 20
-56.24779874777797
 10
128.2460192889147
 20
-56.64040588205747
 10
128.386567184382
 20
-57.02699755855299
 10
128.59093218915
 20
-57.40398243821143
 10
128.8572158039084
 20
-57.76785842668489
 10
129.1829443211725
 20
-58.11524520792403
 10
129.5650918052878
 20
-58.44291564645589
 10
130.0001082025342
 20
-58.74782576669484
 10
130.0305127170232
 20
-58.76703460226368
  0
LWPOLYLINE
  5
14B
330
70
100
AcDbEntity
  8
0
 62
    18
420
        0
370
    25
100
AcDbPolyline
 90
       10
 70
     0
 43
0.0
 10
140.496785493661
 20
-58.75764678800235
 10
140.8259615621194
 20
-58.53414489827811
 10
141.2238864816889
 20
-58.21279416885872
 10
141.566373056122
 20
-57.87082089155474
 10
141.8502396716497
 20
-57.51140191173268
 10
142.0728492791092
 20
-57.13787614097735
 10
142.2321338914743
 20
-56.75371353928985
 10
142.3266137948331
 20
-56.36248288029705
 10
142.3554112948705
 20
-55.96781859800146
 10
142.3554087822229
 20
-55.96758239860839
  0
SPLINE
  5
14C
330
70
100
AcDbEntity
  8
0
 62
    18
420
        0
370
    25
100
AcDbSpline
210
0.0
220
0.0
230
1.0
 70
     8
 71
     3
 72
     8
 73
     4
 74
     0
 42
0.0000000001
 43
0.0000000001
 40
0.0
 40
0.0
 40
0.0
 40
0.0
 40
1.0
 40
1.0
 40
1.0
 40
1.0
 10
130.5635078783079
 20
-59.07291256034437
 30
0.0
 10
133.3248864490878
 20
-60.37947306872804
 30
0.0
 10
136.5046668995299
 20
-60.48140377326181
 30
0.0
 10
139.3440561613419
 20
-59.35438088390528
 30
0.0
  0
LWPOLYLINE
  5
14D
330
70
100
AcDbEntity
  8
0
 62
    18
420
        0
370
    25
100
AcDbPolyline
 90
       12
 70
     0
 43
0.0
 10
144.8841304070713
 20
-50.51139700347081
 10
144.8594623769305
 20
-50.23523448407054
 10
144.7866117361191
 20
-49.94350391573196
 10
144.6689848996766
 20
-49.64984629564637
 10
144.5120819677346
 20
-49.367992727711
 10
144.3232395469953
 20
-49.11112237157614
 10
144.1112876991818
 20
-48.8912461994793
 10
143.8861370571564
 20
-48.71864537698693
 10
143.658315414617
 20
-48.6013905266499
 10
143.4384754584655
 20
-48.54496435496169
 10
143.236896660647
 20
-48.55200528704414
 10
143.0829950381309
 20
-48.61000824788591
  0
SPLINE
  5
14E
330
70
100
AcDbEntity
  8
0
 62
    18
420
        0
370
    25
100
AcDbSpline
210
0.0
220
0.0
230
1.0
 70
     8
 71
     3
 72
     8
 73
     4
 74
     0
 42
0.0000000001
 43
0.0000000001
 40
0.0
 40
0.0
 40
0.0
 40
0.0
 40
1.0
 40
1.0
 40
1.0
 40
1.0
 10
144.5750333983571
 20
-51.19457453784526
 30
0.0
 10
144.7946873269677
 20
-51.0400452268713
 30
0.0
 10
144.9130667993879
 20
-50.77839857936337
 30
0.0
 10
144.8841304070643
 20
-50.51139700351958
 30
0.0
  0
SPLINE
  5
14F
330
70
100
AcDbEntity
  8
0
 62
    18
420
        0
370
    25
100
AcDbSpline
210
0.0
220
0.0
230
1.0
 70
     8
 71
     3
 72
     8
 73
     4
 74
     0
 42
0.0000000001
 43
0.0000000001
 40
0.0
 40
0.0
 40
0.0
 40
0.0
 40
1.0
 40
1.0
 40
1.0
 40
1.0
 10
146.7919235738993
 20
-48.16083002791288
 30
0.0
 10
146.7763643620417
 20
-48.17090270268225
 30
0.0
 10
146.766626161638
 20
-48.18786832508096
 30
0.0
 10
146.7657758569008
 20
-48.20638385457709
 30
0.0
  0
SPLINE
  5
150
330
70
100
AcDbEntity
  8
0
 62
    18
420
        0
370
    25
100
AcDbSpline
210
0.0
220
0.0
230
1.0
 70
     8
 71
     3
 72
     8
 73
     4
 74
     0
 42
0.0000000001
 43
0.0000000001
 40
0.0
 40
0.0
 40
0.0
 40
0.0
 40
1.0
 40
1.0
 40
1.0
 40
1.0
 10
146.8183004742744
 20
-48.20651615928291
 30
0.0
 10
146.817307962291
 20
-48.18794919043009
 30
0.0
 10
146.8075067846753
 20
-48.17097305287562
 30
0.0
 10
146.7919235739436
 20
-48.16083002789749
 30
0.0
  0
SPLINE
  5
151
330
70
100
AcDbEntity
  8
0
 62
    18
420
        0
370
    25
100
AcDbSpline
210
0.0
220
0.0
230
1.0
 70
     8
 71
     3
 72
     8
 73
     4
 74
     0
 42
0.0000000001
 43
0.0000000001
 40
0.0
 40
0.0
 40
0.0
 40
0.0
 40
1.0
 40
1.0
 40
1.0
 40
1.0
 10
146.7657758569431
 20
-48.20638385457131
 30
0.0
 10
146.7822362569157
 20
-48.21490388085749
 30
0.0
 10
146.801797361112
 20
-48.21495315349491
 30
0.0
 10
146.8183004742732
 20
-48.20651615929254
 30
0.0
  0
LINE
  5
152
330
70
100
AcDbEntity
  8
0
 62
    18
420
        0
370
    25
100
AcDbLine
 10
147.3240865937246
 20
-47.9145312263926
 30
0.0
 11
146.8183004742334
 21
-48.20651615928419
 31
0.0
  0
LINE
  5
153
330
70
100
AcDbEntity
  8
0
 62
    18
420
        0
370
    25
100
AcDbLine
 10
146.7919235739108
 20
-48.16083002788978
 30
0.0
 11
147.2977096934027
 21
-47.86884509499883
 31
0.0
  0
SPLINE
  5
154
330
70
100
AcDbEntity
  8
0
 62
    18
420
        0
370
    25
100
AcDbSpline
210
0.0
220
0.0
230
1.0
 70
     8
 71
     3
 72
     8
 73
     4
 74
     0
 42
0.0000000001
 43
0.0000000001
 40
0.0
 40
0.0
 40
0.0
 40
0.0
 40
1.0
 40
1.0
 40
1.0
 40
1.0
 10
147.3240865937099
 20
-47.91453122636372
 30
0.0
 10
147.3232398989064
 20
-47.89592129648341
 30
0.0
 10
147.3134030180418
 20
-47.87888331908813
 30
0.0
 10
147.2977096933784
 20
-47.86884509497895
 30
0.0
  0
LINE
  5
155
330
70
100
AcDbEntity
  8
0
 62
    18
420
        0
370
    25
100
AcDbLine
 10
146.7657758569405
 20
-60.31945213122014
 30
0.0
 11
146.7657758569405
 21
-48.206383854545
 31
0.0
  0
LINE
  5
156
330
70
100
AcDbEntity
  8
0
 62
    18
420
        0
370
    25
100
AcDbLine
 10
146.8183004742334
 20
-48.20651615928419
 30
0.0
 11
146.8183004742334
 21
-60.31958443590351
 31
0.0
  0
SPLINE
  5
157
330
70
100
AcDbEntity
  8
0
 62
    18
420
        0
370
    25
100
AcDbSpline
210
0.0
220
0.0
230
1.0
 70
     8
 71
     3
 72
     8
 73
     4
 74
     0
 42
0.0000000001
 43
0.0000000001
 40
0.0
 40
0.0
 40
0.0
 40
0.0
 40
1.0
 40
1.0
 40
1.0
 40
1.0
 10
146.7657758569431
 20
-60.31945213119063
 30
0.0
 10
146.7822362569157
 20
-60.3279721574768
 30
0.0
 10
146.801797361112
 20
-60.32802143011487
 30
0.0
 10
146.8183004742732
 20
-60.3195844359125
 30
0.0
  0
LINE
  5
158
330
70
100
AcDbEntity
  8
0
 62
    18
420
        0
370
    25
100
AcDbLine
 10
140.9184002965895
 20
-44.77011721322095
 30
0.0
 11
146.7919235739108
 21
-48.16083002788978
 31
0.0
  0
LINE
  5
159
330
70
100
AcDbEntity
  8
0
 62
    18
420
        0
370
    25
100
AcDbLine
 10
146.7657758569405
 20
-48.206383854545
 30
0.0
 11
140.8922525795634
 21
-44.81567103987617
 31
0.0
  0
SPLINE
  5
15A
330
70
100
AcDbEntity
  8
0
 62
    18
420
        0
370
    25
100
AcDbSpline
210
0.0
220
0.0
230
1.0
 70
     8
 71
     3
 72
     8
 73
     4
 74
     0
 42
0.0000000001
 43
0.0000000001
 40
0.0
 40
0.0
 40
0.0
 40
0.0
 40
1.0
 40
1.0
 40
1.0
 40
1.0
 10
140.918400296578
 20
-44.77011721324405
 30
0.0
 10
140.9028410847204
 20
-44.78018988801341
 30
0.0
 10
140.8931028843167
 20
-44.79715551041213
 30
0.0
 10
140.8922525795795
 20
-44.81567103990825
 30
0.0
  0
LINE
  5
15B
330
70
100
AcDbEntity
  8
0
 62
    18
420
        0
370
    25
100
AcDbLine
 10
147.3240865937246
 20
-47.9145312263926
 30
0.0
 11
147.3240865937246
 21
-60.037705393894
 31
0.0
  0
LINE
  5
15C
330
70
100
AcDbEntity
  8
0
 62
    18
420
        0
370
    25
100
AcDbLine
 10
146.8183004742334
 20
-60.31958443590351
 30
0.0
 11
147.3240865937246
 21
-60.037705393894
 31
0.0
  0
LINE
  5
15D
330
70
100
AcDbEntity
  8
0
 62
    18
420
        0
370
    25
100
AcDbLine
 10
141.4154349318927
 20
-44.47308015604299
 30
0.0
 11
140.9184002965895
 21
-44.77011721322095
 31
0.0
  0
LINE
  5
15E
330
70
100
AcDbEntity
  8
0
 62
    18
420
        0
370
    25
100
AcDbLine
 10
141.4154349318927
 20
-44.47308015604299
 30
0.0
 11
147.2977096934027
 21
-47.86884509499883
 31
0.0
  0
SPLINE
  5
15F
330
70
100
AcDbEntity
  8
0
 62
    18
420
        0
370
    25
100
AcDbSpline
210
0.0
220
0.0
230
1.0
 70
     8
 71
     3
 72
     8
 73
     4
 74
     0
 42
0.0000000001
 43
0.0000000001
 40
0.0
 40
0.0
 40
0.0
 40
0.0
 40
1.0
 40
1.0
 40
1.0
 40
1.0
 10
141.4154349318972
 20
-44.47308015607893
 30
0.0
 10
141.4099722952239
 20
-44.46905820183476
 30
0.0
 10
141.402734298286
 20
-44.46838419318197
 30
0.0
 10
141.3966229693918
 20
-44.47132836955379
 30
0.0
  0
SPLINE
  5
160
330
70
100
AcDbEntity
  8
0
 62
    18
420
        0
370
    25
100
AcDbSpline
210
0.0
220
0.0
230
1.0
 70
     8
 71
     3
 72
     8
 73
     4
 74
     0
 42
0.0000000001
 43
0.0000000001
 40
0.0
 40
0.0
 40
0.0
 40
0.0
 40
1.0
 40
1.0
 40
1.0
 40
1.0
 10
147.3161960931789
 20
-60.05487713429085
 30
0.0
 10
147.3218935476697
 20
-60.0511330387384
 30
0.0
 10
147.3249565186603
 20
-60.04446723314155
 30
0.0
 10
147.3240865937144
 20
-60.03770539391133
 30
0.0
  0
LWPOLYLINE
  5
161
330
70
100
AcDbEntity
  8
0
 62
    18
420
        0
370
    25
100
AcDbPolyline
 90
       23
 70
     0
 43
0.0
 10
135.7775312543687
 20
-10.56481147002117
 10
135.5591631692262
 20
-10.49639304449173
 10
135.3162504197702
 20
-10.4662615934791
 10
135.0684723522318
 20
-10.4768581881412
 10
134.8359024721256
 20
-10.52732435526621
 10
134.637382207961
 20
-10.61357162614823
 10
134.488994490926
 20
-10.72861275981616
 10
134.4027608112495
 20
-10.86312780788989
 10
134.3856673089685
 20
-11.00621916109722
 10
134.4390987978187
 20
-11.14629440899737
 10
134.5587265764475
 20
-11.27200548807083
 10
134.7348591137009
 20
-11.37316803431152
 10
134.9532271987869
 20
-11.44158645989743
 10
135.1961399482994
 20
-11.47171791085359
 10
135.4439180157812
 20
-11.46112131624796
 10
135.6764878958875
 20
-11.41065514912295
 10
135.8750081600528
 20
-11.32440787824093
 10
136.0233958771436
 20
-11.20936674451782
 10
136.1096295567643
 20
-11.07485169644409
 10
136.1267230591011
 20
-10.93176034329194
 10
136.073291570195
 20
-10.79168509539179
 10
135.9536637915663
 20
-10.66597401631897
 10
135.7775312543687
 20
-10.56481147002117
  0
LWPOLYLINE
  5
162
330
70
100
AcDbEntity
  8
0
 62
    18
420
        0
370
    25
100
AcDbPolyline
 90
       10
 70
     0
 43
0.0
 10
134.6992122028626
 20
-11.57265772323064
 10
134.9216761209114
 20
-11.64339517398025
 10
135.1689497875389
 20
-11.67686065273848
 10
135.4226940460773
 20
-11.67057217797702
 10
135.6640898457104
 20
-11.62499613707558
 10
135.8752339642782
 20
-11.54351269656829
 10
136.0404668084027
 20
-11.432165110375
 10
136.1475338139938
 20
-11.299211519683
 10
136.188494310961
 20
-11.15451248407776
 10
136.1887949490998
 20
-11.1408433192588
  0
SPLINE
  5
163
330
70
100
AcDbEntity
  8
0
 62
    18
420
        0
370
    25
100
AcDbSpline
210
0.0
220
0.0
230
1.0
 70
     8
 71
     3
 72
     8
 73
     4
 74
     0
 42
0.0000000001
 43
0.0000000001
 40
0.0
 40
0.0
 40
0.0
 40
0.0
 40
1.0
 40
1.0
 40
1.0
 40
1.0
 10
134.3235954189448
 20
-11.14084331921453
 30
0.0
 10
134.3483649064696
 20
-11.34820599303375
 30
0.0
 10
134.4972801847057
 20
-11.5194011176008
 30
0.0
 10
134.6992122028844
 20
-11.57265772320112
 30
0.0
  0
LWPOLYLINE
  5
164
330
70
100
AcDbEntity
  8
0
 62
    18
420
        0
370
    25
100
AcDbPolyline
 90
       24
 70
     0
 43
0.0
 10
141.3799996573363
 20
-53.90751465924878
 10
141.3150544209146
 20
-53.97941597531211
 10
140.9684481303852
 20
-54.31324856253897
 10
140.5668297212563
 20
-54.62586125276143
 10
140.1140669985176
 20
-54.91424341501513
 10
139.6145203145767
 20
-55.17561777135917
 10
139.0730005771453
 20
-55.407467143893
 10
138.4947229172912
 20
-55.60755869634756
 10
137.8852564650252
 20
-55.77396543779862
 10
137.250470715431
 20
-55.90508478024883
 10
136.5964790022646
 20
-55.99965397279801
 10
135.9295796233046
 20
-56.05676226250282
 10
135.2561951840069
 20
-56.07585966519501
 10
134.582810744765
 20
-56.05676226250282
 10
133.9159113657485
 20
-55.99965397279801
 10
133.2619196526385
 20
-55.90508478024883
 10
132.6271339029886
 20
-55.77396543779862
 10
132.0176674507225
 20
-55.60755869634756
 10
131.4393897908685
 20
-55.407467143893
 10
130.897870053437
 20
-55.17561777135917
 10
130.398323369552
 20
-54.91424341501513
 10
129.9455606467568
 20
-54.62586125276143
 10
129.5439422376837
 20
-54.31324856253897
 10
129.2336648982873
 20
-54.01813376408657
  0
SPLINE
  5
165
330
70
100
AcDbEntity
  8
0
 62
    18
420
        0
370
    25
100
AcDbSpline
210
0.0
220
0.0
230
1.0
 70
     8
 71
     3
 72
     8
 73
     4
 74
     0
 42
0.0000000001
 43
0.0000000001
 40
0.0
 40
0.0
 40
0.0
 40
0.0
 40
1.0
 40
1.0
 40
1.0
 40
1.0
 10
134.3235954189717
 20
-48.18055963125766
 30
0.0
 10
133.2553576479003
 20
-48.2553043285672
 30
0.0
 10
132.2057574476779
 20
-48.4991538689639
 30
0.0
 10
131.2139796046925
 20
-48.90300460312475
 30
0.0
  0
SPLINE
  5
166
330
70
100
AcDbEntity
  8
0
 62
    18
420
        0
370
    25
100
AcDbSpline
210
0.0
220
0.0
230
1.0
 70
     8
 71
     3
 72
     8
 73
     4
 74
     0
 42
0.0000000001
 43
0.0000000001
 40
0.0
 40
0.0
 40
0.0
 40
0.0
 40
1.0
 40
1.0
 40
1.0
 40
1.0
 10
139.905895520728
 20
-49.1902315123005
 30
0.0
 10
138.7489165403058
 20
-48.60309734874453
 30
0.0
 10
137.4838244224204
 20
-48.25946178824334
 30
0.0
 10
136.1887949490978
 20
-48.18055963124611
 30
0.0
  0
LWPOLYLINE
  5
167
330
70
100
AcDbEntity
  8
0
 62
    18
420
        0
370
    25
100
AcDbPolyline
 90
       49
 70
     0
 43
0.0
 10
140.4013942187642
 20
-49.47803777628465
 10
140.6389179130223
 20
-49.63650821148495
 10
141.0459880142565
 20
-49.9533644028523
 10
141.3972992455697
 20
-50.29172853658001
 10
141.6894682876993
 20
-50.64834198113612
 10
141.919681393055
 20
-51.01977035400707
 10
142.0857214835801
 20
-51.40243659700299
 10
142.1859895024347
 20
-51.7926554249421
 10
142.2195198138128
 20
-52.18666881730525
 10
142.1859895024347
 20
-52.58068220961259
 10
142.0857214835801
 20
-52.9709010375517
 10
141.919681393055
 20
-53.35356728054761
 10
141.6894682876993
 20
-53.72499565347439
 10
141.3972992455697
 20
-54.08160909797404
 10
141.0459880142565
 20
-54.41997323170173
 10
140.6389179130223
 20
-54.73682942306973
 10
140.1800092493515
 20
-55.02912617376982
 10
139.6736815646069
 20
-55.29404850629984
 10
139.124811071164
 20
-55.52904507368432
 10
138.5386836919677
 20
-55.73185273064536
 10
137.9209441540124
 20
-55.9005183285159
 10
137.2775416268231
 20
-56.03341752540017
 10
136.6146724283386
 20
-56.12927042940256
 10
135.9387203514323
 20
-56.1871539246067
 10
135.2561951840069
 20
-56.20651056130997
 10
134.5736700166373
 20
-56.1871539246067
 10
133.8977179396745
 20
-56.12927042940256
 10
133.2348487412464
 20
-56.03341752540017
 10
132.5914462140013
 20
-55.9005183285159
 10
131.9737066761019
 20
-55.73185273064536
 10
131.3875792968497
 20
-55.52904507368432
 10
130.8387088034627
 20
-55.29404850629984
 10
130.3323811187174
 20
-55.02912617376982
 10
129.8734724550473
 20
-54.73682942306973
 10
129.4664023537573
 20
-54.41997323170173
 10
129.1150911224441
 20
-54.08160909797404
 10
128.8229220803145
 20
-53.72499565347439
 10
128.5927089750139
 20
-53.35356728054761
 10
128.4266688844895
 20
-52.9709010375517
 10
128.3264008656349
 20
-52.58068220961259
 10
128.2928705542567
 20
-52.18666881730525
 10
128.3264008656349
 20
-51.7926554249421
 10
128.4266688844895
 20
-51.40243659700299
 10
128.5927089750139
 20
-51.01977035400707
 10
128.8229220803145
 20
-50.64834198113612
 10
129.1150911224441
 20
-50.29172853658001
 10
129.4664023537573
 20
-49.9533644028523
 10
129.8734724550473
 20
-49.63650821148495
 10
129.9102715882696
 20
-49.61084036280981
  0
LWPOLYLINE
  5
168
330
70
100
AcDbEntity
  8
0
 62
    18
420
        0
370
    25
100
AcDbPolyline
 90
       33
 70
     0
 43
0.0
 10
142.2047379411045
 20
-53.58212874185291
 10
142.1714104296072
 20
-53.95056365928028
 10
142.0713533570977
 20
-54.33996153524004
 10
141.9056625858037
 20
-54.72182271551732
 10
141.6759338084911
 20
-55.0924696681929
 10
141.3843794388373
 20
-55.44833286048561
 10
141.0338073047944
 20
-55.78598513542202
 10
140.6275936076865
 20
-56.1021747169188
 10
140.1696504074215
 20
-56.39385652644184
 10
139.6643879473798
 20
-56.65822150875827
 10
139.1166721813023
 20
-56.89272368458318
 10
138.5317779113855
 20
-57.09510466976575
 10
137.9153379891972
 20
-57.26341542482161
 10
137.2732890681387
 20
-57.39603502503328
 10
136.6118144303067
 20
-57.49168627132842
 10
135.9372844380752
 20
-57.54944798979978
 10
135.2561951840069
 20
-57.56876390352673
 10
134.5751059299944
 20
-57.54944798979978
 10
133.9005759377622
 20
-57.49168627132842
 10
133.2391012999309
 20
-57.39603502503328
 10
132.5970523788724
 20
-57.26341542482161
 10
131.980612456684
 20
-57.09510466976575
 10
131.3957181867114
 20
-56.89272368458318
 10
130.8480024206339
 20
-56.65822150875827
 10
130.342739960648
 20
-56.39385652644184
 10
129.884796760383
 20
-56.1021747169188
 10
129.4785830632752
 20
-55.78598513542202
 10
129.1280109292323
 20
-55.44833286048561
 10
128.8364565595785
 20
-55.0924696681929
 10
128.6067277822094
 20
-54.72182271551732
 10
128.4410370109719
 20
-54.33996153524004
 10
128.3409799384624
 20
-53.95056365928028
 10
128.3076524269086
 20
-53.58212874185291
  0
LWPOLYLINE
  5
169
330
70
100
AcDbEntity
  8
0
 62
    18
420
        0
370
    25
100
AcDbPolyline
 90
       50
 70
     0
 43
0.0
 10
139.1512324915238
 20
-49.86129653391361
 10
139.5560783781853
 20
-50.12230352768294
 10
139.9087295075882
 20
-50.4074366882622
 10
140.2049051728351
 20
-50.71323488528145
 10
140.4410102025049
 20
-51.03598614300309
 10
140.6141786013909
 20
-51.37177269820552
 10
140.7223083396845
 20
-51.71651855712083
 10
140.7640868688492
 20
-52.06603897194185
 10
140.7390070541872
 20
-52.41609123828099
 10
140.6473733306203
 20
-52.76242619594061
 10
140.4902980074628
 20
-53.10083980757371
 10
140.2696877663012
 20
-53.42722419037625
 10
139.9882205166468
 20
-53.73761748014455
 10
139.6493128896463
 20
-54.02825192275848
 10
139.257078764739
 20
-54.29559960975074
 10
138.8162793329126
 20
-54.53641530243036
 10
138.3322653021678
 20
-54.7477758245072
 10
137.8109119471135
 20
-54.92711554551288
 10
137.2585477912745
 20
-55.0722575242262
 10
136.6818777872399
 20
-55.18143993355405
 10
136.0879019277341
 20
-55.25333744701666
 10
135.4838302749402
 20
-55.28707732620802
 10
134.8769954405255
 20
-55.28225001466302
 10
134.27476357735
 20
-55.23891410943424
 10
133.6844449643754
 20
-55.15759564966783
 10
133.1132052699291
 20
-55.03928173135287
 10
132.56797857008
 20
-54.88540852513247
 10
132.055383178358
 20
-54.6978438433276
 10
131.5816413084056
 20
-54.47886446707365
 10
131.1525035448626
 20
-54.23112850943637
 10
130.7731790388376
 20
-53.95764314923366
 10
130.4482722759063
 20
-53.66172812831121
 10
130.1817271841414
 20
-53.34697545417424
 10
129.9767792597927
 20
-53.01720579790209
 10
129.8359162931234
 20
-52.67642211643263
 10
129.760848169637
 20
-52.32876106194767
 10
129.7524861147688
 20
-51.97844276882104
 10
129.8109316323992
 20
-51.62971962647049
 10
129.9354752732563
 20
-51.28682466147071
 10
130.1246052462122
 20
-50.95392015418293
 10
130.376025769548
 20
-50.63504711441231
 10
130.6866849387158
 20
-50.33407622893743
 10
131.0528117722222
 20
-50.05466087650105
 10
131.4699619863101
 20
-49.80019278100918
 10
131.9330719424622
 20
-49.57376084046465
 10
132.4365201131473
 20
-49.37811363186338
 10
132.9741953195307
 20
-49.21562604727395
 10
133.5395709130505
 20
-49.08827046586827
 10
134.1257839997504
 20
-48.99759281192828
 10
134.3235954189698
 20
-48.97581997337135
  0
SPLINE
  5
16A
330
70
100
AcDbEntity
  8
0
 62
    18
420
        0
370
    25
100
AcDbSpline
210
0.0
220
0.0
230
1.0
 70
     8
 71
     3
 72
     8
 73
     4
 74
     0
 42
0.0000000001
 43
0.0000000001
 40
0.0
 40
0.0
 40
0.0
 40
0.0
 40
1.0
 40
1.0
 40
1.0
 40
1.0
 10
139.1512324915463
 20
-49.86129653390912
 30
0.0
 10
138.2358815346533
 20
-49.36380313891795
 30
0.0
 10
137.2270130058482
 20
-49.06225098056353
 30
0.0
 10
136.1887949491075
 20
-48.97581997338098
 30
0.0
  0
LWPOLYLINE
  5
16B
330
70
100
AcDbEntity
  8
0
 62
    18
420
        0
370
    25
100
AcDbPolyline
 90
       17
 70
     0
 43
0.0
 10
140.0941209479262
 20
-56.43679857483197
 10
139.6052266974054
 20
-56.69209192772514
 10
139.0648616872836
 20
-56.92344690864421
 10
138.4878171367091
 20
-57.12311178937549
 10
137.8796503002099
 20
-57.28916368790021
 10
137.2462181567465
 20
-57.42000343378883
 10
136.5936210042327
 20
-57.51437096863142
 10
135.9281437099475
 20
-57.57135748154762
 10
135.2561951840069
 20
-57.59041416126413
 10
134.5842466581221
 20
-57.57135748154762
 10
133.9187693638368
 20
-57.51437096863142
 10
133.266172211323
 20
-57.42000343378883
 10
132.6327400678596
 20
-57.28916368790021
 10
132.0245732313047
 20
-57.12311178937549
 10
131.4475286807302
 20
-56.92344690864421
 10
130.9071636706641
 20
-56.69209192772514
 10
130.4950241660474
 20
-56.48024666985417
  0
SPLINE
  5
16C
330
70
100
AcDbEntity
  8
0
 62
    18
420
        0
370
    25
100
AcDbSpline
210
0.0
220
0.0
230
1.0
 70
     8
 71
     3
 72
     8
 73
     4
 74
     0
 42
0.0000000001
 43
0.0000000001
 40
0.0
 40
0.0
 40
0.0
 40
0.0
 40
1.0
 40
1.0
 40
1.0
 40
1.0
 10
139.0109494409801
 20
-50.09450786278384
 30
0.0
 10
138.1385062592597
 20
-49.62053307217459
 30
0.0
 10
137.1778711483333
 20
-49.33113620465032
 30
0.0
 10
136.1887949490895
 20
-49.24431754563617
 30
0.0
  0
LWPOLYLINE
  5
16D
330
70
100
AcDbEntity
  8
0
 62
    18
420
        0
370
    25
100
AcDbPolyline
 90
       22
 70
     0
 43
0.0
 10
134.3235954189698
 20
-49.2443175456336
 10
134.0746035966562
 20
-49.27352579858723
 10
133.5024053083527
 20
-49.36869022724524
 10
132.9522619453206
 20
-49.5002407281367
 10
132.4310918795825
 20
-49.66652297736754
 10
131.9454491269884
 20
-49.86544587920785
 10
131.5014409270721
 20
-50.09450786277806
 10
131.104650940438
 20
-50.35082834067119
 10
130.7600690314986
 20
-50.63118393418482
 10
130.4720285175813
 20
-50.93204900907281
 10
130.2441516754134
 20
-51.24964001243326
 10
130.0793041883579
 20
-51.57996305309381
 10
129.9795591093028
 20
-51.91886412725684
 10
129.9461707904353
 20
-52.26208135721553
 10
129.9795591093028
 20
-52.60529858717424
 10
130.0793041883579
 20
-52.94419966133727
 10
130.2441516754134
 20
-53.27452270199781
 10
130.4720285175813
 20
-53.59211370535827
 10
130.7600690314986
 20
-53.89297878024562
 10
131.104650940438
 20
-54.17333437375988
 10
131.5014409270721
 20
-54.42965485165236
 10
131.6938468382421
 20
-54.53530764630316
  0
LWPOLYLINE
  5
16E
330
70
100
AcDbEntity
  8
0
 62
    18
420
        0
370
    25
100
AcDbPolyline
 90
       16
 70
     0
 43
0.0
 10
138.818543529771
 20
-54.53530764630316
 10
139.0109494409974
 20
-54.42965485165236
 10
139.407739427575
 20
-54.17333437375988
 10
139.752321336571
 20
-53.89297878024562
 10
140.0403618504325
 20
-53.59211370535827
 10
140.2682386926562
 20
-53.27452270199781
 10
140.4330861797117
 20
-52.94419966133727
 10
140.5328312587668
 20
-52.60529858717424
 10
140.5662195776336
 20
-52.26208135721553
 10
140.5328312587668
 20
-51.91886412725684
 10
140.4330861797117
 20
-51.57996305309381
 10
140.2682386926562
 20
-51.24964001243326
 10
140.0403618504325
 20
-50.93204900907281
 10
139.752321336571
 20
-50.63118393418482
 10
139.407739427575
 20
-50.35082834067119
 10
139.0109494409974
 20
-50.09450786277806
  0
LINE
  5
16F
330
70
100
AcDbEntity
  8
0
 62
    18
420
        0
370
    25
100
AcDbLine
 10
141.0408908161357
 20
-68.96451797608417
 30
0.0
 11
141.0388729649461
 21
-69.0325548017669
 31
0.0
  0
LWPOLYLINE
  5
170
330
70
100
AcDbEntity
  8
0
 62
    18
420
        0
370
    25
100
AcDbPolyline
 90
        3
 70
     0
 43
0.0
 10
133.725306928056
 20
-55.1645192793141
 10
133.8297543734714
 20
-55.14574951525779
 10
134.3235954189698
 20
-55.07608100513685
  0
LWPOLYLINE
  5
171
330
70
100
AcDbEntity
  8
0
 62
    18
420
        0
370
    25
100
AcDbPolyline
 90
        3
 70
     0
 43
0.0
 10
136.1887949490998
 20
-55.07608100513685
 10
136.683566494186
 20
-55.14591033220164
 10
136.7870834399577
 20
-55.1645192793141
  0
LWPOLYLINE
  5
172
330
70
100
AcDbEntity
  8
0
 62
    18
420
        0
370
    25
100
AcDbPolyline
 90
       10
 70
     0
 43
0.0
 10
134.6992122028626
 20
-11.57265772323064
 10
134.9216761209114
 20
-11.64339517398025
 10
135.1689497875389
 20
-11.67686065273848
 10
135.4226940460773
 20
-11.67057217797702
 10
135.6640898457104
 20
-11.62499613707558
 10
135.8752339642782
 20
-11.54351269656829
 10
136.0404668084027
 20
-11.432165110375
 10
136.1475338139938
 20
-11.299211519683
 10
136.188494310961
 20
-11.15451248407776
 10
136.1887949490998
 20
-11.1408433192588
  0
SPLINE
  5
173
330
70
100
AcDbEntity
  8
0
 62
     8
420
  8421504
370
    25
100
AcDbSpline
210
0.0
220
0.0
230
1.0
 70
     8
 71
     3
 72
     8
 73
     4
 74
     0
 42
0.0000000001
 43
0.0000000001
 40
0.0
 40
0.0
 40
0.0
 40
0.0
 40
1.0
 40
1.0
 40
1.0
 40
1.0
 10
128.306412179238
 20
-53.46608555206087
 30
0.0
 10
128.2756857477406
 20
-54.17304237170306
 30
0.0
 10
128.5249152051065
 20
-54.8636089010213
 30
0.0
 10
129.0000423172083
 20
-55.38800024894508
 30
0.0
  0
SPLINE
  5
174
330
70
100
AcDbEntity
  8
0
 62
     8
420
  8421504
370
    25
100
AcDbSpline
210
0.0
220
0.0
230
1.0
 70
     8
 71
     3
 72
     8
 73
     4
 74
     0
 42
0.0000000001
 43
0.0000000001
 40
0.0
 40
0.0
 40
0.0
 40
0.0
 40
1.0
 40
1.0
 40
1.0
 40
1.0
 10
141.2559976982529
 20
-55.66450123005112
 30
0.0
 10
141.8877260662226
 20
-55.11226535177645
 30
0.0
 10
142.2367367242335
 20
-54.30459560491053
 30
0.0
 10
142.2059781888161
 20
-53.46608555210771
 30
0.0
  0
LWPOLYLINE
  5
175
330
70
100
AcDbEntity
  8
0
 62
     8
420
  8421504
370
    25
100
AcDbPolyline
 90
       35
 70
     0
 43
0.0
 10
128.168436970374
 20
-54.90845369056103
 10
128.1686079645928
 20
-54.93680917361742
 10
128.2069192496364
 20
-55.33418369449776
 10
128.3119243190579
 20
-55.72752972141604
 10
128.4826297112021
 20
-56.11312577501283
 10
128.7174203681685
 20
-56.48732369903097
 10
129.0140749161018
 20
-56.84658317586753
 10
129.3697866817042
 20
-57.18750522177369
 10
129.7811902464801
 20
-57.50686434503862
 10
130.2443932870938
 20
-57.80163906248145
 10
130.7550134012331
 20
-58.0690404860212
 10
131.3082195695985
 20
-58.3065387086674
 10
131.8987778627645
 20
-58.51188673997
 10
132.5211009597082
 20
-58.68314176521344
 10
133.1693010099934
 20
-58.81868352639528
 10
133.8372453391797
 20
-58.917229651704
 10
134.5186144705972
 20
-58.97784778795467
 10
135.2069619142557
 20
-58.99996442204738
 10
135.8957751580353
 20
-58.98337030668409
 10
136.5785372826106
 20
-58.92822244003778
 10
137.2487886188455
 20
-58.83504258073316
 10
137.9001878633186
 20
-58.70471231118663
 10
138.5265720737669
 20
-58.53846469680863
 10
139.1220149771275
 20
-58.33787262013069
 10
139.6808830387768
 20
-58.10483389942351
 10
140.1978887615616
 20
-57.84155333331427
 10
140.6681407114547
 20
-57.5505218410695
 10
141.0871897957852
 20
-57.23449289589048
 10
141.4510713563554
 20
-56.89645647371041
 10
141.7563426795898
 20
-56.5396107652578
 10
142.0001155681783
 20
-56.16733191730098
 10
142.180083666568
 20
-55.78314209095614
 10
142.2945442816146
 20
-55.39067613804956
 10
142.3424144920302
 20
-54.99364721146633
 10
142.3439533985349
 20
-54.9084062388781
  0
LWPOLYLINE
  5
176
330
70
100
AcDbEntity
  8
0
 62
     8
420
  8421504
370
    25
100
AcDbPolyline
 90
       19
 70
     0
 43
0.0
 10
130.0305127170232
 20
-58.76703460226368
 10
130.4839523205781
 20
-59.02714303058243
 10
131.0121293696215
 20
-59.27827265133767
 10
131.5797327183284
 20
-59.49888169806249
 10
132.1814894749512
 20
-59.68692076856096
 10
132.8118094710928
 20
-59.84064302729771
 10
133.4648371932787
 20
-59.95862043336419
 10
134.1345061787825
 20
-60.03975700635172
 10
134.8145953718589
 20
-60.08329900805283
 10
135.4987869157064
 20
-60.08884194422625
 10
136.1807248436377
 20
-60.05633432244099
 10
136.8540741245023
 20
-59.98607813032504
 10
137.5125795135065
 20
-59.8787260300488
 10
138.1501236618837
 20
-59.73527529560519
 10
138.7607839455727
 20
-59.55705854806224
 10
139.3388874846674
 20
-59.34573137597708
 10
139.8790638432672
 20
-59.10325695549794
 10
140.3762949195012
 20
-58.83188781263195
 10
140.496785493661
 20
-58.75764678800235
  0
LINE
  5
177
330
70
100
AcDbEntity
  8
0
 62
     8
420
  8421504
370
    25
100
AcDbLine
 10
141.8647903141919
 20
-57.49017340030434
 30
0.0
 11
146.7657758569405
 21
-60.31945213122014
 31
0.0
  0
LINE
  5
178
330
70
100
AcDbEntity
  8
0
 62
     8
420
  8421504
370
    25
100
AcDbLine
 10
140.8922525795634
 20
-44.81567103987617
 30
0.0
 11
140.8922525795634
 21
-49.82593988742141
 31
0.0
  0
SPLINE
  5
179
330
70
100
AcDbEntity
  8
0
 62
     8
420
  8421504
370
    25
100
AcDbSpline
210
0.0
220
0.0
230
1.0
 70
     8
 71
     3
 72
     8
 73
     4
 74
     0
 42
0.0000000001
 43
0.0000000001
 40
0.0
 40
0.0
 40
0.0
 40
0.0
 40
1.0
 40
1.0
 40
1.0
 40
1.0
 10
140.8813264936906
 20
-44.8004433996458
 30
0.0
 10
140.8819173328571
 20
-44.80713261748386
 30
0.0
 10
140.8861049641472
 20
-44.81296890172532
 30
0.0
 10
140.892252579573
 20
-44.8156710399121
 30
0.0
  0
SPLINE
  5
17A
330
70
100
AcDbEntity
  8
0
 62
     8
420
  8421504
370
    25
100
AcDbSpline
210
0.0
220
0.0
230
1.0
 70
     8
 71
     3
 72
     8
 73
     4
 74
     0
 42
0.0000000001
 43
0.0000000001
 40
0.0
 40
0.0
 40
0.0
 40
0.0
 40
1.0
 40
1.0
 40
1.0
 40
1.0
 10
140.9184002965985
 20
-44.77011721319914
 30
0.0
 10
140.9129296854306
 20
-44.7660121916881
 30
0.0
 10
140.9056074957813
 20
-44.76535562037121
 30
0.0
 10
140.899493843642
 20
-44.76842189590905
 30
0.0
  0
SPLINE
  5
17B
330
70
100
AcDbEntity
  8
0
 62
     8
420
  8421504
370
    25
100
AcDbSpline
210
0.0
220
0.0
230
1.0
 70
     8
 71
     3
 72
     8
 73
     4
 74
     0
 42
0.0000000001
 43
0.0000000001
 40
0.0
 40
0.0
 40
0.0
 40
0.0
 40
1.0
 40
1.0
 40
1.0
 40
1.0
 10
146.8103138199866
 20
-60.33680976362202
 30
0.0
 10
146.8159363975067
 20
-60.33296957396118
 30
0.0
 10
146.8190023621272
 20
-60.32635701210431
 30
0.0
 10
146.8183004742385
 20
-60.31958443593303
 30
0.0
  0
SPLINE
  5
17C
330
70
100
AcDbEntity
  8
0
 62
     8
420
  8421504
370
    25
100
AcDbSpline
210
0.0
220
0.0
230
1.0
 70
     8
 71
     3
 72
     8
 73
     4
 74
     0
 42
0.0000000001
 43
0.0000000001
 40
0.0
 40
0.0
 40
0.0
 40
0.0
 40
1.0
 40
1.0
 40
1.0
 40
1.0
 10
146.7657758568969
 20
-60.31945213118164
 30
0.0
 10
146.7649276657674
 20
-60.32614653247268
 30
0.0
 10
146.767915014912
 20
-60.33274928101096
 30
0.0
 10
146.7735032821141
 20
-60.33653156953988
 30
0.0
  0
LINE
  5
17D
330
70
100
AcDbEntity
  8
0
 62
     8
420
  8421504
370
    25
100
AcDbLine
 10
134.1394154702668
 20
-55.22375424139508
 30
0.0
 11
134.3235954189698
 21
-55.17634105233367
 31
0.0
  0
LINE
  5
17E
330
70
100
AcDbEntity
  8
0
 62
     8
420
  8421504
370
    25
100
AcDbLine
 10
136.1887949490998
 20
-55.17634105233367
 30
0.0
 11
136.3729748977462
 21
-55.22375424139508
 31
0.0
  0
LWPOLYLINE
  5
17F
330
70
100
AcDbEntity
  8
0
 62
     8
420
  8421504
370
    25
100
AcDbPolyline
 90
       13
 70
     0
 43
0.0
 10
136.1887473978149
 20
-11.03459796783972
 10
136.1765866381727
 20
-11.1268620060434
 10
136.1018770376135
 20
-11.26699351158796
 10
135.964447082759
 20
-11.39029251360298
 10
135.7744893245902
 20
-11.48761448908036
 10
135.5460920610336
 20
-11.5517415123443
 10
135.2961944722935
 20
-11.5779175753853
 10
135.043330319382
 20
-11.56420131946437
 10
134.806253379674
 20
-11.51161001651282
 10
134.6025465651917
 20
-11.42404412279161
 10
134.4473178785955
 20
-11.30799800014427
 10
134.3520799213099
 20
-11.17207825851651
 10
134.323773996791
 20
-11.05056993343947
  0
LWPOLYLINE
  5
180
330
70
100
AcDbEntity
  8
0
 62
     8
420
  8421504
370
    25
100
AcDbPolyline
 90
       14
 70
     0
 43
0.0
 10
140.1140669985176
 20
-49.3054640042585
 10
140.5668297212563
 20
-49.59384616645638
 10
140.9684481303852
 20
-49.90645885673466
 10
141.3150544209146
 20
-50.24029144396152
 10
141.6033105849485
 20
-50.59212893779691
 10
141.8304405579518
 20
-50.95858295082075
 10
141.9942569541835
 20
-51.33612433066486
 10
142.0931821321678
 20
-51.72111714734268
 10
142.1262633883656
 20
-52.1098537096089
 10
142.0931821321678
 20
-52.49859027193095
 10
141.9942569541835
 20
-52.88358308860876
 10
141.8304405579518
 20
-53.26112446845288
 10
141.6033105849485
 20
-53.62757848147672
 10
141.3799996573363
 20
-53.90751465924878
  0
LWPOLYLINE
  5
181
330
70
100
AcDbEntity
  8
0
 62
     8
420
  8421504
370
    25
100
AcDbPolyline
 90
       17
 70
     0
 43
0.0
 10
129.2336648982873
 20
-54.01813376408657
 10
129.1973359470992
 20
-53.97941597531211
 10
128.9090797830647
 20
-53.62757848147672
 10
128.6819498100613
 20
-53.26112446845288
 10
128.5181334138296
 20
-52.88358308860876
 10
128.4192082359018
 20
-52.49859027193095
 10
128.386126979704
 20
-52.1098537096089
 10
128.4192082359018
 20
-51.72111714734268
 10
128.5181334138296
 20
-51.33612433066486
 10
128.6819498100613
 20
-50.95858295082075
 10
128.9090797830647
 20
-50.59212893779691
 10
129.1973359470992
 20
-50.24029144396152
 10
129.5439422376837
 20
-49.90645885673466
 10
129.9455606467568
 20
-49.59384616645638
 10
130.398323369552
 20
-49.3054640042585
 10
130.897870053437
 20
-49.04408964791446
 10
131.2139796046681
 20
-48.9030046031286
  0
LINE
  5
182
330
70
100
AcDbEntity
  8
0
 62
     8
420
  8421504
370
    25
100
AcDbLine
 10
139.9058955207171
 20
-49.19023151231012
 30
0.0
 11
140.1140669985176
 21
-49.3054640042585
 31
0.0
  0
LWPOLYLINE
  5
183
330
70
100
AcDbEntity
  8
0
 62
     8
420
  8421504
370
    25
100
AcDbPolyline
 90
       31
 70
     0
 43
0.0
 10
141.0388729649461
 20
-69.0325548017669
 10
141.0282207442146
 20
-69.16348200893155
 10
140.9546246964802
 20
-69.51640629352239
 10
140.8164631654566
 20
-69.86281519645769
 10
140.6153015763642
 20
-70.19878376652212
 10
140.3534191705004
 20
-70.52050534552484
 10
140.0337831800945
 20
-70.82433469950927
 10
139.6600152087228
 20
-71.10682932037014
 10
139.2363501967118
 20
-71.36478843125992
 10
138.7675884380985
 20
-71.59528925227949
 10
138.2590411907943
 20
-71.79572011718772
 10
137.7164704983314
 20
-71.96381006404816
 10
137.1460239034932
 20
-72.09765456664245
 10
136.5541647941372
 20
-72.19573711328303
 10
135.9475991704615
 20
-72.25694638955244
 10
135.3331996633784
 20
-72.28058886985397
 10
134.7179276647118
 20
-72.26639667542655
 10
134.1087544521962
 20
-72.2145306095593
 10
133.512582201617
 20
-72.12557833544675
 10
132.9361657828362
 20
-72.00054771792531
 10
132.3860362242019
 20
-71.84085540386785
 10
131.8684267134436
 20
-71.64831077092593
 10
131.3892019731578
 20
-71.42509542682484
 10
130.9537918111206
 20
-71.17373849058456
 10
130.5671295984679
 20
-70.8970879366727
 10
130.23359637252
 20
-70.59827832647727
 10
129.9569711980612
 20
-70.28069529220072
 10
129.740388348809
 20
-69.9479371766273
 10
129.5863017950044
 20
-69.60377426208086
 10
129.4964573988851
 20
-69.25210605194611
 10
129.4714995519339
 20
-68.96451797608417
  0
INSERT
  5
186
330
70
100
AcDbEntity
  8
CAPA_BASE
100
AcDbBlockReference
  2
Block_0
 10
0.0
 20
0.0
 30
0.0
  0
INSERT
  5
193
330
70
100
AcDbEntity
  8
CAPA_BASE
100
AcDbBlockReference
  2
Block_1
 10
0.0
 20
0.0
 30
0.0
  0
INSERT
  5
19F
330
70
100
AcDbEntity
  8
CAPA_BASE
100
AcDbBlockReference
  2
Block_2
 10
0.0
 20
0.0
 30
0.0
  0
ENDSEC
  0
SECTION
  2
OBJECTS
  0
DICTIONARY
  5
C
330
0
100
AcDbDictionary
281
     1
  3
ACAD_COLOR
350
63
  3
ACAD_DETAILVIEWSTYLE
350
6A
  3
ACAD_GROUP
350
D
  3
ACAD_LAYOUT
350
62
  3
ACAD_MATERIAL
350
10
  3
ACAD_MLEADERSTYLE
350
66
  3
ACAD_MLINESTYLE
350
5F
  3
ACAD_PLOTSETTINGS
350
61
  3
ACAD_PLOTSTYLENAME
350
E
  3
ACAD_SCALELIST
350
42
  3
ACAD_SECTIONVIEWSTYLE
350
68
  3
ACAD_TABLESTYLE
350
64
  3
ACAD_VISUALSTYLE
350
29
  3
ACDB_RECOMPOSE_DATA
350
1B2
  3
AcDbVariableDictionary
350
1AA
  0
DICTIONARY
  5
63
102
{ACAD_REACTORS
330
C
102
}
330
C
100
AcDbDictionary
281
     1
  0
DICTIONARY
  5
6A
102
{ACAD_REACTORS
330
C
102
}
330
C
100
AcDbDictionary
281
     1
  3
Imperial24
350
6B
  0
DICTIONARY
  5
D
102
{ACAD_REACTORS
330
C
102
}
330
C
100
AcDbDictionary
281
     1
  0
DICTIONARY
  5
62
102
{ACAD_REACTORS
330
C
102
}
330
C
100
AcDbDictionary
281
     1
  3
Layout1
350
6F
  3
Layout2
350
77
  3
Model
350
73
  0
DICTIONARY
  5
10
102
{ACAD_REACTORS
330
C
102
}
330
C
100
AcDbDictionary
281
     1
  3
ByBlock
350
19
  3
ByLayer
350
11
  3
Global
350
21
  0
DICTIONARY
  5
66
102
{ACAD_REACTORS
330
C
102
}
330
C
100
AcDbDictionary
281
     1
  3
Standard
350
67
  0
DICTIONARY
  5
5F
102
{ACAD_REACTORS
330
C
102
}
330
C
100
AcDbDictionary
281
     1
  3
Standard
350
60
  0
DICTIONARY
  5
61
102
{ACAD_REACTORS
330
C
102
}
330
C
100
AcDbDictionary
281
     1
  0
ACDBDICTIONARYWDFLT
  5
E
102
{ACAD_REACTORS
330
C
102
}
330
C
100
AcDbDictionary
281
     1
  3
Normal
350
F
100
AcDbDictionaryWithDefault
340
F
  0
DICTIONARY
  5
42
102
{ACAD_REACTORS
330
C
102
}
330
C
100
AcDbDictionary
281
     1
  3
A0
350
43
  3
A1
350
44
  3
A2
350
45
  3
A3
350
46
  3
A4
350
47
  3
A5
350
48
  3
A6
350
49
  3
A7
350
4A
  3
A8
350
4B
  3
A9
350
4C
  3
B0
350
4D
  3
B1
350
4E
  3
B2
350
4F
  3
B3
350
50
  3
B4
350
51
  3
B5
350
52
  3
B6
350
53
  0
DICTIONARY
  5
68
102
{ACAD_REACTORS
330
C
102
}
330
C
100
AcDbDictionary
281
     1
  3
Imperial24
350
69
  0
DICTIONARY
  5
64
102
{ACAD_REACTORS
330
C
102
}
330
C
100
AcDbDictionary
281
     1
  3
Standard
350
65
  0
DICTIONARY
  5
29
102
{ACAD_REACTORS
330
C
102
}
330
C
100
AcDbDictionary
281
     1
  3
2dWireframe
350
2F
  3
Basic
350
2E
  3
Brighten
350
35
  3
ColorChange
350
39
  3
Conceptual
350
32
  3
Dim
350
34
  3
EdgeColorOff
350
41
  3
Facepattern
350
38
  3
Flat
350
2A
  3
FlatWithEdges
350
2B
  3
Gouraud
350
2C
  3
GouraudWithEdges
350
2D
  3
Hidden
350
31
  3
JitterOff
350
3F
  3
Linepattern
350
37
  3
OverhangOff
350
40
  3
Realistic
350
33
  3
Shaded
350
3E
  3
Shaded with edges
350
3D
  3
Shades of Gray
350
3A
  3
Sketchy
350
3B
  3
Thicken
350
36
  3
Wireframe
350
30
  3
X-Ray
350
3C
  0
XRECORD
  5
1B2
102
{ACAD_REACTORS
330
C
102
}
330
C
100
AcDbXrecord
280
     1
 90
        1
330
65
  0
DICTIONARY
  5
1AA
102
{ACAD_REACTORS
330
C
102
}
330
C
100
AcDbDictionary
281
     1
  3
CANNOSCALE
350
1AF
  3
CMLEADERSTYLE
350
1AC
  3
CTABLESTYLE
350
1AB
  3
CVIEWDETAILSTYLE
350
1AD
  3
CVIEWSECTIONSTYLE
350
1AE
  0
ACDBDETAILVIEWSTYLE
  5
6B
102
{ACAD_REACTORS
330
6A
102
}
330
6A
100
AcDbModelDocViewStyle
 70
     0
  3
Imperial24
290
     1
300
Imperial24
 90
        0
100
AcDbDetailViewStyle
 70
     0
 71
     0
 90
        3
 71
     1
340
55
 62
   256
 40
0.24
340
0
 62
   256
 40
0.24
300

 40
0.36
280
     3
 71
     2
340
5D
 90
       25
 62
   256
 71
     3
340
55
 62
   256
 40
0.24
 90
        1
 40
0.75
 90
        1
300
%<\AcVar ViewType \f "%tc1">% %<\AcVar ViewDetailId>%\PSCALE %<\AcVar ViewScale \f "%sn">%
 71
     4
340
5D
 90
       25
 62
   256
340
5D
 90
       25
 62
   256
280
     0
  0
LAYOUT
  5
6F
102
{ACAD_REACTORS
330
62
102
}
330
62
100
AcDbPlotSettings
  1

  2

  4

  6

 40
0.0
 41
0.0
 42
0.0
 43
0.0
 44
0.0
 45
0.0
 46
0.0
 47
0.0
 48
0.0
 49
0.0
140
0.0
141
0.0
142
1.0
143
1.0
 70
   688
 72
     0
 73
     0
 74
     5
  7

 75
    16
147
1.0
 76
     0
 77
     2
 78
   300
148
0.0
149
0.0
100
AcDbLayout
  1
Layout1
 70
     1
 71
     1
 10
0.0
 20
0.0
 11
12.0
 21
9.0
 12
0.0
 22
0.0
 32
0.0
 14
0.0
 24
0.0
 34
0.0
 15
0.0
 25
0.0
 35
0.0
146
0.0
 13
0.0
 23
0.0
 33
0.0
 16
1.0
 26
0.0
 36
0.0
 17
0.0
 27
1.0
 37
0.0
 76
     0
330
6C
  0
LAYOUT
  5
77
102
{ACAD_REACTORS
330
62
102
}
330
62
100
AcDbPlotSettings
  1

  2

  4

  6

 40
0.0
 41
0.0
 42
0.0
 43
0.0
 44
0.0
 45
0.0
 46
0.0
 47
0.0
 48
0.0
 49
0.0
140
0.0
141
0.0
142
1.0
143
1.0
 70
   688
 72
     0
 73
     0
 74
     5
  7

 75
    16
147
1.0
 76
     0
 77
     2
 78
   300
148
0.0
149
0.0
100
AcDbLayout
  1
Layout2
 70
     1
 71
     2
 10
0.0
 20
0.0
 11
12.0
 21
9.0
 12
0.0
 22
0.0
 32
0.0
 14
0.0
 24
0.0
 34
0.0
 15
0.0
 25
0.0
 35
0.0
146
0.0
 13
0.0
 23
0.0
 33
0.0
 16
1.0
 26
0.0
 36
0.0
 17
0.0
 27
1.0
 37
0.0
 76
     0
330
74
  0
LAYOUT
  5
73
102
{ACAD_REACTORS
330
62
102
}
330
62
100
AcDbPlotSettings
  1

  2

  4

  6

 40
0.0
 41
0.0
 42
0.0
 43
0.0
 44
0.0
 45
0.0
 46
0.0
 47
0.0
 48
0.0
 49
0.0
140
0.0
141
0.0
142
1.0
143
1.0
 70
  1712
 72
     0
 73
     0
 74
     0
  7

 75
     0
147
1.0
 76
     0
 77
     2
 78
   300
148
0.0
149
0.0
100
AcDbLayout
  1
Model
 70
     1
 71
     0
 10
0.0
 20
0.0
 11
12.0
 21
9.0
 12
0.0
 22
0.0
 32
0.0
 14
0.0
 24
0.0
 34
0.0
 15
0.0
 25
0.0
 35
0.0
146
0.0
 13
0.0
 23
0.0
 33
0.0
 16
1.0
 26
0.0
 36
0.0
 17
0.0
 27
1.0
 37
0.0
 76
     0
330
70
  0
MATERIAL
  5
19
102
{ACAD_XDICTIONARY
360
1A
102
}
102
{ACAD_REACTORS
330
10
102
}
330
10
100
AcDbMaterial
  1
ByBlock
 72
     0
 43
0.0208333333333333
 43
0.0
 43
0.0
 43
0.0
 43
0.0
 43
0.0208333333333333
 43
0.0
 43
0.0
 43
0.0
 43
0.0
 43
1.0
 43
0.0
 43
0.0
 43
0.0
 43
0.0
 43
1.0
 77
     0
 47
0.0208333333333333
 47
0.0
 47
0.0
 47
0.0
 47
0.0
 47
0.0208333333333333
 47
0.0
 47
0.0
 47
0.0
 47
0.0
 47
1.0
 47
0.0
 47
0.0
 47
0.0
 47
0.0
 47
1.0
171
     0
 49
0.0208333333333333
 49
0.0
 49
0.0
 49
0.0
 49
0.0
 49
0.0208333333333333
 49
0.0
 49
0.0
 49
0.0
 49
0.0
 49
1.0
 49
0.0
 49
0.0
 49
0.0
 49
0.0
 49
1.0
175
     0
142
0.0208333333333333
142
0.0
142
0.0
142
0.0
142
0.0
142
0.0208333333333333
142
0.0
142
0.0
142
0.0
142
0.0
142
1.0
142
0.0
142
0.0
142
0.0
142
0.0
142
1.0
179
     0
144
0.0208333333333333
144
0.0
144
0.0
144
0.0
144
0.0
144
0.0208333333333333
144
0.0
144
0.0
144
0.0
144
0.0
144
1.0
144
0.0
144
0.0
144
0.0
144
0.0
144
1.0
147
0.0208333333333333
147
0.0
147
0.0
147
0.0
147
0.0
147
0.0208333333333333
147
0.0
147
0.0
147
0.0
147
0.0
147
1.0
147
0.0
147
0.0
147
0.0
147
0.0
147
1.0
  0
MATERIAL
  5
11
102
{ACAD_XDICTIONARY
360
12
102
}
102
{ACAD_REACTORS
330
10
102
}
330
10
100
AcDbMaterial
  1
ByLayer
 72
     0
 43
0.0208333333333333
 43
0.0
 43
0.0
 43
0.0
 43
0.0
 43
0.0208333333333333
 43
0.0
 43
0.0
 43
0.0
 43
0.0
 43
1.0
 43
0.0
 43
0.0
 43
0.0
 43
0.0
 43
1.0
 77
     0
 47
0.0208333333333333
 47
0.0
 47
0.0
 47
0.0
 47
0.0
 47
0.0208333333333333
 47
0.0
 47
0.0
 47
0.0
 47
0.0
 47
1.0
 47
0.0
 47
0.0
 47
0.0
 47
0.0
 47
1.0
171
     0
 49
0.0208333333333333
 49
0.0
 49
0.0
 49
0.0
 49
0.0
 49
0.0208333333333333
 49
0.0
 49
0.0
 49
0.0
 49
0.0
 49
1.0
 49
0.0
 49
0.0
 49
0.0
 49
0.0
 49
1.0
175
     0
142
0.0208333333333333
142
0.0
142
0.0
142
0.0
142
0.0
142
0.0208333333333333
142
0.0
142
0.0
142
0.0
142
0.0
142
1.0
142
0.0
142
0.0
142
0.0
142
0.0
142
1.0
179
     0
144
0.0208333333333333
144
0.0
144
0.0
144
0.0
144
0.0
144
0.0208333333333333
144
0.0
144
0.0
144
0.0
144
0.0
144
1.0
144
0.0
144
0.0
144
0.0
144
0.0
144
1.0
147
0.0208333333333333
147
0.0
147
0.0
147
0.0
147
0.0
147
0.0208333333333333
147
0.0
147
0.0
147
0.0
147
0.0
147
1.0
147
0.0
147
0.0
147
0.0
147
0.0
147
1.0
  0
MATERIAL
  5
21
102
{ACAD_XDICTIONARY
360
22
102
}
102
{ACAD_REACTORS
330
10
102
}
330
10
100
AcDbMaterial
  1
Global
 72
     0
 43
0.0208333333333333
 43
0.0
 43
0.0
 43
0.0
 43
0.0
 43
0.0208333333333333
 43
0.0
 43
0.0
 43
0.0
 43
0.0
 43
1.0
 43
0.0
 43
0.0
 43
0.0
 43
0.0
 43
1.0
 77
     0
 47
0.0208333333333333
 47
0.0
 47
0.0
 47
0.0
 47
0.0
 47
0.0208333333333333
 47
0.0
 47
0.0
 47
0.0
 47
0.0
 47
1.0
 47
0.0
 47
0.0
 47
0.0
 47
0.0
 47
1.0
171
     0
 49
0.0208333333333333
 49
0.0
 49
0.0
 49
0.0
 49
0.0
 49
0.0208333333333333
 49
0.0
 49
0.0
 49
0.0
 49
0.0
 49
1.0
 49
0.0
 49
0.0
 49
0.0
 49
0.0
 49
1.0
175
     0
142
0.0208333333333333
142
0.0
142
0.0
142
0.0
142
0.0
142
0.0208333333333333
142
0.0
142
0.0
142
0.0
142
0.0
142
1.0
142
0.0
142
0.0
142
0.0
142
0.0
142
1.0
179
     0
144
0.0208333333333333
144
0.0
144
0.0
144
0.0
144
0.0
144
0.0208333333333333
144
0.0
144
0.0
144
0.0
144
0.0
144
1.0
144
0.0
144
0.0
144
0.0
144
0.0
144
1.0
147
0.0208333333333333
147
0.0
147
0.0
147
0.0
147
0.0
147
0.0208333333333333
147
0.0
147
0.0
147
0.0
147
0.0
147
1.0
147
0.0
147
0.0
147
0.0
147
0.0
147
1.0
  0
MLEADERSTYLE
  5
67
102
{ACAD_REACTORS
330
66
102
}
330
66
100
AcDbMLeaderStyle
179
     2
170
     2
171
     1
172
     0
 90
        2
 40
0.0
 41
0.0
173
     1
 91
-1056964608
340
5B
 92
       -2
290
     1
 42
0.09
291
     1
 43
0.36
  3
Standard
 44
0.18
300

342
55
174
     1
178
     6
175
     1
176
     0
 93
-1056964608
 45
0.18
292
     0
297
     0
 46
0.18
 94
-1056964608
 47
1.0
 49
1.0
140
1.0
293
     1
141
0.0
294
     1
177
     0
142
1.0
295
     1
296
     0
143
0.125
271
     0
272
     9
273
     9
298
     1
  0
MLINESTYLE
  5
60
102
{ACAD_REACTORS
330
5F
102
}
330
5F
100
AcDbMlineStyle
  2
STANDARD
 70
     0
  3

 62
   256
 51
90.0
 52
90.0
 71
     2
 49
0.5
 62
   256
  6
BYLAYER
 49
-0.5
 62
   256
  6
BYLAYER
  0
ACDBPLACEHOLDER
  5
F
102
{ACAD_REACTORS
330
E
102
}
330
E
  0
SCALE
  5
43
102
{ACAD_REACTORS
330
42
102
}
330
42
100
AcDbScale
 70
     0
300
1:1
140
1.0
141
1.0
290
     1
  0
SCALE
  5
44
102
{ACAD_REACTORS
330
42
102
}
330
42
100
AcDbScale
 70
     0
300
1/128" = 1'-0"
140
0.0078125
141
12.0
290
     0
  0
SCALE
  5
45
102
{ACAD_REACTORS
330
42
102
}
330
42
100
AcDbScale
 70
     0
300
1/64" = 1'-0"
140
0.015625
141
12.0
290
     0
  0
SCALE
  5
46
102
{ACAD_REACTORS
330
42
102
}
330
42
100
AcDbScale
 70
     0
300
1/32" = 1'-0"
140
0.03125
141
12.0
290
     0
  0
SCALE
  5
47
102
{ACAD_REACTORS
330
42
102
}
330
42
100
AcDbScale
 70
     0
300
1/16" = 1'-0"
140
0.0625
141
12.0
290
     0
  0
SCALE
  5
48
102
{ACAD_REACTORS
330
42
102
}
330
42
100
AcDbScale
 70
     0
300
3/32" = 1'-0"
140
0.09375
141
12.0
290
     0
  0
SCALE
  5
49
102
{ACAD_REACTORS
330
42
102
}
330
42
100
AcDbScale
 70
     0
300
1/8" = 1'-0"
140
0.125
141
12.0
290
     0
  0
SCALE
  5
4A
102
{ACAD_REACTORS
330
42
102
}
330
42
100
AcDbScale
 70
     0
300
3/16" = 1'-0"
140
0.1875
141
12.0
290
     0
  0
SCALE
  5
4B
102
{ACAD_REACTORS
330
42
102
}
330
42
100
AcDbScale
 70
     0
300
1/4" = 1'-0"
140
0.25
141
12.0
290
     0
  0
SCALE
  5
4C
102
{ACAD_REACTORS
330
42
102
}
330
42
100
AcDbScale
 70
     0
300
3/8" = 1'-0"
140
0.375
141
12.0
290
     0
  0
SCALE
  5
4D
102
{ACAD_REACTORS
330
42
102
}
330
42
100
AcDbScale
 70
     0
300
1/2" = 1'-0"
140
0.5
141
12.0
290
     0
  0
SCALE
  5
4E
102
{ACAD_REACTORS
330
42
102
}
330
42
100
AcDbScale
 70
     0
300
3/4" = 1'-0"
140
0.75
141
12.0
290
     0
  0
SCALE
  5
4F
102
{ACAD_REACTORS
330
42
102
}
330
42
100
AcDbScale
 70
     0
300
1" = 1'-0"
140
1.0
141
12.0
290
     0
  0
SCALE
  5
50
102
{ACAD_REACTORS
330
42
102
}
330
42
100
AcDbScale
 70
     0
300
1-1/2" = 1'-0"
140
1.5
141
12.0
290
     0
  0
SCALE
  5
51
102
{ACAD_REACTORS
330
42
102
}
330
42
100
AcDbScale
 70
     0
300
3" = 1'-0"
140
3.0
141
12.0
290
     0
  0
SCALE
  5
52
102
{ACAD_REACTORS
330
42
102
}
330
42
100
AcDbScale
 70
     0
300
6" = 1'-0"
140
6.0
141
12.0
290
     0
  0
SCALE
  5
53
102
{ACAD_REACTORS
330
42
102
}
330
42
100
AcDbScale
 70
     0
300
1'-0" = 1'-0"
140
12.0
141
12.0
290
     0
  0
ACDBSECTIONVIEWSTYLE
  5
69
102
{ACAD_REACTORS
330
68
102
}
330
68
100
AcDbModelDocViewStyle
 70
     0
  3
Imperial24
290
     1
300
Imperial24
 90
        0
100
AcDbSectionViewStyle
 70
     0
 71
     0
 90
       78
 71
     1
340
55
 62
   256
 40
0.24
340
0
340
0
 62
   256
 40
0.24
300
I, O, Q, S, X, Z
 40
0.48
 90
        3
 40
0.18
 90
        1
 71
     2
340
5D
 90
       25
 62
   256
340
5D
 90
       50
 62
   256
 40
0.24
 40
0.0
 40
0.24
 71
     3
340
55
 62
   256
 40
0.24
 90
        1
 40
0.75
 90
        1
300
%<\AcVar ViewType \f "%tc1">% %<\AcVar ViewSectionStartId>%-%<\AcVar ViewSectionEndId>%\PSCALE %<\AcVar ViewScale \f "%sn">%
 71
     4
 62
   256
 62
   257
300
ANSI31
 40
1.0
 90
        0
290
     0
290
     0
 90
        6
 40
0.0
 40
1.570796326794896
 40
0.2617993877991494
 40
1.308996938995747
 40
-0.2617993877991494
 40
1.832595714594046
  0
TABLESTYLE
  5
65
102
{ACAD_XDICTIONARY
360
1B0
102
}
102
{ACAD_REACTORS
330
64
102
}
330
64
100
AcDbTableStyle
280
     0
  3
Standard
 70
     0
 71
     0
 40
0.06
 41
0.06
280
     0
281
     0
  7
Standard
140
0.18
170
     2
 62
     0
 63
     7
283
     0
 90
      512
 91
        0
  1

274
    -2
284
     1
 64
     0
275
    -2
285
     1
 65
     0
276
    -2
286
     1
 66
     0
277
    -2
287
     1
 67
     0
278
    -2
288
     1
 68
     0
279
    -2
289
     1
 69
     0
  7
Standard
140
0.25
170
     5
 62
     0
 63
     7
283
     0
 90
      512
 91
        0
  1

274
    -2
284
     1
 64
     0
275
    -2
285
     1
 65
     0
276
    -2
286
     1
 66
     0
277
    -2
287
     1
 67
     0
278
    -2
288
     1
 68
     0
279
    -2
289
     1
 69
     0
  7
Standard
140
0.18
170
     5
 62
     0
 63
     7
283
     0
 90
      512
 91
        0
  1

274
    -2
284
     1
 64
     0
275
    -2
285
     1
 65
     0
276
    -2
286
     1
 66
     0
277
    -2
287
     1
 67
     0
278
    -2
288
     1
 68
     0
279
    -2
289
     1
 69
     0
  0
VISUALSTYLE
  5
2F
102
{ACAD_REACTORS
330
29
102
}
330
29
100
AcDbVisualStyle
  2
2dWireframe
 70
     4
177
     3
291
     0
 70
    58
 90
        0
176
     1
 90
        2
176
     1
 90
        0
176
     1
 90
        0
176
     1
 40
0.6
176
     1
 40
30.0
176
     1
 62
     7
420
 16777215
176
     1
 90
        1
176
     1
 90
        4
176
     1
 62
     7
176
     1
 62
   257
176
     1
 90
        1
176
     1
 90
        1
176
     1
 40
1.0
176
     1
 90
        0
176
     1
 62
   257
176
     1
 40
1.0
176
     1
 90
        1
176
     1
 90
        6
176
     1
 90
        2
176
     1
 62
     7
176
     1
 90
        5
176
     1
 90
        0
176
     1
 90
        0
176
     1
290
     0
176
     1
 90
        1
176
     1
 40
0.0
176
     1
 90
        0
176
     1
290
     1
176
     1
290
     1
176
     1
290
     0
176
     1
290
     0
176
     1
290
     0
176
     1
290
     0
176
     1
290
     0
176
     1
290
     0
176
     1
290
     0
176
     1
 90
       50
176
     1
 40
0.0
176
     1
 40
1.0
176
     1
 90
        0
176
     1
 62
    18
420
        0
176
     1
 90
       50
176
     1
 90
        3
176
     1
 62
     5
420
      255
176
     1
290
     0
176
     1
 90
       50
176
     1
 90
       50
176
     1
 90
       50
176
     1
290
     0
176
     1
 90
       50
176
     1
 62
   256
176
     0
 40
1.0
176
     0
 90
        2
176
     1
  1
strokes_ogs.tif
176
     1
290
     0
176
     1
 40
1.0
176
     1
 40
1.0
176
     1
  0
VISUALSTYLE
  5
2E
102
{ACAD_REACTORS
330
29
102
}
330
29
100
AcDbVisualStyle
  2
Basic
 70
     7
177
     3
291
     1
 70
    58
 90
        1
176
     1
 90
        0
176
     1
 90
        1
176
     1
 90
        0
176
     1
 40
0.6
176
     1
 40
30.0
176
     1
 62
     7
420
 16777215
176
     1
 90
        0
176
     1
 90
        4
176
     1
 62
     7
176
     1
 62
   257
176
     1
 90
        1
176
     1
 90
        1
176
     1
 40
1.0
176
     1
 90
        8
176
     1
 62
     7
176
     1
 40
1.0
176
     1
 90
        1
176
     1
 90
        6
176
     1
 90
        2
176
     1
 62
     7
176
     1
 90
        5
176
     1
 90
        0
176
     1
 90
        0
176
     1
290
     0
176
     1
 90
        1
176
     1
 40
0.0
176
     1
 90
        0
176
     1
290
     0
176
     1
290
     1
176
     1
290
     1
176
     1
290
     0
176
     1
290
     0
176
     1
290
     0
176
     1
290
     0
176
     1
290
     0
176
     1
290
     0
176
     1
 90
       50
176
     1
 40
0.0
176
     1
 40
1.0
176
     1
 90
        0
176
     1
 62
    18
420
        0
176
     1
 90
       50
176
     1
 90
        3
176
     1
 62
     5
420
      255
176
     1
290
     0
176
     1
 90
       50
176
     1
 90
       50
176
     1
 90
       50
176
     1
290
     0
176
     1
 90
       50
176
     1
 62
   256
176
     0
 40
1.0
176
     0
 90
        2
176
     1
  1
strokes_ogs.tif
176
     1
290
     0
176
     1
 40
1.0
176
     1
 40
1.0
176
     1
  0
VISUALSTYLE
  5
35
102
{ACAD_REACTORS
330
29
102
}
330
29
100
AcDbVisualStyle
  2
Brighten
 70
    12
177
     3
291
     1
 70
    58
 90
        2
176
     1
 90
        2
176
     1
 90
        0
176
     1
 90
        0
176
     1
 40
0.6
176
     1
 40
30.0
176
     1
 62
     7
420
 16777215
176
     1
 90
        1
176
     1
 90
        4
176
     1
 62
     7
176
     1
 62
   257
176
     1
 90
        1
176
     1
 90
        1
176
     1
 40
1.0
176
     1
 90
        8
176
     1
 62
     7
176
     1
 40
1.0
176
     1
 90
        1
176
     1
 90
        6
176
     1
 90
        2
176
     1
 62
     7
176
     1
 90
        5
176
     1
 90
        0
176
     1
 90
        0
176
     1
290
     0
176
     1
 90
        1
176
     1
 40
50.0
176
     1
 90
        0
176
     1
290
     0
176
     1
290
     1
176
     1
290
     1
176
     1
290
     0
176
     1
290
     0
176
     1
290
     0
176
     1
290
     0
176
     1
290
     0
176
     1
290
     0
176
     1
 90
       50
176
     1
 40
0.0
176
     1
 40
1.0
176
     1
 90
        0
176
     1
 62
    18
420
        0
176
     1
 90
       50
176
     1
 90
        3
176
     1
 62
     5
420
      255
176
     1
290
     0
176
     1
 90
       50
176
     1
 90
       50
176
     1
 90
       50
176
     1
290
     0
176
     1
 90
       50
176
     1
 62
   256
176
     0
 40
1.0
176
     0
 90
        2
176
     1
  1
strokes_ogs.tif
176
     1
290
     0
176
     1
 40
1.0
176
     1
 40
1.0
176
     1
  0
VISUALSTYLE
  5
39
102
{ACAD_REACTORS
330
29
102
}
330
29
100
AcDbVisualStyle
  2
ColorChange
 70
    16
177
     3
291
     1
 70
    58
 90
        2
176
     1
 90
        2
176
     1
 90
        3
176
     1
 90
        0
176
     1
 40
0.6
176
     1
 40
30.0
176
     1
 62
     8
420
  8421504
176
     1
 90
        1
176
     1
 90
        4
176
     1
 62
     7
176
     1
 62
   257
176
     1
 90
        1
176
     1
 90
        1
176
     1
 40
1.0
176
     1
 90
        8
176
     1
 62
     8
420
  8421504
176
     1
 40
1.0
176
     1
 90
        1
176
     1
 90
        6
176
     1
 90
        2
176
     1
 62
     7
176
     1
 90
        5
176
     1
 90
        0
176
     1
 90
        0
176
     1
290
     0
176
     1
 90
        1
176
     1
 40
0.0
176
     1
 90
        0
176
     1
290
     0
176
     1
290
     1
176
     1
290
     1
176
     1
290
     0
176
     1
290
     0
176
     1
290
     0
176
     1
290
     0
176
     1
290
     0
176
     1
290
     0
176
     1
 90
       50
176
     1
 40
0.0
176
     1
 40
1.0
176
     1
 90
        0
176
     1
 62
    18
420
        0
176
     1
 90
       50
176
     1
 90
        3
176
     1
 62
     5
420
      255
176
     1
290
     0
176
     1
 90
       50
176
     1
 90
       50
176
     1
 90
       50
176
     1
290
     0
176
     1
 90
       50
176
     1
 62
   256
176
     0
 40
1.0
176
     0
 90
        2
176
     1
  1
strokes_ogs.tif
176
     1
290
     0
176
     1
 40
1.0
176
     1
 40
1.0
176
     1
  0
VISUALSTYLE
  5
32
102
{ACAD_REACTORS
330
29
102
}
330
29
100
AcDbVisualStyle
  2
Conceptual
 70
     9
177
     3
291
     0
 70
    58
 90
        3
176
     1
 90
        2
176
     1
 90
        0
176
     1
 90
        0
176
     1
 40
0.6
176
     1
 40
30.0
176
     1
 62
     7
420
 16777215
176
     1
 90
        2
176
     1
 90
        2
176
     1
 62
     7
176
     1
 62
   257
176
     1
 90
        1
176
     1
 90
        1
176
     1
 40
179.0
176
     1
 90
        8
176
     1
 62
     7
176
     1
 40
1.0
176
     1
 90
        1
176
     1
 90
        6
176
     1
 90
        2
176
     1
 62
     7
176
     1
 90
        3
176
     1
 90
        0
176
     1
 90
        0
176
     1
290
     0
176
     1
 90
        1
176
     1
 40
0.0
176
     1
 90
        0
176
     1
290
     0
176
     1
290
     1
176
     1
290
     1
176
     1
290
     0
176
     1
290
     0
176
     1
290
     0
176
     1
290
     0
176
     1
290
     0
176
     1
290
     0
176
     1
 90
       50
176
     1
 40
0.0
176
     1
 40
1.0
176
     1
 90
        0
176
     1
 62
    18
420
        0
176
     1
 90
       50
176
     1
 90
        3
176
     1
 62
     5
420
      255
176
     1
290
     0
176
     1
 90
       50
176
     1
 90
       50
176
     1
 90
       50
176
     1
290
     0
176
     1
 90
       50
176
     1
 62
   256
176
     0
 40
1.0
176
     0
 90
        2
176
     1
  1
strokes_ogs.tif
176
     1
290
     0
176
     1
 40
1.0
176
     1
 40
1.0
176
     1
  0
VISUALSTYLE
  5
34
102
{ACAD_REACTORS
330
29
102
}
330
29
100
AcDbVisualStyle
  2
Dim
 70
    11
177
     3
291
     1
 70
    58
 90
        2
176
     1
 90
        2
176
     1
 90
        0
176
     1
 90
        0
176
     1
 40
0.6
176
     1
 40
30.0
176
     1
 62
     7
420
 16777215
176
     1
 90
        1
176
     1
 90
        4
176
     1
 62
     7
176
     1
 62
   257
176
     1
 90
        1
176
     1
 90
        1
176
     1
 40
1.0
176
     1
 90
        8
176
     1
 62
     7
176
     1
 40
1.0
176
     1
 90
        1
176
     1
 90
        6
176
     1
 90
        2
176
     1
 62
     7
176
     1
 90
        5
176
     1
 90
        0
176
     1
 90
        0
176
     1
290
     0
176
     1
 90
        1
176
     1
 40
-50.0
176
     1
 90
        0
176
     1
290
     0
176
     1
290
     1
176
     1
290
     1
176
     1
290
     0
176
     1
290
     0
176
     1
290
     0
176
     1
290
     0
176
     1
290
     0
176
     1
290
     0
176
     1
 90
       50
176
     1
 40
0.0
176
     1
 40
1.0
176
     1
 90
        0
176
     1
 62
    18
420
        0
176
     1
 90
       50
176
     1
 90
        3
176
     1
 62
     5
420
      255
176
     1
290
     0
176
     1
 90
       50
176
     1
 90
       50
176
     1
 90
       50
176
     1
290
     0
176
     1
 90
       50
176
     1
 62
   256
176
     0
 40
1.0
176
     0
 90
        2
176
     1
  1
strokes_ogs.tif
176
     1
290
     0
176
     1
 40
1.0
176
     1
 40
1.0
176
     1
  0
VISUALSTYLE
  5
41
102
{ACAD_REACTORS
330
29
102
}
330
29
100
AcDbVisualStyle
  2
EdgeColorOff
 70
    22
177
     3
291
     1
 70
    58
 90
        2
176
     0
 90
        2
176
     0
 90
        0
176
     0
 90
        0
176
     0
 40
0.6
176
     0
 40
30.0
176
     0
 62
     7
420
 16777215
176
     0
 90
        1
176
     0
 90
        4
176
     0
 62
     7
176
     0
 62
   257
176
     0
 90
        1
176
     0
 90
        1
176
     0
 40
1.0
176
     0
 90
        8
176
     2
 62
     7
176
     0
 40
1.0
176
     0
 90
        1
176
     0
 90
        6
176
     0
 90
        2
176
     0
 62
     7
176
     0
 90
        5
176
     0
 90
        0
176
     0
 90
        0
176
     0
290
     0
176
     0
 90
        1
176
     0
 40
0.0
176
     0
 90
        0
176
     0
290
     0
176
     0
290
     1
176
     0
290
     1
176
     0
290
     0
176
     0
290
     0
176
     0
290
     0
176
     0
290
     0
176
     0
290
     0
176
     0
290
     0
176
     0
 90
       50
176
     0
 40
0.0
176
     0
 40
1.0
176
     0
 90
        0
176
     0
 62
    18
420
        0
176
     0
 90
       50
176
     0
 90
        3
176
     0
 62
     5
420
      255
176
     0
290
     0
176
     0
 90
       50
176
     0
 90
       50
176
     0
 90
       50
176
     0
290
     0
176
     0
 90
       50
176
     0
 62
   256
176
     0
 40
1.0
176
     0
 90
        2
176
     0
  1
strokes_ogs.tif
176
     0
290
     0
176
     0
 40
1.0
176
     0
 40
1.0
176
     0
  0
VISUALSTYLE
  5
38
102
{ACAD_REACTORS
330
29
102
}
330
29
100
AcDbVisualStyle
  2
Facepattern
 70
    15
177
     3
291
     1
 70
    58
 90
        2
176
     1
 90
        2
176
     1
 90
        0
176
     1
 90
        0
176
     1
 40
0.6
176
     1
 40
30.0
176
     1
 62
     7
420
 16777215
176
     1
 90
        1
176
     1
 90
        4
176
     1
 62
     7
176
     1
 62
   257
176
     1
 90
        1
176
     1
 90
        1
176
     1
 40
1.0
176
     1
 90
        8
176
     1
 62
     7
176
     1
 40
1.0
176
     1
 90
        1
176
     1
 90
        6
176
     1
 90
        2
176
     1
 62
     7
176
     1
 90
        5
176
     1
 90
        0
176
     1
 90
        0
176
     1
290
     0
176
     1
 90
        1
176
     1
 40
0.0
176
     1
 90
        0
176
     1
290
     0
176
     1
290
     1
176
     1
290
     1
176
     1
290
     0
176
     1
290
     0
176
     1
290
     0
176
     1
290
     0
176
     1
290
     0
176
     1
290
     0
176
     1
 90
       50
176
     1
 40
0.0
176
     1
 40
1.0
176
     1
 90
        0
176
     1
 62
    18
420
        0
176
     1
 90
       50
176
     1
 90
        3
176
     1
 62
     5
420
      255
176
     1
290
     0
176
     1
 90
       50
176
     1
 90
       50
176
     1
 90
       50
176
     1
290
     0
176
     1
 90
       50
176
     1
 62
   256
176
     0
 40
1.0
176
     0
 90
        2
176
     1
  1
strokes_ogs.tif
176
     1
290
     0
176
     1
 40
1.0
176
     1
 40
1.0
176
     1
  0
VISUALSTYLE
  5
2A
102
{ACAD_REACTORS
330
29
102
}
330
29
100
AcDbVisualStyle
  2
Flat
 70
     0
177
     3
291
     1
 70
    58
 90
        2
176
     1
 90
        1
176
     1
 90
        1
176
     1
 90
        2
176
     1
 40
0.6
176
     1
 40
30.0
176
     1
 62
     7
420
 16777215
176
     1
 90
        0
176
     1
 90
        0
176
     1
 62
     7
176
     1
 62
   257
176
     1
 90
        1
176
     1
 90
        1
176
     1
 40
1.0
176
     1
 90
        8
176
     1
 62
     7
176
     1
 40
1.0
176
     1
 90
        1
176
     1
 90
        6
176
     1
 90
        2
176
     1
 62
     7
176
     1
 90
        5
176
     1
 90
        0
176
     1
 90
        0
176
     1
290
     0
176
     1
 90
       13
176
     1
 40
0.0
176
     1
 90
        0
176
     1
290
     0
176
     1
290
     1
176
     1
290
     1
176
     1
290
     0
176
     1
290
     0
176
     1
290
     0
176
     1
290
     0
176
     1
290
     0
176
     1
290
     0
176
     1
 90
       50
176
     1
 40
0.0
176
     1
 40
1.0
176
     1
 90
        0
176
     1
 62
    18
420
        0
176
     1
 90
       50
176
     1
 90
        3
176
     1
 62
     5
420
      255
176
     1
290
     0
176
     1
 90
       50
176
     1
 90
       50
176
     1
 90
       50
176
     1
290
     0
176
     1
 90
       50
176
     1
 62
   256
176
     0
 40
1.0
176
     0
 90
        2
176
     1
  1
strokes_ogs.tif
176
     1
290
     0
176
     1
 40
1.0
176
     1
 40
1.0
176
     1
  0
VISUALSTYLE
  5
2B
102
{ACAD_REACTORS
330
29
102
}
330
29
100
AcDbVisualStyle
  2
FlatWithEdges
 70
     1
177
     3
291
     1
 70
    58
 90
        2
176
     1
 90
        1
176
     1
 90
        1
176
     1
 90
        2
176
     1
 40
0.6
176
     1
 40
30.0
176
     1
 62
     7
420
 16777215
176
     1
 90
        1
176
     1
 90
        0
176
     1
 62
     7
176
     1
 62
   257
176
     1
 90
        1
176
     1
 90
        1
176
     1
 40
1.0
176
     1
 90
        0
176
     1
 62
   257
176
     1
 40
1.0
176
     1
 90
        1
176
     1
 90
        6
176
     1
 90
        2
176
     1
 62
     7
176
     1
 90
        5
176
     1
 90
        0
176
     1
 90
        0
176
     1
290
     0
176
     1
 90
       13
176
     1
 40
0.0
176
     1
 90
        0
176
     1
290
     0
176
     1
290
     1
176
     1
290
     1
176
     1
290
     0
176
     1
290
     0
176
     1
290
     0
176
     1
290
     0
176
     1
290
     0
176
     1
290
     0
176
     1
 90
       50
176
     1
 40
0.0
176
     1
 40
1.0
176
     1
 90
        0
176
     1
 62
    18
420
        0
176
     1
 90
       50
176
     1
 90
        3
176
     1
 62
     5
420
      255
176
     1
290
     0
176
     1
 90
       50
176
     1
 90
       50
176
     1
 90
       50
176
     1
290
     0
176
     1
 90
       50
176
     1
 62
   256
176
     0
 40
1.0
176
     0
 90
        2
176
     1
  1
strokes_ogs.tif
176
     1
290
     0
176
     1
 40
1.0
176
     1
 40
1.0
176
     1
  0
VISUALSTYLE
  5
2C
102
{ACAD_REACTORS
330
29
102
}
330
29
100
AcDbVisualStyle
  2
Gouraud
 70
     2
177
     3
291
     1
 70
    58
 90
        2
176
     1
 90
        2
176
     1
 90
        1
176
     1
 90
        2
176
     1
 40
0.6
176
     1
 40
30.0
176
     1
 62
     7
420
 16777215
176
     1
 90
        0
176
     1
 90
        0
176
     1
 62
     7
176
     1
 62
   257
176
     1
 90
        1
176
     1
 90
        1
176
     1
 40
1.0
176
     1
 90
        0
176
     1
 62
     7
176
     1
 40
1.0
176
     1
 90
        1
176
     1
 90
        6
176
     1
 90
        2
176
     1
 62
     7
176
     1
 90
        5
176
     1
 90
        0
176
     1
 90
        0
176
     1
290
     0
176
     1
 90
       13
176
     1
 40
0.0
176
     1
 90
        0
176
     1
290
     0
176
     1
290
     1
176
     1
290
     1
176
     1
290
     0
176
     1
290
     0
176
     1
290
     0
176
     1
290
     0
176
     1
290
     0
176
     1
290
     0
176
     1
 90
       50
176
     1
 40
0.0
176
     1
 40
1.0
176
     1
 90
        0
176
     1
 62
    18
420
        0
176
     1
 90
       50
176
     1
 90
        3
176
     1
 62
     5
420
      255
176
     1
290
     0
176
     1
 90
       50
176
     1
 90
       50
176
     1
 90
       50
176
     1
290
     0
176
     1
 90
       50
176
     1
 62
   256
176
     0
 40
1.0
176
     0
 90
        2
176
     1
  1
strokes_ogs.tif
176
     1
290
     0
176
     1
 40
1.0
176
     1
 40
1.0
176
     1
  0
VISUALSTYLE
  5
2D
102
{ACAD_REACTORS
330
29
102
}
330
29
100
AcDbVisualStyle
  2
GouraudWithEdges
 70
     3
177
     3
291
     1
 70
    58
 90
        2
176
     1
 90
        2
176
     1
 90
        1
176
     1
 90
        2
176
     1
 40
0.6
176
     1
 40
30.0
176
     1
 62
     7
420
 16777215
176
     1
 90
        1
176
     1
 90
        0
176
     1
 62
     7
176
     1
 62
   257
176
     1
 90
        1
176
     1
 90
        1
176
     1
 40
1.0
176
     1
 90
        0
176
     1
 62
   257
176
     1
 40
1.0
176
     1
 90
        1
176
     1
 90
        6
176
     1
 90
        2
176
     1
 62
     7
176
     1
 90
        5
176
     1
 90
        0
176
     1
 90
        0
176
     1
290
     0
176
     1
 90
       13
176
     1
 40
0.0
176
     1
 90
        0
176
     1
290
     0
176
     1
290
     1
176
     1
290
     1
176
     1
290
     0
176
     1
290
     0
176
     1
290
     0
176
     1
290
     0
176
     1
290
     0
176
     1
290
     0
176
     1
 90
       50
176
     1
 40
0.0
176
     1
 40
1.0
176
     1
 90
        0
176
     1
 62
    18
420
        0
176
     1
 90
       50
176
     1
 90
        3
176
     1
 62
     5
420
      255
176
     1
290
     0
176
     1
 90
       50
176
     1
 90
       50
176
     1
 90
       50
176
     1
290
     0
176
     1
 90
       50
176
     1
 62
   256
176
     0
 40
1.0
176
     0
 90
        2
176
     1
  1
strokes_ogs.tif
176
     1
290
     0
176
     1
 40
1.0
176
     1
 40
1.0
176
     1
  0
VISUALSTYLE
  5
31
102
{ACAD_REACTORS
330
29
102
}
330
29
100
AcDbVisualStyle
  2
Hidden
 70
     6
177
     3
291
     0
 70
    58
 90
        1
176
     1
 90
        2
176
     1
 90
        2
176
     1
 90
        0
176
     1
 40
0.6
176
     1
 40
30.0
176
     1
 62
     7
420
 16777215
176
     1
 90
        2
176
     1
 90
        2
176
     1
 62
     7
176
     1
 62
   257
176
     1
 90
        2
176
     1
 90
        1
176
     1
 40
40.0
176
     1
 90
        0
176
     1
 62
   257
176
     1
 40
1.0
176
     1
 90
        1
176
     1
 90
        6
176
     1
 90
        2
176
     1
 62
     7
176
     1
 90
        3
176
     1
 90
        0
176
     1
 90
        0
176
     1
290
     0
176
     1
 90
        1
176
     1
 40
0.0
176
     1
 90
        0
176
     1
290
     0
176
     1
290
     1
176
     1
290
     1
176
     1
290
     0
176
     1
290
     0
176
     1
290
     0
176
     1
290
     0
176
     1
290
     0
176
     1
290
     0
176
     1
 90
       50
176
     1
 40
0.0
176
     1
 40
1.0
176
     1
 90
        0
176
     1
 62
    18
420
        0
176
     1
 90
       50
176
     1
 90
        3
176
     1
 62
     5
420
      255
176
     1
290
     0
176
     1
 90
       50
176
     1
 90
       50
176
     1
 90
       50
176
     1
290
     0
176
     1
 90
       50
176
     1
 62
   256
176
     0
 40
1.0
176
     0
 90
        2
176
     1
  1
strokes_ogs.tif
176
     1
290
     0
176
     1
 40
1.0
176
     1
 40
1.0
176
     1
  0
VISUALSTYLE
  5
3F
102
{ACAD_REACTORS
330
29
102
}
330
29
100
AcDbVisualStyle
  2
JitterOff
 70
    20
177
     3
291
     1
 70
    58
 90
        2
176
     0
 90
        2
176
     0
 90
        0
176
     0
 90
        0
176
     0
 40
0.6
176
     0
 40
30.0
176
     0
 62
     7
420
 16777215
176
     0
 90
        1
176
     0
 90
        4
176
     0
 62
     7
176
     0
 62
   257
176
     0
 90
        1
176
     0
 90
        1
176
     0
 40
1.0
176
     0
 90
       10
176
     2
 62
     7
176
     0
 40
1.0
176
     0
 90
        1
176
     0
 90
        6
176
     0
 90
        2
176
     0
 62
     7
176
     0
 90
        5
176
     0
 90
        0
176
     0
 90
        0
176
     0
290
     0
176
     0
 90
        1
176
     0
 40
0.0
176
     0
 90
        0
176
     0
290
     0
176
     0
290
     1
176
     0
290
     1
176
     0
290
     0
176
     0
290
     0
176
     0
290
     0
176
     0
290
     0
176
     0
290
     0
176
     0
290
     0
176
     0
 90
       50
176
     0
 40
0.0
176
     0
 40
1.0
176
     0
 90
        0
176
     0
 62
    18
420
        0
176
     0
 90
       50
176
     0
 90
        3
176
     0
 62
     5
420
      255
176
     0
290
     0
176
     0
 90
       50
176
     0
 90
       50
176
     0
 90
       50
176
     0
290
     0
176
     0
 90
       50
176
     0
 62
   256
176
     0
 40
1.0
176
     0
 90
        2
176
     0
  1
strokes_ogs.tif
176
     0
290
     0
176
     0
 40
1.0
176
     0
 40
1.0
176
     0
  0
VISUALSTYLE
  5
37
102
{ACAD_REACTORS
330
29
102
}
330
29
100
AcDbVisualStyle
  2
Linepattern
 70
    14
177
     3
291
     1
 70
    58
 90
        2
176
     1
 90
        2
176
     1
 90
        0
176
     1
 90
        0
176
     1
 40
0.6
176
     1
 40
30.0
176
     1
 62
     7
420
 16777215
176
     1
 90
        1
176
     1
 90
        4
176
     1
 62
     7
176
     1
 62
   257
176
     1
 90
        7
176
     1
 90
        7
176
     1
 40
1.0
176
     1
 90
        8
176
     1
 62
     7
176
     1
 40
1.0
176
     1
 90
        1
176
     1
 90
        6
176
     1
 90
        2
176
     1
 62
     7
176
     1
 90
        5
176
     1
 90
        0
176
     1
 90
        0
176
     1
290
     0
176
     1
 90
        1
176
     1
 40
0.0
176
     1
 90
        0
176
     1
290
     0
176
     1
290
     1
176
     1
290
     1
176
     1
290
     0
176
     1
290
     0
176
     1
290
     0
176
     1
290
     0
176
     1
290
     0
176
     1
290
     0
176
     1
 90
       50
176
     1
 40
0.0
176
     1
 40
1.0
176
     1
 90
        0
176
     1
 62
    18
420
        0
176
     1
 90
       50
176
     1
 90
        3
176
     1
 62
     5
420
      255
176
     1
290
     0
176
     1
 90
       50
176
     1
 90
       50
176
     1
 90
       50
176
     1
290
     0
176
     1
 90
       50
176
     1
 62
   256
176
     0
 40
1.0
176
     0
 90
        2
176
     1
  1
strokes_ogs.tif
176
     1
290
     0
176
     1
 40
1.0
176
     1
 40
1.0
176
     1
  0
VISUALSTYLE
  5
40
102
{ACAD_REACTORS
330
29
102
}
330
29
100
AcDbVisualStyle
  2
OverhangOff
 70
    21
177
     3
291
     1
 70
    58
 90
        2
176
     0
 90
        2
176
     0
 90
        0
176
     0
 90
        0
176
     0
 40
0.6
176
     0
 40
30.0
176
     0
 62
     7
420
 16777215
176
     0
 90
        1
176
     0
 90
        4
176
     0
 62
     7
176
     0
 62
   257
176
     0
 90
        1
176
     0
 90
        1
176
     0
 40
1.0
176
     0
 90
        9
176
     2
 62
     7
176
     0
 40
1.0
176
     0
 90
        1
176
     0
 90
        6
176
     0
 90
        2
176
     0
 62
     7
176
     0
 90
        5
176
     0
 90
        0
176
     0
 90
        0
176
     0
290
     0
176
     0
 90
        1
176
     0
 40
0.0
176
     0
 90
        0
176
     0
290
     0
176
     0
290
     1
176
     0
290
     1
176
     0
290
     0
176
     0
290
     0
176
     0
290
     0
176
     0
290
     0
176
     0
290
     0
176
     0
290
     0
176
     0
 90
       50
176
     0
 40
0.0
176
     0
 40
1.0
176
     0
 90
        0
176
     0
 62
    18
420
        0
176
     0
 90
       50
176
     0
 90
        3
176
     0
 62
     5
420
      255
176
     0
290
     0
176
     0
 90
       50
176
     0
 90
       50
176
     0
 90
       50
176
     0
290
     0
176
     0
 90
       50
176
     0
 62
   256
176
     0
 40
1.0
176
     0
 90
        2
176
     0
  1
strokes_ogs.tif
176
     0
290
     0
176
     0
 40
1.0
176
     0
 40
1.0
176
     0
  0
VISUALSTYLE
  5
33
102
{ACAD_REACTORS
330
29
102
}
330
29
100
AcDbVisualStyle
  2
Realistic
 70
     8
177
     3
291
     0
 70
    58
 90
        2
176
     1
 90
        3
176
     1
 90
        0
176
     1
 90
        2
176
     1
 40
0.6
176
     1
 40
30.0
176
     1
 62
     7
420
 16777215
176
     1
 90
        0
176
     1
 90
        0
176
     1
 62
     7
176
     1
 62
   257
176
     1
 90
        1
176
     1
 90
        1
176
     1
 40
1.0
176
     1
 90
        8
176
     1
 62
   257
176
     1
 40
1.0
176
     1
 90
        1
176
     1
 90
        6
176
     1
 90
        2
176
     1
 62
     7
176
     1
 90
        3
176
     1
 90
        0
176
     1
 90
        0
176
     1
290
     0
176
     1
 90
       13
176
     1
 40
0.0
176
     1
 90
        0
176
     1
290
     0
176
     1
290
     1
176
     1
290
     1
176
     1
290
     0
176
     1
290
     0
176
     1
290
     0
176
     1
290
     0
176
     1
290
     0
176
     1
290
     0
176
     1
 90
       50
176
     1
 40
0.0
176
     1
 40
1.0
176
     1
 90
        0
176
     1
 62
    18
420
        0
176
     1
 90
       50
176
     1
 90
        3
176
     1
 62
     5
420
      255
176
     1
290
     0
176
     1
 90
       50
176
     1
 90
       50
176
     1
 90
       50
176
     1
290
     0
176
     1
 90
       50
176
     1
 62
   256
176
     0
 40
1.0
176
     0
 90
        2
176
     1
  1
strokes_ogs.tif
176
     1
290
     0
176
     1
 40
1.0
176
     1
 40
1.0
176
     1
  0
VISUALSTYLE
  5
3E
102
{ACAD_REACTORS
330
29
102
}
330
29
100
AcDbVisualStyle
  2
Shaded
 70
    27
177
     3
291
     0
 70
    58
 90
        2
176
     1
 90
        2
176
     1
 90
        1
176
     1
 90
        2
176
     1
 40
0.6
176
     1
 40
30.0
176
     1
 62
     7
420
 16777215
176
     1
 90
        0
176
     1
 90
        4
176
     1
 62
     7
176
     1
 62
   257
176
     1
 90
        1
176
     1
 90
        1
176
     1
 40
1.0
176
     1
 90
        8
176
     1
 62
   257
176
     1
 40
1.0
176
     1
 90
        1
176
     1
 90
        6
176
     1
 90
        2
176
     1
 62
     8
420
  7895160
176
     1
 90
        3
176
     1
 90
        0
176
     1
 90
        0
176
     1
290
     0
176
     1
 90
        5
176
     1
 40
0.0
176
     1
 90
        0
176
     1
290
     0
176
     1
290
     1
176
     1
290
     1
176
     1
290
     0
176
     1
290
     0
176
     1
290
     0
176
     1
290
     0
176
     1
290
     0
176
     1
290
     0
176
     1
 90
       50
176
     1
 40
0.0
176
     1
 40
1.0
176
     1
 90
        0
176
     1
 62
    18
420
        0
176
     1
 90
       50
176
     1
 90
        3
176
     1
 62
     5
420
      255
176
     1
290
     0
176
     1
 90
       50
176
     1
 90
       50
176
     1
 90
       50
176
     1
290
     0
176
     1
 90
       50
176
     1
 62
   256
176
     0
 40
1.0
176
     0
 90
        2
176
     1
  1
strokes_ogs.tif
176
     1
290
     0
176
     1
 40
1.0
176
     1
 40
1.0
176
     1
  0
VISUALSTYLE
  5
3D
102
{ACAD_REACTORS
330
29
102
}
330
29
100
AcDbVisualStyle
  2
Shaded with edges
 70
    26
177
     3
291
     0
 70
    58
 90
        2
176
     1
 90
        2
176
     1
 90
        1
176
     1
 90
        2
176
     1
 40
0.6
176
     1
 40
30.0
176
     1
 62
     7
420
 16777215
176
     1
 90
        1
176
     1
 90
        2
176
     1
 62
     7
176
     1
 62
   257
176
     1
 90
        2
176
     1
 90
        1
176
     1
 40
1.0
176
     1
 90
        8
176
     1
 62
   257
176
     1
 40
1.0
176
     1
 90
        1
176
     1
 90
        6
176
     1
 90
        2
176
     1
 62
     7
176
     1
 90
        3
176
     1
 90
        0
176
     1
 90
        0
176
     1
290
     0
176
     1
 90
        5
176
     1
 40
0.0
176
     1
 90
        0
176
     1
290
     0
176
     1
290
     1
176
     1
290
     1
176
     1
290
     0
176
     1
290
     0
176
     1
290
     0
176
     1
290
     0
176
     1
290
     0
176
     1
290
     0
176
     1
 90
       50
176
     1
 40
0.0
176
     1
 40
1.0
176
     1
 90
        0
176
     1
 62
    18
420
        0
176
     1
 90
       50
176
     1
 90
        3
176
     1
 62
     5
420
      255
176
     1
290
     0
176
     1
 90
       50
176
     1
 90
       50
176
     1
 90
       50
176
     1
290
     0
176
     1
 90
       50
176
     1
 62
   256
176
     0
 40
1.0
176
     0
 90
        2
176
     1
  1
strokes_ogs.tif
176
     1
290
     0
176
     1
 40
1.0
176
     1
 40
1.0
176
     1
  0
VISUALSTYLE
  5
3A
102
{ACAD_REACTORS
330
29
102
}
330
29
100
AcDbVisualStyle
  2
Shades of Gray
 70
    23
177
     3
291
     0
 70
    58
 90
        2
176
     1
 90
        2
176
     1
 90
        3
176
     1
 90
        0
176
     1
 40
0.6
176
     1
 40
30.0
176
     1
 62
     7
420
 16777215
176
     1
 90
        2
176
     1
 90
        2
176
     1
 62
     7
176
     1
 62
     7
176
     1
 90
        1
176
     1
 90
        1
176
     1
 40
40.0
176
     1
 90
        8
176
     1
 62
     7
176
     1
 40
1.0
176
     1
 90
        1
176
     1
 90
        6
176
     1
 90
        2
176
     1
 62
     7
176
     1
 90
        3
176
     1
 90
        0
176
     1
 90
        0
176
     1
290
     0
176
     1
 90
        1
176
     1
 40
0.0
176
     1
 90
        0
176
     1
290
     0
176
     1
290
     1
176
     1
290
     1
176
     1
290
     0
176
     1
290
     0
176
     1
290
     0
176
     1
290
     0
176
     1
290
     0
176
     1
290
     0
176
     1
 90
       50
176
     1
 40
0.0
176
     1
 40
1.0
176
     1
 90
        0
176
     1
 62
    18
420
        0
176
     1
 90
       50
176
     1
 90
        3
176
     1
 62
     5
420
      255
176
     1
290
     0
176
     1
 90
       50
176
     1
 90
       50
176
     1
 90
       50
176
     1
290
     0
176
     1
 90
       50
176
     1
 62
   256
176
     0
 40
1.0
176
     0
 90
        2
176
     1
  1
strokes_ogs.tif
176
     1
290
     0
176
     1
 40
1.0
176
     1
 40
1.0
176
     1
  0
VISUALSTYLE
  5
3B
102
{ACAD_REACTORS
330
29
102
}
330
29
100
AcDbVisualStyle
  2
Sketchy
 70
    24
177
     3
291
     0
 70
    58
 90
        1
176
     1
 90
        2
176
     1
 90
        2
176
     1
 90
        0
176
     1
 40
0.6
176
     1
 40
30.0
176
     1
 62
     7
420
 16777215
176
     1
 90
        2
176
     1
 90
        2
176
     1
 62
     7
176
     1
 62
     7
176
     1
 90
        1
176
     1
 90
        1
176
     1
 40
40.0
176
     1
 90
       11
176
     1
 62
     7
176
     1
 40
1.0
176
     1
 90
        1
176
     1
 90
        6
176
     1
 90
        2
176
     1
 62
     7
176
     1
 90
        6
176
     1
 90
        0
176
     1
 90
        0
176
     1
290
     0
176
     1
 90
        1
176
     1
 40
0.0
176
     1
 90
        0
176
     1
290
     0
176
     1
290
     1
176
     1
290
     1
176
     1
290
     0
176
     1
290
     0
176
     1
290
     0
176
     1
290
     0
176
     1
290
     0
176
     1
290
     0
176
     1
 90
       50
176
     1
 40
0.0
176
     1
 40
1.0
176
     1
 90
        0
176
     1
 62
    18
420
        0
176
     1
 90
       50
176
     1
 90
        3
176
     1
 62
     5
420
      255
176
     1
290
     0
176
     1
 90
       50
176
     1
 90
       50
176
     1
 90
       50
176
     1
290
     0
176
     1
 90
       50
176
     1
 62
   256
176
     0
 40
1.0
176
     0
 90
        2
176
     1
  1
strokes_ogs.tif
176
     1
290
     0
176
     1
 40
1.0
176
     1
 40
1.0
176
     1
  0
VISUALSTYLE
  5
36
102
{ACAD_REACTORS
330
29
102
}
330
29
100
AcDbVisualStyle
  2
Thicken
 70
    13
177
     3
291
     1
 70
    58
 90
        2
176
     1
 90
        2
176
     1
 90
        0
176
     1
 90
        0
176
     1
 40
0.6
176
     1
 40
30.0
176
     1
 62
     7
420
 16777215
176
     1
 90
        1
176
     1
 90
        4
176
     1
 62
     7
176
     1
 62
   257
176
     1
 90
        1
176
     1
 90
        1
176
     1
 40
1.0
176
     1
 90
       12
176
     1
 62
     7
176
     1
 40
1.0
176
     1
 90
        1
176
     1
 90
        6
176
     1
 90
        2
176
     1
 62
     7
176
     1
 90
        5
176
     1
 90
        0
176
     1
 90
        0
176
     1
290
     0
176
     1
 90
        1
176
     1
 40
0.0
176
     1
 90
        0
176
     1
290
     0
176
     1
290
     1
176
     1
290
     1
176
     1
290
     0
176
     1
290
     0
176
     1
290
     0
176
     1
290
     0
176
     1
290
     0
176
     1
290
     0
176
     1
 90
       50
176
     1
 40
0.0
176
     1
 40
1.0
176
     1
 90
        0
176
     1
 62
    18
420
        0
176
     1
 90
       50
176
     1
 90
        3
176
     1
 62
     5
420
      255
176
     1
290
     0
176
     1
 90
       50
176
     1
 90
       50
176
     1
 90
       50
176
     1
290
     0
176
     1
 90
       50
176
     1
 62
   256
176
     0
 40
1.0
176
     0
 90
        2
176
     1
  1
strokes_ogs.tif
176
     1
290
     0
176
     1
 40
1.0
176
     1
 40
1.0
176
     1
  0
VISUALSTYLE
  5
30
102
{ACAD_REACTORS
330
29
102
}
330
29
100
AcDbVisualStyle
  2
Wireframe
 70
     5
177
     3
291
     0
 70
    58
 90
        0
176
     1
 90
        2
176
     1
 90
        0
176
     1
 90
        0
176
     1
 40
0.6
176
     1
 40
30.0
176
     1
 62
     7
420
 16777215
176
     1
 90
        1
176
     1
 90
        4
176
     1
 62
     7
176
     1
 62
   257
176
     1
 90
        1
176
     1
 90
        1
176
     1
 40
1.0
176
     1
 90
        0
176
     1
 62
   257
176
     1
 40
1.0
176
     1
 90
        1
176
     1
 90
        6
176
     1
 90
        2
176
     1
 62
     7
176
     1
 90
        3
176
     1
 90
        0
176
     1
 90
        0
176
     1
290
     0
176
     1
 90
        1
176
     1
 40
0.0
176
     1
 90
        0
176
     1
290
     0
176
     1
290
     1
176
     1
290
     1
176
     1
290
     0
176
     1
290
     0
176
     1
290
     0
176
     1
290
     0
176
     1
290
     0
176
     1
290
     0
176
     1
 90
       50
176
     1
 40
0.0
176
     1
 40
1.0
176
     1
 90
        0
176
     1
 62
    18
420
        0
176
     1
 90
       50
176
     1
 90
        3
176
     1
 62
     5
420
      255
176
     1
290
     0
176
     1
 90
       50
176
     1
 90
       50
176
     1
 90
       50
176
     1
290
     0
176
     1
 90
       50
176
     1
 62
   256
176
     0
 40
1.0
176
     0
 90
        2
176
     1
  1
strokes_ogs.tif
176
     1
290
     0
176
     1
 40
1.0
176
     1
 40
1.0
176
     1
  0
VISUALSTYLE
  5
3C
102
{ACAD_REACTORS
330
29
102
}
330
29
100
AcDbVisualStyle
  2
X-Ray
 70
    25
177
     3
291
     0
 70
    58
 90
        2
176
     1
 90
        2
176
     1
 90
        1
176
     1
 90
        1
176
     1
 40
0.5
176
     1
 40
30.0
176
     1
 62
     7
420
 16777215
176
     1
 90
        1
176
     1
 90
        0
176
     1
 62
     7
176
     1
 62
   257
176
     1
 90
        1
176
     1
 90
        1
176
     1
 40
1.0
176
     1
 90
        8
176
     1
 62
     7
176
     1
 40
1.0
176
     1
 90
        1
176
     1
 90
        6
176
     1
 90
        2
176
     1
 62
     7
176
     1
 90
        3
176
     1
 90
        0
176
     1
 90
        0
176
     1
290
     0
176
     1
 90
       13
176
     1
 40
0.0
176
     1
 90
        0
176
     1
290
     0
176
     1
290
     1
176
     1
290
     1
176
     1
290
     0
176
     1
290
     0
176
     1
290
     0
176
     1
290
     0
176
     1
290
     0
176
     1
290
     0
176
     1
 90
       50
176
     1
 40
0.0
176
     1
 40
1.0
176
     1
 90
        0
176
     1
 62
    18
420
        0
176
     1
 90
       50
176
     1
 90
        3
176
     1
 62
     5
420
      255
176
     1
290
     0
176
     1
 90
       50
176
     1
 90
       50
176
     1
 90
       50
176
     1
290
     0
176
     1
 90
       50
176
     1
 62
   256
176
     0
 40
1.0
176
     0
 90
        2
176
     1
  1
strokes_ogs.tif
176
     1
290
     0
176
     1
 40
1.0
176
     1
 40
1.0
176
     1
  0
DICTIONARYVAR
  5
1AF
102
{ACAD_REACTORS
330
1AA
102
}
330
1AA
100
DictionaryVariables
280
     0
  1
1:1
  0
DICTIONARYVAR
  5
1AC
102
{ACAD_REACTORS
330
1AA
102
}
330
1AA
100
DictionaryVariables
280
     0
  1
STANDARD
  0
DICTIONARYVAR
  5
1AB
102
{ACAD_REACTORS
330
1AA
102
}
330
1AA
100
DictionaryVariables
280
     0
  1
STANDARD
  0
DICTIONARYVAR
  5
1AD
102
{ACAD_REACTORS
330
1AA
102
}
330
1AA
100
DictionaryVariables
280
     0
  1
Imperial24
  0
DICTIONARYVAR
  5
1AE
102
{ACAD_REACTORS
330
1AA
102
}
330
1AA
100
DictionaryVariables
280
     0
  1
Imperial24
  0
DICTIONARY
  5
1A
330
19
100
AcDbDictionary
280
     1
281
     1
  3
BUMPTILE
360
1C
  3
DIFFUSETILE
360
1B
  3
OPACITYTILE
360
1F
  3
REFLECTIONTILE
360
1E
  3
REFRACTIONTILE
360
20
  3
SPECULARTILE
360
1D
  0
DICTIONARY
  5
12
330
11
100
AcDbDictionary
280
     1
281
     1
  3
BUMPTILE
360
14
  3
DIFFUSETILE
360
13
  3
OPACITYTILE
360
17
  3
REFLECTIONTILE
360
16
  3
REFRACTIONTILE
360
18
  3
SPECULARTILE
360
15
  0
DICTIONARY
  5
22
330
21
100
AcDbDictionary
280
     1
281
     1
  3
BUMPTILE
360
24
  3
DIFFUSETILE
360
23
  3
OPACITYTILE
360
27
  3
REFLECTIONTILE
360
26
  3
REFRACTIONTILE
360
28
  3
SPECULARTILE
360
25
  0
DICTIONARY
  5
1B0
330
65
100
AcDbDictionary
280
     1
281
     1
  3
ACAD_ROUNDTRIP_2008_TABLESTYLE_CELLSTYLEMAP
360
1B1
  0
XRECORD
  5
1C
102
{ACAD_REACTORS
330
1A
102
}
330
1A
100
AcDbXrecord
280
     1
270
     1
271
     1
  0
XRECORD
  5
1B
102
{ACAD_REACTORS
330
1A
102
}
330
1A
100
AcDbXrecord
280
     1
270
     1
271
     1
  0
XRECORD
  5
1F
102
{ACAD_REACTORS
330
1A
102
}
330
1A
100
AcDbXrecord
280
     1
270
     1
271
     1
  0
XRECORD
  5
1E
102
{ACAD_REACTORS
330
1A
102
}
330
1A
100
AcDbXrecord
280
     1
270
     1
271
     1
  0
XRECORD
  5
20
102
{ACAD_REACTORS
330
1A
102
}
330
1A
100
AcDbXrecord
280
     1
270
     1
271
     1
  0
XRECORD
  5
1D
102
{ACAD_REACTORS
330
1A
102
}
330
1A
100
AcDbXrecord
280
     1
270
     1
271
     1
  0
XRECORD
  5
14
102
{ACAD_REACTORS
330
12
102
}
330
12
100
AcDbXrecord
280
     1
270
     1
271
     1
  0
XRECORD
  5
13
102
{ACAD_REACTORS
330
12
102
}
330
12
100
AcDbXrecord
280
     1
270
     1
271
     1
  0
XRECORD
  5
17
102
{ACAD_REACTORS
330
12
102
}
330
12
100
AcDbXrecord
280
     1
270
     1
271
     1
  0
XRECORD
  5
16
102
{ACAD_REACTORS
330
12
102
}
330
12
100
AcDbXrecord
280
     1
270
     1
271
     1
  0
XRECORD
  5
18
102
{ACAD_REACTORS
330
12
102
}
330
12
100
AcDbXrecord
280
     1
270
     1
271
     1
  0
XRECORD
  5
15
102
{ACAD_REACTORS
330
12
102
}
330
12
100
AcDbXrecord
280
     1
270
     1
271
     1
  0
XRECORD
  5
24
102
{ACAD_REACTORS
330
22
102
}
330
22
100
AcDbXrecord
280
     1
270
     1
271
     1
  0
XRECORD
  5
23
102
{ACAD_REACTORS
330
22
102
}
330
22
100
AcDbXrecord
280
     1
270
     1
271
     1
  0
XRECORD
  5
27
102
{ACAD_REACTORS
330
22
102
}
330
22
100
AcDbXrecord
280
     1
270
     1
271
     1
  0
XRECORD
  5
26
102
{ACAD_REACTORS
330
22
102
}
330
22
100
AcDbXrecord
280
     1
270
     1
271
     1
  0
XRECORD
  5
28
102
{ACAD_REACTORS
330
22
102
}
330
22
100
AcDbXrecord
280
     1
270
     1
271
     1
  0
XRECORD
  5
25
102
{ACAD_REACTORS
330
22
102
}
330
22
100
AcDbXrecord
280
     1
270
     1
271
     1
  0
CELLSTYLEMAP
  5
1B1
102
{ACAD_REACTORS
330
1B0
102
}
330
1B0
100
AcDbCellStyleMap
 90
        3
300
CELLSTYLE
  1
TABLEFORMAT_BEGIN
 90
        5
170
     1
 91
        0
 92
    32768
 62
   257
 93
        1
300
CONTENTFORMAT
  1
CONTENTFORMAT_BEGIN
 90
        0
 91
        0
 92
      512
 93
        0
300

 40
0.0
140
1.0
 94
        5
 62
     0
340
55
144
0.25
309
CONTENTFORMAT_END
171
     0
 94
        0
309
TABLEFORMAT_END
  1
CELLSTYLE_BEGIN
 90
        1
 91
        1
300
_TITLE
309
CELLSTYLE_END
300
CELLSTYLE
  1
TABLEFORMAT_BEGIN
 90
        5
170
     1
 91
        0
 92
        0
 62
   257
 93
        1
300
CONTENTFORMAT
  1
CONTENTFORMAT_BEGIN
 90
        0
 91
        0
 92
      512
 93
        0
300

 40
0.0
140
1.0
 94
        5
 62
     0
340
55
144
0.18
309
CONTENTFORMAT_END
171
     0
 94
        0
309
TABLEFORMAT_END
  1
CELLSTYLE_BEGIN
 90
        2
 91
        1
300
_HEADER
309
CELLSTYLE_END
300
CELLSTYLE
  1
TABLEFORMAT_BEGIN
 90
        5
170
     1
 91
        0
 92
        0
 62
   257
 93
        1
300
CONTENTFORMAT
  1
CONTENTFORMAT_BEGIN
 90
        0
 91
        0
 92
      512
 93
        0
300

 40
0.0
140
1.0
 94
        2
 62
     0
340
55
144
0.18
309
CONTENTFORMAT_END
171
     0
 94
        0
309
TABLEFORMAT_END
  1
CELLSTYLE_BEGIN
 90
        3
 91
        2
300
_DATA
309
CELLSTYLE_END
  0
ENDSEC
  0
EOF
