  0
SECTION
  2
HEADER
  9
$ACADVER
  1
AC1032
  9
$ACADMAINTVER
 90
      251
  9
$DWGCODEPAGE
  3
ANSI_1252
  9
$REQUIREDVERSIONS
160
                 0
  9
$INSBASE
 10
0.0
 20
0.0
 30
0.0
  9
$EXTMIN
 10
1.000000000000000E+20
 20
1.000000000000000E+20
 30
1.000000000000000E+20
  9
$EXTMAX
 10
-1.000000000000000E+20
 20
-1.000000000000000E+20
 30
-1.000000000000000E+20
  9
$LIMMIN
 10
0.0
 20
0.0
  9
$LIMMAX
 10
12.0
 20
9.0
  9
$ORTHOMODE
 70
     0
  9
$REGENMODE
 70
     1
  9
$FILLMODE
 70
     1
  9
$QTEXTMODE
 70
     0
  9
$MIRRTEXT
 70
     0
  9
$LTSCALE
 40
1.0
  9
$ATTMODE
 70
     1
  9
$TEXTSIZE
 40
0.2
  9
$TRACEWID
 40
0.05
  9
$TEXTSTYLE
  7
Standard
  9
$CLAYER
  8
0
  9
$CELTYPE
  6
ByLayer
  9
$CECOLOR
 62
   256
  9
$CELTSCALE
 40
1.0
  9
$DISPSILH
 70
     0
  9
$DIMSCALE
 40
1.0
  9
$DIMASZ
 40
0.18
  9
$DIMEXO
 40
0.0625
  9
$DIMDLI
 40
0.38
  9
$DIMRND
 40
0.0
  9
$DIMDLE
 40
0.0
  9
$DIMEXE
 40
0.18
  9
$DIMTP
 40
0.0
  9
$DIMTM
 40
0.0
  9
$DIMTXT
 40
0.18
  9
$DIMCEN
 40
0.09
  9
$DIMTSZ
 40
0.0
  9
$DIMTOL
 70
     0
  9
$DIMLIM
 70
     0
  9
$DIMTIH
 70
     1
  9
$DIMTOH
 70
     1
  9
$DIMSE1
 70
     0
  9
$DIMSE2
 70
     0
  9
$DIMTAD
 70
     0
  9
$DIMZIN
 70
     0
  9
$DIMBLK
  1

  9
$DIMASO
 70
     1
  9
$DIMSHO
 70
     1
  9
$DIMPOST
  1

  9
$DIMAPOST
  1

  9
$DIMALT
 70
     0
  9
$DIMALTD
 70
     2
  9
$DIMALTF
 40
25.4
  9
$DIMLFAC
 40
1.0
  9
$DIMTOFL
 70
     0
  9
$DIMTVP
 40
0.0
  9
$DIMTIX
 70
     0
  9
$DIMSOXD
 70
     0
  9
$DIMSAH
 70
     0
  9
$DIMBLK1
  1

  9
$DIMBLK2
  1

  9
$DIMSTYLE
  2
Standard
  9
$DIMCLRD
 70
     0
  9
$DIMCLRE
 70
     0
  9
$DIMCLRT
 70
     0
  9
$DIMTFAC
 40
1.0
  9
$DIMGAP
 40
0.09
  9
$DIMJUST
 70
     0
  9
$DIMSD1
 70
     0
  9
$DIMSD2
 70
     0
  9
$DIMTOLJ
 70
     1
  9
$DIMTZIN
 70
     0
  9
$DIMALTZ
 70
     0
  9
$DIMALTTZ
 70
     0
  9
$DIMUPT
 70
     0
  9
$DIMDEC
 70
     4
  9
$DIMTDEC
 70
     4
  9
$DIMALTU
 70
     2
  9
$DIMALTTD
 70
     2
  9
$DIMTXSTY
  7
Standard
  9
$DIMAUNIT
 70
     0
  9
$DIMADEC
 70
     0
  9
$DIMALTRND
 40
0.0
  9
$DIMAZIN
 70
     0
  9
$DIMDSEP
 70
    46
  9
$DIMATFIT
 70
     3
  9
$DIMFRAC
 70
     0
  9
$DIMLDRBLK
  1

  9
$DIMLUNIT
 70
     2
  9
$DIMLWD
 70
    -2
  9
$DIMLWE
 70
    -2
  9
$DIMTMOVE
 70
     0
  9
$DIMFXL
 40
1.0
  9
$DIMFXLON
 70
     0
  9
$DIMJOGANG
 40
0.7853981633974483
  9
$DIMTFILL
 70
     0
  9
$DIMTFILLCLR
 70
     0
  9
$DIMARCSYM
 70
     0
  9
$DIMLTYPE
  6

  9
$DIMLTEX1
  6

  9
$DIMLTEX2
  6

  9
$DIMTXTDIRECTION
 70
     0
  9
$LUNITS
 70
     2
  9
$LUPREC
 70
     4
  9
$SKETCHINC
 40
0.1
  9
$FILLETRAD
 40
0.0
  9
$AUNITS
 70
     0
  9
$AUPREC
 70
     0
  9
$MENU
  1
.
  9
$ELEVATION
 40
0.0
  9
$PELEVATION
 40
0.0
  9
$THICKNESS
 40
0.0
  9
$LIMCHECK
 70
     0
  9
$CHAMFERA
 40
0.0
  9
$CHAMFERB
 40
0.0
  9
$CHAMFERC
 40
0.0
  9
$CHAMFERD
 40
0.0
  9
$SKPOLY
 70
     0
  9
$TDCREATE
 40
2460035.619386574
  9
$TDUCREATE
 40
2460035.536053241
  9
$TDUPDATE
 40
2460035.619386574
  9
$TDUUPDATE
 40
2460035.536053241
  9
$TDINDWG
 40
0.0000000000
  9
$TDUSRTIMER
 40
0.0000000000
  9
$USRTIMER
 70
     1
  9
$ANGBASE
 50
0.0
  9
$ANGDIR
 70
     0
  9
$PDMODE
 70
     0
  9
$PDSIZE
 40
0.0
  9
$PLINEWID
 40
0.0
  9
$SPLFRAME
 70
     0
  9
$SPLINETYPE
 70
     6
  9
$SPLINESEGS
 70
     8
  9
$HANDSEED
  5
186
  9
$SURFTAB1
 70
     6
  9
$SURFTAB2
 70
     6
  9
$SURFTYPE
 70
     6
  9
$SURFU
 70
     6
  9
$SURFV
 70
     6
  9
$UCSBASE
  2

  9
$UCSNAME
  2

  9
$UCSORG
 10
0.0
 20
0.0
 30
0.0
  9
$UCSXDIR
 10
1.0
 20
0.0
 30
0.0
  9
$UCSYDIR
 10
0.0
 20
1.0
 30
0.0
  9
$UCSORTHOREF
  2

  9
$UCSORTHOVIEW
 70
     0
  9
$UCSORGTOP
 10
0.0
 20
0.0
 30
0.0
  9
$UCSORGBOTTOM
 10
0.0
 20
0.0
 30
0.0
  9
$UCSORGLEFT
 10
0.0
 20
0.0
 30
0.0
  9
$UCSORGRIGHT
 10
0.0
 20
0.0
 30
0.0
  9
$UCSORGFRONT
 10
0.0
 20
0.0
 30
0.0
  9
$UCSORGBACK
 10
0.0
 20
0.0
 30
0.0
  9
$PUCSBASE
  2

  9
$PUCSNAME
  2

  9
$PUCSORG
 10
0.0
 20
0.0
 30
0.0
  9
$PUCSXDIR
 10
1.0
 20
0.0
 30
0.0
  9
$PUCSYDIR
 10
0.0
 20
1.0
 30
0.0
  9
$PUCSORTHOREF
  2

  9
$PUCSORTHOVIEW
 70
     0
  9
$PUCSORGTOP
 10
0.0
 20
0.0
 30
0.0
  9
$PUCSORGBOTTOM
 10
0.0
 20
0.0
 30
0.0
  9
$PUCSORGLEFT
 10
0.0
 20
0.0
 30
0.0
  9
$PUCSORGRIGHT
 10
0.0
 20
0.0
 30
0.0
  9
$PUCSORGFRONT
 10
0.0
 20
0.0
 30
0.0
  9
$PUCSORGBACK
 10
0.0
 20
0.0
 30
0.0
  9
$USERI1
 70
     0
  9
$USERI2
 70
     0
  9
$USERI3
 70
     0
  9
$USERI4
 70
     0
  9
$USERI5
 70
     0
  9
$USERR1
 40
0.0
  9
$USERR2
 40
0.0
  9
$USERR3
 40
0.0
  9
$USERR4
 40
0.0
  9
$USERR5
 40
0.0
  9
$WORLDVIEW
 70
     1
  9
$SHADEDGE
 70
     3
  9
$SHADEDIF
 70
    70
  9
$TILEMODE
 70
     1
  9
$MAXACTVP
 70
    64
  9
$PINSBASE
 10
0.0
 20
0.0
 30
0.0
  9
$PLIMCHECK
 70
     0
  9
$PEXTMIN
 10
1.000000000000000E+20
 20
1.000000000000000E+20
 30
1.000000000000000E+20
  9
$PEXTMAX
 10
-1.000000000000000E+20
 20
-1.000000000000000E+20
 30
-1.000000000000000E+20
  9
$PLIMMIN
 10
0.0
 20
0.0
  9
$PLIMMAX
 10
12.0
 20
9.0
  9
$UNITMODE
 70
     0
  9
$VISRETAIN
 70
     1
  9
$PLINEGEN
 70
     0
  9
$PSLTSCALE
 70
     1
  9
$TREEDEPTH
 70
  3020
  9
$CMLSTYLE
  2
Standard
  9
$CMLJUST
 70
     0
  9
$CMLSCALE
 40
1.0
  9
$PROXYGRAPHICS
 70
     1
  9
$MEASUREMENT
 70
     0
  9
$CELWEIGHT
370
    -1
  9
$ENDCAPS
280
     0
  9
$JOINSTYLE
280
     0
  9
$LWDISPLAY
290
     1
  9
$INSUNITS
 70
     4
  9
$HYPERLINKBASE
  1

  9
$STYLESHEET
  1

  9
$XEDIT
290
     1
  9
$CEPSNTYPE
380
     0
  9
$PSTYLEMODE
290
     1
  9
$FINGERPRINTGUID
  2
{6875A901-9D4D-5040-9E85-18FDD0FEDB9B}
  9
$VERSIONGUID
  2
{DD72DD49-10AD-6246-B995-66BCE4F7B36D}
  9
$EXTNAMES
290
     1
  9
$PSVPSCALE
 40
0.0
  9
$OLESTARTUP
290
     0
  9
$SORTENTS
280
   127
  9
$INDEXCTL
280
     0
  9
$HIDETEXT
280
     1
  9
$XCLIPFRAME
280
     2
  9
$HALOGAP
280
     0
  9
$OBSCOLOR
 70
   257
  9
$OBSLTYPE
280
     0
  9
$INTERSECTIONDISPLAY
280
     0
  9
$INTERSECTIONCOLOR
 70
   257
  9
$DIMASSOC
280
     2
  9
$PROJECTNAME
  1

  9
$CAMERADISPLAY
290
     0
  9
$LENSLENGTH
 40
50.0
  9
$CAMERAHEIGHT
 40
0.0
  9
$STEPSPERSEC
 40
2.0
  9
$STEPSIZE
 40
6.0
  9
$3DDWFPREC
 40
2.0
  9
$PSOLWIDTH
 40
0.25
  9
$PSOLHEIGHT
 40
4.0
  9
$LOFTANG1
 40
1.570796326794896
  9
$LOFTANG2
 40
1.570796326794896
  9
$LOFTMAG1
 40
0.0
  9
$LOFTMAG2
 40
0.0
  9
$LOFTPARAM
 70
     7
  9
$LOFTNORMALS
280
     1
  9
$LATITUDE
 40
37.795
  9
$LONGITUDE
 40
-122.394
  9
$NORTHDIRECTION
 40
0.0
  9
$TIMEZONE
 70
 -8000
  9
$LIGHTGLYPHDISPLAY
280
     1
  9
$TILEMODELIGHTSYNCH
280
     1
  9
$CMATERIAL
347
11
  9
$SOLIDHIST
280
     0
  9
$SHOWHIST
280
     1
  9
$DWFFRAME
280
     2
  9
$DGNFRAME
280
     0
  9
$REALWORLDSCALE
290
     1
  9
$INTERFERECOLOR
 62
     1
  9
$INTERFEREOBJVS
345
33
  9
$INTERFEREVPVS
346
30
  9
$CSHADOW
280
     0
  9
$SHADOWPLANELOCATION
 40
0.0
  0
ENDSEC
  0
SECTION
  2
CLASSES
  0
CLASS
  1
ACDBDICTIONARYWDFLT
  2
AcDbDictionaryWithDefault
  3
ObjectDBX Classes
 90
        0
 91
        1
280
     0
281
     0
  0
CLASS
  1
MATERIAL
  2
AcDbMaterial
  3
ObjectDBX Classes
 90
     1153
 91
        3
280
     0
281
     0
  0
CLASS
  1
VISUALSTYLE
  2
AcDbVisualStyle
  3
ObjectDBX Classes
 90
     4095
 91
       24
280
     0
281
     0
  0
CLASS
  1
SCALE
  2
AcDbScale
  3
ObjectDBX Classes
 90
     1153
 91
       17
280
     0
281
     0
  0
CLASS
  1
TABLESTYLE
  2
AcDbTableStyle
  3
ObjectDBX Classes
 90
     4095
 91
        1
280
     0
281
     0
  0
CLASS
  1
MLEADERSTYLE
  2
AcDbMLeaderStyle
  3
ACDB_MLEADERSTYLE_CLASS
 90
     4095
 91
        1
280
     0
281
     0
  0
CLASS
  1
ACDBSECTIONVIEWSTYLE
  2
AcDbSectionViewStyle
  3
ObjectDBX Classes
 90
     1025
 91
        1
280
     0
281
     0
  0
CLASS
  1
ACDBDETAILVIEWSTYLE
  2
AcDbDetailViewStyle
  3
ObjectDBX Classes
 90
     1025
 91
        1
280
     0
281
     0
  0
CLASS
  1
DICTIONARYVAR
  2
AcDbDictionaryVar
  3
ObjectDBX Classes
 90
        0
 91
        5
280
     0
281
     0
  0
CLASS
  1
CELLSTYLEMAP
  2
AcDbCellStyleMap
  3
ObjectDBX Classes
 90
     1152
 91
        1
280
     0
281
     0
  0
ENDSEC
  0
SECTION
  2
TABLES
  0
TABLE
  2
VPORT
  5
8
330
0
100
AcDbSymbolTable
 70
     1
  0
VPORT
  5
57
330
8
100
AcDbSymbolTableRecord
100
AcDbViewportTableRecord
  2
*Active
 70
     0
 10
0.0
 20
0.0
 11
1.0
 21
1.0
 12
0.0
 22
0.0
 13
0.0
 23
0.0
 14
1.0
 24
1.0
 15
0.0
 25
0.0
 16
0.0
 26
0.0
 36
1.0
 17
104.9999999737499
 27
31.49999999212523
 37
0.0
 40
302.9399999242649
 41
0.7070707070707066
 42
50.0
 43
0.0
 44
0.0
 50
0.0
 51
0.0
 71
     0
 72
   100
 73
     1
 74
     1
 75
     0
 76
     0
 77
     0
 78
     0
281
     0
 65
     1
110
0.0
120
0.0
130
0.0
111
1.0
121
0.0
131
0.0
112
0.0
122
1.0
132
0.0
 79
     0
146
0.0
 60
     3
 61
     5
292
     1
282
     1
141
0.0
142
0.0
 63
   250
421
  3355443
  0
ENDTAB
  0
TABLE
  2
LTYPE
  5
5
330
0
100
AcDbSymbolTable
 70
     1
  0
LTYPE
  5
5B
330
5
100
AcDbSymbolTableRecord
100
AcDbLinetypeTableRecord
  2
ByBlock
 70
     0
  3

 72
    65
 73
     0
 40
0.0
  0
LTYPE
  5
5C
330
5
100
AcDbSymbolTableRecord
100
AcDbLinetypeTableRecord
  2
ByLayer
 70
     0
  3

 72
    65
 73
     0
 40
0.0
  0
LTYPE
  5
5D
330
5
100
AcDbSymbolTableRecord
100
AcDbLinetypeTableRecord
  2
Continuous
 70
     0
  3
Solid line
 72
    65
 73
     0
 40
0.0
  0
ENDTAB
  0
TABLE
  2
LAYER
  5
2
330
0
100
AcDbSymbolTable
 70
     2
  0
LAYER
  5
54
330
2
100
AcDbSymbolTableRecord
100
AcDbLayerTableRecord
  2
0
 70
     0
 62
     7
  6
Continuous
370
     0
390
F
347
21
348
0
  0
LAYER
  5
158
330
2
100
AcDbSymbolTableRecord
100
AcDbLayerTableRecord
  2
CAPA_BASE
 70
     0
 62
     7
  6
Continuous
370
     0
390
F
347
21
348
0
  0
ENDTAB
  0
TABLE
  2
STYLE
  5
3
330
0
100
AcDbSymbolTable
 70
     2
  0
STYLE
  5
55
330
3
100
AcDbSymbolTableRecord
100
AcDbTextStyleTableRecord
  2
Standard
 70
     0
 40
0.0
 41
1.0
 50
0.0
 71
     0
 42
0.2
  3
txt
  4

  0
STYLE
  5
5A
330
3
100
AcDbSymbolTableRecord
100
AcDbTextStyleTableRecord
  2
Annotative
 70
     0
 40
0.0
 41
1.0
 50
0.0
 71
     0
 42
0.2
  3
txt
  4

1001
AcadAnnotative
1000
AnnotativeData
1002
{
1070
     1
1070
     1
1002
}
  0
ENDTAB
  0
TABLE
  2
VIEW
  5
6
330
0
100
AcDbSymbolTable
 70
     0
  0
ENDTAB
  0
TABLE
  2
UCS
  5
7
330
0
100
AcDbSymbolTable
 70
     0
  0
ENDTAB
  0
TABLE
  2
APPID
  5
9
330
0
100
AcDbSymbolTable
 70
     2
  0
APPID
  5
56
330
9
100
AcDbSymbolTableRecord
100
AcDbRegAppTableRecord
  2
ACAD
 70
     0
  0
APPID
  5
5E
330
9
100
AcDbSymbolTableRecord
100
AcDbRegAppTableRecord
  2
AcadAnnotative
 70
     0
  0
ENDTAB
  0
TABLE
  2
DIMSTYLE
  5
A
330
0
100
AcDbSymbolTable
 70
     2
100
AcDbDimStyleTable
 71
     0
  0
DIMSTYLE
105
58
330
A
100
AcDbSymbolTableRecord
100
AcDbDimStyleTableRecord
  2
Standard
 70
     0
340
55
  0
DIMSTYLE
105
59
330
A
100
AcDbSymbolTableRecord
100
AcDbDimStyleTableRecord
  2
Annotative
 70
     0
340
55
1001
AcadAnnotative
1000
AnnotativeData
1002
{
1070
     1
1070
     1
1002
}
  0
ENDTAB
  0
TABLE
  2
BLOCK_RECORD
  5
1
330
0
100
AcDbSymbolTable
 70
     4
  0
BLOCK_RECORD
  5
70
330
1
100
AcDbSymbolTableRecord
100
AcDbBlockTableRecord
  2
*Model_Space
340
73
 70
     0
280
     1
281
     0
  0
BLOCK_RECORD
  5
6C
330
1
100
AcDbSymbolTableRecord
100
AcDbBlockTableRecord
  2
*Paper_Space
340
6F
 70
     0
280
     1
281
     0
  0
BLOCK_RECORD
  5
74
330
1
100
AcDbSymbolTableRecord
100
AcDbBlockTableRecord
  2
*Paper_Space0
340
77
 70
     0
280
     1
281
     0
  0
BLOCK_RECORD
  5
159
330
1
100
AcDbSymbolTableRecord
100
AcDbBlockTableRecord
  2
Block_0
340
0
102
{BLKREFS
331
15A
102
}
 70
     0
280
     1
281
     0
  0
BLOCK_RECORD
  5
165
330
1
100
AcDbSymbolTableRecord
100
AcDbBlockTableRecord
  2
Block_1
340
0
102
{BLKREFS
331
166
102
}
 70
     0
280
     1
281
     0
  0
BLOCK_RECORD
  5
171
330
1
100
AcDbSymbolTableRecord
100
AcDbBlockTableRecord
  2
Block_2
340
0
102
{BLKREFS
331
172
102
}
 70
     0
280
     1
281
     0
  0
ENDTAB
  0
ENDSEC
  0
SECTION
  2
BLOCKS
  0
BLOCK
  5
71
330
70
100
AcDbEntity
  8
0
100
AcDbBlockBegin
  2
*Model_Space
 70
     0
 10
0.0
 20
0.0
 30
0.0
  3
*Model_Space
  1

  0
ENDBLK
  5
72
330
70
100
AcDbEntity
  8
0
100
AcDbBlockEnd
  0
BLOCK
  5
6D
330
6C
100
AcDbEntity
 67
     1
  8
0
100
AcDbBlockBegin
  2
*Paper_Space
 70
     0
 10
0.0
 20
0.0
 30
0.0
  3
*Paper_Space
  1

  0
ENDBLK
  5
6E
330
6C
100
AcDbEntity
 67
     1
  8
0
100
AcDbBlockEnd
  0
BLOCK
  5
75
330
74
100
AcDbEntity
 67
     1
  8
0
100
AcDbBlockBegin
  2
*Paper_Space0
 70
     0
 10
0.0
 20
0.0
 30
0.0
  3
*Paper_Space0
  1

  0
ENDBLK
  5
76
330
74
100
AcDbEntity
 67
     1
  8
0
100
AcDbBlockEnd
  0
BLOCK
  5
15B
330
159
100
AcDbEntity
  8
0
100
AcDbBlockBegin
  2
Block_0
 70
     0
 10
0.0
 20
0.0
 30
0.0
  3
Block_0
  1

  0
LWPOLYLINE
  5
15D
330
159
100
AcDbEntity
  8
CAPA_BASE
100
AcDbPolyline
 90
        4
 70
     1
 43
0.0
 10
27.41697226063026
 20
31.75333442208347
 10
29.91697226063035
 20
31.4433344220831
 10
29.91697226063035
 20
32.06333442208318
 10
29.91697226063035
 20
32.06333442208318
  0
HATCH
  5
15E
330
159
100
AcDbEntity
  8
CAPA_BASE
 62
    18
420
        0
440
 33554687
100
AcDbHatch
 10
0.0
 20
0.0
 30
0.0
210
0.0
220
0.0
230
1.0
  2
SOLID
 70
     1
 71
     1
 91
        1
 92
        1
 93
        3
 72
     1
 10
27.41697226063026
 20
31.75333442208347
 11
29.91697226063035
 21
31.4433344220831
 72
     1
 10
29.91697226063035
 20
31.4433344220831
 11
29.91697226063035
 21
32.06333442208318
 72
     1
 10
29.91697226063035
 20
32.06333442208318
 11
27.41697226063026
 21
31.75333442208347
 97
        1
330
15D
 75
     2
 76
     1
 98
        1
 10
0.0
 20
0.0
450
        0
451
        0
460
0.0
461
0.0
452
        0
462
0.0
453
        0
470

  0
LWPOLYLINE
  5
15F
330
159
100
AcDbEntity
  8
CAPA_BASE
100
AcDbPolyline
 90
        4
 70
     1
 43
0.0
 10
93.91697226063069
 20
31.75333442208347
 10
91.41697226063028
 20
32.06333442208318
 10
91.41697226063028
 20
31.4433344220831
 10
91.41697226063028
 20
31.4433344220831
  0
HATCH
  5
160
330
159
100
AcDbEntity
  8
CAPA_BASE
 62
    18
420
        0
440
 33554687
100
AcDbHatch
 10
0.0
 20
0.0
 30
0.0
210
0.0
220
0.0
230
1.0
  2
SOLID
 70
     1
 71
     1
 91
        1
 92
        1
 93
        3
 72
     1
 10
93.91697226063069
 20
31.75333442208347
 11
91.41697226063028
 21
32.06333442208318
 72
     1
 10
91.41697226063028
 20
32.06333442208318
 11
91.41697226063028
 21
31.4433344220831
 72
     1
 10
91.41697226063028
 20
31.4433344220831
 11
93.91697226063069
 21
31.75333442208347
 97
        1
330
15F
 75
     2
 76
     1
 98
        1
 10
0.0
 20
0.0
450
        0
451
        0
460
0.0
461
0.0
452
        0
462
0.0
453
        0
470

  0
LINE
  5
161
330
159
100
AcDbEntity
  8
CAPA_BASE
 62
    18
420
        0
370
    25
100
AcDbLine
 10
27.41697226063026
 20
74.08666775538299
 30
0.0
 11
27.41697226063026
 21
30.75333442208278
 31
0.0
  0
LINE
  5
162
330
159
100
AcDbEntity
  8
CAPA_BASE
 62
    18
420
        0
370
    25
100
AcDbLine
 10
93.91697226063069
 20
74.08666775538299
 30
0.0
 11
93.91697226063069
 21
30.75333442208278
 31
0.0
  0
LINE
  5
163
330
159
100
AcDbEntity
  8
CAPA_BASE
 62
    18
420
        0
370
    25
100
AcDbLine
 10
27.41697226063026
 20
31.75333442208347
 30
0.0
 11
93.91697226063069
 21
31.75333442208347
 31
0.0
  0
MTEXT
  5
164
330
159
100
AcDbEntity
  8
CAPA_BASE
100
AcDbMText
 10
58.02114082581319
 20
32.5470820451537
 30
0.0
 40
0.2
 41
0.0
 46
0.0
 71
     7
 72
     1
  1
\C18;\c0;\FArial Bold|b1|i0|c1;\H2.997200;\W0.700000;200
 73
     1
 44
1.0
  0
ENDBLK
  5
15C
330
159
100
AcDbEntity
  8
0
100
AcDbBlockEnd
  0
BLOCK
  5
167
330
165
100
AcDbEntity
  8
0
100
AcDbBlockBegin
  2
Block_1
 70
     0
 10
0.0
 20
0.0
 30
0.0
  3
Block_1
  1

  0
LWPOLYLINE
  5
169
330
165
100
AcDbEntity
  8
CAPA_BASE
100
AcDbPolyline
 90
        4
 70
     1
 43
0.0
 10
137.2467147379302
 20
115.0866677553831
 10
136.9367147379305
 20
112.5866677553831
 10
137.5567147379299
 20
112.5866677553831
 10
137.5567147379299
 20
112.5866677553831
  0
HATCH
  5
16A
330
165
100
AcDbEntity
  8
CAPA_BASE
 62
    18
420
        0
440
 33554687
100
AcDbHatch
 10
0.0
 20
0.0
 30
0.0
210
0.0
220
0.0
230
1.0
  2
SOLID
 70
     1
 71
     1
 91
        1
 92
        1
 93
        3
 72
     1
 10
137.2467147379302
 20
115.0866677553831
 11
136.9367147379305
 21
112.5866677553831
 72
     1
 10
136.9367147379305
 20
112.5866677553831
 11
137.5567147379299
 21
112.5866677553831
 72
     1
 10
137.5567147379299
 20
112.5866677553831
 11
137.2467147379302
 21
115.0866677553831
 97
        1
330
169
 75
     2
 76
     1
 98
        1
 10
0.0
 20
0.0
450
        0
451
        0
460
0.0
461
0.0
452
        0
462
0.0
453
        0
470

  0
LWPOLYLINE
  5
16B
330
165
100
AcDbEntity
  8
CAPA_BASE
100
AcDbPolyline
 90
        4
 70
     1
 43
0.0
 10
137.2467147379302
 20
41.75333442208317
 10
137.5567147379299
 20
44.25333442208294
 10
136.9367147379305
 20
44.25333442208294
 10
136.9367147379305
 20
44.25333442208294
  0
HATCH
  5
16C
330
165
100
AcDbEntity
  8
CAPA_BASE
 62
    18
420
        0
440
 33554687
100
AcDbHatch
 10
0.0
 20
0.0
 30
0.0
210
0.0
220
0.0
230
1.0
  2
SOLID
 70
     1
 71
     1
 91
        1
 92
        1
 93
        3
 72
     1
 10
137.2467147379302
 20
41.75333442208317
 11
137.5567147379299
 21
44.25333442208294
 72
     1
 10
137.5567147379299
 20
44.25333442208294
 11
136.9367147379305
 21
44.25333442208294
 72
     1
 10
136.9367147379305
 20
44.25333442208294
 11
137.2467147379302
 21
41.75333442208317
 97
        1
330
16B
 75
     2
 76
     1
 98
        1
 10
0.0
 20
0.0
450
        0
451
        0
460
0.0
461
0.0
452
        0
462
0.0
453
        0
470

  0
LINE
  5
16D
330
165
100
AcDbEntity
  8
CAPA_BASE
 62
    18
420
        0
370
    25
100
AcDbLine
 10
146.2467147379305
 20
115.0866677553831
 30
0.0
 11
136.2467147379301
 21
115.0866677553831
 31
0.0
  0
LINE
  5
16E
330
165
100
AcDbEntity
  8
CAPA_BASE
 62
    18
420
        0
370
    25
100
AcDbLine
 10
160.8300480712305
 20
41.75333442208317
 30
0.0
 11
136.2467147379301
 21
41.75333442208317
 31
0.0
  0
LINE
  5
16F
330
165
100
AcDbEntity
  8
CAPA_BASE
 62
    18
420
        0
370
    25
100
AcDbLine
 10
137.2467147379302
 20
115.0866677553831
 30
0.0
 11
137.2467147379302
 21
41.75333442208317
 31
0.0
  0
MTEXT
  5
170
330
165
100
AcDbEntity
  8
CAPA_BASE
100
AcDbMText
 10
136.4529624809766
 20
75.77418617897248
 30
0.0
 40
0.2
 41
0.0
 46
0.0
 71
     7
 72
     1
  1
\C18;\c0;\FArial Bold|b1|i0|c1;\H2.997200;\W0.700000;220
 11
0.0000000000000003
 21
1.0
 31
0.0
 73
     1
 44
1.0
  0
ENDBLK
  5
168
330
165
100
AcDbEntity
  8
0
100
AcDbBlockEnd
  0
BLOCK
  5
173
330
171
100
AcDbEntity
  8
0
100
AcDbBlockBegin
  2
Block_2
 70
     0
 10
0.0
 20
0.0
 30
0.0
  3
Block_2
  1

  0
LWPOLYLINE
  5
175
330
171
100
AcDbEntity
  8
CAPA_BASE
100
AcDbPolyline
 90
        4
 70
     1
 43
0.0
 10
103.9169722606304
 20
-5.031469497216902
 10
103.60697226063
 20
-7.53146949721667
 10
104.2269722606301
 20
-7.53146949721667
 10
104.2269722606301
 20
-7.53146949721667
  0
HATCH
  5
176
330
171
100
AcDbEntity
  8
CAPA_BASE
 62
    18
420
        0
440
 33554687
100
AcDbHatch
 10
0.0
 20
0.0
 30
0.0
210
0.0
220
0.0
230
1.0
  2
SOLID
 70
     1
 71
     1
 91
        1
 92
        1
 93
        3
 72
     1
 10
103.9169722606304
 20
-5.031469497216902
 11
103.60697226063
 21
-7.53146949721667
 72
     1
 10
103.60697226063
 20
-7.53146949721667
 11
104.2269722606301
 21
-7.53146949721667
 72
     1
 10
104.2269722606301
 20
-7.53146949721667
 11
103.9169722606304
 21
-5.031469497216902
 97
        1
330
175
 75
     2
 76
     1
 98
        1
 10
0.0
 20
0.0
450
        0
451
        0
460
0.0
461
0.0
452
        0
462
0.0
453
        0
470

  0
LWPOLYLINE
  5
177
330
171
100
AcDbEntity
  8
CAPA_BASE
100
AcDbPolyline
 90
        4
 70
     1
 43
0.0
 10
103.9169722606304
 20
-22.69813616391692
 10
104.2269722606301
 20
-20.19813616391715
 10
103.60697226063
 20
-20.19813616391715
 10
103.60697226063
 20
-20.19813616391715
  0
HATCH
  5
178
330
171
100
AcDbEntity
  8
CAPA_BASE
 62
    18
420
        0
440
 33554687
100
AcDbHatch
 10
0.0
 20
0.0
 30
0.0
210
0.0
220
0.0
230
1.0
  2
SOLID
 70
     1
 71
     1
 91
        1
 92
        1
 93
        3
 72
     1
 10
103.9169722606304
 20
-22.69813616391692
 11
104.2269722606301
 21
-20.19813616391715
 72
     1
 10
104.2269722606301
 20
-20.19813616391715
 11
103.60697226063
 21
-20.19813616391715
 72
     1
 10
103.60697226063
 20
-20.19813616391715
 11
103.9169722606304
 21
-22.69813616391692
 97
        1
330
177
 75
     2
 76
     1
 98
        1
 10
0.0
 20
0.0
450
        0
451
        0
460
0.0
461
0.0
452
        0
462
0.0
453
        0
470

  0
LINE
  5
179
330
171
100
AcDbEntity
  8
CAPA_BASE
 62
    18
420
        0
370
    25
100
AcDbLine
 10
69.91697226062983
 20
-5.031469497216902
 30
0.0
 11
104.9169722606304
 21
-5.031469497216902
 31
0.0
  0
LINE
  5
17A
330
171
100
AcDbEntity
  8
CAPA_BASE
 62
    18
420
        0
370
    25
100
AcDbLine
 10
61.58363892733022
 20
-22.69813616391692
 30
0.0
 11
104.9169722606304
 21
-22.69813616391692
 31
0.0
  0
LINE
  5
17B
330
171
100
AcDbEntity
  8
CAPA_BASE
 62
    18
420
        0
370
    25
100
AcDbLine
 10
103.9169722606304
 20
-5.031469497216902
 30
0.0
 11
103.9169722606304
 21
-22.69813616391692
 31
0.0
  0
MTEXT
  5
17C
330
171
100
AcDbEntity
  8
CAPA_BASE
100
AcDbMText
 10
103.1232220285954
 20
-15.628331159288
 30
0.0
 40
0.2
 41
0.0
 46
0.0
 71
     7
 72
     1
  1
\C18;\c0;\FArial Bold|b1|i0|c1;\H2.997200;\W0.700000;53
 11
0.0000000000000003
 21
1.0
 31
0.0
 73
     1
 44
1.0
  0
ENDBLK
  5
174
330
171
100
AcDbEntity
  8
0
100
AcDbBlockEnd
  0
ENDSEC
  0
SECTION
  2
ENTITIES
  0
SPLINE
  5
78
330
70
100
AcDbEntity
  8
0
 62
    18
420
        0
370
    25
100
AcDbSpline
210
0.0
220
0.0
230
1.0
 70
     8
 71
     3
 72
    17
 73
    13
 74
     0
 42
0.0000000001
 43
0.0000000001
 40
0.0
 40
0.0
 40
0.0
 40
0.0
 40
1.0
 40
1.0
 40
1.0
 40
2.0
 40
2.0
 40
2.0
 40
3.0
 40
3.0
 40
3.0
 40
4.0
 40
4.0
 40
4.0
 40
4.0
 10
58.55864961442808
 20
105.0182467027529
 30
0.0
 10
42.02789502343914
 20
103.8998759866664
 30
0.0
 10
29.53368926387417
 20
89.59243303346985
 30
0.0
 10
30.65205997996032
 20
73.06167844248124
 30
0.0
 10
31.77043069604679
 20
56.53092385149198
 30
0.0
 10
46.07787364924367
 20
44.03671809192669
 30
0.0
 10
62.60862824023229
 20
45.15508880801315
 30
0.0
 10
79.13938283122124
 20
46.27345952409963
 30
0.0
 10
91.63358859078652
 20
60.58090247729619
 30
0.0
 10
90.51521787470006
 20
77.11165706828481
 30
0.0
 10
89.50225228377048
 20
92.08440747377562
 30
0.0
 10
77.58137864572278
 20
104.0052811118233
 30
0.0
 10
62.60862824023261
 20
105.0182467027529
 30
0.0
  0
SPLINE
  5
79
330
70
100
AcDbEntity
  8
0
 62
    18
420
        0
370
    25
100
AcDbSpline
210
0.0
220
0.0
230
1.0
 70
     8
 71
     3
 72
    17
 73
    13
 74
     0
 42
0.0000000001
 43
0.0000000001
 40
0.0
 40
0.0
 40
0.0
 40
0.0
 40
1.0
 40
1.0
 40
1.0
 40
2.0
 40
2.0
 40
2.0
 40
3.0
 40
3.0
 40
3.0
 40
4.0
 40
4.0
 40
4.0
 40
4.0
 10
58.44899093100343
 20
108.3515800360863
 30
0.0
 10
40.07728717391183
 20
107.1726465014582
 30
0.0
 10
26.13979311199873
 20
91.32372351614787
 30
0.0
 10
27.31872664662687
 20
72.95201975905627
 30
0.0
 10
28.497660181255
 20
54.58031600196468
 30
0.0
 10
44.34658316656535
 20
40.64282194005126
 30
0.0
 10
62.71828692365694
 20
41.82175547467971
 30
0.0
 10
81.08999068074853
 20
43.00068900930816
 30
0.0
 10
95.02748474266196
 20
58.8496119946182
 30
0.0
 10
93.84855120803349
 20
77.22131575170978
 30
0.0
 10
92.77509758826159
 20
93.94929177424552
 30
0.0
 10
79.44626294619268
 20
107.2781264163147
 30
0.0
 10
62.71828692365694
 20
108.3515800360863
 30
0.0
  0
LINE
  5
7A
330
70
100
AcDbEntity
  8
0
 62
    18
420
        0
370
    25
100
AcDbLine
 10
52.58350647143015
 20
114.7534668778831
 30
0.0
 11
58.70969588113022
 21
108.6272774681831
 31
0.0
  0
LINE
  5
7B
330
70
100
AcDbEntity
  8
0
 62
    18
420
        0
370
    25
100
AcDbLine
 10
62.45357908853024
 20
108.6232745832829
 30
0.0
 11
68.58377138313009
 21
114.7534668778831
 31
0.0
  0
LINE
  5
7C
330
70
100
AcDbEntity
  8
0
 62
    18
420
        0
370
    25
100
AcDbLine
 10
58.70531398273022
 20
104.8750094774829
 30
0.0
 11
52.58350647143015
 21
98.7532019661832
 31
0.0
  0
SPLINE
  5
7D
330
70
100
AcDbEntity
  8
0
 62
    18
420
        0
370
    25
100
AcDbSpline
210
0.0
220
0.0
230
1.0
 70
     8
 71
     3
 72
     8
 73
     4
 74
     0
 42
0.0000000001
 43
0.0000000001
 40
0.0
 40
0.0
 40
0.0
 40
0.0
 40
1.0
 40
1.0
 40
1.0
 40
1.0
 10
52.56947872935517
 20
98.74619683274154
 30
0.0
 10
52.57488609880024
 20
98.74662456052433
 30
0.0
 10
52.57991581283246
 20
98.74913628462472
 30
0.0
 10
52.58350647141893
 20
98.75320196615271
 30
0.0
  0
LINE
  5
7E
330
70
100
AcDbEntity
  8
0
 62
    18
420
        0
370
    25
100
AcDbLine
 10
52.58350647143015
 20
114.7534668778831
 30
0.0
 11
52.56947590463033
 21
114.753461232583
 31
0.0
  0
LINE
  5
7F
330
70
100
AcDbEntity
  8
0
 62
    18
420
        0
370
    25
100
AcDbLine
 10
62.46672914003028
 20
104.8702442093831
 30
0.0
 11
68.58377138313009
 21
98.7532019661832
 31
0.0
  0
SPLINE
  5
80
330
70
100
AcDbEntity
  8
0
 62
    18
420
        0
370
    25
100
AcDbSpline
210
0.0
220
0.0
230
1.0
 70
     8
 71
     3
 72
     8
 73
     4
 74
     0
 42
0.0000000001
 43
0.0000000001
 40
0.0
 40
0.0
 40
0.0
 40
0.0
 40
1.0
 40
1.0
 40
1.0
 40
1.0
 10
68.59077651660449
 20
98.73917422410627
 30
0.0
 10
68.59035252541211
 20
98.74458263117356
 30
0.0
 10
68.58784013913029
 20
98.7496136712191
 30
0.0
 10
68.58377138319299
 20
98.75320196617037
 30
0.0
  0
LWPOLYLINE
  5
81
330
70
100
AcDbEntity
  8
0
 62
    18
420
        0
370
    25
100
AcDbPolyline
 90
        7
 70
     0
 43
0.0
 10
52.58351211673029
 20
98.73917139938304
 10
53.25017868823013
 20
98.73890681068319
 10
55.91684505693035
 20
98.73795991408318
 10
61.25017841463016
 20
98.73717658998312
 10
63.28164647533018
 20
98.73744421308298
 10
68.58376574533046
 20
98.73917140668302
 10
68.59077651663017
 20
98.73917422408318
  0
LINE
  5
82
330
70
100
AcDbEntity
  8
0
 62
    18
420
        0
370
    25
100
AcDbLine
 10
52.58350647143015
 20
98.7532019661832
 30
0.0
 11
52.58351211673029
 21
98.73917139938304
 31
0.0
  0
SPLINE
  5
83
330
70
100
AcDbEntity
  8
0
 62
    18
420
        0
370
    25
100
AcDbSpline
210
0.0
220
0.0
230
1.0
 70
     8
 71
     3
 72
     8
 73
     4
 74
     0
 42
0.0000000001
 43
0.0000000001
 40
0.0
 40
0.0
 40
0.0
 40
0.0
 40
1.0
 40
1.0
 40
1.0
 40
1.0
 10
68.59779912528402
 20
114.7604720120859
 30
0.0
 10
68.59239102935799
 20
114.7600468992777
 30
0.0
 10
68.58736038748961
 20
114.7575347115507
 30
0.0
 10
68.58377138322058
 20
114.7534668778761
 30
0.0
  0
LINE
  5
84
330
70
100
AcDbEntity
  8
0
 62
    18
420
        0
370
    25
100
AcDbLine
 10
68.58377138313009
 20
98.7532019661832
 30
0.0
 11
68.59780195003036
 21
98.75320761148302
 31
0.0
  0
LINE
  5
85
330
70
100
AcDbEntity
  8
0
 62
    18
420
        0
370
    25
100
AcDbLine
 10
68.91697226063044
 20
114.7533344220832
 30
0.0
 11
68.91697226063044
 21
107.3595004891831
 31
0.0
  0
LINE
  5
86
330
70
100
AcDbEntity
  8
0
 62
    18
420
        0
370
    25
100
AcDbLine
 10
68.91697226063044
 20
103.9028643235828
 30
0.0
 11
68.91697226063044
 21
98.75333442208294
 31
0.0
  0
SPLINE
  5
87
330
70
100
AcDbEntity
  8
0
 62
    18
420
        0
370
    25
100
AcDbSpline
210
0.0
220
0.0
230
1.0
 70
     8
 71
     3
 72
     8
 73
     4
 74
     0
 42
0.0000000001
 43
0.0000000001
 40
0.0
 40
0.0
 40
0.0
 40
0.0
 40
1.0
 40
1.0
 40
1.0
 40
1.0
 10
68.59780194988342
 20
98.75320761145445
 30
0.0
 10
68.70419207019015
 20
98.75316762432309
 30
0.0
 10
68.81058220550044
 20
98.75320989451921
 30
0.0
 10
68.91697226044435
 20
98.75333442200561
 30
0.0
  0
SPLINE
  5
88
330
70
100
AcDbEntity
  8
0
 62
    18
420
        0
370
    25
100
AcDbSpline
210
0.0
220
0.0
230
1.0
 70
     8
 71
     3
 72
     8
 73
     4
 74
     0
 42
0.0000000001
 43
0.0000000001
 40
0.0
 40
0.0
 40
0.0
 40
0.0
 40
1.0
 40
1.0
 40
1.0
 40
1.0
 10
68.9169722606144
 20
114.7533344220655
 30
0.0
 10
68.81080412438449
 20
114.7617932242859
 30
0.0
 10
68.70423926181043
 20
114.7641763080175
 30
0.0
 10
68.59779912521921
 20
114.7604720121506
 30
0.0
  0
SPLINE
  5
89
330
70
100
AcDbEntity
  8
0
 62
    18
420
        0
370
    25
100
AcDbSpline
210
0.0
220
0.0
230
1.0
 70
     8
 71
     3
 72
     8
 73
     4
 74
     0
 42
0.0000000001
 43
0.0000000001
 40
0.0
 40
0.0
 40
0.0
 40
0.0
 40
1.0
 40
1.0
 40
1.0
 40
1.0
 10
68.91697226067279
 20
114.7533344220238
 30
0.0
 10
68.80650234251895
 20
114.767452691862
 30
0.0
 10
68.69503524738938
 20
114.772190625367
 30
0.0
 10
68.58376574411765
 20
114.7674974386253
 30
0.0
  0
LINE
  5
8A
330
70
100
AcDbEntity
  8
0
 62
    18
420
        0
370
    25
100
AcDbLine
 10
68.58377138313009
 20
114.7534668778831
 30
0.0
 11
68.58376574413049
 21
114.7674974386831
 31
0.0
  0
SPLINE
  5
8B
330
70
100
AcDbEntity
  8
0
 62
    18
420
        0
370
    25
100
AcDbSpline
210
0.0
220
0.0
230
1.0
 70
     8
 71
     3
 72
     8
 73
     4
 74
     0
 42
0.0000000001
 43
0.0000000001
 40
0.0
 40
0.0
 40
0.0
 40
0.0
 40
1.0
 40
1.0
 40
1.0
 40
1.0
 10
52.25030559398982
 20
98.75333442575827
 30
0.0
 10
52.35647372999578
 20
98.74487561926416
 30
0.0
 10
52.46303859275914
 20
98.74249253454598
 30
0.0
 10
52.56947872938661
 20
98.74619683273062
 30
0.0
  0
LINE
  5
8C
330
70
100
AcDbEntity
  8
0
 62
    18
420
        0
370
    25
100
AcDbLine
 10
52.25030559393014
 20
98.75333442208294
 30
0.0
 11
52.25030559393014
 21
103.883165170283
 31
0.0
  0
LINE
  5
8D
330
70
100
AcDbEntity
  8
0
 62
    18
420
        0
370
    25
100
AcDbLine
 10
52.25030559393014
 20
107.311245365083
 30
0.0
 11
52.25030559393014
 21
114.7533344220832
 31
0.0
  0
SPLINE
  5
8E
330
70
100
AcDbEntity
  8
0
 62
    18
420
        0
370
    25
100
AcDbSpline
210
0.0
220
0.0
230
1.0
 70
     8
 71
     3
 72
     8
 73
     4
 74
     0
 42
0.0000000001
 43
0.0000000001
 40
0.0
 40
0.0
 40
0.0
 40
0.0
 40
1.0
 40
1.0
 40
1.0
 40
1.0
 10
52.56947590466305
 20
114.7534612325945
 30
0.0
 10
52.46308578425365
 20
114.7535012197262
 30
0.0
 10
52.35669564884613
 20
114.7534589495295
 30
0.0
 10
52.25030559380051
 20
114.753334422043
 30
0.0
  0
SPLINE
  5
8F
330
70
100
AcDbEntity
  8
0
 62
    18
420
        0
370
    25
100
AcDbSpline
210
0.0
220
0.0
230
1.0
 70
     8
 71
     3
 72
     8
 73
     4
 74
     0
 42
0.0000000001
 43
0.0000000001
 40
0.0
 40
0.0
 40
0.0
 40
0.0
 40
1.0
 40
1.0
 40
1.0
 40
1.0
 10
52.25030559393848
 20
98.75333442209129
 30
0.0
 10
52.36077551365743
 20
98.73921614610335
 30
0.0
 10
52.47224261120557
 20
98.73447821054462
 30
0.0
 10
52.58351211672291
 20
98.73917139939267
 30
0.0
  0
LINE
  5
90
330
70
100
AcDbEntity
  8
0
 62
    18
420
        0
370
    25
100
AcDbLine
 10
68.58363892732983
 20
98.42000108868319
 30
0.0
 11
52.58363892733022
 21
98.42000108868319
 31
0.0
  0
SPLINE
  5
91
330
70
100
AcDbEntity
  8
0
 62
    18
420
        0
370
    25
100
AcDbSpline
210
0.0
220
0.0
230
1.0
 70
     8
 71
     3
 72
     8
 73
     4
 74
     0
 42
0.0000000001
 43
0.0000000001
 40
0.0
 40
0.0
 40
0.0
 40
0.0
 40
1.0
 40
1.0
 40
1.0
 40
1.0
 10
52.58351211678933
 20
98.73917139942571
 30
0.0
 10
52.58347212965795
 20
98.63278127912444
 30
0.0
 10
52.58351439985441
 20
98.52639114382023
 30
0.0
 10
52.58363892734049
 20
98.42000108888274
 30
0.0
  0
SPLINE
  5
92
330
70
100
AcDbEntity
  8
0
 62
    18
420
        0
370
    25
100
AcDbSpline
210
0.0
220
0.0
230
1.0
 70
     8
 71
     3
 72
     8
 73
     4
 74
     0
 42
0.0000000001
 43
0.0000000001
 40
0.0
 40
0.0
 40
0.0
 40
0.0
 40
1.0
 40
1.0
 40
1.0
 40
1.0
 10
68.58363892725603
 20
98.42000108876083
 30
0.0
 10
68.59209772607669
 20
98.52616922516464
 30
0.0
 10
68.59448080953811
 20
98.63273408755903
 30
0.0
 10
68.5907765165429
 20
98.73917422415409
 30
0.0
  0
SPLINE
  5
93
330
70
100
AcDbEntity
  8
0
 62
    18
420
        0
370
    25
100
AcDbSpline
210
0.0
220
0.0
230
1.0
 70
     8
 71
     3
 72
     8
 73
     4
 74
     0
 42
0.0000000001
 43
0.0000000001
 40
0.0
 40
0.0
 40
0.0
 40
0.0
 40
1.0
 40
1.0
 40
1.0
 40
1.0
 10
68.58363892731699
 20
98.42000108869184
 30
0.0
 10
68.59775720330524
 20
98.53047100841079
 30
0.0
 10
68.60249513886365
 20
98.6419381059586
 30
0.0
 10
68.59780195001625
 20
98.75320761147563
 30
0.0
  0
LWPOLYLINE
  5
94
330
70
100
AcDbEntity
  8
0
 62
    18
420
        0
370
    25
100
AcDbPolyline
 90
        6
 70
     0
 43
0.0
 10
60.58363892733019
 20
114.7695086535829
 10
59.91697226063013
 20
114.7694902332831
 10
57.25030562623024
 20
114.769081151083
 10
54.9169088272303
 20
114.768381958283
 10
52.58351211053019
 20
114.7674974386831
 10
52.57650133783031
 20
114.7674946205831
  0
SPLINE
  5
95
330
70
100
AcDbEntity
  8
0
 62
    18
420
        0
370
    25
100
AcDbSpline
210
0.0
220
0.0
230
1.0
 70
     8
 71
     3
 72
     8
 73
     4
 74
     0
 42
0.0000000001
 43
0.0000000001
 40
0.0
 40
0.0
 40
0.0
 40
0.0
 40
1.0
 40
1.0
 40
1.0
 40
1.0
 10
52.58363892728755
 20
115.0866677553806
 30
0.0
 10
52.57610667421329
 20
114.980454409165
 30
0.0
 10
52.57372468547631
 20
114.8739385023067
 30
0.0
 10
52.57650133784507
 20
114.7674946206024
 30
0.0
  0
LINE
  5
96
330
70
100
AcDbEntity
  8
0
 62
    18
420
        0
370
    25
100
AcDbLine
 10
52.58363892733022
 20
115.0866677553831
 30
0.0
 11
60.58363892733019
 21
115.0866677553831
 31
0.0
  0
LINE
  5
97
330
70
100
AcDbEntity
  8
0
 62
    18
420
        0
370
    25
100
AcDbLine
 10
60.58363892733019
 20
114.7695086535829
 30
0.0
 11
60.58363892733019
 21
115.0866677553831
 31
0.0
  0
SPLINE
  5
98
330
70
100
AcDbEntity
  8
0
 62
    18
420
        0
370
    25
100
AcDbSpline
210
0.0
220
0.0
230
1.0
 70
     8
 71
     3
 72
     8
 73
     4
 74
     0
 42
0.0000000001
 43
0.0000000001
 40
0.0
 40
0.0
 40
0.0
 40
0.0
 40
1.0
 40
1.0
 40
1.0
 40
1.0
 10
52.58363892729621
 20
115.0866677554017
 30
0.0
 10
52.5695206513009
 20
114.976197835685
 30
0.0
 10
52.56478271574216
 20
114.8647307381379
 30
0.0
 10
52.56947590459792
 20
114.7534612326224
 30
0.0
  0
SPLINE
  5
99
330
70
100
AcDbEntity
  8
0
 62
    18
420
        0
370
    25
100
AcDbSpline
210
0.0
220
0.0
230
1.0
 70
     8
 71
     3
 72
     8
 73
     4
 74
     0
 42
0.0000000001
 43
0.0000000001
 40
0.0
 40
0.0
 40
0.0
 40
0.0
 40
1.0
 40
1.0
 40
1.0
 40
1.0
 10
52.57650133780881
 20
114.7674946206508
 30
0.0
 10
52.57692645026407
 20
114.762086524591
 30
0.0
 10
52.57943863777255
 20
114.7570558824772
 30
0.0
 10
52.58350647137657
 20
114.7534668779688
 30
0.0
  0
LINE
  5
9A
330
70
100
AcDbEntity
  8
0
 62
    18
420
        0
370
    25
100
AcDbLine
 10
60.58363892733019
 20
114.7534668778831
 30
0.0
 11
60.58363892733019
 21
114.7695086535829
 31
0.0
  0
LINE
  5
9B
330
70
100
AcDbEntity
  8
0
 62
    18
420
        0
370
    25
100
AcDbLine
 10
60.58363892733019
 20
114.7534668778831
 30
0.0
 11
52.58350647143015
 21
114.7534668778831
 31
0.0
  0
LWPOLYLINE
  5
9C
330
70
100
AcDbEntity
  8
0
 62
    18
420
        0
370
    25
100
AcDbPolyline
 90
        5
 70
     0
 43
0.0
 10
68.58376574413049
 20
114.7674974386831
 10
67.91709917273045
 20
114.7677620651831
 10
65.25043280573007
 20
114.768711627683
 10
62.91703596653026
 20
114.7692922995832
 10
60.58363892733019
 20
114.7695086535829
  0
LINE
  5
9D
330
70
100
AcDbEntity
  8
0
 62
    18
420
        0
370
    25
100
AcDbLine
 10
68.58377138313009
 20
114.7534668778831
 30
0.0
 11
60.58363892733019
 21
114.7534668778831
 31
0.0
  0
LINE
  5
9E
330
70
100
AcDbEntity
  8
0
 62
    18
420
        0
370
    25
100
AcDbLine
 10
60.58363892733019
 20
115.0866677553831
 30
0.0
 11
68.58363892732983
 21
115.0866677553831
 31
0.0
  0
SPLINE
  5
9F
330
70
100
AcDbEntity
  8
0
 62
    18
420
        0
370
    25
100
AcDbSpline
210
0.0
220
0.0
230
1.0
 70
     8
 71
     3
 72
     8
 73
     4
 74
     0
 42
0.0000000001
 43
0.0000000001
 40
0.0
 40
0.0
 40
0.0
 40
0.0
 40
1.0
 40
1.0
 40
1.0
 40
1.0
 10
68.58376574409456
 20
114.7674974387171
 30
0.0
 10
68.58380573319113
 20
114.8738875611225
 30
0.0
 10
68.58376346091782
 20
114.9802776985321
 30
0.0
 10
68.58363892731315
 20
115.0866677555673
 30
0.0
  0
SPLINE
  5
A0
330
70
100
AcDbEntity
  8
0
 62
    18
420
        0
370
    25
100
AcDbSpline
210
0.0
220
0.0
230
1.0
 70
     8
 71
     3
 72
     8
 73
     4
 74
     0
 42
0.0000000001
 43
0.0000000001
 40
0.0
 40
0.0
 40
0.0
 40
0.0
 40
1.0
 40
1.0
 40
1.0
 40
1.0
 10
68.91697226066381
 20
114.7533344221621
 30
0.0
 10
68.91697226062017
 20
114.9374293387414
 30
0.0
 10
68.76773384390976
 20
115.0866677554165
 30
0.0
 10
68.58363892732983
 20
115.0866677554165
 30
0.0
  0
SPLINE
  5
A1
330
70
100
AcDbEntity
  8
0
 62
    18
420
        0
370
    25
100
AcDbSpline
210
0.0
220
0.0
230
1.0
 70
     8
 71
     3
 72
    11
 73
     7
 74
     0
 42
0.0000000001
 43
0.0000000001
 40
0.0
 40
0.0
 40
0.0
 40
0.0
 40
1.0
 40
1.0
 40
1.0
 40
2.0
 40
2.0
 40
2.0
 40
2.0
 10
52.25030559399687
 20
98.7533344225562
 30
0.0
 10
52.2503055937357
 20
98.56923950594577
 30
0.0
 10
52.39954401024686
 20
98.42000108901109
 30
0.0
 10
52.58363892685729
 20
98.42000108874959
 30
0.0
 10
52.58363892709375
 20
98.42000108874959
 30
0.0
 10
52.58363892709375
 20
98.42000108874959
 30
0.0
 10
52.58363892733022
 20
98.42000108874959
 30
0.0
  0
SPLINE
  5
A2
330
70
100
AcDbEntity
  8
0
 62
    18
420
        0
370
    25
100
AcDbSpline
210
0.0
220
0.0
230
1.0
 70
     8
 71
     3
 72
     8
 73
     4
 74
     0
 42
0.0000000001
 43
0.0000000001
 40
0.0
 40
0.0
 40
0.0
 40
0.0
 40
1.0
 40
1.0
 40
1.0
 40
1.0
 10
52.58363892733022
 20
115.0866677554165
 30
0.0
 10
52.39954401072012
 20
115.0866677554165
 30
0.0
 10
52.25030559399687
 20
114.9374293386933
 30
0.0
 10
52.25030559399687
 20
114.7533344220832
 30
0.0
  0
SPLINE
  5
A3
330
70
100
AcDbEntity
  8
0
 62
    18
420
        0
370
    25
100
AcDbSpline
210
0.0
220
0.0
230
1.0
 70
     8
 71
     3
 72
     8
 73
     4
 74
     0
 42
0.0000000001
 43
0.0000000001
 40
0.0
 40
0.0
 40
0.0
 40
0.0
 40
1.0
 40
1.0
 40
1.0
 40
1.0
 10
68.58363892732983
 20
98.42000108874959
 30
0.0
 10
68.76773384394057
 20
98.42000108874959
 30
0.0
 10
68.91697226066381
 20
98.56923950547283
 30
0.0
 10
68.91697226066381
 20
98.75333442208294
 30
0.0
  0
CIRCLE
  5
A4
330
70
100
AcDbEntity
  8
0
 62
    18
420
        0
370
    25
100
AcDbCircle
 10
60.58363892733019
 20
106.753334422083
 30
0.0
 40
2.539062500000054
  0
CIRCLE
  5
A5
330
70
100
AcDbEntity
  8
0
 62
    18
420
        0
370
    25
100
AcDbCircle
 10
60.58363892733019
 20
106.753334422083
 30
0.0
 40
2.66666666666672
  0
LWPOLYLINE
  5
A6
330
70
100
AcDbEntity
  8
0
 62
     8
420
  8421504
370
    25
100
AcDbPolyline
 90
        4
 70
     0
 43
0.0
 10
52.56947590463033
 20
114.753461232583
 10
52.56921131603026
 20
114.0867946610832
 10
52.56826441933014
 20
111.4201282923829
 10
52.5676724934303
 20
107.389947002683
  0
LWPOLYLINE
  5
A7
330
70
100
AcDbEntity
  8
0
 62
     8
420
  8421504
370
    25
100
AcDbPolyline
 90
        3
 70
     0
 43
0.0
 10
52.56777969243028
 20
103.9602430654829
 10
52.56947591193029
 20
98.75320760398317
 10
52.56947872933015
 20
98.74619683278291
  0
LWPOLYLINE
  5
A8
330
70
100
AcDbEntity
  8
0
 62
     8
420
  8421504
370
    25
100
AcDbPolyline
 90
        4
 70
     0
 43
0.0
 10
68.59780195003036
 20
98.75320761148302
 10
68.59806653863043
 20
99.41987418298317
 10
68.59901343522979
 20
102.086540551683
 10
68.59929090062994
 20
103.9756886037831
  0
LWPOLYLINE
  5
A9
330
70
100
AcDbEntity
  8
0
 62
     8
420
  8421504
370
    25
100
AcDbPolyline
 90
        4
 70
     0
 43
0.0
 10
68.59979585633
 20
107.4267281762828
 10
68.59952913623032
 20
109.4513419700829
 10
68.59780194263028
 20
114.7534612400832
 10
68.59779912523013
 20
114.7604720121831
  0
LWPOLYLINE
  5
AA
330
70
100
AcDbEntity
  8
0
 62
    18
420
        0
370
    25
100
AcDbPolyline
 90
        7
 70
     0
 43
0.0
 10
149.2484759104304
 20
105.2940896997832
 10
149.2485476568299
 20
105.828982464383
 10
149.24860324363
 20
106.5531763299831
 10
149.2486038008301
 20
106.9698891744829
 10
149.2485787636305
 20
107.4030112093831
 10
149.2485317076301
 20
107.8271406002831
 10
149.2485145447302
 20
107.9456995828831
  0
LWPOLYLINE
  5
AB
330
70
100
AcDbEntity
  8
0
 62
    18
420
        0
370
    25
100
AcDbPolyline
 90
        3
 70
     0
 43
0.0
 10
149.0745560771301
 20
98.73729764358301
 10
149.2017550336302
 20
101.998224534883
 10
149.2486968950301
 20
104.5017585395831
  0
LWPOLYLINE
  5
AC
330
70
100
AcDbEntity
  8
0
 62
    18
420
        0
370
    25
100
AcDbPolyline
 90
        5
 70
     0
 43
0.0
 10
149.2486973097301
 20
104.502551258083
 10
149.2486852940304
 20
104.604827938283
 10
149.2486191519299
 20
104.7854763520829
 10
149.2485336243305
 20
105.029384975883
 10
149.24845734083
 20
105.3235624806829
  0
SPLINE
  5
AD
330
70
100
AcDbEntity
  8
0
 62
    18
420
        0
370
    25
100
AcDbSpline
210
0.0
220
0.0
230
1.0
 70
     8
 71
     3
 72
     8
 73
     4
 74
     0
 42
0.0000000001
 43
0.0000000001
 40
0.0
 40
0.0
 40
0.0
 40
0.0
 40
1.0
 40
1.0
 40
1.0
 40
1.0
 10
148.7423469187531
 20
98.42000108890232
 30
0.0
 10
148.9202173418712
 20
98.41999570488342
 30
0.0
 10
149.066755966646
 20
98.55964829833146
 30
0.0
 10
149.0753050975444
 20
98.73731315082103
 30
0.0
  0
LINE
  5
AE
330
70
100
AcDbEntity
  8
0
 62
    18
420
        0
370
    25
100
AcDbLine
 10
149.2484127784303
 20
108.126770130783
 30
0.0
 11
149.2484159086299
 21
108.1349566778831
 31
0.0
  0
LINE
  5
AF
330
70
100
AcDbEntity
  8
0
 62
    18
420
        0
370
    25
100
AcDbLine
 10
149.24671473793
 20
104.0866677553831
 30
0.0
 11
160.1633814045305
 21
104.0866677553831
 31
0.0
  0
LINE
  5
B0
330
70
100
AcDbEntity
  8
0
 62
    18
420
        0
370
    25
100
AcDbLine
 10
163.49671473793
 20
104.0866677553831
 30
0.0
 11
164.4496082247299
 21
104.0866677553831
 31
0.0
  0
LINE
  5
B1
330
70
100
AcDbEntity
  8
0
 62
    18
420
        0
370
    25
100
AcDbLine
 10
164.4496082247299
 20
109.4200010886829
 30
0.0
 11
149.24671473793
 21
109.4200010886829
 31
0.0
  0
SPLINE
  5
B2
330
70
100
AcDbEntity
  8
0
 62
    18
420
        0
370
    25
100
AcDbSpline
210
0.0
220
0.0
230
1.0
 70
     8
 71
     3
 72
     8
 73
     4
 74
     0
 42
0.0000000001
 43
0.0000000001
 40
0.0
 40
0.0
 40
0.0
 40
0.0
 40
1.0
 40
1.0
 40
1.0
 40
1.0
 10
164.4496082247299
 20
104.0866677554164
 30
0.0
 10
164.5266086717673
 20
104.0866677554164
 30
0.0
 10
164.5935856223546
 20
104.1394162251394
 30
0.0
 10
164.6116326021294
 20
104.2142719220831
 30
0.0
  0
SPLINE
  5
B3
330
70
100
AcDbEntity
  8
0
 62
    18
420
        0
370
    25
100
AcDbSpline
210
0.0
220
0.0
230
1.0
 70
     8
 71
     3
 72
     8
 73
     4
 74
     0
 42
0.0000000001
 43
0.0000000001
 40
0.0
 40
0.0
 40
0.0
 40
0.0
 40
1.0
 40
1.0
 40
1.0
 40
1.0
 10
164.6116326021294
 20
109.292396922083
 30
0.0
 10
164.5935856223546
 20
109.3672526190267
 30
0.0
 10
164.5266086717673
 20
109.4200010887496
 30
0.0
 10
164.4496082247299
 20
109.4200010887496
 30
0.0
  0
SPLINE
  5
B4
330
70
100
AcDbEntity
  8
0
 62
    18
420
        0
370
    25
100
AcDbSpline
210
0.0
220
0.0
230
1.0
 70
     8
 71
     3
 72
     8
 73
     4
 74
     0
 42
0.0000000001
 43
0.0000000001
 40
0.0
 40
0.0
 40
0.0
 40
0.0
 40
1.0
 40
1.0
 40
1.0
 40
1.0
 10
164.6116326021628
 20
104.2142719220793
 30
0.0
 10
164.8120931477384
 20
105.0457469963794
 30
0.0
 10
164.9133814045638
 20
105.8980360942963
 30
0.0
 10
164.9133814045638
 20
106.7533344220829
 30
0.0
  0
SPLINE
  5
B5
330
70
100
AcDbEntity
  8
0
 62
    18
420
        0
370
    25
100
AcDbSpline
210
0.0
220
0.0
230
1.0
 70
     8
 71
     3
 72
     8
 73
     4
 74
     0
 42
0.0000000001
 43
0.0000000001
 40
0.0
 40
0.0
 40
0.0
 40
0.0
 40
1.0
 40
1.0
 40
1.0
 40
1.0
 10
164.9133814045638
 20
106.7533344220829
 30
0.0
 10
164.9133814045638
 20
107.6086327498698
 30
0.0
 10
164.8120931477384
 20
108.4609218477867
 30
0.0
 10
164.6116326021628
 20
109.2923969220868
 30
0.0
  0
LINE
  5
B6
330
70
100
AcDbEntity
  8
0
 62
    18
420
        0
370
    25
100
AcDbLine
 10
149.24671473793
 20
108.8033344220831
 30
0.0
 11
149.2398435494301
 21
108.8033344220831
 31
0.0
  0
SPLINE
  5
B7
330
70
100
AcDbEntity
  8
0
 62
    18
420
        0
370
    25
100
AcDbSpline
210
0.0
220
0.0
230
1.0
 70
     8
 71
     3
 72
    11
 73
     7
 74
     0
 42
0.0000000001
 43
0.0000000001
 40
0.0
 40
0.0
 40
0.0
 40
0.0
 40
1.0
 40
1.0
 40
1.0
 40
2.0
 40
2.0
 40
2.0
 40
2.0
 10
160.1633814045638
 20
43.42000108868315
 30
0.0
 10
160.1633814045638
 20
42.49952650563135
 30
0.0
 10
160.9095734881787
 20
41.75333442201643
 30
0.0
 10
161.8300480712305
 20
41.75333442201643
 30
0.0
 10
162.7505226542817
 20
41.75333442201643
 30
0.0
 10
163.4967147378966
 20
42.49952650563135
 30
0.0
 10
163.4967147378966
 20
43.42000108868315
 30
0.0
  0
LINE
  5
B8
330
70
100
AcDbEntity
  8
0
 62
    18
420
        0
370
    25
100
AcDbLine
 10
163.49671473793
 20
43.42000108868315
 30
0.0
 11
163.49671473793
 21
106.7462953839829
 31
0.0
  0
LINE
  5
B9
330
70
100
AcDbEntity
  8
0
 62
    18
420
        0
370
    25
100
AcDbLine
 10
160.1633814045305
 20
106.7462874935831
 30
0.0
 11
160.1633814045305
 21
43.42000108868315
 31
0.0
  0
LWPOLYLINE
  5
BA
330
70
100
AcDbEntity
  8
0
 62
    18
420
        0
370
    25
100
AcDbPolyline
 90
        5
 70
     0
 43
0.0
 10
149.0741134725305
 20
98.7532019661832
 10
149.0741126247299
 20
98.75318198418302
 10
149.0738152268299
 20
98.74617668438311
 10
149.0736663984303
 20
98.74267404008312
 10
149.0735174837305
 20
98.73917139938304
  0
LINE
  5
BB
330
70
100
AcDbEntity
  8
0
 62
    18
420
        0
370
    25
100
AcDbLine
 10
148.7404851974304
 20
98.75333442208294
 30
0.0
 11
149.0735174837305
 21
98.73917139938304
 31
0.0
  0
LWPOLYLINE
  5
BC
330
70
100
AcDbEntity
  8
0
 62
    18
420
        0
370
    25
100
AcDbPolyline
 90
        7
 70
     0
 43
0.0
 10
149.0735149340305
 20
98.74619683278291
 10
149.0500613169302
 20
98.74669922938304
 10
148.99172056873
 20
98.74794911458293
 10
148.9050634060303
 20
98.74980611138294
 10
148.7998410103302
 20
98.75206169348301
 10
148.7507564506301
 20
98.75311416658291
 10
148.7404851974304
 20
98.75333442578298
  0
SPLINE
  5
BD
330
70
100
AcDbEntity
  8
0
 62
    18
420
        0
370
    25
100
AcDbSpline
210
0.0
220
0.0
230
1.0
 70
     8
 71
     3
 72
     8
 73
     4
 74
     0
 42
0.0000000001
 43
0.0000000001
 40
0.0
 40
0.0
 40
0.0
 40
0.0
 40
1.0
 40
1.0
 40
1.0
 40
1.0
 10
149.0735149340164
 20
98.74619683276238
 30
0.0
 10
149.073921096303
 20
98.74850959756866
 30
0.0
 10
149.0741213934215
 20
98.75085382092468
 30
0.0
 10
149.0741134725613
 20
98.75320196617389
 30
0.0
  0
LWPOLYLINE
  5
BE
330
70
100
AcDbEntity
  8
0
 62
    18
420
        0
370
    25
100
AcDbPolyline
 90
        7
 70
     0
 43
0.0
 10
149.0735174837305
 20
114.753461232583
 10
149.0737560004304
 20
114.0867946610832
 10
149.07459894283
 20
111.4201282923829
 10
149.0752821790303
 20
106.0867949347829
 10
149.07505058463
 20
104.0553268739831
 10
149.0735174842304
 20
98.75320760398317
 10
149.0735149340305
 20
98.74619683278291
  0
LWPOLYLINE
  5
BF
330
70
100
AcDbEntity
  8
0
 62
    18
420
        0
370
    25
100
AcDbPolyline
 90
        4
 70
     0
 43
0.0
 10
148.7404851974304
 20
98.75333442208294
 10
148.7420962205302
 20
104.0553889352829
 10
148.7421097330301
 20
109.3574431584831
 10
148.7404851973303
 20
114.7533344220832
  0
LINE
  5
C0
330
70
100
AcDbEntity
  8
0
 62
    18
420
        0
370
    25
100
AcDbLine
 10
149.0735174837305
 20
114.753461232583
 30
0.0
 11
148.7404851973303
 21
114.7533344220832
 31
0.0
  0
LINE
  5
C1
330
70
100
AcDbEntity
  8
0
 62
    18
420
        0
370
    25
100
AcDbLine
 10
147.2467147379299
 20
98.42000108868319
 30
0.0
 11
147.2467147379299
 21
98.75333442208294
 31
0.0
  0
LINE
  5
C2
330
70
100
AcDbEntity
  8
0
 62
    18
420
        0
370
    25
100
AcDbLine
 10
147.2467147379299
 20
98.75333442208294
 30
0.0
 11
148.7404851974304
 21
98.75333442208294
 31
0.0
  0
LINE
  5
C3
330
70
100
AcDbEntity
  8
0
 62
    18
420
        0
370
    25
100
AcDbLine
 10
148.7404851973303
 20
98.42000108868319
 30
0.0
 11
148.7404851974304
 21
98.75333442208294
 31
0.0
  0
LINE
  5
C4
330
70
100
AcDbEntity
  8
0
 62
    18
420
        0
370
    25
100
AcDbLine
 10
148.7404851973303
 20
98.42000108868319
 30
0.0
 11
147.2467147379299
 21
98.42000108868319
 31
0.0
  0
LINE
  5
C5
330
70
100
AcDbEntity
  8
0
 62
    18
420
        0
370
    25
100
AcDbLine
 10
148.7404851973303
 20
114.7533344220832
 30
0.0
 11
147.2467147379299
 21
114.7533344220832
 31
0.0
  0
LINE
  5
C6
330
70
100
AcDbEntity
  8
0
 62
    18
420
        0
370
    25
100
AcDbLine
 10
147.2467147379299
 20
114.7533344220832
 30
0.0
 11
147.2467147379299
 21
98.75333442208294
 31
0.0
  0
LINE
  5
C7
330
70
100
AcDbEntity
  8
0
 62
    18
420
        0
370
    25
100
AcDbLine
 10
147.2467147379299
 20
115.0866677553831
 30
0.0
 11
148.7404851974304
 21
115.0866677553831
 31
0.0
  0
LINE
  5
C8
330
70
100
AcDbEntity
  8
0
 62
    18
420
        0
370
    25
100
AcDbLine
 10
148.7404851973303
 20
114.7533344220832
 30
0.0
 11
148.7404851974304
 21
115.0866677553831
 31
0.0
  0
LINE
  5
C9
330
70
100
AcDbEntity
  8
0
 62
    18
420
        0
370
    25
100
AcDbLine
 10
147.2467147379299
 20
114.7533344220832
 30
0.0
 11
147.2467147379299
 21
115.0866677553831
 31
0.0
  0
SPLINE
  5
CA
330
70
100
AcDbEntity
  8
0
 62
    18
420
        0
370
    25
100
AcDbSpline
210
0.0
220
0.0
230
1.0
 70
     8
 71
     3
 72
     8
 73
     4
 74
     0
 42
0.0000000001
 43
0.0000000001
 40
0.0
 40
0.0
 40
0.0
 40
0.0
 40
1.0
 40
1.0
 40
1.0
 40
1.0
 10
148.7404851973258
 20
98.42000108875119
 30
0.0
 10
148.9190714747139
 20
98.42000109485631
 30
0.0
 10
149.0659295260986
 20
98.56074639729893
 30
0.0
 10
149.0735174837761
 20
98.73917139938626
 30
0.0
  0
SPLINE
  5
CB
330
70
100
AcDbEntity
  8
0
 62
    18
420
        0
370
    25
100
AcDbSpline
210
0.0
220
0.0
230
1.0
 70
     8
 71
     3
 72
     8
 73
     4
 74
     0
 42
0.0000000001
 43
0.0000000001
 40
0.0
 40
0.0
 40
0.0
 40
0.0
 40
1.0
 40
1.0
 40
1.0
 40
1.0
 10
149.073517483794
 20
114.7534612326212
 30
0.0
 10
149.0735306063944
 20
114.9374235144563
 30
0.0
 10
148.9244474610108
 20
115.0865846574427
 30
0.0
 10
148.7404851974759
 20
115.086667755403
 30
0.0
  0
SPLINE
  5
CC
330
70
100
AcDbEntity
  8
0
 62
    18
420
        0
370
    25
100
AcDbSpline
210
0.0
220
0.0
230
1.0
 70
     8
 71
     3
 72
     8
 73
     4
 74
     0
 42
0.0000000001
 43
0.0000000001
 40
0.0
 40
0.0
 40
0.0
 40
0.0
 40
1.0
 40
1.0
 40
1.0
 40
1.0
 10
149.0741134725735
 20
98.75320196614694
 30
0.0
 10
149.1633551568633
 20
100.7946705028638
 30
0.0
 10
149.2208958463326
 20
102.8374015631006
 30
0.0
 10
149.2467147379312
 20
104.8806566253618
 30
0.0
  0
LINE
  5
CD
330
70
100
AcDbEntity
  8
0
 62
    18
420
        0
370
    25
100
AcDbLine
 10
149.0741134725305
 20
114.7534668778831
 30
0.0
 11
149.0735174837305
 21
114.753461232583
 31
0.0
  0
SPLINE
  5
CE
330
70
100
AcDbEntity
  8
0
 62
    18
420
        0
370
    25
100
AcDbSpline
210
0.0
220
0.0
230
1.0
 70
     8
 71
     3
 72
     8
 73
     4
 74
     0
 42
0.0000000001
 43
0.0000000001
 40
0.0
 40
0.0
 40
0.0
 40
0.0
 40
1.0
 40
1.0
 40
1.0
 40
1.0
 10
149.2425733267169
 20
108.6389184351306
 30
0.0
 10
149.2188048770103
 20
110.6778647623328
 30
0.0
 10
149.1626445055404
 20
112.7163048028334
 30
0.0
 10
149.0741134725626
 20
114.7534668780285
 30
0.0
  0
SPLINE
  5
CF
330
70
100
AcDbEntity
  8
0
 62
    18
420
        0
370
    25
100
AcDbSpline
210
0.0
220
0.0
230
1.0
 70
     8
 71
     3
 72
     8
 73
     4
 74
     0
 42
0.0000000001
 43
0.0000000001
 40
0.0
 40
0.0
 40
0.0
 40
0.0
 40
1.0
 40
1.0
 40
1.0
 40
1.0
 10
149.2483688273947
 20
108.0796148692308
 30
0.0
 10
149.248444579159
 20
108.1427646267899
 30
0.0
 10
149.2484840332474
 20
108.205914422676
 30
0.0
 10
149.2484871896411
 20
108.2690642255904
 30
0.0
  0
LINE
  5
D0
330
70
100
AcDbEntity
  8
0
 62
    18
420
        0
370
    25
100
AcDbLine
 10
149.0735149339265
 20
114.7674946206547
 30
0.0
 11
149.0747105414011
 21
114.7688301637397
 31
0.0
  0
SPLINE
  5
D1
330
70
100
AcDbEntity
  8
0
 62
    18
420
        0
370
    25
100
AcDbSpline
210
0.0
220
0.0
230
1.0
 70
     8
 71
     3
 72
     8
 73
     4
 74
     0
 42
0.0000000001
 43
0.0000000001
 40
0.0
 40
0.0
 40
0.0
 40
0.0
 40
1.0
 40
1.0
 40
1.0
 40
1.0
 10
149.0735149339496
 20
114.7674946206521
 30
0.0
 10
149.0659292970089
 20
114.9459201139607
 30
0.0
 10
148.9190718670186
 20
115.0866671439011
 30
0.0
 10
148.7404851974439
 20
115.0866677554281
 30
0.0
  0
LINE
  5
D2
330
70
100
AcDbEntity
  8
0
 62
    18
420
        0
370
    25
100
AcDbLine
 10
148.7404851974304
 20
115.0866677553831
 30
0.0
 11
148.7423554584299
 21
115.0866677553831
 31
0.0
  0
LWPOLYLINE
  5
D3
330
70
100
AcDbEntity
  8
0
 62
    18
420
        0
370
    25
100
AcDbPolyline
 90
        7
 70
     0
 43
0.0
 10
149.0735149339304
 20
114.7674946205831
 10
149.0736239725304
 20
114.7649317029831
 10
149.0737331655303
 20
114.7623683651831
 10
149.07386346393
 20
114.759313894883
 10
149.07398593263
 20
114.756447390583
 10
149.0740512426303
 20
114.7549205363831
 10
149.0741134725305
 20
114.7534668778831
  0
LWPOLYLINE
  5
D4
330
70
100
AcDbEntity
  8
0
 62
    18
420
        0
370
    25
100
AcDbPolyline
 90
        3
 70
     0
 43
0.0
 10
149.0760746852305
 20
114.7534668778831
 10
149.0756388970301
 20
114.7624502814829
 10
149.0752961518305
 20
114.7695086535829
  0
LINE
  5
D5
330
70
100
AcDbEntity
  8
0
 62
    18
420
        0
370
    25
100
AcDbLine
 10
149.0760746852305
 20
114.7534668778831
 30
0.0
 11
149.0741134725305
 21
114.7534668778831
 31
0.0
  0
SPLINE
  5
D6
330
70
100
AcDbEntity
  8
0
 62
    18
420
        0
370
    25
100
AcDbSpline
210
0.0
220
0.0
230
1.0
 70
     8
 71
     3
 72
    14
 73
    10
 74
     0
 42
0.0000000001
 43
0.0000000001
 40
0.0
 40
0.0
 40
0.0
 40
0.0
 40
1.0
 40
1.0
 40
1.0
 40
2.0
 40
2.0
 40
2.0
 40
3.0
 40
3.0
 40
3.0
 40
3.0
 10
163.4967147378395
 20
105.8472858101444
 30
0.0
 10
163.9982058686934
 20
106.7683571422485
 30
0.0
 10
163.6580689106732
 20
107.921571872838
 30
0.0
 10
162.7369975785691
 20
108.4230630036922
 30
0.0
 10
161.8159262464644
 20
108.9245541345464
 30
0.0
 10
160.6627115158752
 20
108.5844171765259
 30
0.0
 10
160.1612203850207
 20
107.6633458444218
 30
0.0
 10
160.0092034818331
 20
107.3841416812636
 30
0.0
 10
159.9297163562743
 20
107.0712400582938
 30
0.0
 10
159.930048071173
 20
106.7533344220668
 30
0.0
  0
SPLINE
  5
D7
330
70
100
AcDbEntity
  8
0
 62
    18
420
        0
370
    25
100
AcDbSpline
210
0.0
220
0.0
230
1.0
 70
     8
 71
     3
 72
     8
 73
     4
 74
     0
 42
0.0000000001
 43
0.0000000001
 40
0.0
 40
0.0
 40
0.0
 40
0.0
 40
1.0
 40
1.0
 40
1.0
 40
1.0
 10
159.9300480711782
 20
106.7533344220437
 30
0.0
 10
159.9277696105559
 20
106.4355603474332
 30
0.0
 10
160.0081795121437
 20
106.122657154744
 30
0.0
 10
160.1633814045118
 20
105.845352400939
 30
0.0
  0
LINE
  5
D8
330
70
100
AcDbEntity
  8
0
 62
    18
420
        0
370
    25
100
AcDbLine
 10
149.24671473793
 20
106.7533344220829
 30
0.0
 11
149.24671473793
 21
104.8806083658831
 31
0.0
  0
LINE
  5
D9
330
70
100
AcDbEntity
  8
0
 62
    18
420
        0
370
    25
100
AcDbLine
 10
149.24671473793
 20
109.4200010886829
 30
0.0
 11
149.24671473793
 21
106.7533344220829
 31
0.0
  0
LINE
  5
DA
330
70
100
AcDbEntity
  8
0
 62
    18
420
        0
370
    25
100
AcDbLine
 10
160.1633814045305
 20
106.320321720183
 30
0.0
 11
159.9800480712303
 21
106.320321720183
 31
0.0
  0
LINE
  5
DB
330
70
100
AcDbEntity
  8
0
 62
    18
420
        0
370
    25
100
AcDbLine
 10
159.9800480712303
 20
107.1863471239831
 30
0.0
 11
160.2273962611304
 21
107.1863471239831
 31
0.0
  0
SPLINE
  5
DC
330
70
100
AcDbEntity
  8
0
 62
    18
420
        0
370
    25
100
AcDbSpline
210
0.0
220
0.0
230
1.0
 70
     8
 71
     3
 72
    14
 73
    10
 74
     0
 42
0.0000000001
 43
0.0000000001
 40
0.0
 40
0.0
 40
0.0
 40
0.0
 40
1.0
 40
1.0
 40
1.0
 40
2.0
 40
2.0
 40
2.0
 40
3.0
 40
3.0
 40
3.0
 40
3.0
 10
163.4957107647178
 20
106.721188530154
 30
0.0
 10
163.5117538330314
 20
107.6401560683043
 30
0.0
 10
162.7797889272099
 20
108.3981319271569
 30
0.0
 10
161.8608213890593
 20
108.4141749954705
 30
0.0
 10
160.9418538509087
 20
108.4302180637844
 30
0.0
 10
160.1838779920567
 20
107.6982531579626
 30
0.0
 10
160.1678349237424
 20
106.779285619812
 30
0.0
 10
160.1674658321213
 20
106.7581435781454
 30
0.0
 10
160.1674997210747
 20
106.7369964220666
 30
0.0
 10
160.167936572141
 20
106.7158556719474
 30
0.0
  0
LINE
  5
DD
330
70
100
AcDbEntity
  8
0
 62
     8
420
  8421504
370
    25
100
AcDbLine
 10
149.0751984484026
 20
98.73727258640887
 30
0.0
 11
149.0740847266146
 21
98.73854462284782
 31
0.0
  0
LINE
  5
DE
330
70
100
AcDbEntity
  8
0
 62
     8
420
  8421504
370
    25
100
AcDbLine
 10
164.4496082247299
 20
104.0866677553831
 30
0.0
 11
164.4496082247299
 21
109.4200010886829
 31
0.0
  0
LINE
  5
DF
330
70
100
AcDbEntity
  8
0
 62
     8
420
  8421504
370
    25
100
AcDbLine
 10
164.6116326021301
 20
109.292396922083
 30
0.0
 11
164.6116326021301
 21
104.2142719220831
 31
0.0
  0
LWPOLYLINE
  5
E0
330
70
100
AcDbEntity
  8
0
 62
    18
420
        0
370
    25
100
AcDbPolyline
 90
        3
 70
     0
 43
0.0
 10
62.67440891973008
 20
-7.031469497216973
 10
65.18390646763016
 20
-6.990934252117011
 10
68.59967390413039
 20
-6.859256520416701
  0
LWPOLYLINE
  5
E1
330
70
100
AcDbEntity
  8
0
 62
    18
420
        0
370
    25
100
AcDbPolyline
 90
        3
 70
     0
 43
0.0
 10
52.5676039502303
 20
-6.859256527216786
 10
55.98335229043031
 20
-6.990933715116946
 10
58.49283519053017
 20
-7.031469497216973
  0
SPLINE
  5
E2
330
70
100
AcDbEntity
  8
0
 62
    18
420
        0
370
    25
100
AcDbSpline
210
0.0
220
0.0
230
1.0
 70
     8
 71
     3
 72
     8
 73
     4
 74
     0
 42
0.0000000001
 43
0.0000000001
 40
0.0
 40
0.0
 40
0.0
 40
0.0
 40
1.0
 40
1.0
 40
1.0
 40
1.0
 10
68.59954594684829
 20
-6.860065334911549
 30
0.0
 10
68.77725790807406
 20
-6.851575059043518
 30
0.0
 10
68.91697764586375
 20
-6.705016337135132
 30
0.0
 10
68.91697226051109
 20
-6.527101678049055
 30
0.0
  0
SPLINE
  5
E3
330
70
100
AcDbEntity
  8
0
 62
    18
420
        0
370
    25
100
AcDbSpline
210
0.0
220
0.0
230
1.0
 70
     8
 71
     3
 72
     8
 73
     4
 74
     0
 42
0.0000000001
 43
0.0000000001
 40
0.0
 40
0.0
 40
0.0
 40
0.0
 40
1.0
 40
1.0
 40
1.0
 40
1.0
 10
52.2503055941496
 20
-6.527101678035579
 30
0.0
 10
52.25030021012845
 20
-6.704972101155601
 30
0.0
 10
52.38995280357745
 20
-6.851510725933049
 30
0.0
 10
52.56761765606896
 20
-6.860059856831447
 30
0.0
  0
LINE
  5
E4
330
70
100
AcDbEntity
  8
0
 62
    18
420
        0
370
    25
100
AcDbLine
 10
57.91697226063037
 20
-21.51306511491714
 30
0.0
 11
57.91697226063037
 21
-22.234362984117
 31
0.0
  0
LINE
  5
E5
330
70
100
AcDbEntity
  8
0
 62
    18
420
        0
370
    25
100
AcDbLine
 10
57.91697226063037
 20
-7.031469497216973
 30
0.0
 11
57.91697226063037
 21
-17.71480283051715
 31
0.0
  0
LINE
  5
E6
330
70
100
AcDbEntity
  8
0
 62
    18
420
        0
370
    25
100
AcDbLine
 10
63.2503055939302
 20
-17.71654054611666
 30
0.0
 11
63.2503055939302
 21
-7.031469497216973
 31
0.0
  0
LINE
  5
E7
330
70
100
AcDbEntity
  8
0
 62
    18
420
        0
370
    25
100
AcDbLine
 10
63.2503055939302
 20
-22.234362984117
 30
0.0
 11
63.2503055939302
 21
-21.51480283051665
 31
0.0
  0
SPLINE
  5
E8
330
70
100
AcDbEntity
  8
0
 62
    18
420
        0
370
    25
100
AcDbSpline
210
0.0
220
0.0
230
1.0
 70
     8
 71
     3
 72
     8
 73
     4
 74
     0
 42
0.0000000001
 43
0.0000000001
 40
0.0
 40
0.0
 40
0.0
 40
0.0
 40
1.0
 40
1.0
 40
1.0
 40
1.0
 10
57.91697226066342
 20
-22.234362984117
 30
0.0
 10
57.91697226066342
 20
-22.3113634311538
 30
0.0
 10
57.96972073038634
 20
-22.37834038174176
 30
0.0
 10
58.04457642733009
 20
-22.39638736151594
 30
0.0
  0
SPLINE
  5
E9
330
70
100
AcDbEntity
  8
0
 62
    18
420
        0
370
    25
100
AcDbSpline
210
0.0
220
0.0
230
1.0
 70
     8
 71
     3
 72
     8
 73
     4
 74
     0
 42
0.0000000001
 43
0.0000000001
 40
0.0
 40
0.0
 40
0.0
 40
0.0
 40
1.0
 40
1.0
 40
1.0
 40
1.0
 10
63.12270142733027
 20
-22.39638736151594
 30
0.0
 10
63.19755712427402
 20
-22.37834038174176
 30
0.0
 10
63.25030559399694
 20
-22.3113634311538
 30
0.0
 10
63.25030559399694
 20
-22.234362984117
 30
0.0
  0
SPLINE
  5
EA
330
70
100
AcDbEntity
  8
0
 62
    18
420
        0
370
    25
100
AcDbSpline
210
0.0
220
0.0
230
1.0
 70
     8
 71
     3
 72
     8
 73
     4
 74
     0
 42
0.0000000001
 43
0.0000000001
 40
0.0
 40
0.0
 40
0.0
 40
0.0
 40
1.0
 40
1.0
 40
1.0
 40
1.0
 10
58.04457642732624
 20
-22.39638736144984
 30
0.0
 10
58.87605150162634
 20
-22.59684790702545
 30
0.0
 10
59.72834059954359
 20
-22.69813616385018
 30
0.0
 10
60.58363892733019
 20
-22.69813616385018
 30
0.0
  0
SPLINE
  5
EB
330
70
100
AcDbEntity
  8
0
 62
    18
420
        0
370
    25
100
AcDbSpline
210
0.0
220
0.0
230
1.0
 70
     8
 71
     3
 72
     8
 73
     4
 74
     0
 42
0.0000000001
 43
0.0000000001
 40
0.0
 40
0.0
 40
0.0
 40
0.0
 40
1.0
 40
1.0
 40
1.0
 40
1.0
 10
60.58363892733019
 20
-22.69813616385018
 30
0.0
 10
61.43893725511709
 20
-22.69813616385018
 30
0.0
 10
62.29122635303402
 20
-22.59684790702545
 30
0.0
 10
63.12270142733413
 20
-22.39638736144984
 30
0.0
  0
SPLINE
  5
EC
330
70
100
AcDbEntity
  8
0
 62
    18
420
        0
370
    25
100
AcDbSpline
210
0.0
220
0.0
230
1.0
 70
     8
 71
     3
 72
    11
 73
     7
 74
     0
 42
0.0000000001
 43
0.0000000001
 40
0.0
 40
0.0
 40
0.0
 40
0.0
 40
1.0
 40
1.0
 40
1.0
 40
2.0
 40
2.0
 40
2.0
 40
2.0
 10
28.91697226063032
 20
-17.94813616385017
 30
0.0
 10
27.99649767757883
 20
-17.94813616385017
 30
0.0
 10
27.25030559396359
 20
-18.69432824746574
 30
0.0
 10
27.25030559396359
 20
-19.6148028305169
 30
0.0
 10
27.25030559396359
 20
-20.53527741356807
 30
0.0
 10
27.99649767757883
 20
-21.28146949718363
 30
0.0
 10
28.91697226063032
 20
-21.28146949718363
 30
0.0
  0
SPLINE
  5
ED
330
70
100
AcDbEntity
  8
0
 62
    18
420
        0
370
    25
100
AcDbSpline
210
0.0
220
0.0
230
1.0
 70
     8
 71
     3
 72
    11
 73
     7
 74
     0
 42
0.0000000001
 43
0.0000000001
 40
0.0
 40
0.0
 40
0.0
 40
0.0
 40
1.0
 40
1.0
 40
1.0
 40
2.0
 40
2.0
 40
2.0
 40
2.0
 10
92.25030559392996
 20
-21.28146949718363
 30
0.0
 10
93.17078017698175
 20
-21.28146949718363
 30
0.0
 10
93.91697226059731
 20
-20.53527741356807
 30
0.0
 10
93.91697226059731
 20
-19.6148028305169
 30
0.0
 10
93.91697226059731
 20
-18.69432824746574
 30
0.0
 10
93.17078017698175
 20
-17.94813616385017
 30
0.0
 10
92.25030559392996
 20
-17.94813616385017
 30
0.0
  0
LINE
  5
EE
330
70
100
AcDbEntity
  8
0
 62
    18
420
        0
370
    25
100
AcDbLine
 10
63.09298633663009
 20
-21.281469497217
 30
0.0
 11
92.25030559392996
 21
-21.281469497217
 31
0.0
  0
LINE
  5
EF
330
70
100
AcDbEntity
  8
0
 62
    18
420
        0
370
    25
100
AcDbLine
 10
28.91697226063032
 20
-21.281469497217
 30
0.0
 11
58.07540459423023
 21
-21.281469497217
 31
0.0
  0
LINE
  5
F0
330
70
100
AcDbEntity
  8
0
 62
    18
420
        0
370
    25
100
AcDbLine
 10
58.07429152023034
 20
-17.94813616391691
 30
0.0
 11
28.91697226063032
 21
-17.94813616391691
 31
0.0
  0
LINE
  5
F1
330
70
100
AcDbEntity
  8
0
 62
    18
420
        0
370
    25
100
AcDbLine
 10
92.25030559392996
 20
-17.94813616391691
 30
0.0
 11
63.09187326043014
 21
-17.94813616391691
 31
0.0
  0
LWPOLYLINE
  5
F2
330
70
100
AcDbEntity
  8
0
 62
    18
420
        0
370
    25
100
AcDbPolyline
 90
        6
 70
     0
 43
0.0
 10
60.58363892733019
 20
-6.860050911116899
 10
59.91697226063013
 20
-6.860035039017142
 10
57.25030562623024
 20
-6.859680205817038
 10
54.9169088272303
 20
-6.859064983917187
 10
52.58351211053019
 20
-6.858272243516761
 10
52.57650133783031
 20
-6.858269693316866
  0
LWPOLYLINE
  5
F3
330
70
100
AcDbEntity
  8
0
 62
    18
420
        0
370
    25
100
AcDbPolyline
 90
       11
 70
     0
 43
0.0
 10
52.57650133783031
 20
-6.858269693316866
 10
52.57664987563011
 20
-6.851335236416816
 10
52.57700373453022
 20
-6.834816076016972
 10
52.57753322463018
 20
-6.810099690116914
 10
52.57825361963032
 20
-6.77647532771672
 10
52.57910459563031
 20
-6.736761126516928
 10
52.58011061633022
 20
-6.68981816481682
 10
52.58118754193031
 20
-6.639575059617022
 10
52.58236619823009
 20
-6.584595769017218
 10
52.58341867123021
 20
-6.535511209516678
 10
52.58363892733022
 20
-6.525239956716763
  0
LWPOLYLINE
  5
F4
330
70
100
AcDbEntity
  8
0
 62
    18
420
        0
370
    25
100
AcDbPolyline
 90
        4
 70
     0
 43
0.0
 10
52.58363892733022
 20
-6.525239956716763
 10
56.38001133273037
 20
-6.526506010117198
 10
58.48182510873036
 20
-6.526948977616896
 10
60.58363892733019
 20
-6.527110217716985
  0
LINE
  5
F5
330
70
100
AcDbEntity
  8
0
 62
    18
420
        0
370
    25
100
AcDbLine
 10
60.58363892733019
 20
-6.860050911116899
 30
0.0
 11
60.58363892733019
 21
-6.527110217716985
 31
0.0
  0
LWPOLYLINE
  5
F6
330
70
100
AcDbEntity
  8
0
 62
    18
420
        0
370
    25
100
AcDbPolyline
 90
        5
 70
     0
 43
0.0
 10
52.58350647143015
 20
-6.858868231816863
 10
52.58348648943029
 20
-6.858867384016926
 10
52.57648118963039
 20
-6.858569986217044
 10
52.57297854533007
 20
-6.858421157816781
 10
52.56947590463033
 20
-6.858272243116982
  0
LINE
  5
F7
330
70
100
AcDbEntity
  8
0
 62
    18
420
        0
370
    25
100
AcDbLine
 10
52.56947590463033
 20
-6.858272243116982
 30
0.0
 11
52.58363892733022
 21
-6.525239956716763
 31
0.0
  0
SPLINE
  5
F8
330
70
100
AcDbEntity
  8
0
 62
    18
420
        0
370
    25
100
AcDbSpline
210
0.0
220
0.0
230
1.0
 70
     8
 71
     3
 72
     8
 73
     4
 74
     0
 42
0.0000000001
 43
0.0000000001
 40
0.0
 40
0.0
 40
0.0
 40
0.0
 40
1.0
 40
1.0
 40
1.0
 40
1.0
 10
52.57650133783384
 20
-6.858269693259113
 30
0.0
 10
52.57881390876197
 20
-6.858677342380993
 30
0.0
 10
52.58115826498275
 20
-6.858877650858248
 30
0.0
 10
52.58350647140161
 20
-6.858868231836756
 30
0.0
  0
LINE
  5
F9
330
70
100
AcDbEntity
  8
0
 62
    18
420
        0
370
    25
100
AcDbLine
 10
52.25030559393014
 20
-5.031469497216902
 30
0.0
 11
52.58363892733022
 21
-5.031469497216902
 31
0.0
  0
LINE
  5
FA
330
70
100
AcDbEntity
  8
0
 62
    18
420
        0
370
    25
100
AcDbLine
 10
52.58363892733022
 20
-5.031469497216902
 30
0.0
 11
52.58363892733022
 21
-6.525239956716763
 31
0.0
  0
LINE
  5
FB
330
70
100
AcDbEntity
  8
0
 62
    18
420
        0
370
    25
100
AcDbLine
 10
52.25030559393014
 20
-6.525239956616658
 30
0.0
 11
52.58363892733022
 21
-6.525239956716763
 31
0.0
  0
LINE
  5
FC
330
70
100
AcDbEntity
  8
0
 62
    18
420
        0
370
    25
100
AcDbLine
 10
52.25030559393014
 20
-6.525239956616658
 30
0.0
 11
52.25030559393014
 21
-5.031469497216902
 31
0.0
  0
LINE
  5
FD
330
70
100
AcDbEntity
  8
0
 62
    18
420
        0
370
    25
100
AcDbLine
 10
68.91697226063044
 20
-5.031469497216902
 30
0.0
 11
68.91697226063044
 21
-6.525239956816869
 31
0.0
  0
LINE
  5
FE
330
70
100
AcDbEntity
  8
0
 62
    18
420
        0
370
    25
100
AcDbLine
 10
68.58363892732983
 20
-6.525239956716763
 30
0.0
 11
68.91697226063044
 21
-6.525239956816869
 31
0.0
  0
LINE
  5
FF
330
70
100
AcDbEntity
  8
0
 62
    18
420
        0
370
    25
100
AcDbLine
 10
68.58363892732983
 20
-6.525239956716763
 30
0.0
 11
68.58363892732983
 21
-5.031469497216902
 31
0.0
  0
LINE
  5
100
330
70
100
AcDbEntity
  8
0
 62
    18
420
        0
370
    25
100
AcDbLine
 10
68.58363892732983
 20
-5.031469497216902
 30
0.0
 11
68.91697226063044
 21
-5.031469497216902
 31
0.0
  0
LWPOLYLINE
  5
101
330
70
100
AcDbEntity
  8
0
 62
    18
420
        0
370
    25
100
AcDbPolyline
 90
        4
 70
     0
 43
0.0
 10
60.58363892733019
 20
-6.527110217716985
 10
64.38002429313034
 20
-6.526610427816756
 10
66.48183163373023
 20
-6.5259954040171
 10
68.58363892732983
 20
-6.525239956716763
  0
LINE
  5
102
330
70
100
AcDbEntity
  8
0
 62
    18
420
        0
370
    25
100
AcDbLine
 10
68.58363892732983
 20
-5.031469497216902
 30
0.0
 11
52.58363892733022
 21
-5.031469497216902
 31
0.0
  0
SPLINE
  5
103
330
70
100
AcDbEntity
  8
0
 62
    18
420
        0
370
    25
100
AcDbSpline
210
0.0
220
0.0
230
1.0
 70
     8
 71
     3
 72
     8
 73
     4
 74
     0
 42
0.0000000001
 43
0.0000000001
 40
0.0
 40
0.0
 40
0.0
 40
0.0
 40
1.0
 40
1.0
 40
1.0
 40
1.0
 10
68.58376574412023
 20
-6.858272243504568
 30
0.0
 10
68.76772802363659
 20
-6.858285362597374
 30
0.0
 10
68.91688916284564
 20
-6.709202218039682
 30
0.0
 10
68.91697226067279
 20
-6.525239956823286
 30
0.0
  0
LINE
  5
104
330
70
100
AcDbEntity
  8
0
 62
    18
420
        0
370
    25
100
AcDbLine
 10
68.58376574413049
 20
-6.858272243516761
 30
0.0
 11
68.58363892732983
 21
-6.525239956716763
 31
0.0
  0
LWPOLYLINE
  5
105
330
70
100
AcDbEntity
  8
0
 62
    18
420
        0
370
    25
100
AcDbPolyline
 90
        5
 70
     0
 43
0.0
 10
68.58376574413049
 20
-6.858272243516761
 10
67.91709917273045
 20
-6.858511035216737
 10
65.25043280573007
 20
-6.859356371017139
 10
62.91703596653026
 20
-6.859863865616775
 10
60.58363892733019
 20
-6.860050911116899
  0
SPLINE
  5
106
330
70
100
AcDbEntity
  8
0
 62
    18
420
        0
370
    25
100
AcDbSpline
210
0.0
220
0.0
230
1.0
 70
     8
 71
     3
 72
     8
 73
     4
 74
     0
 42
0.0000000001
 43
0.0000000001
 40
0.0
 40
0.0
 40
0.0
 40
0.0
 40
1.0
 40
1.0
 40
1.0
 40
1.0
 10
52.25030559399848
 20
-6.525239956612167
 30
0.0
 10
52.25030560010361
 20
-6.703826234000942
 30
0.0
 10
52.39105090254621
 20
-6.850684285385026
 30
0.0
 10
52.56947590463354
 20
-6.858272243062438
 30
0.0
  0
SPLINE
  5
107
330
70
100
AcDbEntity
  8
0
 62
    18
420
        0
370
    25
100
AcDbSpline
210
0.0
220
0.0
230
1.0
 70
     8
 71
     3
 72
     8
 73
     4
 74
     0
 42
0.0000000001
 43
0.0000000001
 40
0.0
 40
0.0
 40
0.0
 40
0.0
 40
1.0
 40
1.0
 40
1.0
 40
1.0
 10
62.46923720406576
 20
-7.029020768252475
 30
0.0
 10
64.50819123857013
 20
-7.004864180556716
 30
0.0
 10
66.54662932906029
 20
-6.94813943238748
 30
0.0
 10
68.58377138309032
 20
-6.858868231809804
 30
0.0
  0
LWPOLYLINE
  5
108
330
70
100
AcDbEntity
  8
0
 62
    18
420
        0
370
    25
100
AcDbPolyline
 90
        7
 70
     0
 43
0.0
 10
68.59779912523013
 20
-6.858269693316866
 10
68.59523620813028
 20
-6.85837873181677
 10
68.59267287093063
 20
-6.858487924816627
 10
68.58961840093023
 20
-6.858618223217036
 10
68.5867518968298
 20
-6.858740691916991
 10
68.58522504213062
 20
-6.858806002016812
 10
68.58377138313009
 20
-6.858868231816863
  0
SPLINE
  5
109
330
70
100
AcDbEntity
  8
0
 62
    18
420
        0
370
    25
100
AcDbSpline
210
0.0
220
0.0
230
1.0
 70
     8
 71
     3
 72
     8
 73
     4
 74
     0
 42
0.0000000001
 43
0.0000000001
 40
0.0
 40
0.0
 40
0.0
 40
0.0
 40
1.0
 40
1.0
 40
1.0
 40
1.0
 10
52.58350647149272
 20
-6.858868231890658
 30
0.0
 10
54.62066854656037
 20
-6.947399264193459
 30
0.0
 10
56.65910858690056
 20
-7.003559635658852
 30
0.0
 10
58.69805491393851
 20
-7.027328086032112
 30
0.0
  0
LINE
  5
10A
330
70
100
AcDbEntity
  8
0
 62
    18
420
        0
370
    25
100
AcDbLine
 10
60.58363892733019
 20
-6.86082944461695
 30
0.0
 11
60.58363892733019
 21
-6.860050911116899
 31
0.0
  0
LWPOLYLINE
  5
10B
330
70
100
AcDbEntity
  8
0
 62
    18
420
        0
370
    25
100
AcDbPolyline
 90
        5
 70
     0
 43
0.0
 10
60.58363892733019
 20
-6.86082944461695
 10
58.5003055939302
 20
-6.860662607216777
 10
56.4169723067303
 20
-6.860204399516976
 10
54.50023937483018
 20
-6.859593511216725
 10
52.58350647143015
 20
-6.858868231816863
  0
LINE
  5
10C
330
70
100
AcDbEntity
  8
0
 62
    18
420
        0
370
    25
100
AcDbLine
 10
68.58377138313009
 20
-6.858868231816863
 30
0.0
 11
68.58376574413049
 21
-6.858272243516761
 31
0.0
  0
LWPOLYLINE
  5
10D
330
70
100
AcDbEntity
  8
0
 62
    18
420
        0
370
    25
100
AcDbPolyline
 90
        5
 70
     0
 43
0.0
 10
68.58377138313009
 20
-6.858868231816863
 10
66.50043819353038
 20
-6.859652054317186
 10
64.41710495743027
 20
-6.86029413921666
 10
62.50037197523024
 20
-6.860687602217021
 10
60.58363892733019
 20
-6.86082944461695
  0
SPLINE
  5
10E
330
70
100
AcDbEntity
  8
0
 62
    18
420
        0
370
    25
100
AcDbSpline
210
0.0
220
0.0
230
1.0
 70
     8
 71
     3
 72
     8
 73
     4
 74
     0
 42
0.0000000001
 43
0.0000000001
 40
0.0
 40
0.0
 40
0.0
 40
0.0
 40
1.0
 40
1.0
 40
1.0
 40
1.0
 10
68.59779912525451
 20
-6.858269693309807
 30
0.0
 10
68.77622466030143
 20
-6.850684148475969
 30
0.0
 10
68.91697174257654
 20
-6.703826664160684
 30
0.0
 10
68.91697226064841
 20
-6.525239956797618
 30
0.0
  0
LWPOLYLINE
  5
10F
330
70
100
AcDbEntity
  8
0
 62
    18
420
        0
370
    25
100
AcDbPolyline
 90
       33
 70
     0
 43
0.0
 10
63.24906879773033
 20
-17.71654054611666
 10
63.25008312703037
 20
-17.71511507741698
 10
63.24734235713011
 20
-17.71896400531693
 10
63.22646802683008
 20
-17.74840669411682
 10
63.19025416403036
 20
-17.80004888541697
 10
63.11445835153019
 20
-17.91070898131688
 10
63.04091652433037
 20
-18.02197450401716
 10
63.00842213913012
 20
-18.07257635131714
 10
62.9207598733303
 20
-18.21443744771716
 10
62.8137972751302
 20
-18.40133872091664
 10
62.77042437843036
 20
-18.48302568901715
 10
62.6637232679301
 20
-18.70615562021679
 10
62.58455991013025
 20
-18.90587852681664
 10
62.55623704663012
 20
-18.99027722721686
 10
62.49717695813023
 20
-19.21415749571723
 10
62.46700484433009
 20
-19.40042917041661
 10
62.45566789603033
 20
-19.672952194417
 10
62.47114527623024
 20
-19.86293405821691
 10
62.52320917523032
 20
-20.12550982651709
 10
62.59695710683033
 20
-20.357997946817
 10
62.63151257983011
 20
-20.44707405181668
 10
62.72722634693037
 20
-20.66067849921675
 10
62.82894780853031
 20
-20.85589140961716
 10
62.87003179243013
 20
-20.92875915501723
 10
62.97126425033029
 20
-21.09792237121684
 10
63.00377637713029
 20
-21.14971460811701
 10
63.06535712183018
 20
-21.24508320081689
 10
63.12149415963008
 20
-21.32932844101713
 10
63.17016236163011
 20
-21.40057783461706
 10
63.19085140263034
 20
-21.43041451281716
 10
63.22922418803036
 20
-21.48509966811702
 10
63.23935921623014
 20
-21.4994086626169
 10
63.2503055939302
 20
-21.51480283051665
  0
LWPOLYLINE
  5
110
330
70
100
AcDbEntity
  8
0
 62
    18
420
        0
370
    25
100
AcDbPolyline
 90
       35
 70
     0
 43
0.0
 10
57.91697226063037
 20
-17.71480283051715
 10
57.92700685803016
 20
-17.72891236701688
 10
57.93663870393031
 20
-17.74250502541673
 10
57.9748544800303
 20
-17.79693452361681
 10
58.02866880103032
 20
-17.87504387161663
 10
58.05437691223031
 20
-17.91302281251722
 10
58.12819205073026
 20
-18.02480023551676
 10
58.21738512203036
 20
-18.16633952071673
 10
58.25534511683034
 20
-18.22921957551693
 10
58.3541551524302
 20
-18.40257892751719
 10
58.45650961733017
 20
-18.60308746041668
 10
58.48974177563026
 20
-18.67496551981678
 10
58.52192510813035
 20
-18.74903567891718
 10
58.58308928943033
 20
-18.90692731711689
 10
58.61080622383023
 20
-18.98953667541708
 10
58.66212729273039
 20
-19.17765771661693
 10
58.70608132043012
 20
-19.45952419011718
 10
58.71190942793035
 20
-19.66234447301698
 10
58.6826350180302
 20
-19.95051811481682
 10
58.63222661123035
 20
-20.16878741161722
 10
58.60649194453035
 20
-20.25355088751701
 10
58.53069648403034
 20
-20.45946937091692
 10
58.43186568693024
 20
-20.6773549314171
 10
58.3970881692301
 20
-20.74612643871703
 10
58.36198338463034
 20
-20.81256834981707
 10
58.29041563003015
 20
-20.9406089928168
 10
58.25498333493026
 20
-21.00099392741703
 10
58.15605773353012
 20
-21.16142474331665
 10
58.09478239723033
 20
-21.25592918651663
 10
58.03929558573021
 20
-21.33891765531722
 10
58.01453571993027
 20
-21.37525168771705
 10
57.96539783343028
 20
-21.44621630491712
 10
57.95005838593036
 20
-21.46807975451696
 10
57.92385415813008
 20
-21.50513187791674
 10
57.91820905693036
 20
-21.51306511491714
  0
LINE
  5
111
330
70
100
AcDbEntity
  8
0
 62
    18
420
        0
370
    25
100
AcDbLine
 10
62.47292158473038
 20
-7.031469497216973
 30
0.0
 11
58.72167628143011
 21
-7.031469497216973
 31
0.0
  0
LINE
  5
112
330
70
100
AcDbEntity
  8
0
 62
    18
420
        0
370
    25
100
AcDbLine
 10
58.45252482993021
 20
-7.031469497216973
 30
0.0
 11
57.91697226063037
 21
-7.031469497216973
 31
0.0
  0
LWPOLYLINE
  5
113
330
70
100
AcDbEntity
  8
0
 62
     8
420
  8421504
370
    25
100
AcDbPolyline
 90
        5
 70
     0
 43
0.0
 10
68.59970076163001
 20
-6.859953206616653
 10
68.59979675933018
 20
-6.860036938316675
 10
68.59952913623032
 20
-6.859805343916976
 10
68.59780194263028
 20
-6.858272243516761
 10
68.59779912523013
 20
-6.858269693316866
  0
LINE
  5
114
330
70
100
AcDbEntity
  8
0
 62
     8
420
  8421504
370
    25
100
AcDbLine
 10
52.56757709302394
 20
-6.859953206600611
 30
0.0
 11
52.5688491285812
 21
-6.85883948557045
 31
0.0
  0
LINE
  5
115
330
70
100
AcDbEntity
  8
0
 62
     8
420
  8421504
370
    25
100
AcDbLine
 10
57.91697226063037
 20
-22.234362984117
 30
0.0
 11
63.2503055939302
 21
-22.234362984117
 31
0.0
  0
LINE
  5
116
330
70
100
AcDbEntity
  8
0
 62
     8
420
  8421504
370
    25
100
AcDbLine
 10
63.12270142733027
 20
-22.39638736151722
 30
0.0
 11
58.04457642733009
 21
-22.39638736151722
 31
0.0
  0
SPLINE
  5
117
330
70
100
AcDbEntity
  8
0
 62
    18
420
        0
370
    25
100
AcDbSpline
210
0.0
220
0.0
230
1.0
 70
     8
 71
     3
 72
     8
 73
     4
 74
     0
 42
0.0000000001
 43
0.0000000001
 40
0.0
 40
0.0
 40
0.0
 40
0.0
 40
1.0
 40
1.0
 40
1.0
 40
1.0
 10
173.4521231410529
 20
-0.4076974217007973
 30
0.0
 10
173.5535449781734
 20
-0.4614702149199951
 30
0.0
 10
173.6754995919874
 20
-0.4592720288525528
 30
0.0
 10
173.7749177100362
 20
-0.4018791709439121
 30
0.0
  0
SPLINE
  5
118
330
70
100
AcDbEntity
  8
0
 62
    18
420
        0
370
    25
100
AcDbSpline
210
0.0
220
0.0
230
1.0
 70
     8
 71
     3
 72
     8
 73
     4
 74
     0
 42
0.0000000001
 43
0.0000000001
 40
0.0
 40
0.0
 40
0.0
 40
0.0
 40
1.0
 40
1.0
 40
1.0
 40
1.0
 10
162.1279029668243
 20
19.77140462201032
 30
0.0
 10
162.0247956434042
 20
19.71188203117339
 30
0.0
 10
161.9612620237959
 20
19.60188641191441
 30
0.0
 10
161.961222773712
 20
19.48283156143642
 30
0.0
  0
LWPOLYLINE
  5
119
330
70
100
AcDbEntity
  8
0
 62
    18
420
        0
370
    25
100
AcDbPolyline
 90
        3
 70
     0
 43
0.0
 10
164.62632645673
 20
4.686114629383181
 10
164.7746539626302
 20
4.600428156783148
 10
173.4457662148304
 20
-0.4035737245171731
  0
LINE
  5
11A
330
70
100
AcDbEntity
  8
0
 62
    18
420
        0
370
    25
100
AcDbLine
 10
173.4497188553303
 20
-0.4050519280169629
 30
0.0
 11
173.45323779373
 21
-0.4069394516171565
 31
0.0
  0
LWPOLYLINE
  5
11B
330
70
100
AcDbEntity
  8
0
 62
    18
420
        0
370
    25
100
AcDbPolyline
 90
        3
 70
     0
 43
0.0
 10
161.9612478528301
 20
19.48283951748292
 10
161.9603386730305
 20
16.42481999518325
 10
161.9614009592299
 20
9.305921945183346
  0
LINE
  5
11C
330
70
100
AcDbEntity
  8
0
 62
    18
420
        0
370
    25
100
AcDbLine
 10
173.7749177100305
 20
-0.4018791709169607
 30
0.0
 11
174.8311729314301
 21
0.2078839891832574
 31
0.0
  0
LINE
  5
11D
330
70
100
AcDbEntity
  8
0
 62
    18
420
        0
370
    25
100
AcDbLine
 10
163.1841581882303
 20
20.38116778218305
 30
0.0
 11
162.1279029668301
 21
19.77140462208284
 31
0.0
  0
LWPOLYLINE
  5
11E
330
70
100
AcDbEntity
  8
0
 62
    18
420
        0
370
    25
100
AcDbPolyline
 90
        9
 70
     0
 43
0.0
 10
155.7765563880302
 20
1.987011870182998
 10
155.8627191588302
 20
1.86952908478318
 10
156.18374871333
 20
1.523956701483154
 10
156.5281393075302
 20
1.236956248982884
 10
156.8858091446304
 20
1.018764144482886
 10
157.2464955143304
 20
0.8783891701828151
 10
157.5981084691302
 20
0.8238433821829447
 10
157.9246851564299
 20
0.8596791703828067
 10
158.1912270451303
 20
0.9745534883829856
  0
SPLINE
  5
11F
330
70
100
AcDbEntity
  8
0
 62
    18
420
        0
370
    25
100
AcDbSpline
210
0.0
220
0.0
230
1.0
 70
     8
 71
     3
 72
     8
 73
     4
 74
     0
 42
0.0000000001
 43
0.0000000001
 40
0.0
 40
0.0
 40
0.0
 40
0.0
 40
1.0
 40
1.0
 40
1.0
 40
1.0
 10
154.9191356702097
 20
4.175189520871561
 30
0.0
 10
154.9581802853484
 20
3.371705493593474
 30
0.0
 10
155.2593413326437
 20
2.603128458644103
 30
0.0
 10
155.7765563879666
 20
1.987011870156046
 30
0.0
  0
SPLINE
  5
120
330
70
100
AcDbEntity
  8
0
 62
    18
420
        0
370
    25
100
AcDbSpline
210
0.0
220
0.0
230
1.0
 70
     8
 71
     3
 72
     8
 73
     4
 74
     0
 42
0.0000000001
 43
0.0000000001
 40
0.0
 40
0.0
 40
0.0
 40
0.0
 40
1.0
 40
1.0
 40
1.0
 40
1.0
 10
155.4792557546042
 20
5.5578623614718
 30
0.0
 10
155.0536600901349
 20
5.234146770140234
 30
0.0
 10
154.838834556992
 20
4.703843646856599
 30
0.0
 10
154.9191356702642
 20
4.175189520897871
 30
0.0
  0
LINE
  5
121
330
70
100
AcDbEntity
  8
0
 62
    18
420
        0
370
    25
100
AcDbLine
 10
157.3556618233305
 20
6.647085336983195
 30
0.0
 11
155.5101579424299
 21
5.581698623983339
 31
0.0
  0
LINE
  5
122
330
70
100
AcDbEntity
  8
0
 62
    18
420
        0
370
    25
100
AcDbLine
 10
166.2602270206304
 20
11.78758140688285
 30
0.0
 11
157.3556618233305
 21
6.647085336983195
 31
0.0
  0
LINE
  5
123
330
70
100
AcDbEntity
  8
0
 62
    18
420
        0
370
    25
100
AcDbLine
 10
162.7971606695302
 20
3.630159697082995
 30
0.0
 11
168.92667697433
 21
7.168654140883084
 31
0.0
  0
LINE
  5
124
330
70
100
AcDbEntity
  8
0
 62
    18
420
        0
370
    25
100
AcDbLine
 10
158.1766078961302
 20
0.9627713578828256
 30
0.0
 11
159.61600319493
 21
1.793716576783281
 31
0.0
  0
LWPOLYLINE
  5
125
330
70
100
AcDbEntity
  8
0
 62
    18
420
        0
370
    25
100
AcDbPolyline
 90
      113
 70
     0
 43
0.0
 10
159.2676157878304
 20
2.025096721883342
 10
160.0227763614304
 20
1.523559756082852
 10
161.1606205161304
 20
0.6964767771828303
 10
162.2923921031301
 20
-0.1981901407167038
 10
163.4144126194303
 20
-1.157959576816905
 10
164.5230245047303
 20
-2.180097228117009
 10
165.6146129758304
 20
-3.261630428217014
 10
166.6856246379301
 20
-4.399363513417217
 10
167.73258347903
 20
-5.58989345911677
 10
168.75210480023
 20
-6.829625460417166
 10
169.7409075503299
 20
-8.114788289417013
 10
170.6958254390302
 20
-9.441449359216983
 10
171.6138171287302
 20
-10.80552949171712
 10
172.49197573743
 20
-12.20281741571704
 10
173.3275378341304
 20
-13.62898404761682
 10
174.1178920686305
 20
-15.07959661691722
 10
174.8605701362305
 20
-16.55009684561666
 10
175.5532893220304
 20
-18.03587636341727
 10
176.1939492347302
 20
-19.53227532671667
 10
176.7806347069305
 20
-21.0345877139168
 10
177.3116238363301
 20
-22.53807605201708
 10
177.7853960488304
 20
-24.03798664921682
 10
178.2006401715305
 20
-25.52956552781724
 10
178.5562624643299
 20
-27.00807530541667
 10
178.8513944905304
 20
-28.46881332871714
 10
179.0854006124301
 20
-29.90713143291685
 10
179.2578847486303
 20
-31.31845776521695
 10
179.36869581903
 20
-32.69832116711716
 10
179.4179310040301
 20
-34.04237863571708
 10
179.40593553963
 20
-35.34644633791692
 10
179.3332972395301
 20
-36.6065344817171
 10
179.20083328093
 20
-37.81888596541719
 10
179.00958887583
 20
-38.97990050981692
 10
178.7608011036304
 20
-40.08631007931698
 10
178.4558269015305
 20
-41.1352680852168
 10
178.0960693301305
 20
-42.12432430541706
 10
177.6828727135302
 20
-43.05144296241694
 10
177.2173949187299
 20
-43.91498709741709
 10
176.7004717892299
 20
-44.71364863871667
 10
176.1325098825302
 20
-45.44630211311694
 10
175.5134742765304
 20
-46.11177015221672
 10
174.8430666413305
 20
-46.708524412817
 10
174.1211757188304
 20
-47.23441789041663
 10
173.3485591957304
 20
-47.68663204751667
 10
172.5274633499302
 20
-48.0620222540169
 10
171.6631311528301
 20
-48.3574120138167
 10
170.7602011335303
 20
-48.57152865201704
 10
169.8227956534302
 20
-48.70427505151677
 10
168.8542059094305
 20
-48.75623848401687
 10
167.8570051717302
 20
-48.72821062421676
 10
166.83338754513
 20
-48.62090629701714
 10
165.78548764153
 20
-48.43489076751694
 10
164.7155883938302
 20
-48.17063126451668
 10
163.6262205599302
 20
-47.82859410921702
 10
162.5201874578299
 20
-47.40934191661664
 10
161.4005468310304
 20
-46.91361185201667
 10
160.27057207503
 20
-46.34237063241726
 10
159.1337683645301
 20
-45.69688566651675
 10
157.99375778123
 20
-44.97871596511723
 10
156.8541447525303
 20
-44.18964828041692
 10
155.7185876064304
 20
-43.33174817121715
 10
154.5907656051301
 20
-42.40735276191725
 10
153.4743507173304
 20
-41.41905939961708
 10
152.3729836790305
 20
-40.36971191871665
 10
151.2902536792305
 20
-39.26238563881702
 10
150.22968100513
 20
-38.10037182331708
 10
149.1947020439304
 20
-36.88716203941688
 10
148.1886561249304
 20
-35.62643266421673
 10
147.2147737786305
 20
-34.32202965631663
 10
146.2761660721304
 20
-32.97795362681712
 10
145.37581475443
 20
-31.59834519931694
 10
144.5165630022301
 20
-30.18747061631678
 10
143.7011066052304
 20
-28.74970753741716
 10
142.9319910458302
 20
-27.28954197391704
 10
142.2116069585305
 20
-25.8115668446168
 10
141.5421528884305
 20
-24.32041055641699
 10
140.9256465586303
 20
-22.82075560811676
 10
140.36391683883
 20
-21.31732407721708
 10
139.8585956945301
 20
-19.81486268571672
 10
139.4111101159301
 20
-18.31812727821718
 10
139.0226740536301
 20
-16.83186649411718
 10
138.6942804405302
 20
-15.36080436291673
 10
138.4266934565302
 20
-13.90962148581724
 10
138.22044131003
 20
-12.48293440271669
 10
138.0758099869303
 20
-11.08527267651703
 10
137.9928386635304
 20
-9.721053183316769
 10
137.9713178243303
 20
-8.394551099616927
 10
138.0107915882302
 20
-7.109867165916814
 10
138.1105663333303
 20
-5.870891066217215
 10
138.26972597743
 20
-4.681276276016921
 10
138.4871239983303
 20
-3.544550030316909
 10
138.7614638067305
 20
-2.463761585017052
 10
139.0913563241305
 20
-1.441582194417047
 10
139.4754104957303
 20
-0.4802755198170615
 10
139.9123493952303
 20
0.41830746958325
 10
140.4011443715305
 20
1.252691128383307
 10
140.9411439637299
 20
2.021673232483037
 10
141.5321485159304
 20
2.72413895968325
 10
142.1743490911302
 20
3.358790849283052
 10
142.8680325229302
 20
3.923846438982844
 10
143.6130083850305
 20
4.41684108168288
 10
144.4079021050305
 20
4.834739564783132
 10
145.2491245969305
 20
5.174263679382828
 10
146.1314395725301
 20
5.433033106583213
 10
147.0503993820299
 20
5.610366951283065
 10
148.0022433527301
 20
5.706542889982905
 10
148.9840393702301
 20
5.722290403782883
 10
149.9934300406304
 20
5.658387268383326
 10
151.0282816626305
 20
5.515480168782843
 10
152.0864112355299
 20
5.294079537183018
 10
153.1654309310303
 20
4.994639468083288
 10
154.2626867797304
 20
4.617658638182999
 10
154.9153653791305
 20
4.351389277683033
  0
LWPOLYLINE
  5
126
330
70
100
AcDbEntity
  8
0
 62
    18
420
        0
370
    25
100
AcDbPolyline
 90
      120
 70
     0
 43
0.0
 10
157.6097400290301
 20
6.793761563083066
 10
157.1246622233299
 20
7.031799351783368
 10
155.8624340301305
 20
7.572794242283216
 10
154.6053384334303
 20
8.032528602683004
 10
153.3570363634305
 20
8.409164589482816
 10
152.1213645340305
 20
8.701122448482959
 10
150.9023322208303
 20
8.907151757182841
 10
149.7040849781305
 20
9.026412142183193
 10
148.53082733853
 20
9.058548529083358
 10
147.3867061541302
 20
9.003739843382849
 10
146.2756706794305
 20
8.862699766282828
 10
145.2013384437302
 20
8.636617042883388
 10
144.1668998105305
 20
8.327039485483012
 10
143.17508519413
 20
7.935723477483362
 10
142.2282009541303
 20
7.464481505282964
 10
141.3282216215304
 20
6.915060268683053
 10
140.4770709434302
 20
6.289199016982982
 10
139.6767576007304
 20
5.588750716283077
 10
138.9288341363304
 20
4.815188157182966
 10
138.2349337461301
 20
3.969951848483346
 10
137.5968149876301
 20
3.054593390482825
 10
137.0163485580304
 20
2.070926107283375
 10
136.4954522108304
 20
1.021149028383047
 10
136.03599155173
 20
-0.0920831042169686
 10
135.63967183363
 20
-1.265655767216912
 10
135.3079454833305
 20
-2.496049543616807
 10
135.04195195483
 20
-3.779432236617247
 10
134.8424945670301
 20
-5.111761463016708
 10
134.7100485519304
 20
-6.488875742516617
 10
134.6447890547301
 20
-7.906562075617012
 10
134.6466275008303
 20
-9.360597802516961
 10
134.7152391550299
 20
-10.84664622121668
 10
134.8500962147302
 20
-12.3605221508167
 10
135.0505046485301
 20
-13.89808207991668
 10
135.3156195530302
 20
-15.45518379201677
 10
135.6444545413299
 20
-17.02768040231696
 10
136.0358874568301
 20
-18.61141669581719
 10
136.48866377243
 20
-20.20222821411675
 10
137.00139873593
 20
-21.79594302451689
 10
137.5725790356302
 20
-23.38838585511668
 10
138.2005645110304
 20
-24.97538417881668
 10
138.8835902489303
 20
-26.552775820117
 10
139.6197692671305
 20
-28.11641768791666
 10
140.4070958931301
 20
-29.66219528381665
 10
141.2434498805303
 20
-31.1860326851172
 10
142.1266012600303
 20
-32.68390274211691
 10
143.0542080652303
 20
-34.15182529641676
 10
144.0238180219301
 20
-35.58587459421691
 10
145.0329048052302
 20
-36.98223343401682
 10
146.0788586765304
 20
-38.33717293251689
 10
147.1589941267303
 20
-39.64706085011671
 10
148.2705577194302
 20
-40.9083690565168
 10
149.41073591293
 20
-42.11767996771719
 10
150.5766625796302
 20
-43.27169180151713
 10
151.76542584723
 20
-44.36722252091676
 10
152.97407377003
 20
-45.4012123835168
 10
154.1996181954304
 20
-46.37072510181696
 10
155.4390360268303
 20
-47.27294778001691
 10
156.6892669194303
 20
-48.10519004671701
 10
157.9472063305305
 20
-48.86488320831713
 10
159.2096928654303
 20
-49.54958082211669
 10
160.4734891652302
 20
-50.15696286681691
 10
161.7351212244305
 20
-50.68479428521682
 10
162.9910328044304
 20
-51.13104915451672
 10
164.2375352496305
 20
-51.49392775461698
 10
165.4707626348304
 20
-51.77189896851669
 10
166.6866798751303
 20
-51.96377387841724
 10
167.8811253397302
 20
-52.06878680701689
 10
169.0498950575302
 20
-52.08666777131689
 10
170.1888646873304
 20
-52.01768468431682
 10
171.2941307242301
 20
-51.86263470291716
 10
172.3621404655303
 20
-51.62277453511706
 10
173.3897784316302
 20
-51.29969690141664
 10
174.37438779093
 20
-50.89517735661677
 10
175.3137239865303
 20
-50.41102474571713
 10
176.2058553970302
 20
-49.84896690601696
 10
177.0487927151302
 20
-49.21079479171702
 10
177.8406405895302
 20
-48.49828392821681
 10
178.57983873443
 20
-47.71289325121702
 10
179.2647349728302
 20
-46.85607103041711
 10
179.8935499761304
 20
-45.92940168991673
 10
180.4643997165305
 20
-44.93475434741697
 10
180.9753676205305
 20
-43.87439951701701
 10
181.4246070602301
 20
-42.75106864621721
 10
181.8104485418302
 20
-41.56794757701681
 10
182.13148772573
 20
-40.328613811517
 10
182.3866395189302
 20
-39.03694087781719
 10
182.5751555204305
 20
-37.69699634581707
 10
182.6966118727302
 20
-36.31295405061689
 10
182.7508791504302
 20
-34.8890307926168
 10
182.7380855535301
 20
-33.42944839711702
 10
182.6585924425305
 20
-31.93856235891667
 10
182.51295663783
 20
-30.42052724941672
 10
182.3018977025304
 20
-28.8794858986172
 10
182.02628421953
 20
-27.31958092961708
 10
181.6871251082305
 20
-25.74496041071667
 10
181.2855643746301
 20
-24.15978108081713
 10
180.8228779827301
 20
-22.56820881001663
 10
180.3004718326301
 20
-20.97441641751665
 10
179.7198801179301
 20
-19.38257918801681
 10
179.08276357153
 20
-17.79686850941721
 10
178.39090728363
 20
-16.22144405651725
 10
177.64621790993
 20
-14.66044490821712
 10
176.8507201737304
 20
-13.11797994181706
 10
176.0065526280301
 20
-11.59811779881696
 10
175.1159626871303
 20
-10.1048766743168
 10
174.1813131661305
 20
-8.64223260761674
 10
173.2050678917305
 20
-7.214092131016736
 10
172.1897673486305
 20
-5.82425859431726
 10
171.13803420573
 20
-4.476445614917142
 10
170.0525656269304
 20
-3.174268881016988
 10
168.9361254157301
 20
-1.921238843817046
 10
167.7915362207305
 20
-0.7207544631166634
 10
166.6216720991303
 20
0.4239018406830745
 10
165.4294518298303
 20
1.509567906583114
 10
164.2178334897302
 20
2.533204150882936
 10
162.98981095403
 20
3.491894510983158
 10
161.7484131471302
 20
4.382846212482796
 10
160.4967070319304
 20
5.203388837083172
 10
160.4415686331299
 20
5.237162156582789
  0
SPLINE
  5
127
330
70
100
AcDbEntity
  8
0
 62
    18
420
        0
370
    25
100
AcDbSpline
210
0.0
220
0.0
230
1.0
 70
     8
 71
     3
 72
     8
 73
     4
 74
     0
 42
0.0000000001
 43
0.0000000001
 40
0.0
 40
0.0
 40
0.0
 40
0.0
 40
1.0
 40
1.0
 40
1.0
 40
1.0
 10
173.843966848185
 20
12.8153887546548
 30
0.0
 10
173.8363994252355
 20
12.98168546047624
 30
0.0
 10
173.7484980483605
 20
13.1339351108482
 30
0.0
 10
173.6082645878084
 20
13.22363704393105
 30
0.0
  0
SPLINE
  5
128
330
70
100
AcDbEntity
  8
0
 62
    18
420
        0
370
    25
100
AcDbSpline
210
0.0
220
0.0
230
1.0
 70
     8
 71
     3
 72
     8
 73
     4
 74
     0
 42
0.0000000001
 43
0.0000000001
 40
0.0
 40
0.0
 40
0.0
 40
0.0
 40
1.0
 40
1.0
 40
1.0
 40
1.0
 10
173.3728648725571
 20
12.82702455700281
 30
0.0
 10
173.519539679014
 20
12.75007635477436
 30
0.0
 10
173.6936721017766
 20
12.74577543783956
 30
0.0
 10
173.8439668482132
 20
12.81538875458806
 30
0.0
  0
SPLINE
  5
129
330
70
100
AcDbEntity
  8
0
 62
    18
420
        0
370
    25
100
AcDbSpline
210
0.0
220
0.0
230
1.0
 70
     8
 71
     3
 72
     8
 73
     4
 74
     0
 42
0.0000000001
 43
0.0000000001
 40
0.0
 40
0.0
 40
0.0
 40
0.0
 40
1.0
 40
1.0
 40
1.0
 40
1.0
 10
173.608264587888
 20
13.22363704392977
 30
0.0
 10
173.471731702769
 20
13.13586729411549
 30
0.0
 10
173.3845127774395
 20
12.98891675581417
 30
0.0
 10
173.3728648726091
 20
12.82702455706891
 30
0.0
  0
SPLINE
  5
12A
330
70
100
AcDbEntity
  8
0
 62
    18
420
        0
370
    25
100
AcDbSpline
210
0.0
220
0.0
230
1.0
 70
     8
 71
     3
 72
     8
 73
     4
 74
     0
 42
0.0000000001
 43
0.0000000001
 40
0.0
 40
0.0
 40
0.0
 40
0.0
 40
1.0
 40
1.0
 40
1.0
 40
1.0
 10
173.3827897747406
 20
12.81556056745949
 30
0.0
 10
173.5276827886328
 20
12.74192409866305
 30
0.0
 10
173.6990190075615
 20
12.7418602668697
 30
0.0
 10
173.8439668481754
 20
12.81538875463362
 30
0.0
  0
SPLINE
  5
12B
330
70
100
AcDbEntity
  8
0
 62
    18
420
        0
370
    25
100
AcDbSpline
210
0.0
220
0.0
230
1.0
 70
     8
 71
     3
 72
     8
 73
     4
 74
     0
 42
0.0000000001
 43
0.0000000001
 40
0.0
 40
0.0
 40
0.0
 40
0.0
 40
1.0
 40
1.0
 40
1.0
 40
1.0
 10
173.3827897747727
 20
12.81556056748644
 30
0.0
 10
173.3795505181304
 20
12.81734751684861
 30
0.0
 10
173.3756010146917
 20
12.81725658327363
 30
0.0
 10
173.3724474325703
 20
12.81532244485525
 30
0.0
  0
LWPOLYLINE
  5
12C
330
70
100
AcDbEntity
  8
0
 62
    18
420
        0
370
    25
100
AcDbPolyline
 90
        5
 70
     0
 43
0.0
 10
173.37244743263
 20
12.81532244478274
 10
173.37244802643
 20
12.81533911028304
 10
173.3726563270301
 20
12.82118176948297
 10
173.37276056913
 20
12.82410314718309
 10
173.3728648725302
 20
12.82702455708303
  0
LWPOLYLINE
  5
12D
330
70
100
AcDbEntity
  8
0
 62
    18
420
        0
370
    25
100
AcDbPolyline
 90
        4
 70
     0
 43
0.0
 10
173.8439668482305
 20
12.81538875468303
 10
173.8428276828305
 20
8.485387231582842
 10
173.8428181281301
 20
4.156038055682784
 10
173.84396684833
 20
-0.2492642355171428
  0
SPLINE
  5
12E
330
70
100
AcDbEntity
  8
0
 62
    18
420
        0
370
    25
100
AcDbSpline
210
0.0
220
0.0
230
1.0
 70
     8
 71
     3
 72
     8
 73
     4
 74
     0
 42
0.0000000001
 43
0.0000000001
 40
0.0
 40
0.0
 40
0.0
 40
0.0
 40
1.0
 40
1.0
 40
1.0
 40
1.0
 10
173.3827899692357
 20
-0.2550262962589174
 30
0.0
 10
173.5288399941679
 20
-0.3258619477968901
 30
0.0
 10
173.6997322158382
 20
-0.3237267770929704
 30
0.0
 10
173.8439668483428
 20
-0.2492642355171428
 30
0.0
  0
LWPOLYLINE
  5
12F
330
70
100
AcDbEntity
  8
0
 62
    18
420
        0
370
    25
100
AcDbPolyline
 90
        7
 70
     0
 43
0.0
 10
173.3827899692299
 20
-0.255026296217207
 10
173.3828084049302
 20
0.2891287977832663
 10
173.3828819116302
 20
2.465840099883053
 10
173.3829526844299
 20
6.820125793982756
 10
173.3829272083299
 20
8.479106156183062
 10
173.3827899637299
 20
12.80983379488306
 10
173.3827897748304
 20
12.81556056748323
  0
LWPOLYLINE
  5
130
330
70
100
AcDbEntity
  8
0
 62
    18
420
        0
370
    25
100
AcDbPolyline
 90
        4
 70
     0
 43
0.0
 10
168.9185299811301
 20
10.24331738908293
 10
170.31002518473
 20
11.04686738778304
 10
171.8860517348305
 20
11.95697577058306
 10
173.37244743263
 20
12.81532244478274
  0
LWPOLYLINE
  5
131
330
70
100
AcDbEntity
  8
0
 62
    18
420
        0
370
    25
100
AcDbPolyline
 90
        5
 70
     0
 43
0.0
 10
173.37244743263
 20
-0.2495468566167797
 10
173.3724621615301
 20
-0.2495546607166515
 10
173.3776259484304
 20
-0.2522905513167752
 10
173.3802079296303
 20
-0.2536584420172327
 10
173.3827899692299
 20
-0.255026296217207
  0
SPLINE
  5
132
330
70
100
AcDbEntity
  8
0
 62
    18
420
        0
370
    25
100
AcDbSpline
210
0.0
220
0.0
230
1.0
 70
     8
 71
     3
 72
     8
 73
     4
 74
     0
 42
0.0000000001
 43
0.0000000001
 40
0.0
 40
0.0
 40
0.0
 40
0.0
 40
1.0
 40
1.0
 40
1.0
 40
1.0
 10
168.9216760080185
 20
7.177699953081085
 30
0.0
 10
170.383045322471
 20
4.688702589988008
 30
0.0
 10
171.8666953963492
 20
2.212854197253694
 30
0.0
 10
173.3724474327558
 20
-0.2495468569138864
 30
0.0
  0
LWPOLYLINE
  5
133
330
70
100
AcDbEntity
  8
0
 62
    18
420
        0
370
    25
100
AcDbPolyline
 90
        5
 70
     0
 43
0.0
 10
173.3728648725302
 20
12.82702455708303
 10
172.9012915678304
 20
13.09927915808325
 10
171.0150759540301
 20
14.18825347188324
 10
169.3647563729304
 20
15.14102250658322
 10
167.7146632420301
 20
16.09362495118292
  0
SPLINE
  5
134
330
70
100
AcDbEntity
  8
0
 62
    18
420
        0
370
    25
100
AcDbSpline
210
0.0
220
0.0
230
1.0
 70
     8
 71
     3
 72
     8
 73
     4
 74
     0
 42
0.0000000001
 43
0.0000000001
 40
0.0
 40
0.0
 40
0.0
 40
0.0
 40
1.0
 40
1.0
 40
1.0
 40
1.0
 10
167.9500878641257
 20
16.4885060431349
 30
0.0
 10
167.8140362079804
 20
16.40107563662718
 30
0.0
 10
167.7268788348546
 20
16.25488532583871
 30
0.0
 10
167.7146632420653
 20
16.09362495124324
 30
0.0
  0
LWPOLYLINE
  5
135
330
70
100
AcDbEntity
  8
0
 62
    18
420
        0
370
    25
100
AcDbPolyline
 90
        4
 70
     0
 43
0.0
 10
167.9500878641302
 20
16.48850604308292
 10
170.63489110513
 20
14.93901015518306
 10
172.1215282159303
 20
14.081294929283
 10
173.6082645878303
 20
13.22363704388292
  0
SPLINE
  5
136
330
70
100
AcDbEntity
  8
0
 62
    18
420
        0
370
    25
100
AcDbSpline
210
0.0
220
0.0
230
1.0
 70
     8
 71
     3
 72
     8
 73
     4
 74
     0
 42
0.0000000001
 43
0.0000000001
 40
0.0
 40
0.0
 40
0.0
 40
0.0
 40
1.0
 40
1.0
 40
1.0
 40
1.0
 10
174.9002220696859
 20
13.42515191483587
 30
0.0
 10
174.8926546467115
 20
13.59144862065282
 30
0.0
 10
174.8047532698339
 20
13.74369827101323
 30
0.0
 10
174.6645198092901
 20
13.8334002041025
 30
0.0
  0
LINE
  5
137
330
70
100
AcDbEntity
  8
0
 62
    18
420
        0
370
    25
100
AcDbLine
 10
174.9002220697302
 20
13.42515191488336
 30
0.0
 11
173.8439668482305
 21
12.81538875468303
 31
0.0
  0
LINE
  5
138
330
70
100
AcDbEntity
  8
0
 62
    18
420
        0
370
    25
100
AcDbLine
 10
173.6082645878303
 20
13.22363704388292
 30
0.0
 11
174.6645198093299
 21
13.83340020408325
 31
0.0
  0
SPLINE
  5
139
330
70
100
AcDbEntity
  8
0
 62
    18
420
        0
370
    25
100
AcDbSpline
210
0.0
220
0.0
230
1.0
 70
     8
 71
     3
 72
     8
 73
     4
 74
     0
 42
0.0000000001
 43
0.0000000001
 40
0.0
 40
0.0
 40
0.0
 40
0.0
 40
1.0
 40
1.0
 40
1.0
 40
1.0
 10
162.0585516125251
 20
19.34669547768712
 30
0.0
 10
163.4403155939784
 20
16.80847518721024
 30
0.0
 10
164.8453747355659
 20
14.28300585021356
 30
0.0
 10
166.2735510752923
 20
11.77060733762128
 30
0.0
  0
LWPOLYLINE
  5
13A
330
70
100
AcDbEntity
  8
0
 62
    18
420
        0
370
    25
100
AcDbPolyline
 90
        3
 70
     0
 43
0.0
 10
167.71411273583
 20
16.08020838618302
 10
167.7144208846299
 20
16.08772159228286
 10
167.7146632420301
 20
16.09362495118292
  0
LWPOLYLINE
  5
13B
330
70
100
AcDbEntity
  8
0
 62
    18
420
        0
370
    25
100
AcDbPolyline
 90
        5
 70
     0
 43
0.0
 10
173.37244743263
 20
12.81532244478274
 10
171.8987541605299
 20
13.66542754308325
 10
170.4251610792303
 20
14.51559051828319
 10
169.0695479694303
 20
15.29784808258321
 10
167.71411273583
 20
16.08020838618302
  0
LINE
  5
13C
330
70
100
AcDbEntity
  8
0
 62
    18
420
        0
370
    25
100
AcDbLine
 10
174.9002220697302
 20
0.3604989246831804
 30
0.0
 11
174.9002220697302
 21
13.42515191488336
 31
0.0
  0
LINE
  5
13D
330
70
100
AcDbEntity
  8
0
 62
    18
420
        0
370
    25
100
AcDbLine
 10
173.84396684833
 20
-0.2492642355171428
 30
0.0
 11
174.9002220697302
 21
0.3604989246831804
 31
0.0
  0
LINE
  5
13E
330
70
100
AcDbEntity
  8
0
 62
    18
420
        0
370
    25
100
AcDbLine
 10
174.6645198093299
 20
13.83340020408325
 30
0.0
 11
163.3508113103304
 21
20.36466509868303
 31
0.0
  0
LWPOLYLINE
  5
13F
330
70
100
AcDbEntity
  8
0
 62
    18
420
        0
370
    25
100
AcDbPolyline
 90
        4
 70
     0
 43
0.0
 10
162.2945560888301
 20
19.75490193848334
 10
164.9781015257299
 20
18.20469051668299
 10
166.4639950742302
 20
17.34654078748285
 10
167.9500878641302
 20
16.48850604308292
  0
LINE
  5
140
330
70
100
AcDbEntity
  8
0
 62
    18
420
        0
370
    25
100
AcDbLine
 10
163.3508113103304
 20
20.36466509868303
 30
0.0
 11
162.2945560888301
 21
19.75490193848334
 31
0.0
  0
LWPOLYLINE
  5
141
330
70
100
AcDbEntity
  8
0
 62
    18
420
        0
370
    25
100
AcDbPolyline
 90
        6
 70
     0
 43
0.0
 10
167.7146632420301
 20
16.09362495118292
 10
167.2432699445303
 20
16.36575242658279
 10
165.3579027891304
 20
17.45410737458304
 10
163.7083771170305
 20
18.40628962858318
 10
162.0589770275303
 20
19.35839298588279
 10
162.0540214659305
 20
19.36125355168298
  0
SPLINE
  5
142
330
70
100
AcDbEntity
  8
0
 62
    18
420
        0
370
    25
100
AcDbSpline
210
0.0
220
0.0
230
1.0
 70
     8
 71
     3
 72
     8
 73
     4
 74
     0
 42
0.0000000001
 43
0.0000000001
 40
0.0
 40
0.0
 40
0.0
 40
0.0
 40
1.0
 40
1.0
 40
1.0
 40
1.0
 10
162.2945560910555
 20
19.75490193722754
 30
0.0
 10
162.1541324003203
 20
19.671619283858
 30
0.0
 10
162.06405817623
 20
19.52420777137746
 30
0.0
 10
162.0540214659357
 20
19.36125355167656
 30
0.0
  0
SPLINE
  5
143
330
70
100
AcDbEntity
  8
0
 62
    18
420
        0
370
    25
100
AcDbSpline
210
0.0
220
0.0
230
1.0
 70
     8
 71
     3
 72
     8
 73
     4
 74
     0
 42
0.0000000001
 43
0.0000000001
 40
0.0
 40
0.0
 40
0.0
 40
0.0
 40
1.0
 40
1.0
 40
1.0
 40
1.0
 10
162.0540214659318
 20
19.36125355166758
 30
0.0
 10
162.0542988802796
 20
19.35609991282371
 30
0.0
 10
162.0558558092465
 20
19.35109656775954
 30
0.0
 10
162.0585516126933
 20
19.34669547745931
 30
0.0
  0
LWPOLYLINE
  5
144
330
70
100
AcDbEntity
  8
0
 62
    18
420
        0
370
    25
100
AcDbPolyline
 90
        5
 70
     0
 43
0.0
 10
167.71411273583
 20
16.08020838618302
 10
166.2410915801303
 20
16.93070160628333
 10
164.7682764870303
 20
17.78131374618309
 10
163.4133735964305
 20
18.56398127018292
 10
162.0585516127305
 20
19.34669547748306
  0
LWPOLYLINE
  5
145
330
70
100
AcDbEntity
  8
0
 62
    18
420
        0
370
    25
100
AcDbPolyline
 90
        5
 70
     0
 43
0.0
 10
162.0585516127305
 20
19.34669547748306
 10
162.0585380827302
 20
19.34670397368294
 10
162.0537948798301
 20
19.34968266238286
 10
162.0514233738303
 20
19.35117205778319
 10
162.0490519314305
 20
19.3526614871833
  0
SPLINE
  5
146
330
70
100
AcDbEntity
  8
0
 62
    18
420
        0
370
    25
100
AcDbSpline
210
0.0
220
0.0
230
1.0
 70
     8
 71
     3
 72
     8
 73
     4
 74
     0
 42
0.0000000001
 43
0.0000000001
 40
0.0
 40
0.0
 40
0.0
 40
0.0
 40
1.0
 40
1.0
 40
1.0
 40
1.0
 10
173.3778240405734
 20
-0.2636162785100208
 30
0.0
 10
173.3771487942
 20
-0.2585725628848667
 30
0.0
 10
173.375307951017
 20
-0.2537554738609524
 30
0.0
 10
173.3724474325716
 20
-0.2495468566071542
 30
0.0
  0
SPLINE
  5
147
330
70
100
AcDbEntity
  8
0
 62
    18
420
        0
370
    25
100
AcDbSpline
210
0.0
220
0.0
230
1.0
 70
     8
 71
     3
 72
     8
 73
     4
 74
     0
 42
0.0000000001
 43
0.0000000001
 40
0.0
 40
0.0
 40
0.0
 40
0.0
 40
1.0
 40
1.0
 40
1.0
 40
1.0
 10
162.2945560888616
 20
19.75490193852505
 30
0.0
 10
162.1499690473598
 20
19.6709615718524
 30
0.0
 10
162.0576046347643
 20
19.51962929542825
 30
0.0
 10
162.0490519314593
 20
19.35266148717239
 30
0.0
  0
SPLINE
  5
148
330
70
100
AcDbEntity
  8
0
 62
    18
420
        0
370
    25
100
AcDbSpline
210
0.0
220
0.0
230
1.0
 70
     8
 71
     3
 72
     8
 73
     4
 74
     0
 42
0.0000000001
 43
0.0000000001
 40
0.0
 40
0.0
 40
0.0
 40
0.0
 40
1.0
 40
1.0
 40
1.0
 40
1.0
 10
173.3827899691818
 20
-0.2550262961645877
 30
0.0
 10
173.3754084139991
 20
-0.3148970527362029
 30
0.0
 10
173.4021844736311
 20
-0.3738577356593965
 30
0.0
 10
173.4521231410151
 20
-0.4076974216699957
 30
0.0
  0
LWPOLYLINE
  5
149
330
70
100
AcDbEntity
  8
0
 62
    18
420
        0
370
    25
100
AcDbPolyline
 90
        4
 70
     0
 43
0.0
 10
173.4468901147301
 20
-0.4013359365171391
 10
173.4344223405301
 20
-0.396827947816674
 10
173.3940530042302
 20
-0.3431836331169504
 10
173.3778240406299
 20
-0.2636162785170795
  0
SPLINE
  5
14A
330
70
100
AcDbEntity
  8
0
 62
    18
420
        0
370
    25
100
AcDbSpline
210
0.0
220
0.0
230
1.0
 70
     8
 71
     3
 72
     8
 73
     4
 74
     0
 42
0.0000000001
 43
0.0000000001
 40
0.0
 40
0.0
 40
0.0
 40
0.0
 40
1.0
 40
1.0
 40
1.0
 40
1.0
 10
174.831172931448
 20
0.2078839891537393
 30
0.0
 10
174.8811365548509
 20
0.2416564223777859
 30
0.0
 10
174.9078388447992
 20
0.3006748020254347
 30
0.0
 10
174.9002220697373
 20
0.360498924643395
 30
0.0
  0
SPLINE
  5
14B
330
70
100
AcDbEntity
  8
0
 62
    18
420
        0
370
    25
100
AcDbSpline
210
0.0
220
0.0
230
1.0
 70
     8
 71
     3
 72
     8
 73
     4
 74
     0
 42
0.0000000001
 43
0.0000000001
 40
0.0
 40
0.0
 40
0.0
 40
0.0
 40
1.0
 40
1.0
 40
1.0
 40
1.0
 10
163.3508113103138
 20
20.36466509865608
 30
0.0
 10
163.3021822252666
 20
20.39950267436598
 30
0.0
 10
163.2386753660259
 20
20.40579138702131
 30
0.0
 10
163.1841581882079
 20
20.38116778215417
 30
0.0
  0
LWPOLYLINE
  5
14C
330
70
100
AcDbEntity
  8
0
 62
    18
420
        0
370
    25
100
AcDbPolyline
 90
       32
 70
     0
 43
0.0
 10
158.52420269483
 20
2.169640372183152
 10
158.4874509906303
 20
2.608198464882962
 10
158.3787004971301
 20
3.071234552183161
 10
158.2024034722302
 20
3.539791882282796
 10
157.9657775368301
 20
3.994687663082761
 10
157.6785101846301
 20
4.417298407783174
 10
157.3523621748304
 20
4.79032238298291
 10
157.0006860450303
 20
5.098487943182761
 10
156.6378794575301
 20
5.329178754182772
 10
156.2787957565301
 20
5.472950307083365
 10
155.9381358710304
 20
5.523916577583079
 10
155.62984645673
 20
5.479991000682856
 10
155.36654891843
 20
5.342971894482896
 10
155.1590226883301
 20
5.118468837483322
 10
155.01576391473
 20
4.815673011083087
 10
154.9426376284302
 20
4.446980911982949
 10
154.9426376284302
 20
4.027486838182782
 10
155.01576391473
 20
3.574364926182996
 10
155.1590226883301
 20
3.106166040383206
 10
155.36654891843
 20
2.642058298182904
 10
155.62984645673
 20
2.201042325083036
 10
155.9381358710304
 20
1.801173366882785
 10
156.2787957565301
 20
1.458822105582998
 10
156.6378794575301
 20
1.188004442083188
 10
157.0006860450303
 20
0.9998076834832545
 10
157.3523621748304
 20
0.9019366269827967
 10
157.6785101846301
 20
0.8983981252829181
 10
157.9657775368301
 20
0.989337045082885
 10
158.2024034722302
 20
1.171030336183173
 10
158.3787004971301
 20
1.436039453983012
 10
158.4874509906303
 20
1.773514894083084
 10
158.52420269483
 20
2.169640372183152
  0
LINE
  5
14D
330
70
100
AcDbEntity
  8
0
 62
    18
420
        0
370
    25
100
AcDbLine
 10
155.4808034006302
 20
5.563989519482861
 30
0.0
 11
155.5101579424299
 21
5.581698623983339
 31
0.0
  0
LWPOLYLINE
  5
14E
330
70
100
AcDbEntity
  8
0
 62
    18
420
        0
370
    25
100
AcDbPolyline
 90
        5
 70
     0
 43
0.0
 10
159.2378068664301
 20
2.477418214983225
 10
159.2549538337301
 20
2.083360831783043
 10
159.3076531877306
 20
1.840864220683118
 10
159.4150030211305
 20
1.74199158638294
 10
159.60381971523
 20
1.801808187582931
  0
LWPOLYLINE
  5
14F
330
70
100
AcDbEntity
  8
0
 62
    18
420
        0
370
    25
100
AcDbPolyline
 90
       12
 70
     0
 43
0.0
 10
161.8862246698304
 20
4.28393882758332
 10
161.8841954097299
 20
4.315099871182814
 10
161.69022756093
 20
4.690197177483072
 10
161.33849359533
 20
5.007703049783346
 10
160.8090440143304
 20
5.225877537983352
 10
160.3320664183305
 20
5.240524805582745
 10
159.9782982363301
 20
5.104344237382915
 10
159.70605056243
 20
4.835668748382955
 10
159.4718910904305
 20
4.334824588083091
 10
159.3352738398303
 20
3.731207351682785
 10
159.2554379563301
 20
2.993364787483254
 10
159.2378068664301
 20
2.477418214983225
  0
LWPOLYLINE
  5
150
330
70
100
AcDbEntity
  8
0
 62
    18
420
        0
370
    25
100
AcDbPolyline
 90
       18
 70
     0
 43
0.0
 10
168.92667697433
 20
7.168654140883084
 10
168.9267853308303
 20
7.168716703882794
 10
169.1612861340301
 20
7.36330434118307
 10
169.3355359506299
 20
7.639163072782929
 10
169.44283845793
 20
7.985691802183236
 10
169.4790700806304
 20
8.389573624783004
 10
169.44283845793
 20
8.835287588483341
 10
169.3355359506299
 20
9.30570515578282
 10
169.1612861340301
 20
9.782748443282793
 10
168.9267853308303
 20
10.24808494498324
 10
168.6410452753305
 20
10.68383204008302
 10
168.3150467976304
 20
11.07324421208285
 10
167.9613178365301
 20
11.40135656968277
 10
167.5934519974302
 20
11.65555993888328
 10
167.2255861584303
 20
11.82608542678293
 10
166.8718571972305
 20
11.90637983458319
 10
166.5458587196299
 20
11.8933574931831
 10
166.2602270206304
 20
11.78758140688285
  0
LWPOLYLINE
  5
151
330
70
100
AcDbEntity
  8
0
 62
     8
420
  8421504
370
    25
100
AcDbPolyline
 90
        6
 70
     0
 43
0.0
 10
162.0490519314305
 20
19.3526614871833
 10
162.0486961823301
 20
18.80831166628275
 10
162.0474305750305
 20
16.6309121790829
 10
162.0463935602304
 20
12.27606868548275
 10
162.0467465603299
 20
10.61727739878336
 10
162.0474183944303
 20
9.355578753582779
  0
LWPOLYLINE
  5
152
330
70
100
AcDbEntity
  8
0
 62
     8
420
  8421504
370
    25
100
AcDbPolyline
 90
        5
 70
     0
 43
0.0
 10
164.7133107499304
 20
4.736329592983262
 10
168.1859877137304
 20
2.730493093182827
 10
169.6226163172305
 20
1.90155265428325
 10
173.3728648734304
 20
-0.2607577948172255
 10
173.3778240406299
 20
-0.2636162785170795
  0
SPLINE
  5
153
330
70
100
AcDbEntity
  8
0
 62
     8
420
  8421504
370
    25
100
AcDbSpline
210
0.0
220
0.0
230
1.0
 70
     8
 71
     3
 72
     8
 73
     4
 74
     0
 42
0.0000000001
 43
0.0000000001
 40
0.0
 40
0.0
 40
0.0
 40
0.0
 40
1.0
 40
1.0
 40
1.0
 40
1.0
 10
173.7749177100433
 20
-0.4018791709342866
 30
0.0
 10
173.8248813334122
 20
-0.3681067376820051
 30
0.0
 10
173.8515836233508
 20
-0.3090883580568158
 30
0.0
 10
173.8439668483325
 20
-0.2492642354446308
 30
0.0
  0
SPLINE
  5
154
330
70
100
AcDbEntity
  8
0
 62
     8
420
  8421504
370
    25
100
AcDbSpline
210
0.0
220
0.0
230
1.0
 70
     8
 71
     3
 72
     8
 73
     4
 74
     0
 42
0.0000000001
 43
0.0000000001
 40
0.0
 40
0.0
 40
0.0
 40
0.0
 40
1.0
 40
1.0
 40
1.0
 40
1.0
 10
161.9612227737339
 20
19.48283156145053
 30
0.0
 10
161.9659836679967
 20
19.42716030171881
 30
0.0
 10
161.9992103429242
 20
19.37791562196515
 30
0.0
 10
162.0490519314574
 20
19.35266148711913
 30
0.0
  0
SPLINE
  5
155
330
70
100
AcDbEntity
  8
0
 62
     8
420
  8421504
370
    25
100
AcDbSpline
210
0.0
220
0.0
230
1.0
 70
     8
 71
     3
 72
     8
 73
     4
 74
     0
 42
0.0000000001
 43
0.0000000001
 40
0.0
 40
0.0
 40
0.0
 40
0.0
 40
1.0
 40
1.0
 40
1.0
 40
1.0
 10
162.2945560888763
 20
19.75490193847372
 30
0.0
 10
162.245927003892
 20
19.78973951424843
 30
0.0
 10
162.1824201446513
 20
19.79602822692751
 30
0.0
 10
162.1279029668635
 20
19.77140462202572
 30
0.0
  0
SPLINE
  5
156
330
70
100
AcDbEntity
  8
0
 62
     8
420
  8421504
370
    25
100
AcDbSpline
210
0.0
220
0.0
230
1.0
 70
     8
 71
     3
 72
     8
 73
     4
 74
     0
 42
0.0000000001
 43
0.0000000001
 40
0.0
 40
0.0
 40
0.0
 40
0.0
 40
1.0
 40
1.0
 40
1.0
 40
1.0
 10
158.1909971267459
 20
0.9712593266162913
 30
0.0
 10
158.5705054812988
 20
1.253120153543594
 30
0.0
 10
158.7746484948209
 20
1.713171529383845
 30
0.0
 10
158.7290010023992
 20
2.18369084181098
 30
0.0
  0
LWPOLYLINE
  5
157
330
70
100
AcDbEntity
  8
0
 62
     8
420
  8421504
370
    25
100
AcDbPolyline
 90
       14
 70
     0
 43
0.0
 10
155.5101579424299
 20
5.581698623983339
 10
155.5100495859304
 20
5.581636060882883
 10
155.7957896414301
 20
5.687474710282948
 10
156.1217881190301
 20
5.700497051683035
 10
156.4755170802299
 20
5.620202643882776
 10
156.8433829192304
 20
5.449677155983129
 10
157.2112487583303
 20
5.19547378678326
 10
157.56497771943
 20
4.867361429183334
 10
157.8909761971301
 20
4.477949257182864
 10
158.1767162526305
 20
4.042202161982983
 10
158.4112170558303
 20
3.576865660283176
 10
158.5854668724301
 20
3.099822372883307
 10
158.6927693796301
 20
2.629404805583187
 10
158.72900100243
 20
2.18369084188285
  0
INSERT
  5
15A
330
70
100
AcDbEntity
  8
CAPA_BASE
100
AcDbBlockReference
  2
Block_0
 10
0.0
 20
0.0
 30
0.0
  0
INSERT
  5
166
330
70
100
AcDbEntity
  8
CAPA_BASE
100
AcDbBlockReference
  2
Block_1
 10
0.0
 20
0.0
 30
0.0
  0
INSERT
  5
172
330
70
100
AcDbEntity
  8
CAPA_BASE
100
AcDbBlockReference
  2
Block_2
 10
0.0
 20
0.0
 30
0.0
  0
ENDSEC
  0
SECTION
  2
OBJECTS
  0
DICTIONARY
  5
C
330
0
100
AcDbDictionary
281
     1
  3
ACAD_COLOR
350
63
  3
ACAD_DETAILVIEWSTYLE
350
6A
  3
ACAD_GROUP
350
D
  3
ACAD_LAYOUT
350
62
  3
ACAD_MATERIAL
350
10
  3
ACAD_MLEADERSTYLE
350
66
  3
ACAD_MLINESTYLE
350
5F
  3
ACAD_PLOTSETTINGS
350
61
  3
ACAD_PLOTSTYLENAME
350
E
  3
ACAD_SCALELIST
350
42
  3
ACAD_SECTIONVIEWSTYLE
350
68
  3
ACAD_TABLESTYLE
350
64
  3
ACAD_VISUALSTYLE
350
29
  3
ACDB_RECOMPOSE_DATA
350
185
  3
AcDbVariableDictionary
350
17D
  0
DICTIONARY
  5
63
102
{ACAD_REACTORS
330
C
102
}
330
C
100
AcDbDictionary
281
     1
  0
DICTIONARY
  5
6A
102
{ACAD_REACTORS
330
C
102
}
330
C
100
AcDbDictionary
281
     1
  3
Imperial24
350
6B
  0
DICTIONARY
  5
D
102
{ACAD_REACTORS
330
C
102
}
330
C
100
AcDbDictionary
281
     1
  0
DICTIONARY
  5
62
102
{ACAD_REACTORS
330
C
102
}
330
C
100
AcDbDictionary
281
     1
  3
Layout1
350
6F
  3
Layout2
350
77
  3
Model
350
73
  0
DICTIONARY
  5
10
102
{ACAD_REACTORS
330
C
102
}
330
C
100
AcDbDictionary
281
     1
  3
ByBlock
350
19
  3
ByLayer
350
11
  3
Global
350
21
  0
DICTIONARY
  5
66
102
{ACAD_REACTORS
330
C
102
}
330
C
100
AcDbDictionary
281
     1
  3
Standard
350
67
  0
DICTIONARY
  5
5F
102
{ACAD_REACTORS
330
C
102
}
330
C
100
AcDbDictionary
281
     1
  3
Standard
350
60
  0
DICTIONARY
  5
61
102
{ACAD_REACTORS
330
C
102
}
330
C
100
AcDbDictionary
281
     1
  0
ACDBDICTIONARYWDFLT
  5
E
102
{ACAD_REACTORS
330
C
102
}
330
C
100
AcDbDictionary
281
     1
  3
Normal
350
F
100
AcDbDictionaryWithDefault
340
F
  0
DICTIONARY
  5
42
102
{ACAD_REACTORS
330
C
102
}
330
C
100
AcDbDictionary
281
     1
  3
A0
350
43
  3
A1
350
44
  3
A2
350
45
  3
A3
350
46
  3
A4
350
47
  3
A5
350
48
  3
A6
350
49
  3
A7
350
4A
  3
A8
350
4B
  3
A9
350
4C
  3
B0
350
4D
  3
B1
350
4E
  3
B2
350
4F
  3
B3
350
50
  3
B4
350
51
  3
B5
350
52
  3
B6
350
53
  0
DICTIONARY
  5
68
102
{ACAD_REACTORS
330
C
102
}
330
C
100
AcDbDictionary
281
     1
  3
Imperial24
350
69
  0
DICTIONARY
  5
64
102
{ACAD_REACTORS
330
C
102
}
330
C
100
AcDbDictionary
281
     1
  3
Standard
350
65
  0
DICTIONARY
  5
29
102
{ACAD_REACTORS
330
C
102
}
330
C
100
AcDbDictionary
281
     1
  3
2dWireframe
350
2F
  3
Basic
350
2E
  3
Brighten
350
35
  3
ColorChange
350
39
  3
Conceptual
350
32
  3
Dim
350
34
  3
EdgeColorOff
350
41
  3
Facepattern
350
38
  3
Flat
350
2A
  3
FlatWithEdges
350
2B
  3
Gouraud
350
2C
  3
GouraudWithEdges
350
2D
  3
Hidden
350
31
  3
JitterOff
350
3F
  3
Linepattern
350
37
  3
OverhangOff
350
40
  3
Realistic
350
33
  3
Shaded
350
3E
  3
Shaded with edges
350
3D
  3
Shades of Gray
350
3A
  3
Sketchy
350
3B
  3
Thicken
350
36
  3
Wireframe
350
30
  3
X-Ray
350
3C
  0
XRECORD
  5
185
102
{ACAD_REACTORS
330
C
102
}
330
C
100
AcDbXrecord
280
     1
 90
        1
330
65
  0
DICTIONARY
  5
17D
102
{ACAD_REACTORS
330
C
102
}
330
C
100
AcDbDictionary
281
     1
  3
CANNOSCALE
350
182
  3
CMLEADERSTYLE
350
17F
  3
CTABLESTYLE
350
17E
  3
CVIEWDETAILSTYLE
350
180
  3
CVIEWSECTIONSTYLE
350
181
  0
ACDBDETAILVIEWSTYLE
  5
6B
102
{ACAD_REACTORS
330
6A
102
}
330
6A
100
AcDbModelDocViewStyle
 70
     0
  3
Imperial24
290
     1
300
Imperial24
 90
        0
100
AcDbDetailViewStyle
 70
     0
 71
     0
 90
        3
 71
     1
340
55
 62
   256
 40
0.24
340
0
 62
   256
 40
0.24
300

 40
0.36
280
     3
 71
     2
340
5D
 90
       25
 62
   256
 71
     3
340
55
 62
   256
 40
0.24
 90
        1
 40
0.75
 90
        1
300
%<\AcVar ViewType \f "%tc1">% %<\AcVar ViewDetailId>%\PSCALE %<\AcVar ViewScale \f "%sn">%
 71
     4
340
5D
 90
       25
 62
   256
340
5D
 90
       25
 62
   256
280
     0
  0
LAYOUT
  5
6F
102
{ACAD_REACTORS
330
62
102
}
330
62
100
AcDbPlotSettings
  1

  2

  4

  6

 40
0.0
 41
0.0
 42
0.0
 43
0.0
 44
0.0
 45
0.0
 46
0.0
 47
0.0
 48
0.0
 49
0.0
140
0.0
141
0.0
142
1.0
143
1.0
 70
   688
 72
     0
 73
     0
 74
     5
  7

 75
    16
147
1.0
 76
     0
 77
     2
 78
   300
148
0.0
149
0.0
100
AcDbLayout
  1
Layout1
 70
     1
 71
     1
 10
0.0
 20
0.0
 11
12.0
 21
9.0
 12
0.0
 22
0.0
 32
0.0
 14
0.0
 24
0.0
 34
0.0
 15
0.0
 25
0.0
 35
0.0
146
0.0
 13
0.0
 23
0.0
 33
0.0
 16
1.0
 26
0.0
 36
0.0
 17
0.0
 27
1.0
 37
0.0
 76
     0
330
6C
  0
LAYOUT
  5
77
102
{ACAD_REACTORS
330
62
102
}
330
62
100
AcDbPlotSettings
  1

  2

  4

  6

 40
0.0
 41
0.0
 42
0.0
 43
0.0
 44
0.0
 45
0.0
 46
0.0
 47
0.0
 48
0.0
 49
0.0
140
0.0
141
0.0
142
1.0
143
1.0
 70
   688
 72
     0
 73
     0
 74
     5
  7

 75
    16
147
1.0
 76
     0
 77
     2
 78
   300
148
0.0
149
0.0
100
AcDbLayout
  1
Layout2
 70
     1
 71
     2
 10
0.0
 20
0.0
 11
12.0
 21
9.0
 12
0.0
 22
0.0
 32
0.0
 14
0.0
 24
0.0
 34
0.0
 15
0.0
 25
0.0
 35
0.0
146
0.0
 13
0.0
 23
0.0
 33
0.0
 16
1.0
 26
0.0
 36
0.0
 17
0.0
 27
1.0
 37
0.0
 76
     0
330
74
  0
LAYOUT
  5
73
102
{ACAD_REACTORS
330
62
102
}
330
62
100
AcDbPlotSettings
  1

  2

  4

  6

 40
0.0
 41
0.0
 42
0.0
 43
0.0
 44
0.0
 45
0.0
 46
0.0
 47
0.0
 48
0.0
 49
0.0
140
0.0
141
0.0
142
1.0
143
1.0
 70
  1712
 72
     0
 73
     0
 74
     0
  7

 75
     0
147
1.0
 76
     0
 77
     2
 78
   300
148
0.0
149
0.0
100
AcDbLayout
  1
Model
 70
     1
 71
     0
 10
0.0
 20
0.0
 11
12.0
 21
9.0
 12
0.0
 22
0.0
 32
0.0
 14
0.0
 24
0.0
 34
0.0
 15
0.0
 25
0.0
 35
0.0
146
0.0
 13
0.0
 23
0.0
 33
0.0
 16
1.0
 26
0.0
 36
0.0
 17
0.0
 27
1.0
 37
0.0
 76
     0
330
70
  0
MATERIAL
  5
19
102
{ACAD_XDICTIONARY
360
1A
102
}
102
{ACAD_REACTORS
330
10
102
}
330
10
100
AcDbMaterial
  1
ByBlock
 72
     0
 43
0.0208333333333333
 43
0.0
 43
0.0
 43
0.0
 43
0.0
 43
0.0208333333333333
 43
0.0
 43
0.0
 43
0.0
 43
0.0
 43
1.0
 43
0.0
 43
0.0
 43
0.0
 43
0.0
 43
1.0
 77
     0
 47
0.0208333333333333
 47
0.0
 47
0.0
 47
0.0
 47
0.0
 47
0.0208333333333333
 47
0.0
 47
0.0
 47
0.0
 47
0.0
 47
1.0
 47
0.0
 47
0.0
 47
0.0
 47
0.0
 47
1.0
171
     0
 49
0.0208333333333333
 49
0.0
 49
0.0
 49
0.0
 49
0.0
 49
0.0208333333333333
 49
0.0
 49
0.0
 49
0.0
 49
0.0
 49
1.0
 49
0.0
 49
0.0
 49
0.0
 49
0.0
 49
1.0
175
     0
142
0.0208333333333333
142
0.0
142
0.0
142
0.0
142
0.0
142
0.0208333333333333
142
0.0
142
0.0
142
0.0
142
0.0
142
1.0
142
0.0
142
0.0
142
0.0
142
0.0
142
1.0
179
     0
144
0.0208333333333333
144
0.0
144
0.0
144
0.0
144
0.0
144
0.0208333333333333
144
0.0
144
0.0
144
0.0
144
0.0
144
1.0
144
0.0
144
0.0
144
0.0
144
0.0
144
1.0
147
0.0208333333333333
147
0.0
147
0.0
147
0.0
147
0.0
147
0.0208333333333333
147
0.0
147
0.0
147
0.0
147
0.0
147
1.0
147
0.0
147
0.0
147
0.0
147
0.0
147
1.0
  0
MATERIAL
  5
11
102
{ACAD_XDICTIONARY
360
12
102
}
102
{ACAD_REACTORS
330
10
102
}
330
10
100
AcDbMaterial
  1
ByLayer
 72
     0
 43
0.0208333333333333
 43
0.0
 43
0.0
 43
0.0
 43
0.0
 43
0.0208333333333333
 43
0.0
 43
0.0
 43
0.0
 43
0.0
 43
1.0
 43
0.0
 43
0.0
 43
0.0
 43
0.0
 43
1.0
 77
     0
 47
0.0208333333333333
 47
0.0
 47
0.0
 47
0.0
 47
0.0
 47
0.0208333333333333
 47
0.0
 47
0.0
 47
0.0
 47
0.0
 47
1.0
 47
0.0
 47
0.0
 47
0.0
 47
0.0
 47
1.0
171
     0
 49
0.0208333333333333
 49
0.0
 49
0.0
 49
0.0
 49
0.0
 49
0.0208333333333333
 49
0.0
 49
0.0
 49
0.0
 49
0.0
 49
1.0
 49
0.0
 49
0.0
 49
0.0
 49
0.0
 49
1.0
175
     0
142
0.0208333333333333
142
0.0
142
0.0
142
0.0
142
0.0
142
0.0208333333333333
142
0.0
142
0.0
142
0.0
142
0.0
142
1.0
142
0.0
142
0.0
142
0.0
142
0.0
142
1.0
179
     0
144
0.0208333333333333
144
0.0
144
0.0
144
0.0
144
0.0
144
0.0208333333333333
144
0.0
144
0.0
144
0.0
144
0.0
144
1.0
144
0.0
144
0.0
144
0.0
144
0.0
144
1.0
147
0.0208333333333333
147
0.0
147
0.0
147
0.0
147
0.0
147
0.0208333333333333
147
0.0
147
0.0
147
0.0
147
0.0
147
1.0
147
0.0
147
0.0
147
0.0
147
0.0
147
1.0
  0
MATERIAL
  5
21
102
{ACAD_XDICTIONARY
360
22
102
}
102
{ACAD_REACTORS
330
10
102
}
330
10
100
AcDbMaterial
  1
Global
 72
     0
 43
0.0208333333333333
 43
0.0
 43
0.0
 43
0.0
 43
0.0
 43
0.0208333333333333
 43
0.0
 43
0.0
 43
0.0
 43
0.0
 43
1.0
 43
0.0
 43
0.0
 43
0.0
 43
0.0
 43
1.0
 77
     0
 47
0.0208333333333333
 47
0.0
 47
0.0
 47
0.0
 47
0.0
 47
0.0208333333333333
 47
0.0
 47
0.0
 47
0.0
 47
0.0
 47
1.0
 47
0.0
 47
0.0
 47
0.0
 47
0.0
 47
1.0
171
     0
 49
0.0208333333333333
 49
0.0
 49
0.0
 49
0.0
 49
0.0
 49
0.0208333333333333
 49
0.0
 49
0.0
 49
0.0
 49
0.0
 49
1.0
 49
0.0
 49
0.0
 49
0.0
 49
0.0
 49
1.0
175
     0
142
0.0208333333333333
142
0.0
142
0.0
142
0.0
142
0.0
142
0.0208333333333333
142
0.0
142
0.0
142
0.0
142
0.0
142
1.0
142
0.0
142
0.0
142
0.0
142
0.0
142
1.0
179
     0
144
0.0208333333333333
144
0.0
144
0.0
144
0.0
144
0.0
144
0.0208333333333333
144
0.0
144
0.0
144
0.0
144
0.0
144
1.0
144
0.0
144
0.0
144
0.0
144
0.0
144
1.0
147
0.0208333333333333
147
0.0
147
0.0
147
0.0
147
0.0
147
0.0208333333333333
147
0.0
147
0.0
147
0.0
147
0.0
147
1.0
147
0.0
147
0.0
147
0.0
147
0.0
147
1.0
  0
MLEADERSTYLE
  5
67
102
{ACAD_REACTORS
330
66
102
}
330
66
100
AcDbMLeaderStyle
179
     2
170
     2
171
     1
172
     0
 90
        2
 40
0.0
 41
0.0
173
     1
 91
-1056964608
340
5B
 92
       -2
290
     1
 42
0.09
291
     1
 43
0.36
  3
Standard
 44
0.18
300

342
55
174
     1
178
     6
175
     1
176
     0
 93
-1056964608
 45
0.18
292
     0
297
     0
 46
0.18
 94
-1056964608
 47
1.0
 49
1.0
140
1.0
293
     1
141
0.0
294
     1
177
     0
142
1.0
295
     1
296
     0
143
0.125
271
     0
272
     9
273
     9
298
     1
  0
MLINESTYLE
  5
60
102
{ACAD_REACTORS
330
5F
102
}
330
5F
100
AcDbMlineStyle
  2
STANDARD
 70
     0
  3

 62
   256
 51
90.0
 52
90.0
 71
     2
 49
0.5
 62
   256
  6
BYLAYER
 49
-0.5
 62
   256
  6
BYLAYER
  0
ACDBPLACEHOLDER
  5
F
102
{ACAD_REACTORS
330
E
102
}
330
E
  0
SCALE
  5
43
102
{ACAD_REACTORS
330
42
102
}
330
42
100
AcDbScale
 70
     0
300
1:1
140
1.0
141
1.0
290
     1
  0
SCALE
  5
44
102
{ACAD_REACTORS
330
42
102
}
330
42
100
AcDbScale
 70
     0
300
1/128" = 1'-0"
140
0.0078125
141
12.0
290
     0
  0
SCALE
  5
45
102
{ACAD_REACTORS
330
42
102
}
330
42
100
AcDbScale
 70
     0
300
1/64" = 1'-0"
140
0.015625
141
12.0
290
     0
  0
SCALE
  5
46
102
{ACAD_REACTORS
330
42
102
}
330
42
100
AcDbScale
 70
     0
300
1/32" = 1'-0"
140
0.03125
141
12.0
290
     0
  0
SCALE
  5
47
102
{ACAD_REACTORS
330
42
102
}
330
42
100
AcDbScale
 70
     0
300
1/16" = 1'-0"
140
0.0625
141
12.0
290
     0
  0
SCALE
  5
48
102
{ACAD_REACTORS
330
42
102
}
330
42
100
AcDbScale
 70
     0
300
3/32" = 1'-0"
140
0.09375
141
12.0
290
     0
  0
SCALE
  5
49
102
{ACAD_REACTORS
330
42
102
}
330
42
100
AcDbScale
 70
     0
300
1/8" = 1'-0"
140
0.125
141
12.0
290
     0
  0
SCALE
  5
4A
102
{ACAD_REACTORS
330
42
102
}
330
42
100
AcDbScale
 70
     0
300
3/16" = 1'-0"
140
0.1875
141
12.0
290
     0
  0
SCALE
  5
4B
102
{ACAD_REACTORS
330
42
102
}
330
42
100
AcDbScale
 70
     0
300
1/4" = 1'-0"
140
0.25
141
12.0
290
     0
  0
SCALE
  5
4C
102
{ACAD_REACTORS
330
42
102
}
330
42
100
AcDbScale
 70
     0
300
3/8" = 1'-0"
140
0.375
141
12.0
290
     0
  0
SCALE
  5
4D
102
{ACAD_REACTORS
330
42
102
}
330
42
100
AcDbScale
 70
     0
300
1/2" = 1'-0"
140
0.5
141
12.0
290
     0
  0
SCALE
  5
4E
102
{ACAD_REACTORS
330
42
102
}
330
42
100
AcDbScale
 70
     0
300
3/4" = 1'-0"
140
0.75
141
12.0
290
     0
  0
SCALE
  5
4F
102
{ACAD_REACTORS
330
42
102
}
330
42
100
AcDbScale
 70
     0
300
1" = 1'-0"
140
1.0
141
12.0
290
     0
  0
SCALE
  5
50
102
{ACAD_REACTORS
330
42
102
}
330
42
100
AcDbScale
 70
     0
300
1-1/2" = 1'-0"
140
1.5
141
12.0
290
     0
  0
SCALE
  5
51
102
{ACAD_REACTORS
330
42
102
}
330
42
100
AcDbScale
 70
     0
300
3" = 1'-0"
140
3.0
141
12.0
290
     0
  0
SCALE
  5
52
102
{ACAD_REACTORS
330
42
102
}
330
42
100
AcDbScale
 70
     0
300
6" = 1'-0"
140
6.0
141
12.0
290
     0
  0
SCALE
  5
53
102
{ACAD_REACTORS
330
42
102
}
330
42
100
AcDbScale
 70
     0
300
1'-0" = 1'-0"
140
12.0
141
12.0
290
     0
  0
ACDBSECTIONVIEWSTYLE
  5
69
102
{ACAD_REACTORS
330
68
102
}
330
68
100
AcDbModelDocViewStyle
 70
     0
  3
Imperial24
290
     1
300
Imperial24
 90
        0
100
AcDbSectionViewStyle
 70
     0
 71
     0
 90
       78
 71
     1
340
55
 62
   256
 40
0.24
340
0
340
0
 62
   256
 40
0.24
300
I, O, Q, S, X, Z
 40
0.48
 90
        3
 40
0.18
 90
        1
 71
     2
340
5D
 90
       25
 62
   256
340
5D
 90
       50
 62
   256
 40
0.24
 40
0.0
 40
0.24
 71
     3
340
55
 62
   256
 40
0.24
 90
        1
 40
0.75
 90
        1
300
%<\AcVar ViewType \f "%tc1">% %<\AcVar ViewSectionStartId>%-%<\AcVar ViewSectionEndId>%\PSCALE %<\AcVar ViewScale \f "%sn">%
 71
     4
 62
   256
 62
   257
300
ANSI31
 40
1.0
 90
        0
290
     0
290
     0
 90
        6
 40
0.0
 40
1.570796326794896
 40
0.2617993877991494
 40
1.308996938995747
 40
-0.2617993877991494
 40
1.832595714594046
  0
TABLESTYLE
  5
65
102
{ACAD_XDICTIONARY
360
183
102
}
102
{ACAD_REACTORS
330
64
102
}
330
64
100
AcDbTableStyle
280
     0
  3
Standard
 70
     0
 71
     0
 40
0.06
 41
0.06
280
     0
281
     0
  7
Standard
140
0.18
170
     2
 62
     0
 63
     7
283
     0
 90
      512
 91
        0
  1

274
    -2
284
     1
 64
     0
275
    -2
285
     1
 65
     0
276
    -2
286
     1
 66
     0
277
    -2
287
     1
 67
     0
278
    -2
288
     1
 68
     0
279
    -2
289
     1
 69
     0
  7
Standard
140
0.25
170
     5
 62
     0
 63
     7
283
     0
 90
      512
 91
        0
  1

274
    -2
284
     1
 64
     0
275
    -2
285
     1
 65
     0
276
    -2
286
     1
 66
     0
277
    -2
287
     1
 67
     0
278
    -2
288
     1
 68
     0
279
    -2
289
     1
 69
     0
  7
Standard
140
0.18
170
     5
 62
     0
 63
     7
283
     0
 90
      512
 91
        0
  1

274
    -2
284
     1
 64
     0
275
    -2
285
     1
 65
     0
276
    -2
286
     1
 66
     0
277
    -2
287
     1
 67
     0
278
    -2
288
     1
 68
     0
279
    -2
289
     1
 69
     0
  0
VISUALSTYLE
  5
2F
102
{ACAD_REACTORS
330
29
102
}
330
29
100
AcDbVisualStyle
  2
2dWireframe
 70
     4
177
     3
291
     0
 70
    58
 90
        0
176
     1
 90
        2
176
     1
 90
        0
176
     1
 90
        0
176
     1
 40
0.6
176
     1
 40
30.0
176
     1
 62
     7
420
 16777215
176
     1
 90
        1
176
     1
 90
        4
176
     1
 62
     7
176
     1
 62
   257
176
     1
 90
        1
176
     1
 90
        1
176
     1
 40
1.0
176
     1
 90
        0
176
     1
 62
   257
176
     1
 40
1.0
176
     1
 90
        1
176
     1
 90
        6
176
     1
 90
        2
176
     1
 62
     7
176
     1
 90
        5
176
     1
 90
        0
176
     1
 90
        0
176
     1
290
     0
176
     1
 90
        1
176
     1
 40
0.0
176
     1
 90
        0
176
     1
290
     1
176
     1
290
     1
176
     1
290
     0
176
     1
290
     0
176
     1
290
     0
176
     1
290
     0
176
     1
290
     0
176
     1
290
     0
176
     1
290
     0
176
     1
 90
       50
176
     1
 40
0.0
176
     1
 40
1.0
176
     1
 90
        0
176
     1
 62
    18
420
        0
176
     1
 90
       50
176
     1
 90
        3
176
     1
 62
     5
420
      255
176
     1
290
     0
176
     1
 90
       50
176
     1
 90
       50
176
     1
 90
       50
176
     1
290
     0
176
     1
 90
       50
176
     1
 62
   256
176
     0
 40
1.0
176
     0
 90
        2
176
     1
  1
strokes_ogs.tif
176
     1
290
     0
176
     1
 40
1.0
176
     1
 40
1.0
176
     1
  0
VISUALSTYLE
  5
2E
102
{ACAD_REACTORS
330
29
102
}
330
29
100
AcDbVisualStyle
  2
Basic
 70
     7
177
     3
291
     1
 70
    58
 90
        1
176
     1
 90
        0
176
     1
 90
        1
176
     1
 90
        0
176
     1
 40
0.6
176
     1
 40
30.0
176
     1
 62
     7
420
 16777215
176
     1
 90
        0
176
     1
 90
        4
176
     1
 62
     7
176
     1
 62
   257
176
     1
 90
        1
176
     1
 90
        1
176
     1
 40
1.0
176
     1
 90
        8
176
     1
 62
     7
176
     1
 40
1.0
176
     1
 90
        1
176
     1
 90
        6
176
     1
 90
        2
176
     1
 62
     7
176
     1
 90
        5
176
     1
 90
        0
176
     1
 90
        0
176
     1
290
     0
176
     1
 90
        1
176
     1
 40
0.0
176
     1
 90
        0
176
     1
290
     0
176
     1
290
     1
176
     1
290
     1
176
     1
290
     0
176
     1
290
     0
176
     1
290
     0
176
     1
290
     0
176
     1
290
     0
176
     1
290
     0
176
     1
 90
       50
176
     1
 40
0.0
176
     1
 40
1.0
176
     1
 90
        0
176
     1
 62
    18
420
        0
176
     1
 90
       50
176
     1
 90
        3
176
     1
 62
     5
420
      255
176
     1
290
     0
176
     1
 90
       50
176
     1
 90
       50
176
     1
 90
       50
176
     1
290
     0
176
     1
 90
       50
176
     1
 62
   256
176
     0
 40
1.0
176
     0
 90
        2
176
     1
  1
strokes_ogs.tif
176
     1
290
     0
176
     1
 40
1.0
176
     1
 40
1.0
176
     1
  0
VISUALSTYLE
  5
35
102
{ACAD_REACTORS
330
29
102
}
330
29
100
AcDbVisualStyle
  2
Brighten
 70
    12
177
     3
291
     1
 70
    58
 90
        2
176
     1
 90
        2
176
     1
 90
        0
176
     1
 90
        0
176
     1
 40
0.6
176
     1
 40
30.0
176
     1
 62
     7
420
 16777215
176
     1
 90
        1
176
     1
 90
        4
176
     1
 62
     7
176
     1
 62
   257
176
     1
 90
        1
176
     1
 90
        1
176
     1
 40
1.0
176
     1
 90
        8
176
     1
 62
     7
176
     1
 40
1.0
176
     1
 90
        1
176
     1
 90
        6
176
     1
 90
        2
176
     1
 62
     7
176
     1
 90
        5
176
     1
 90
        0
176
     1
 90
        0
176
     1
290
     0
176
     1
 90
        1
176
     1
 40
50.0
176
     1
 90
        0
176
     1
290
     0
176
     1
290
     1
176
     1
290
     1
176
     1
290
     0
176
     1
290
     0
176
     1
290
     0
176
     1
290
     0
176
     1
290
     0
176
     1
290
     0
176
     1
 90
       50
176
     1
 40
0.0
176
     1
 40
1.0
176
     1
 90
        0
176
     1
 62
    18
420
        0
176
     1
 90
       50
176
     1
 90
        3
176
     1
 62
     5
420
      255
176
     1
290
     0
176
     1
 90
       50
176
     1
 90
       50
176
     1
 90
       50
176
     1
290
     0
176
     1
 90
       50
176
     1
 62
   256
176
     0
 40
1.0
176
     0
 90
        2
176
     1
  1
strokes_ogs.tif
176
     1
290
     0
176
     1
 40
1.0
176
     1
 40
1.0
176
     1
  0
VISUALSTYLE
  5
39
102
{ACAD_REACTORS
330
29
102
}
330
29
100
AcDbVisualStyle
  2
ColorChange
 70
    16
177
     3
291
     1
 70
    58
 90
        2
176
     1
 90
        2
176
     1
 90
        3
176
     1
 90
        0
176
     1
 40
0.6
176
     1
 40
30.0
176
     1
 62
     8
420
  8421504
176
     1
 90
        1
176
     1
 90
        4
176
     1
 62
     7
176
     1
 62
   257
176
     1
 90
        1
176
     1
 90
        1
176
     1
 40
1.0
176
     1
 90
        8
176
     1
 62
     8
420
  8421504
176
     1
 40
1.0
176
     1
 90
        1
176
     1
 90
        6
176
     1
 90
        2
176
     1
 62
     7
176
     1
 90
        5
176
     1
 90
        0
176
     1
 90
        0
176
     1
290
     0
176
     1
 90
        1
176
     1
 40
0.0
176
     1
 90
        0
176
     1
290
     0
176
     1
290
     1
176
     1
290
     1
176
     1
290
     0
176
     1
290
     0
176
     1
290
     0
176
     1
290
     0
176
     1
290
     0
176
     1
290
     0
176
     1
 90
       50
176
     1
 40
0.0
176
     1
 40
1.0
176
     1
 90
        0
176
     1
 62
    18
420
        0
176
     1
 90
       50
176
     1
 90
        3
176
     1
 62
     5
420
      255
176
     1
290
     0
176
     1
 90
       50
176
     1
 90
       50
176
     1
 90
       50
176
     1
290
     0
176
     1
 90
       50
176
     1
 62
   256
176
     0
 40
1.0
176
     0
 90
        2
176
     1
  1
strokes_ogs.tif
176
     1
290
     0
176
     1
 40
1.0
176
     1
 40
1.0
176
     1
  0
VISUALSTYLE
  5
32
102
{ACAD_REACTORS
330
29
102
}
330
29
100
AcDbVisualStyle
  2
Conceptual
 70
     9
177
     3
291
     0
 70
    58
 90
        3
176
     1
 90
        2
176
     1
 90
        0
176
     1
 90
        0
176
     1
 40
0.6
176
     1
 40
30.0
176
     1
 62
     7
420
 16777215
176
     1
 90
        2
176
     1
 90
        2
176
     1
 62
     7
176
     1
 62
   257
176
     1
 90
        1
176
     1
 90
        1
176
     1
 40
179.0
176
     1
 90
        8
176
     1
 62
     7
176
     1
 40
1.0
176
     1
 90
        1
176
     1
 90
        6
176
     1
 90
        2
176
     1
 62
     7
176
     1
 90
        3
176
     1
 90
        0
176
     1
 90
        0
176
     1
290
     0
176
     1
 90
        1
176
     1
 40
0.0
176
     1
 90
        0
176
     1
290
     0
176
     1
290
     1
176
     1
290
     1
176
     1
290
     0
176
     1
290
     0
176
     1
290
     0
176
     1
290
     0
176
     1
290
     0
176
     1
290
     0
176
     1
 90
       50
176
     1
 40
0.0
176
     1
 40
1.0
176
     1
 90
        0
176
     1
 62
    18
420
        0
176
     1
 90
       50
176
     1
 90
        3
176
     1
 62
     5
420
      255
176
     1
290
     0
176
     1
 90
       50
176
     1
 90
       50
176
     1
 90
       50
176
     1
290
     0
176
     1
 90
       50
176
     1
 62
   256
176
     0
 40
1.0
176
     0
 90
        2
176
     1
  1
strokes_ogs.tif
176
     1
290
     0
176
     1
 40
1.0
176
     1
 40
1.0
176
     1
  0
VISUALSTYLE
  5
34
102
{ACAD_REACTORS
330
29
102
}
330
29
100
AcDbVisualStyle
  2
Dim
 70
    11
177
     3
291
     1
 70
    58
 90
        2
176
     1
 90
        2
176
     1
 90
        0
176
     1
 90
        0
176
     1
 40
0.6
176
     1
 40
30.0
176
     1
 62
     7
420
 16777215
176
     1
 90
        1
176
     1
 90
        4
176
     1
 62
     7
176
     1
 62
   257
176
     1
 90
        1
176
     1
 90
        1
176
     1
 40
1.0
176
     1
 90
        8
176
     1
 62
     7
176
     1
 40
1.0
176
     1
 90
        1
176
     1
 90
        6
176
     1
 90
        2
176
     1
 62
     7
176
     1
 90
        5
176
     1
 90
        0
176
     1
 90
        0
176
     1
290
     0
176
     1
 90
        1
176
     1
 40
-50.0
176
     1
 90
        0
176
     1
290
     0
176
     1
290
     1
176
     1
290
     1
176
     1
290
     0
176
     1
290
     0
176
     1
290
     0
176
     1
290
     0
176
     1
290
     0
176
     1
290
     0
176
     1
 90
       50
176
     1
 40
0.0
176
     1
 40
1.0
176
     1
 90
        0
176
     1
 62
    18
420
        0
176
     1
 90
       50
176
     1
 90
        3
176
     1
 62
     5
420
      255
176
     1
290
     0
176
     1
 90
       50
176
     1
 90
       50
176
     1
 90
       50
176
     1
290
     0
176
     1
 90
       50
176
     1
 62
   256
176
     0
 40
1.0
176
     0
 90
        2
176
     1
  1
strokes_ogs.tif
176
     1
290
     0
176
     1
 40
1.0
176
     1
 40
1.0
176
     1
  0
VISUALSTYLE
  5
41
102
{ACAD_REACTORS
330
29
102
}
330
29
100
AcDbVisualStyle
  2
EdgeColorOff
 70
    22
177
     3
291
     1
 70
    58
 90
        2
176
     0
 90
        2
176
     0
 90
        0
176
     0
 90
        0
176
     0
 40
0.6
176
     0
 40
30.0
176
     0
 62
     7
420
 16777215
176
     0
 90
        1
176
     0
 90
        4
176
     0
 62
     7
176
     0
 62
   257
176
     0
 90
        1
176
     0
 90
        1
176
     0
 40
1.0
176
     0
 90
        8
176
     2
 62
     7
176
     0
 40
1.0
176
     0
 90
        1
176
     0
 90
        6
176
     0
 90
        2
176
     0
 62
     7
176
     0
 90
        5
176
     0
 90
        0
176
     0
 90
        0
176
     0
290
     0
176
     0
 90
        1
176
     0
 40
0.0
176
     0
 90
        0
176
     0
290
     0
176
     0
290
     1
176
     0
290
     1
176
     0
290
     0
176
     0
290
     0
176
     0
290
     0
176
     0
290
     0
176
     0
290
     0
176
     0
290
     0
176
     0
 90
       50
176
     0
 40
0.0
176
     0
 40
1.0
176
     0
 90
        0
176
     0
 62
    18
420
        0
176
     0
 90
       50
176
     0
 90
        3
176
     0
 62
     5
420
      255
176
     0
290
     0
176
     0
 90
       50
176
     0
 90
       50
176
     0
 90
       50
176
     0
290
     0
176
     0
 90
       50
176
     0
 62
   256
176
     0
 40
1.0
176
     0
 90
        2
176
     0
  1
strokes_ogs.tif
176
     0
290
     0
176
     0
 40
1.0
176
     0
 40
1.0
176
     0
  0
VISUALSTYLE
  5
38
102
{ACAD_REACTORS
330
29
102
}
330
29
100
AcDbVisualStyle
  2
Facepattern
 70
    15
177
     3
291
     1
 70
    58
 90
        2
176
     1
 90
        2
176
     1
 90
        0
176
     1
 90
        0
176
     1
 40
0.6
176
     1
 40
30.0
176
     1
 62
     7
420
 16777215
176
     1
 90
        1
176
     1
 90
        4
176
     1
 62
     7
176
     1
 62
   257
176
     1
 90
        1
176
     1
 90
        1
176
     1
 40
1.0
176
     1
 90
        8
176
     1
 62
     7
176
     1
 40
1.0
176
     1
 90
        1
176
     1
 90
        6
176
     1
 90
        2
176
     1
 62
     7
176
     1
 90
        5
176
     1
 90
        0
176
     1
 90
        0
176
     1
290
     0
176
     1
 90
        1
176
     1
 40
0.0
176
     1
 90
        0
176
     1
290
     0
176
     1
290
     1
176
     1
290
     1
176
     1
290
     0
176
     1
290
     0
176
     1
290
     0
176
     1
290
     0
176
     1
290
     0
176
     1
290
     0
176
     1
 90
       50
176
     1
 40
0.0
176
     1
 40
1.0
176
     1
 90
        0
176
     1
 62
    18
420
        0
176
     1
 90
       50
176
     1
 90
        3
176
     1
 62
     5
420
      255
176
     1
290
     0
176
     1
 90
       50
176
     1
 90
       50
176
     1
 90
       50
176
     1
290
     0
176
     1
 90
       50
176
     1
 62
   256
176
     0
 40
1.0
176
     0
 90
        2
176
     1
  1
strokes_ogs.tif
176
     1
290
     0
176
     1
 40
1.0
176
     1
 40
1.0
176
     1
  0
VISUALSTYLE
  5
2A
102
{ACAD_REACTORS
330
29
102
}
330
29
100
AcDbVisualStyle
  2
Flat
 70
     0
177
     3
291
     1
 70
    58
 90
        2
176
     1
 90
        1
176
     1
 90
        1
176
     1
 90
        2
176
     1
 40
0.6
176
     1
 40
30.0
176
     1
 62
     7
420
 16777215
176
     1
 90
        0
176
     1
 90
        0
176
     1
 62
     7
176
     1
 62
   257
176
     1
 90
        1
176
     1
 90
        1
176
     1
 40
1.0
176
     1
 90
        8
176
     1
 62
     7
176
     1
 40
1.0
176
     1
 90
        1
176
     1
 90
        6
176
     1
 90
        2
176
     1
 62
     7
176
     1
 90
        5
176
     1
 90
        0
176
     1
 90
        0
176
     1
290
     0
176
     1
 90
       13
176
     1
 40
0.0
176
     1
 90
        0
176
     1
290
     0
176
     1
290
     1
176
     1
290
     1
176
     1
290
     0
176
     1
290
     0
176
     1
290
     0
176
     1
290
     0
176
     1
290
     0
176
     1
290
     0
176
     1
 90
       50
176
     1
 40
0.0
176
     1
 40
1.0
176
     1
 90
        0
176
     1
 62
    18
420
        0
176
     1
 90
       50
176
     1
 90
        3
176
     1
 62
     5
420
      255
176
     1
290
     0
176
     1
 90
       50
176
     1
 90
       50
176
     1
 90
       50
176
     1
290
     0
176
     1
 90
       50
176
     1
 62
   256
176
     0
 40
1.0
176
     0
 90
        2
176
     1
  1
strokes_ogs.tif
176
     1
290
     0
176
     1
 40
1.0
176
     1
 40
1.0
176
     1
  0
VISUALSTYLE
  5
2B
102
{ACAD_REACTORS
330
29
102
}
330
29
100
AcDbVisualStyle
  2
FlatWithEdges
 70
     1
177
     3
291
     1
 70
    58
 90
        2
176
     1
 90
        1
176
     1
 90
        1
176
     1
 90
        2
176
     1
 40
0.6
176
     1
 40
30.0
176
     1
 62
     7
420
 16777215
176
     1
 90
        1
176
     1
 90
        0
176
     1
 62
     7
176
     1
 62
   257
176
     1
 90
        1
176
     1
 90
        1
176
     1
 40
1.0
176
     1
 90
        0
176
     1
 62
   257
176
     1
 40
1.0
176
     1
 90
        1
176
     1
 90
        6
176
     1
 90
        2
176
     1
 62
     7
176
     1
 90
        5
176
     1
 90
        0
176
     1
 90
        0
176
     1
290
     0
176
     1
 90
       13
176
     1
 40
0.0
176
     1
 90
        0
176
     1
290
     0
176
     1
290
     1
176
     1
290
     1
176
     1
290
     0
176
     1
290
     0
176
     1
290
     0
176
     1
290
     0
176
     1
290
     0
176
     1
290
     0
176
     1
 90
       50
176
     1
 40
0.0
176
     1
 40
1.0
176
     1
 90
        0
176
     1
 62
    18
420
        0
176
     1
 90
       50
176
     1
 90
        3
176
     1
 62
     5
420
      255
176
     1
290
     0
176
     1
 90
       50
176
     1
 90
       50
176
     1
 90
       50
176
     1
290
     0
176
     1
 90
       50
176
     1
 62
   256
176
     0
 40
1.0
176
     0
 90
        2
176
     1
  1
strokes_ogs.tif
176
     1
290
     0
176
     1
 40
1.0
176
     1
 40
1.0
176
     1
  0
VISUALSTYLE
  5
2C
102
{ACAD_REACTORS
330
29
102
}
330
29
100
AcDbVisualStyle
  2
Gouraud
 70
     2
177
     3
291
     1
 70
    58
 90
        2
176
     1
 90
        2
176
     1
 90
        1
176
     1
 90
        2
176
     1
 40
0.6
176
     1
 40
30.0
176
     1
 62
     7
420
 16777215
176
     1
 90
        0
176
     1
 90
        0
176
     1
 62
     7
176
     1
 62
   257
176
     1
 90
        1
176
     1
 90
        1
176
     1
 40
1.0
176
     1
 90
        0
176
     1
 62
     7
176
     1
 40
1.0
176
     1
 90
        1
176
     1
 90
        6
176
     1
 90
        2
176
     1
 62
     7
176
     1
 90
        5
176
     1
 90
        0
176
     1
 90
        0
176
     1
290
     0
176
     1
 90
       13
176
     1
 40
0.0
176
     1
 90
        0
176
     1
290
     0
176
     1
290
     1
176
     1
290
     1
176
     1
290
     0
176
     1
290
     0
176
     1
290
     0
176
     1
290
     0
176
     1
290
     0
176
     1
290
     0
176
     1
 90
       50
176
     1
 40
0.0
176
     1
 40
1.0
176
     1
 90
        0
176
     1
 62
    18
420
        0
176
     1
 90
       50
176
     1
 90
        3
176
     1
 62
     5
420
      255
176
     1
290
     0
176
     1
 90
       50
176
     1
 90
       50
176
     1
 90
       50
176
     1
290
     0
176
     1
 90
       50
176
     1
 62
   256
176
     0
 40
1.0
176
     0
 90
        2
176
     1
  1
strokes_ogs.tif
176
     1
290
     0
176
     1
 40
1.0
176
     1
 40
1.0
176
     1
  0
VISUALSTYLE
  5
2D
102
{ACAD_REACTORS
330
29
102
}
330
29
100
AcDbVisualStyle
  2
GouraudWithEdges
 70
     3
177
     3
291
     1
 70
    58
 90
        2
176
     1
 90
        2
176
     1
 90
        1
176
     1
 90
        2
176
     1
 40
0.6
176
     1
 40
30.0
176
     1
 62
     7
420
 16777215
176
     1
 90
        1
176
     1
 90
        0
176
     1
 62
     7
176
     1
 62
   257
176
     1
 90
        1
176
     1
 90
        1
176
     1
 40
1.0
176
     1
 90
        0
176
     1
 62
   257
176
     1
 40
1.0
176
     1
 90
        1
176
     1
 90
        6
176
     1
 90
        2
176
     1
 62
     7
176
     1
 90
        5
176
     1
 90
        0
176
     1
 90
        0
176
     1
290
     0
176
     1
 90
       13
176
     1
 40
0.0
176
     1
 90
        0
176
     1
290
     0
176
     1
290
     1
176
     1
290
     1
176
     1
290
     0
176
     1
290
     0
176
     1
290
     0
176
     1
290
     0
176
     1
290
     0
176
     1
290
     0
176
     1
 90
       50
176
     1
 40
0.0
176
     1
 40
1.0
176
     1
 90
        0
176
     1
 62
    18
420
        0
176
     1
 90
       50
176
     1
 90
        3
176
     1
 62
     5
420
      255
176
     1
290
     0
176
     1
 90
       50
176
     1
 90
       50
176
     1
 90
       50
176
     1
290
     0
176
     1
 90
       50
176
     1
 62
   256
176
     0
 40
1.0
176
     0
 90
        2
176
     1
  1
strokes_ogs.tif
176
     1
290
     0
176
     1
 40
1.0
176
     1
 40
1.0
176
     1
  0
VISUALSTYLE
  5
31
102
{ACAD_REACTORS
330
29
102
}
330
29
100
AcDbVisualStyle
  2
Hidden
 70
     6
177
     3
291
     0
 70
    58
 90
        1
176
     1
 90
        2
176
     1
 90
        2
176
     1
 90
        0
176
     1
 40
0.6
176
     1
 40
30.0
176
     1
 62
     7
420
 16777215
176
     1
 90
        2
176
     1
 90
        2
176
     1
 62
     7
176
     1
 62
   257
176
     1
 90
        2
176
     1
 90
        1
176
     1
 40
40.0
176
     1
 90
        0
176
     1
 62
   257
176
     1
 40
1.0
176
     1
 90
        1
176
     1
 90
        6
176
     1
 90
        2
176
     1
 62
     7
176
     1
 90
        3
176
     1
 90
        0
176
     1
 90
        0
176
     1
290
     0
176
     1
 90
        1
176
     1
 40
0.0
176
     1
 90
        0
176
     1
290
     0
176
     1
290
     1
176
     1
290
     1
176
     1
290
     0
176
     1
290
     0
176
     1
290
     0
176
     1
290
     0
176
     1
290
     0
176
     1
290
     0
176
     1
 90
       50
176
     1
 40
0.0
176
     1
 40
1.0
176
     1
 90
        0
176
     1
 62
    18
420
        0
176
     1
 90
       50
176
     1
 90
        3
176
     1
 62
     5
420
      255
176
     1
290
     0
176
     1
 90
       50
176
     1
 90
       50
176
     1
 90
       50
176
     1
290
     0
176
     1
 90
       50
176
     1
 62
   256
176
     0
 40
1.0
176
     0
 90
        2
176
     1
  1
strokes_ogs.tif
176
     1
290
     0
176
     1
 40
1.0
176
     1
 40
1.0
176
     1
  0
VISUALSTYLE
  5
3F
102
{ACAD_REACTORS
330
29
102
}
330
29
100
AcDbVisualStyle
  2
JitterOff
 70
    20
177
     3
291
     1
 70
    58
 90
        2
176
     0
 90
        2
176
     0
 90
        0
176
     0
 90
        0
176
     0
 40
0.6
176
     0
 40
30.0
176
     0
 62
     7
420
 16777215
176
     0
 90
        1
176
     0
 90
        4
176
     0
 62
     7
176
     0
 62
   257
176
     0
 90
        1
176
     0
 90
        1
176
     0
 40
1.0
176
     0
 90
       10
176
     2
 62
     7
176
     0
 40
1.0
176
     0
 90
        1
176
     0
 90
        6
176
     0
 90
        2
176
     0
 62
     7
176
     0
 90
        5
176
     0
 90
        0
176
     0
 90
        0
176
     0
290
     0
176
     0
 90
        1
176
     0
 40
0.0
176
     0
 90
        0
176
     0
290
     0
176
     0
290
     1
176
     0
290
     1
176
     0
290
     0
176
     0
290
     0
176
     0
290
     0
176
     0
290
     0
176
     0
290
     0
176
     0
290
     0
176
     0
 90
       50
176
     0
 40
0.0
176
     0
 40
1.0
176
     0
 90
        0
176
     0
 62
    18
420
        0
176
     0
 90
       50
176
     0
 90
        3
176
     0
 62
     5
420
      255
176
     0
290
     0
176
     0
 90
       50
176
     0
 90
       50
176
     0
 90
       50
176
     0
290
     0
176
     0
 90
       50
176
     0
 62
   256
176
     0
 40
1.0
176
     0
 90
        2
176
     0
  1
strokes_ogs.tif
176
     0
290
     0
176
     0
 40
1.0
176
     0
 40
1.0
176
     0
  0
VISUALSTYLE
  5
37
102
{ACAD_REACTORS
330
29
102
}
330
29
100
AcDbVisualStyle
  2
Linepattern
 70
    14
177
     3
291
     1
 70
    58
 90
        2
176
     1
 90
        2
176
     1
 90
        0
176
     1
 90
        0
176
     1
 40
0.6
176
     1
 40
30.0
176
     1
 62
     7
420
 16777215
176
     1
 90
        1
176
     1
 90
        4
176
     1
 62
     7
176
     1
 62
   257
176
     1
 90
        7
176
     1
 90
        7
176
     1
 40
1.0
176
     1
 90
        8
176
     1
 62
     7
176
     1
 40
1.0
176
     1
 90
        1
176
     1
 90
        6
176
     1
 90
        2
176
     1
 62
     7
176
     1
 90
        5
176
     1
 90
        0
176
     1
 90
        0
176
     1
290
     0
176
     1
 90
        1
176
     1
 40
0.0
176
     1
 90
        0
176
     1
290
     0
176
     1
290
     1
176
     1
290
     1
176
     1
290
     0
176
     1
290
     0
176
     1
290
     0
176
     1
290
     0
176
     1
290
     0
176
     1
290
     0
176
     1
 90
       50
176
     1
 40
0.0
176
     1
 40
1.0
176
     1
 90
        0
176
     1
 62
    18
420
        0
176
     1
 90
       50
176
     1
 90
        3
176
     1
 62
     5
420
      255
176
     1
290
     0
176
     1
 90
       50
176
     1
 90
       50
176
     1
 90
       50
176
     1
290
     0
176
     1
 90
       50
176
     1
 62
   256
176
     0
 40
1.0
176
     0
 90
        2
176
     1
  1
strokes_ogs.tif
176
     1
290
     0
176
     1
 40
1.0
176
     1
 40
1.0
176
     1
  0
VISUALSTYLE
  5
40
102
{ACAD_REACTORS
330
29
102
}
330
29
100
AcDbVisualStyle
  2
OverhangOff
 70
    21
177
     3
291
     1
 70
    58
 90
        2
176
     0
 90
        2
176
     0
 90
        0
176
     0
 90
        0
176
     0
 40
0.6
176
     0
 40
30.0
176
     0
 62
     7
420
 16777215
176
     0
 90
        1
176
     0
 90
        4
176
     0
 62
     7
176
     0
 62
   257
176
     0
 90
        1
176
     0
 90
        1
176
     0
 40
1.0
176
     0
 90
        9
176
     2
 62
     7
176
     0
 40
1.0
176
     0
 90
        1
176
     0
 90
        6
176
     0
 90
        2
176
     0
 62
     7
176
     0
 90
        5
176
     0
 90
        0
176
     0
 90
        0
176
     0
290
     0
176
     0
 90
        1
176
     0
 40
0.0
176
     0
 90
        0
176
     0
290
     0
176
     0
290
     1
176
     0
290
     1
176
     0
290
     0
176
     0
290
     0
176
     0
290
     0
176
     0
290
     0
176
     0
290
     0
176
     0
290
     0
176
     0
 90
       50
176
     0
 40
0.0
176
     0
 40
1.0
176
     0
 90
        0
176
     0
 62
    18
420
        0
176
     0
 90
       50
176
     0
 90
        3
176
     0
 62
     5
420
      255
176
     0
290
     0
176
     0
 90
       50
176
     0
 90
       50
176
     0
 90
       50
176
     0
290
     0
176
     0
 90
       50
176
     0
 62
   256
176
     0
 40
1.0
176
     0
 90
        2
176
     0
  1
strokes_ogs.tif
176
     0
290
     0
176
     0
 40
1.0
176
     0
 40
1.0
176
     0
  0
VISUALSTYLE
  5
33
102
{ACAD_REACTORS
330
29
102
}
330
29
100
AcDbVisualStyle
  2
Realistic
 70
     8
177
     3
291
     0
 70
    58
 90
        2
176
     1
 90
        3
176
     1
 90
        0
176
     1
 90
        2
176
     1
 40
0.6
176
     1
 40
30.0
176
     1
 62
     7
420
 16777215
176
     1
 90
        0
176
     1
 90
        0
176
     1
 62
     7
176
     1
 62
   257
176
     1
 90
        1
176
     1
 90
        1
176
     1
 40
1.0
176
     1
 90
        8
176
     1
 62
   257
176
     1
 40
1.0
176
     1
 90
        1
176
     1
 90
        6
176
     1
 90
        2
176
     1
 62
     7
176
     1
 90
        3
176
     1
 90
        0
176
     1
 90
        0
176
     1
290
     0
176
     1
 90
       13
176
     1
 40
0.0
176
     1
 90
        0
176
     1
290
     0
176
     1
290
     1
176
     1
290
     1
176
     1
290
     0
176
     1
290
     0
176
     1
290
     0
176
     1
290
     0
176
     1
290
     0
176
     1
290
     0
176
     1
 90
       50
176
     1
 40
0.0
176
     1
 40
1.0
176
     1
 90
        0
176
     1
 62
    18
420
        0
176
     1
 90
       50
176
     1
 90
        3
176
     1
 62
     5
420
      255
176
     1
290
     0
176
     1
 90
       50
176
     1
 90
       50
176
     1
 90
       50
176
     1
290
     0
176
     1
 90
       50
176
     1
 62
   256
176
     0
 40
1.0
176
     0
 90
        2
176
     1
  1
strokes_ogs.tif
176
     1
290
     0
176
     1
 40
1.0
176
     1
 40
1.0
176
     1
  0
VISUALSTYLE
  5
3E
102
{ACAD_REACTORS
330
29
102
}
330
29
100
AcDbVisualStyle
  2
Shaded
 70
    27
177
     3
291
     0
 70
    58
 90
        2
176
     1
 90
        2
176
     1
 90
        1
176
     1
 90
        2
176
     1
 40
0.6
176
     1
 40
30.0
176
     1
 62
     7
420
 16777215
176
     1
 90
        0
176
     1
 90
        4
176
     1
 62
     7
176
     1
 62
   257
176
     1
 90
        1
176
     1
 90
        1
176
     1
 40
1.0
176
     1
 90
        8
176
     1
 62
   257
176
     1
 40
1.0
176
     1
 90
        1
176
     1
 90
        6
176
     1
 90
        2
176
     1
 62
     8
420
  7895160
176
     1
 90
        3
176
     1
 90
        0
176
     1
 90
        0
176
     1
290
     0
176
     1
 90
        5
176
     1
 40
0.0
176
     1
 90
        0
176
     1
290
     0
176
     1
290
     1
176
     1
290
     1
176
     1
290
     0
176
     1
290
     0
176
     1
290
     0
176
     1
290
     0
176
     1
290
     0
176
     1
290
     0
176
     1
 90
       50
176
     1
 40
0.0
176
     1
 40
1.0
176
     1
 90
        0
176
     1
 62
    18
420
        0
176
     1
 90
       50
176
     1
 90
        3
176
     1
 62
     5
420
      255
176
     1
290
     0
176
     1
 90
       50
176
     1
 90
       50
176
     1
 90
       50
176
     1
290
     0
176
     1
 90
       50
176
     1
 62
   256
176
     0
 40
1.0
176
     0
 90
        2
176
     1
  1
strokes_ogs.tif
176
     1
290
     0
176
     1
 40
1.0
176
     1
 40
1.0
176
     1
  0
VISUALSTYLE
  5
3D
102
{ACAD_REACTORS
330
29
102
}
330
29
100
AcDbVisualStyle
  2
Shaded with edges
 70
    26
177
     3
291
     0
 70
    58
 90
        2
176
     1
 90
        2
176
     1
 90
        1
176
     1
 90
        2
176
     1
 40
0.6
176
     1
 40
30.0
176
     1
 62
     7
420
 16777215
176
     1
 90
        1
176
     1
 90
        2
176
     1
 62
     7
176
     1
 62
   257
176
     1
 90
        2
176
     1
 90
        1
176
     1
 40
1.0
176
     1
 90
        8
176
     1
 62
   257
176
     1
 40
1.0
176
     1
 90
        1
176
     1
 90
        6
176
     1
 90
        2
176
     1
 62
     7
176
     1
 90
        3
176
     1
 90
        0
176
     1
 90
        0
176
     1
290
     0
176
     1
 90
        5
176
     1
 40
0.0
176
     1
 90
        0
176
     1
290
     0
176
     1
290
     1
176
     1
290
     1
176
     1
290
     0
176
     1
290
     0
176
     1
290
     0
176
     1
290
     0
176
     1
290
     0
176
     1
290
     0
176
     1
 90
       50
176
     1
 40
0.0
176
     1
 40
1.0
176
     1
 90
        0
176
     1
 62
    18
420
        0
176
     1
 90
       50
176
     1
 90
        3
176
     1
 62
     5
420
      255
176
     1
290
     0
176
     1
 90
       50
176
     1
 90
       50
176
     1
 90
       50
176
     1
290
     0
176
     1
 90
       50
176
     1
 62
   256
176
     0
 40
1.0
176
     0
 90
        2
176
     1
  1
strokes_ogs.tif
176
     1
290
     0
176
     1
 40
1.0
176
     1
 40
1.0
176
     1
  0
VISUALSTYLE
  5
3A
102
{ACAD_REACTORS
330
29
102
}
330
29
100
AcDbVisualStyle
  2
Shades of Gray
 70
    23
177
     3
291
     0
 70
    58
 90
        2
176
     1
 90
        2
176
     1
 90
        3
176
     1
 90
        0
176
     1
 40
0.6
176
     1
 40
30.0
176
     1
 62
     7
420
 16777215
176
     1
 90
        2
176
     1
 90
        2
176
     1
 62
     7
176
     1
 62
     7
176
     1
 90
        1
176
     1
 90
        1
176
     1
 40
40.0
176
     1
 90
        8
176
     1
 62
     7
176
     1
 40
1.0
176
     1
 90
        1
176
     1
 90
        6
176
     1
 90
        2
176
     1
 62
     7
176
     1
 90
        3
176
     1
 90
        0
176
     1
 90
        0
176
     1
290
     0
176
     1
 90
        1
176
     1
 40
0.0
176
     1
 90
        0
176
     1
290
     0
176
     1
290
     1
176
     1
290
     1
176
     1
290
     0
176
     1
290
     0
176
     1
290
     0
176
     1
290
     0
176
     1
290
     0
176
     1
290
     0
176
     1
 90
       50
176
     1
 40
0.0
176
     1
 40
1.0
176
     1
 90
        0
176
     1
 62
    18
420
        0
176
     1
 90
       50
176
     1
 90
        3
176
     1
 62
     5
420
      255
176
     1
290
     0
176
     1
 90
       50
176
     1
 90
       50
176
     1
 90
       50
176
     1
290
     0
176
     1
 90
       50
176
     1
 62
   256
176
     0
 40
1.0
176
     0
 90
        2
176
     1
  1
strokes_ogs.tif
176
     1
290
     0
176
     1
 40
1.0
176
     1
 40
1.0
176
     1
  0
VISUALSTYLE
  5
3B
102
{ACAD_REACTORS
330
29
102
}
330
29
100
AcDbVisualStyle
  2
Sketchy
 70
    24
177
     3
291
     0
 70
    58
 90
        1
176
     1
 90
        2
176
     1
 90
        2
176
     1
 90
        0
176
     1
 40
0.6
176
     1
 40
30.0
176
     1
 62
     7
420
 16777215
176
     1
 90
        2
176
     1
 90
        2
176
     1
 62
     7
176
     1
 62
     7
176
     1
 90
        1
176
     1
 90
        1
176
     1
 40
40.0
176
     1
 90
       11
176
     1
 62
     7
176
     1
 40
1.0
176
     1
 90
        1
176
     1
 90
        6
176
     1
 90
        2
176
     1
 62
     7
176
     1
 90
        6
176
     1
 90
        0
176
     1
 90
        0
176
     1
290
     0
176
     1
 90
        1
176
     1
 40
0.0
176
     1
 90
        0
176
     1
290
     0
176
     1
290
     1
176
     1
290
     1
176
     1
290
     0
176
     1
290
     0
176
     1
290
     0
176
     1
290
     0
176
     1
290
     0
176
     1
290
     0
176
     1
 90
       50
176
     1
 40
0.0
176
     1
 40
1.0
176
     1
 90
        0
176
     1
 62
    18
420
        0
176
     1
 90
       50
176
     1
 90
        3
176
     1
 62
     5
420
      255
176
     1
290
     0
176
     1
 90
       50
176
     1
 90
       50
176
     1
 90
       50
176
     1
290
     0
176
     1
 90
       50
176
     1
 62
   256
176
     0
 40
1.0
176
     0
 90
        2
176
     1
  1
strokes_ogs.tif
176
     1
290
     0
176
     1
 40
1.0
176
     1
 40
1.0
176
     1
  0
VISUALSTYLE
  5
36
102
{ACAD_REACTORS
330
29
102
}
330
29
100
AcDbVisualStyle
  2
Thicken
 70
    13
177
     3
291
     1
 70
    58
 90
        2
176
     1
 90
        2
176
     1
 90
        0
176
     1
 90
        0
176
     1
 40
0.6
176
     1
 40
30.0
176
     1
 62
     7
420
 16777215
176
     1
 90
        1
176
     1
 90
        4
176
     1
 62
     7
176
     1
 62
   257
176
     1
 90
        1
176
     1
 90
        1
176
     1
 40
1.0
176
     1
 90
       12
176
     1
 62
     7
176
     1
 40
1.0
176
     1
 90
        1
176
     1
 90
        6
176
     1
 90
        2
176
     1
 62
     7
176
     1
 90
        5
176
     1
 90
        0
176
     1
 90
        0
176
     1
290
     0
176
     1
 90
        1
176
     1
 40
0.0
176
     1
 90
        0
176
     1
290
     0
176
     1
290
     1
176
     1
290
     1
176
     1
290
     0
176
     1
290
     0
176
     1
290
     0
176
     1
290
     0
176
     1
290
     0
176
     1
290
     0
176
     1
 90
       50
176
     1
 40
0.0
176
     1
 40
1.0
176
     1
 90
        0
176
     1
 62
    18
420
        0
176
     1
 90
       50
176
     1
 90
        3
176
     1
 62
     5
420
      255
176
     1
290
     0
176
     1
 90
       50
176
     1
 90
       50
176
     1
 90
       50
176
     1
290
     0
176
     1
 90
       50
176
     1
 62
   256
176
     0
 40
1.0
176
     0
 90
        2
176
     1
  1
strokes_ogs.tif
176
     1
290
     0
176
     1
 40
1.0
176
     1
 40
1.0
176
     1
  0
VISUALSTYLE
  5
30
102
{ACAD_REACTORS
330
29
102
}
330
29
100
AcDbVisualStyle
  2
Wireframe
 70
     5
177
     3
291
     0
 70
    58
 90
        0
176
     1
 90
        2
176
     1
 90
        0
176
     1
 90
        0
176
     1
 40
0.6
176
     1
 40
30.0
176
     1
 62
     7
420
 16777215
176
     1
 90
        1
176
     1
 90
        4
176
     1
 62
     7
176
     1
 62
   257
176
     1
 90
        1
176
     1
 90
        1
176
     1
 40
1.0
176
     1
 90
        0
176
     1
 62
   257
176
     1
 40
1.0
176
     1
 90
        1
176
     1
 90
        6
176
     1
 90
        2
176
     1
 62
     7
176
     1
 90
        3
176
     1
 90
        0
176
     1
 90
        0
176
     1
290
     0
176
     1
 90
        1
176
     1
 40
0.0
176
     1
 90
        0
176
     1
290
     0
176
     1
290
     1
176
     1
290
     1
176
     1
290
     0
176
     1
290
     0
176
     1
290
     0
176
     1
290
     0
176
     1
290
     0
176
     1
290
     0
176
     1
 90
       50
176
     1
 40
0.0
176
     1
 40
1.0
176
     1
 90
        0
176
     1
 62
    18
420
        0
176
     1
 90
       50
176
     1
 90
        3
176
     1
 62
     5
420
      255
176
     1
290
     0
176
     1
 90
       50
176
     1
 90
       50
176
     1
 90
       50
176
     1
290
     0
176
     1
 90
       50
176
     1
 62
   256
176
     0
 40
1.0
176
     0
 90
        2
176
     1
  1
strokes_ogs.tif
176
     1
290
     0
176
     1
 40
1.0
176
     1
 40
1.0
176
     1
  0
VISUALSTYLE
  5
3C
102
{ACAD_REACTORS
330
29
102
}
330
29
100
AcDbVisualStyle
  2
X-Ray
 70
    25
177
     3
291
     0
 70
    58
 90
        2
176
     1
 90
        2
176
     1
 90
        1
176
     1
 90
        1
176
     1
 40
0.5
176
     1
 40
30.0
176
     1
 62
     7
420
 16777215
176
     1
 90
        1
176
     1
 90
        0
176
     1
 62
     7
176
     1
 62
   257
176
     1
 90
        1
176
     1
 90
        1
176
     1
 40
1.0
176
     1
 90
        8
176
     1
 62
     7
176
     1
 40
1.0
176
     1
 90
        1
176
     1
 90
        6
176
     1
 90
        2
176
     1
 62
     7
176
     1
 90
        3
176
     1
 90
        0
176
     1
 90
        0
176
     1
290
     0
176
     1
 90
       13
176
     1
 40
0.0
176
     1
 90
        0
176
     1
290
     0
176
     1
290
     1
176
     1
290
     1
176
     1
290
     0
176
     1
290
     0
176
     1
290
     0
176
     1
290
     0
176
     1
290
     0
176
     1
290
     0
176
     1
 90
       50
176
     1
 40
0.0
176
     1
 40
1.0
176
     1
 90
        0
176
     1
 62
    18
420
        0
176
     1
 90
       50
176
     1
 90
        3
176
     1
 62
     5
420
      255
176
     1
290
     0
176
     1
 90
       50
176
     1
 90
       50
176
     1
 90
       50
176
     1
290
     0
176
     1
 90
       50
176
     1
 62
   256
176
     0
 40
1.0
176
     0
 90
        2
176
     1
  1
strokes_ogs.tif
176
     1
290
     0
176
     1
 40
1.0
176
     1
 40
1.0
176
     1
  0
DICTIONARYVAR
  5
182
102
{ACAD_REACTORS
330
17D
102
}
330
17D
100
DictionaryVariables
280
     0
  1
1:1
  0
DICTIONARYVAR
  5
17F
102
{ACAD_REACTORS
330
17D
102
}
330
17D
100
DictionaryVariables
280
     0
  1
STANDARD
  0
DICTIONARYVAR
  5
17E
102
{ACAD_REACTORS
330
17D
102
}
330
17D
100
DictionaryVariables
280
     0
  1
STANDARD
  0
DICTIONARYVAR
  5
180
102
{ACAD_REACTORS
330
17D
102
}
330
17D
100
DictionaryVariables
280
     0
  1
Imperial24
  0
DICTIONARYVAR
  5
181
102
{ACAD_REACTORS
330
17D
102
}
330
17D
100
DictionaryVariables
280
     0
  1
Imperial24
  0
DICTIONARY
  5
1A
330
19
100
AcDbDictionary
280
     1
281
     1
  3
BUMPTILE
360
1C
  3
DIFFUSETILE
360
1B
  3
OPACITYTILE
360
1F
  3
REFLECTIONTILE
360
1E
  3
REFRACTIONTILE
360
20
  3
SPECULARTILE
360
1D
  0
DICTIONARY
  5
12
330
11
100
AcDbDictionary
280
     1
281
     1
  3
BUMPTILE
360
14
  3
DIFFUSETILE
360
13
  3
OPACITYTILE
360
17
  3
REFLECTIONTILE
360
16
  3
REFRACTIONTILE
360
18
  3
SPECULARTILE
360
15
  0
DICTIONARY
  5
22
330
21
100
AcDbDictionary
280
     1
281
     1
  3
BUMPTILE
360
24
  3
DIFFUSETILE
360
23
  3
OPACITYTILE
360
27
  3
REFLECTIONTILE
360
26
  3
REFRACTIONTILE
360
28
  3
SPECULARTILE
360
25
  0
DICTIONARY
  5
183
330
65
100
AcDbDictionary
280
     1
281
     1
  3
ACAD_ROUNDTRIP_2008_TABLESTYLE_CELLSTYLEMAP
360
184
  0
XRECORD
  5
1C
102
{ACAD_REACTORS
330
1A
102
}
330
1A
100
AcDbXrecord
280
     1
270
     1
271
     1
  0
XRECORD
  5
1B
102
{ACAD_REACTORS
330
1A
102
}
330
1A
100
AcDbXrecord
280
     1
270
     1
271
     1
  0
XRECORD
  5
1F
102
{ACAD_REACTORS
330
1A
102
}
330
1A
100
AcDbXrecord
280
     1
270
     1
271
     1
  0
XRECORD
  5
1E
102
{ACAD_REACTORS
330
1A
102
}
330
1A
100
AcDbXrecord
280
     1
270
     1
271
     1
  0
XRECORD
  5
20
102
{ACAD_REACTORS
330
1A
102
}
330
1A
100
AcDbXrecord
280
     1
270
     1
271
     1
  0
XRECORD
  5
1D
102
{ACAD_REACTORS
330
1A
102
}
330
1A
100
AcDbXrecord
280
     1
270
     1
271
     1
  0
XRECORD
  5
14
102
{ACAD_REACTORS
330
12
102
}
330
12
100
AcDbXrecord
280
     1
270
     1
271
     1
  0
XRECORD
  5
13
102
{ACAD_REACTORS
330
12
102
}
330
12
100
AcDbXrecord
280
     1
270
     1
271
     1
  0
XRECORD
  5
17
102
{ACAD_REACTORS
330
12
102
}
330
12
100
AcDbXrecord
280
     1
270
     1
271
     1
  0
XRECORD
  5
16
102
{ACAD_REACTORS
330
12
102
}
330
12
100
AcDbXrecord
280
     1
270
     1
271
     1
  0
XRECORD
  5
18
102
{ACAD_REACTORS
330
12
102
}
330
12
100
AcDbXrecord
280
     1
270
     1
271
     1
  0
XRECORD
  5
15
102
{ACAD_REACTORS
330
12
102
}
330
12
100
AcDbXrecord
280
     1
270
     1
271
     1
  0
XRECORD
  5
24
102
{ACAD_REACTORS
330
22
102
}
330
22
100
AcDbXrecord
280
     1
270
     1
271
     1
  0
XRECORD
  5
23
102
{ACAD_REACTORS
330
22
102
}
330
22
100
AcDbXrecord
280
     1
270
     1
271
     1
  0
XRECORD
  5
27
102
{ACAD_REACTORS
330
22
102
}
330
22
100
AcDbXrecord
280
     1
270
     1
271
     1
  0
XRECORD
  5
26
102
{ACAD_REACTORS
330
22
102
}
330
22
100
AcDbXrecord
280
     1
270
     1
271
     1
  0
XRECORD
  5
28
102
{ACAD_REACTORS
330
22
102
}
330
22
100
AcDbXrecord
280
     1
270
     1
271
     1
  0
XRECORD
  5
25
102
{ACAD_REACTORS
330
22
102
}
330
22
100
AcDbXrecord
280
     1
270
     1
271
     1
  0
CELLSTYLEMAP
  5
184
102
{ACAD_REACTORS
330
183
102
}
330
183
100
AcDbCellStyleMap
 90
        3
300
CELLSTYLE
  1
TABLEFORMAT_BEGIN
 90
        5
170
     1
 91
        0
 92
    32768
 62
   257
 93
        1
300
CONTENTFORMAT
  1
CONTENTFORMAT_BEGIN
 90
        0
 91
        0
 92
      512
 93
        0
300

 40
0.0
140
1.0
 94
        5
 62
     0
340
55
144
0.25
309
CONTENTFORMAT_END
171
     0
 94
        0
309
TABLEFORMAT_END
  1
CELLSTYLE_BEGIN
 90
        1
 91
        1
300
_TITLE
309
CELLSTYLE_END
300
CELLSTYLE
  1
TABLEFORMAT_BEGIN
 90
        5
170
     1
 91
        0
 92
        0
 62
   257
 93
        1
300
CONTENTFORMAT
  1
CONTENTFORMAT_BEGIN
 90
        0
 91
        0
 92
      512
 93
        0
300

 40
0.0
140
1.0
 94
        5
 62
     0
340
55
144
0.18
309
CONTENTFORMAT_END
171
     0
 94
        0
309
TABLEFORMAT_END
  1
CELLSTYLE_BEGIN
 90
        2
 91
        1
300
_HEADER
309
CELLSTYLE_END
300
CELLSTYLE
  1
TABLEFORMAT_BEGIN
 90
        5
170
     1
 91
        0
 92
        0
 62
   257
 93
        1
300
CONTENTFORMAT
  1
CONTENTFORMAT_BEGIN
 90
        0
 91
        0
 92
      512
 93
        0
300

 40
0.0
140
1.0
 94
        2
 62
     0
340
55
144
0.18
309
CONTENTFORMAT_END
171
     0
 94
        0
309
TABLEFORMAT_END
  1
CELLSTYLE_BEGIN
 90
        3
 91
        2
300
_DATA
309
CELLSTYLE_END
  0
ENDSEC
  0
EOF
