  0
SECTION
  2
HEADER
  9
$ACADVER
  1
AC1032
  9
$ACADMAINTVER
 90
      251
  9
$DWGCODEPAGE
  3
ANSI_1252
  9
$REQUIREDVERSIONS
160
                 0
  9
$INSBASE
 10
0.0
 20
0.0
 30
0.0
  9
$EXTMIN
 10
1.000000000000000E+20
 20
1.000000000000000E+20
 30
1.000000000000000E+20
  9
$EXTMAX
 10
-1.000000000000000E+20
 20
-1.000000000000000E+20
 30
-1.000000000000000E+20
  9
$LIMMIN
 10
0.0
 20
0.0
  9
$LIMMAX
 10
12.0
 20
9.0
  9
$ORTHOMODE
 70
     0
  9
$REGENMODE
 70
     1
  9
$FILLMODE
 70
     1
  9
$QTEXTMODE
 70
     0
  9
$MIRRTEXT
 70
     0
  9
$LTSCALE
 40
1.0
  9
$ATTMODE
 70
     1
  9
$TEXTSIZE
 40
0.2
  9
$TRACEWID
 40
0.05
  9
$TEXTSTYLE
  7
Standard
  9
$CLAYER
  8
0
  9
$CELTYPE
  6
ByLayer
  9
$CECOLOR
 62
   256
  9
$CELTSCALE
 40
1.0
  9
$DISPSILH
 70
     0
  9
$DIMSCALE
 40
1.0
  9
$DIMASZ
 40
0.18
  9
$DIMEXO
 40
0.0625
  9
$DIMDLI
 40
0.38
  9
$DIMRND
 40
0.0
  9
$DIMDLE
 40
0.0
  9
$DIMEXE
 40
0.18
  9
$DIMTP
 40
0.0
  9
$DIMTM
 40
0.0
  9
$DIMTXT
 40
0.18
  9
$DIMCEN
 40
0.09
  9
$DIMTSZ
 40
0.0
  9
$DIMTOL
 70
     0
  9
$DIMLIM
 70
     0
  9
$DIMTIH
 70
     1
  9
$DIMTOH
 70
     1
  9
$DIMSE1
 70
     0
  9
$DIMSE2
 70
     0
  9
$DIMTAD
 70
     0
  9
$DIMZIN
 70
     0
  9
$DIMBLK
  1

  9
$DIMASO
 70
     1
  9
$DIMSHO
 70
     1
  9
$DIMPOST
  1

  9
$DIMAPOST
  1

  9
$DIMALT
 70
     0
  9
$DIMALTD
 70
     2
  9
$DIMALTF
 40
25.4
  9
$DIMLFAC
 40
1.0
  9
$DIMTOFL
 70
     0
  9
$DIMTVP
 40
0.0
  9
$DIMTIX
 70
     0
  9
$DIMSOXD
 70
     0
  9
$DIMSAH
 70
     0
  9
$DIMBLK1
  1

  9
$DIMBLK2
  1

  9
$DIMSTYLE
  2
Standard
  9
$DIMCLRD
 70
     0
  9
$DIMCLRE
 70
     0
  9
$DIMCLRT
 70
     0
  9
$DIMTFAC
 40
1.0
  9
$DIMGAP
 40
0.09
  9
$DIMJUST
 70
     0
  9
$DIMSD1
 70
     0
  9
$DIMSD2
 70
     0
  9
$DIMTOLJ
 70
     1
  9
$DIMTZIN
 70
     0
  9
$DIMALTZ
 70
     0
  9
$DIMALTTZ
 70
     0
  9
$DIMUPT
 70
     0
  9
$DIMDEC
 70
     4
  9
$DIMTDEC
 70
     4
  9
$DIMALTU
 70
     2
  9
$DIMALTTD
 70
     2
  9
$DIMTXSTY
  7
Standard
  9
$DIMAUNIT
 70
     0
  9
$DIMADEC
 70
     0
  9
$DIMALTRND
 40
0.0
  9
$DIMAZIN
 70
     0
  9
$DIMDSEP
 70
    46
  9
$DIMATFIT
 70
     3
  9
$DIMFRAC
 70
     0
  9
$DIMLDRBLK
  1

  9
$DIMLUNIT
 70
     2
  9
$DIMLWD
 70
    -2
  9
$DIMLWE
 70
    -2
  9
$DIMTMOVE
 70
     0
  9
$DIMFXL
 40
1.0
  9
$DIMFXLON
 70
     0
  9
$DIMJOGANG
 40
0.7853981633974483
  9
$DIMTFILL
 70
     0
  9
$DIMTFILLCLR
 70
     0
  9
$DIMARCSYM
 70
     0
  9
$DIMLTYPE
  6

  9
$DIMLTEX1
  6

  9
$DIMLTEX2
  6

  9
$DIMTXTDIRECTION
 70
     0
  9
$LUNITS
 70
     2
  9
$LUPREC
 70
     4
  9
$SKETCHINC
 40
0.1
  9
$FILLETRAD
 40
0.0
  9
$AUNITS
 70
     0
  9
$AUPREC
 70
     0
  9
$MENU
  1
.
  9
$ELEVATION
 40
0.0
  9
$PELEVATION
 40
0.0
  9
$THICKNESS
 40
0.0
  9
$LIMCHECK
 70
     0
  9
$CHAMFERA
 40
0.0
  9
$CHAMFERB
 40
0.0
  9
$CHAMFERC
 40
0.0
  9
$CHAMFERD
 40
0.0
  9
$SKPOLY
 70
     0
  9
$TDCREATE
 40
2460035.512476852
  9
$TDUCREATE
 40
2460035.429143519
  9
$TDUPDATE
 40
2460035.512476852
  9
$TDUUPDATE
 40
2460035.429143519
  9
$TDINDWG
 40
0.0000000000
  9
$TDUSRTIMER
 40
0.0000000000
  9
$USRTIMER
 70
     1
  9
$ANGBASE
 50
0.0
  9
$ANGDIR
 70
     0
  9
$PDMODE
 70
     0
  9
$PDSIZE
 40
0.0
  9
$PLINEWID
 40
0.0
  9
$SPLFRAME
 70
     0
  9
$SPLINETYPE
 70
     6
  9
$SPLINESEGS
 70
     8
  9
$HANDSEED
  5
365
  9
$SURFTAB1
 70
     6
  9
$SURFTAB2
 70
     6
  9
$SURFTYPE
 70
     6
  9
$SURFU
 70
     6
  9
$SURFV
 70
     6
  9
$UCSBASE
  2

  9
$UCSNAME
  2

  9
$UCSORG
 10
0.0
 20
0.0
 30
0.0
  9
$UCSXDIR
 10
1.0
 20
0.0
 30
0.0
  9
$UCSYDIR
 10
0.0
 20
1.0
 30
0.0
  9
$UCSORTHOREF
  2

  9
$UCSORTHOVIEW
 70
     0
  9
$UCSORGTOP
 10
0.0
 20
0.0
 30
0.0
  9
$UCSORGBOTTOM
 10
0.0
 20
0.0
 30
0.0
  9
$UCSORGLEFT
 10
0.0
 20
0.0
 30
0.0
  9
$UCSORGRIGHT
 10
0.0
 20
0.0
 30
0.0
  9
$UCSORGFRONT
 10
0.0
 20
0.0
 30
0.0
  9
$UCSORGBACK
 10
0.0
 20
0.0
 30
0.0
  9
$PUCSBASE
  2

  9
$PUCSNAME
  2

  9
$PUCSORG
 10
0.0
 20
0.0
 30
0.0
  9
$PUCSXDIR
 10
1.0
 20
0.0
 30
0.0
  9
$PUCSYDIR
 10
0.0
 20
1.0
 30
0.0
  9
$PUCSORTHOREF
  2

  9
$PUCSORTHOVIEW
 70
     0
  9
$PUCSORGTOP
 10
0.0
 20
0.0
 30
0.0
  9
$PUCSORGBOTTOM
 10
0.0
 20
0.0
 30
0.0
  9
$PUCSORGLEFT
 10
0.0
 20
0.0
 30
0.0
  9
$PUCSORGRIGHT
 10
0.0
 20
0.0
 30
0.0
  9
$PUCSORGFRONT
 10
0.0
 20
0.0
 30
0.0
  9
$PUCSORGBACK
 10
0.0
 20
0.0
 30
0.0
  9
$USERI1
 70
     0
  9
$USERI2
 70
     0
  9
$USERI3
 70
     0
  9
$USERI4
 70
     0
  9
$USERI5
 70
     0
  9
$USERR1
 40
0.0
  9
$USERR2
 40
0.0
  9
$USERR3
 40
0.0
  9
$USERR4
 40
0.0
  9
$USERR5
 40
0.0
  9
$WORLDVIEW
 70
     1
  9
$SHADEDGE
 70
     3
  9
$SHADEDIF
 70
    70
  9
$TILEMODE
 70
     1
  9
$MAXACTVP
 70
    64
  9
$PINSBASE
 10
0.0
 20
0.0
 30
0.0
  9
$PLIMCHECK
 70
     0
  9
$PEXTMIN
 10
1.000000000000000E+20
 20
1.000000000000000E+20
 30
1.000000000000000E+20
  9
$PEXTMAX
 10
-1.000000000000000E+20
 20
-1.000000000000000E+20
 30
-1.000000000000000E+20
  9
$PLIMMIN
 10
0.0
 20
0.0
  9
$PLIMMAX
 10
12.0
 20
9.0
  9
$UNITMODE
 70
     0
  9
$VISRETAIN
 70
     1
  9
$PLINEGEN
 70
     0
  9
$PSLTSCALE
 70
     1
  9
$TREEDEPTH
 70
  3020
  9
$CMLSTYLE
  2
Standard
  9
$CMLJUST
 70
     0
  9
$CMLSCALE
 40
1.0
  9
$PROXYGRAPHICS
 70
     1
  9
$MEASUREMENT
 70
     0
  9
$CELWEIGHT
370
    -1
  9
$ENDCAPS
280
     0
  9
$JOINSTYLE
280
     0
  9
$LWDISPLAY
290
     1
  9
$INSUNITS
 70
     4
  9
$HYPERLINKBASE
  1

  9
$STYLESHEET
  1

  9
$XEDIT
290
     1
  9
$CEPSNTYPE
380
     0
  9
$PSTYLEMODE
290
     1
  9
$FINGERPRINTGUID
  2
{6D7CEB09-53EA-3D46-AFE2-65A2358FBE50}
  9
$VERSIONGUID
  2
{AC0B700F-B97C-FF4F-81C2-F282B73EA246}
  9
$EXTNAMES
290
     1
  9
$PSVPSCALE
 40
0.0
  9
$OLESTARTUP
290
     0
  9
$SORTENTS
280
   127
  9
$INDEXCTL
280
     0
  9
$HIDETEXT
280
     1
  9
$XCLIPFRAME
280
     2
  9
$HALOGAP
280
     0
  9
$OBSCOLOR
 70
   257
  9
$OBSLTYPE
280
     0
  9
$INTERSECTIONDISPLAY
280
     0
  9
$INTERSECTIONCOLOR
 70
   257
  9
$DIMASSOC
280
     2
  9
$PROJECTNAME
  1

  9
$CAMERADISPLAY
290
     0
  9
$LENSLENGTH
 40
50.0
  9
$CAMERAHEIGHT
 40
0.0
  9
$STEPSPERSEC
 40
2.0
  9
$STEPSIZE
 40
6.0
  9
$3DDWFPREC
 40
2.0
  9
$PSOLWIDTH
 40
0.25
  9
$PSOLHEIGHT
 40
4.0
  9
$LOFTANG1
 40
1.570796326794896
  9
$LOFTANG2
 40
1.570796326794896
  9
$LOFTMAG1
 40
0.0
  9
$LOFTMAG2
 40
0.0
  9
$LOFTPARAM
 70
     7
  9
$LOFTNORMALS
280
     1
  9
$LATITUDE
 40
37.795
  9
$LONGITUDE
 40
-122.394
  9
$NORTHDIRECTION
 40
0.0
  9
$TIMEZONE
 70
 -8000
  9
$LIGHTGLYPHDISPLAY
280
     1
  9
$TILEMODELIGHTSYNCH
280
     1
  9
$CMATERIAL
347
11
  9
$SOLIDHIST
280
     0
  9
$SHOWHIST
280
     1
  9
$DWFFRAME
280
     2
  9
$DGNFRAME
280
     0
  9
$REALWORLDSCALE
290
     1
  9
$INTERFERECOLOR
 62
     1
  9
$INTERFEREOBJVS
345
33
  9
$INTERFEREVPVS
346
30
  9
$CSHADOW
280
     0
  9
$SHADOWPLANELOCATION
 40
0.0
  0
ENDSEC
  0
SECTION
  2
CLASSES
  0
CLASS
  1
ACDBDICTIONARYWDFLT
  2
AcDbDictionaryWithDefault
  3
ObjectDBX Classes
 90
        0
 91
        1
280
     0
281
     0
  0
CLASS
  1
MATERIAL
  2
AcDbMaterial
  3
ObjectDBX Classes
 90
     1153
 91
        3
280
     0
281
     0
  0
CLASS
  1
VISUALSTYLE
  2
AcDbVisualStyle
  3
ObjectDBX Classes
 90
     4095
 91
       24
280
     0
281
     0
  0
CLASS
  1
SCALE
  2
AcDbScale
  3
ObjectDBX Classes
 90
     1153
 91
       17
280
     0
281
     0
  0
CLASS
  1
TABLESTYLE
  2
AcDbTableStyle
  3
ObjectDBX Classes
 90
     4095
 91
        1
280
     0
281
     0
  0
CLASS
  1
MLEADERSTYLE
  2
AcDbMLeaderStyle
  3
ACDB_MLEADERSTYLE_CLASS
 90
     4095
 91
        1
280
     0
281
     0
  0
CLASS
  1
ACDBSECTIONVIEWSTYLE
  2
AcDbSectionViewStyle
  3
ObjectDBX Classes
 90
     1025
 91
        1
280
     0
281
     0
  0
CLASS
  1
ACDBDETAILVIEWSTYLE
  2
AcDbDetailViewStyle
  3
ObjectDBX Classes
 90
     1025
 91
        1
280
     0
281
     0
  0
CLASS
  1
DICTIONARYVAR
  2
AcDbDictionaryVar
  3
ObjectDBX Classes
 90
        0
 91
        5
280
     0
281
     0
  0
CLASS
  1
CELLSTYLEMAP
  2
AcDbCellStyleMap
  3
ObjectDBX Classes
 90
     1152
 91
        1
280
     0
281
     0
  0
ENDSEC
  0
SECTION
  2
TABLES
  0
TABLE
  2
VPORT
  5
8
330
0
100
AcDbSymbolTable
 70
     1
  0
VPORT
  5
57
330
8
100
AcDbSymbolTableRecord
100
AcDbViewportTableRecord
  2
*Active
 70
     0
 10
0.0
 20
0.0
 11
1.0
 21
1.0
 12
0.0
 22
0.0
 13
0.0
 23
0.0
 14
1.0
 24
1.0
 15
0.0
 25
0.0
 16
0.0
 26
0.0
 36
1.0
 17
104.9999999737499
 27
31.49999999212523
 37
0.0
 40
302.9399999242649
 41
0.7070707070707066
 42
50.0
 43
0.0
 44
0.0
 50
0.0
 51
0.0
 71
     0
 72
   100
 73
     1
 74
     1
 75
     0
 76
     0
 77
     0
 78
     0
281
     0
 65
     1
110
0.0
120
0.0
130
0.0
111
1.0
121
0.0
131
0.0
112
0.0
122
1.0
132
0.0
 79
     0
146
0.0
 60
     3
 61
     5
292
     1
282
     1
141
0.0
142
0.0
 63
   250
421
  3355443
  0
ENDTAB
  0
TABLE
  2
LTYPE
  5
5
330
0
100
AcDbSymbolTable
 70
     1
  0
LTYPE
  5
5B
330
5
100
AcDbSymbolTableRecord
100
AcDbLinetypeTableRecord
  2
ByBlock
 70
     0
  3

 72
    65
 73
     0
 40
0.0
  0
LTYPE
  5
5C
330
5
100
AcDbSymbolTableRecord
100
AcDbLinetypeTableRecord
  2
ByLayer
 70
     0
  3

 72
    65
 73
     0
 40
0.0
  0
LTYPE
  5
5D
330
5
100
AcDbSymbolTableRecord
100
AcDbLinetypeTableRecord
  2
Continuous
 70
     0
  3
Solid line
 72
    65
 73
     0
 40
0.0
  0
ENDTAB
  0
TABLE
  2
LAYER
  5
2
330
0
100
AcDbSymbolTable
 70
     2
  0
LAYER
  5
54
330
2
100
AcDbSymbolTableRecord
100
AcDbLayerTableRecord
  2
0
 70
     0
 62
     7
  6
Continuous
370
     0
390
F
347
21
348
0
  0
LAYER
  5
337
330
2
100
AcDbSymbolTableRecord
100
AcDbLayerTableRecord
  2
CAPA_BASE
 70
     0
 62
     7
  6
Continuous
370
     0
390
F
347
21
348
0
  0
ENDTAB
  0
TABLE
  2
STYLE
  5
3
330
0
100
AcDbSymbolTable
 70
     2
  0
STYLE
  5
55
330
3
100
AcDbSymbolTableRecord
100
AcDbTextStyleTableRecord
  2
Standard
 70
     0
 40
0.0
 41
1.0
 50
0.0
 71
     0
 42
0.2
  3
txt
  4

  0
STYLE
  5
5A
330
3
100
AcDbSymbolTableRecord
100
AcDbTextStyleTableRecord
  2
Annotative
 70
     0
 40
0.0
 41
1.0
 50
0.0
 71
     0
 42
0.2
  3
txt
  4

1001
AcadAnnotative
1000
AnnotativeData
1002
{
1070
     1
1070
     1
1002
}
  0
ENDTAB
  0
TABLE
  2
VIEW
  5
6
330
0
100
AcDbSymbolTable
 70
     0
  0
ENDTAB
  0
TABLE
  2
UCS
  5
7
330
0
100
AcDbSymbolTable
 70
     0
  0
ENDTAB
  0
TABLE
  2
APPID
  5
9
330
0
100
AcDbSymbolTable
 70
     2
  0
APPID
  5
56
330
9
100
AcDbSymbolTableRecord
100
AcDbRegAppTableRecord
  2
ACAD
 70
     0
  0
APPID
  5
5E
330
9
100
AcDbSymbolTableRecord
100
AcDbRegAppTableRecord
  2
AcadAnnotative
 70
     0
  0
ENDTAB
  0
TABLE
  2
DIMSTYLE
  5
A
330
0
100
AcDbSymbolTable
 70
     2
100
AcDbDimStyleTable
 71
     0
  0
DIMSTYLE
105
58
330
A
100
AcDbSymbolTableRecord
100
AcDbDimStyleTableRecord
  2
Standard
 70
     0
340
55
  0
DIMSTYLE
105
59
330
A
100
AcDbSymbolTableRecord
100
AcDbDimStyleTableRecord
  2
Annotative
 70
     0
340
55
1001
AcadAnnotative
1000
AnnotativeData
1002
{
1070
     1
1070
     1
1002
}
  0
ENDTAB
  0
TABLE
  2
BLOCK_RECORD
  5
1
330
0
100
AcDbSymbolTable
 70
     4
  0
BLOCK_RECORD
  5
70
330
1
100
AcDbSymbolTableRecord
100
AcDbBlockTableRecord
  2
*Model_Space
340
73
 70
     0
280
     1
281
     0
  0
BLOCK_RECORD
  5
6C
330
1
100
AcDbSymbolTableRecord
100
AcDbBlockTableRecord
  2
*Paper_Space
340
6F
 70
     0
280
     1
281
     0
  0
BLOCK_RECORD
  5
74
330
1
100
AcDbSymbolTableRecord
100
AcDbBlockTableRecord
  2
*Paper_Space0
340
77
 70
     0
280
     1
281
     0
  0
BLOCK_RECORD
  5
338
330
1
100
AcDbSymbolTableRecord
100
AcDbBlockTableRecord
  2
Block_0
340
0
102
{BLKREFS
331
339
102
}
 70
     0
280
     1
281
     0
  0
BLOCK_RECORD
  5
344
330
1
100
AcDbSymbolTableRecord
100
AcDbBlockTableRecord
  2
Block_1
340
0
102
{BLKREFS
331
345
102
}
 70
     0
280
     1
281
     0
  0
BLOCK_RECORD
  5
350
330
1
100
AcDbSymbolTableRecord
100
AcDbBlockTableRecord
  2
Block_2
340
0
102
{BLKREFS
331
351
102
}
 70
     0
280
     1
281
     0
  0
ENDTAB
  0
ENDSEC
  0
SECTION
  2
BLOCKS
  0
BLOCK
  5
71
330
70
100
AcDbEntity
  8
0
100
AcDbBlockBegin
  2
*Model_Space
 70
     0
 10
0.0
 20
0.0
 30
0.0
  3
*Model_Space
  1

  0
ENDBLK
  5
72
330
70
100
AcDbEntity
  8
0
100
AcDbBlockEnd
  0
BLOCK
  5
6D
330
6C
100
AcDbEntity
 67
     1
  8
0
100
AcDbBlockBegin
  2
*Paper_Space
 70
     0
 10
0.0
 20
0.0
 30
0.0
  3
*Paper_Space
  1

  0
ENDBLK
  5
6E
330
6C
100
AcDbEntity
 67
     1
  8
0
100
AcDbBlockEnd
  0
BLOCK
  5
75
330
74
100
AcDbEntity
 67
     1
  8
0
100
AcDbBlockBegin
  2
*Paper_Space0
 70
     0
 10
0.0
 20
0.0
 30
0.0
  3
*Paper_Space0
  1

  0
ENDBLK
  5
76
330
74
100
AcDbEntity
 67
     1
  8
0
100
AcDbBlockEnd
  0
BLOCK
  5
33A
330
338
100
AcDbEntity
  8
0
100
AcDbBlockBegin
  2
Block_0
 70
     0
 10
0.0
 20
0.0
 30
0.0
  3
Block_0
  1

  0
LWPOLYLINE
  5
33C
330
338
100
AcDbEntity
  8
CAPA_BASE
100
AcDbPolyline
 90
        4
 70
     1
 43
0.0
 10
110.3924804676274
 20
74.6942922942641
 10
107.8924804676283
 20
75.00429229426382
 10
107.8924804676283
 20
74.38429229426437
 10
107.8924804676283
 20
74.38429229426437
  0
HATCH
  5
33D
330
338
100
AcDbEntity
  8
CAPA_BASE
 62
    18
420
        0
440
 33554687
100
AcDbHatch
 10
0.0
 20
0.0
 30
0.0
210
0.0
220
0.0
230
1.0
  2
SOLID
 70
     1
 71
     1
 91
        1
 92
        1
 93
        3
 72
     1
 10
110.3924804676274
 20
74.6942922942641
 11
107.8924804676283
 21
75.00429229426382
 72
     1
 10
107.8924804676283
 20
75.00429229426382
 11
107.8924804676283
 21
74.38429229426437
 72
     1
 10
107.8924804676283
 20
74.38429229426437
 11
110.3924804676274
 21
74.6942922942641
 97
        1
330
33C
 75
     2
 76
     1
 98
        1
 10
0.0
 20
0.0
450
        0
451
        0
460
0.0
461
0.0
452
        0
462
0.0
453
        0
470

  0
LWPOLYLINE
  5
33E
330
338
100
AcDbEntity
  8
CAPA_BASE
100
AcDbPolyline
 90
        4
 70
     1
 43
0.0
 10
10.39248046762809
 20
74.6942922942641
 10
12.89248046762785
 20
74.38429229426437
 10
12.89248046762785
 20
75.00429229426382
 10
12.89248046762785
 20
75.00429229426382
  0
HATCH
  5
33F
330
338
100
AcDbEntity
  8
CAPA_BASE
 62
    18
420
        0
440
 33554687
100
AcDbHatch
 10
0.0
 20
0.0
 30
0.0
210
0.0
220
0.0
230
1.0
  2
SOLID
 70
     1
 71
     1
 91
        1
 92
        1
 93
        3
 72
     1
 10
10.39248046762809
 20
74.6942922942641
 11
12.89248046762785
 21
74.38429229426437
 72
     1
 10
12.89248046762785
 20
74.38429229426437
 11
12.89248046762785
 21
75.00429229426382
 72
     1
 10
12.89248046762785
 20
75.00429229426382
 11
10.39248046762809
 21
74.6942922942641
 97
        1
330
33E
 75
     2
 76
     1
 98
        1
 10
0.0
 20
0.0
450
        0
451
        0
460
0.0
461
0.0
452
        0
462
0.0
453
        0
470

  0
LINE
  5
340
330
338
100
AcDbEntity
  8
CAPA_BASE
 62
    18
420
        0
370
    25
100
AcDbLine
 10
110.3924804676274
 20
93.97247794756399
 30
0.0
 11
110.3924804676274
 21
73.69429229426406
 31
0.0
  0
LINE
  5
341
330
338
100
AcDbEntity
  8
CAPA_BASE
 62
    18
420
        0
370
    25
100
AcDbLine
 10
10.39248046762809
 20
93.97247794756399
 30
0.0
 11
10.39248046762809
 21
73.69429229426406
 31
0.0
  0
LINE
  5
342
330
338
100
AcDbEntity
  8
CAPA_BASE
 62
    18
420
        0
370
    25
100
AcDbLine
 10
110.3924804676274
 20
74.6942922942641
 30
0.0
 11
10.39248046762809
 21
74.6942922942641
 31
0.0
  0
MTEXT
  5
343
330
338
100
AcDbEntity
  8
CAPA_BASE
100
AcDbMText
 10
57.74664746006421
 20
75.48804408411465
 30
0.0
 40
0.2
 41
0.0
 46
0.0
 71
     7
 72
     1
  1
\C18;\c0;\FArial Bold|b1|i0|c1;\H2.997200;\W0.700000;200
 73
     1
 44
1.0
  0
ENDBLK
  5
33B
330
338
100
AcDbEntity
  8
0
100
AcDbBlockEnd
  0
BLOCK
  5
346
330
344
100
AcDbEntity
  8
0
100
AcDbBlockBegin
  2
Block_1
 70
     0
 10
0.0
 20
0.0
 30
0.0
  3
Block_1
  1

  0
LWPOLYLINE
  5
348
330
344
100
AcDbEntity
  8
CAPA_BASE
100
AcDbPolyline
 90
        4
 70
     1
 43
0.0
 10
129.2962780044281
 20
109.722477947564
 10
128.9862780044284
 20
107.2224779475643
 10
129.6062780044278
 20
107.2224779475643
 10
129.6062780044278
 20
107.2224779475643
  0
HATCH
  5
349
330
344
100
AcDbEntity
  8
CAPA_BASE
 62
    18
420
        0
440
 33554687
100
AcDbHatch
 10
0.0
 20
0.0
 30
0.0
210
0.0
220
0.0
230
1.0
  2
SOLID
 70
     1
 71
     1
 91
        1
 92
        1
 93
        3
 72
     1
 10
129.2962780044281
 20
109.722477947564
 11
128.9862780044284
 21
107.2224779475643
 72
     1
 10
128.9862780044284
 20
107.2224779475643
 11
129.6062780044278
 21
107.2224779475643
 72
     1
 10
129.6062780044278
 20
107.2224779475643
 11
129.2962780044281
 21
109.722477947564
 97
        1
330
348
 75
     2
 76
     1
 98
        1
 10
0.0
 20
0.0
450
        0
451
        0
460
0.0
461
0.0
452
        0
462
0.0
453
        0
470

  0
LWPOLYLINE
  5
34A
330
344
100
AcDbEntity
  8
CAPA_BASE
100
AcDbPolyline
 90
        4
 70
     1
 43
0.0
 10
129.2962780044281
 20
84.72247794756382
 10
129.6062780044278
 20
87.22247794756423
 10
128.9862780044284
 20
87.22247794756423
 10
128.9862780044284
 20
87.22247794756423
  0
HATCH
  5
34B
330
344
100
AcDbEntity
  8
CAPA_BASE
 62
    18
420
        0
440
 33554687
100
AcDbHatch
 10
0.0
 20
0.0
 30
0.0
210
0.0
220
0.0
230
1.0
  2
SOLID
 70
     1
 71
     1
 91
        1
 92
        1
 93
        3
 72
     1
 10
129.2962780044281
 20
84.72247794756382
 11
129.6062780044278
 21
87.22247794756423
 72
     1
 10
129.6062780044278
 20
87.22247794756423
 11
128.9862780044284
 21
87.22247794756423
 72
     1
 10
128.9862780044284
 20
87.22247794756423
 11
129.2962780044281
 21
84.72247794756382
 97
        1
330
34A
 75
     2
 76
     1
 98
        1
 10
0.0
 20
0.0
450
        0
451
        0
460
0.0
461
0.0
452
        0
462
0.0
453
        0
470

  0
LINE
  5
34C
330
344
100
AcDbEntity
  8
CAPA_BASE
 62
    18
420
        0
370
    25
100
AcDbLine
 10
138.2962780044278
 20
109.722477947564
 30
0.0
 11
128.2962780044274
 21
109.722477947564
 31
0.0
  0
LINE
  5
34D
330
344
100
AcDbEntity
  8
CAPA_BASE
 62
    18
420
        0
370
    25
100
AcDbLine
 10
138.2962780044278
 20
84.72247794756382
 30
0.0
 11
128.2962780044274
 21
84.72247794756382
 31
0.0
  0
LINE
  5
34E
330
344
100
AcDbEntity
  8
CAPA_BASE
 62
    18
420
        0
370
    25
100
AcDbLine
 10
129.2962780044281
 20
109.722477947564
 30
0.0
 11
129.2962780044281
 21
84.72247794756382
 31
0.0
  0
MTEXT
  5
34F
330
344
100
AcDbEntity
  8
CAPA_BASE
100
AcDbMText
 10
128.5025245345254
 20
95.45842825304447
 30
0.0
 40
0.2
 41
0.0
 46
0.0
 71
     7
 72
     1
  1
\C18;\c0;\FArial Bold|b1|i0|c1;\H2.997200;\W0.700000;50
 11
0.0000000000000003
 21
1.0
 31
0.0
 73
     1
 44
1.0
  0
ENDBLK
  5
347
330
344
100
AcDbEntity
  8
0
100
AcDbBlockEnd
  0
BLOCK
  5
352
330
350
100
AcDbEntity
  8
0
100
AcDbBlockBegin
  2
Block_2
 70
     0
 10
0.0
 20
0.0
 30
0.0
  3
Block_2
  1

  0
LWPOLYLINE
  5
354
330
350
100
AcDbEntity
  8
CAPA_BASE
100
AcDbPolyline
 90
        4
 70
     1
 43
0.0
 10
120.3924804676278
 20
55.33115827486421
 10
120.0824804676281
 20
52.8311582748638
 10
120.7024804676275
 20
52.8311582748638
 10
120.7024804676275
 20
52.8311582748638
  0
HATCH
  5
355
330
350
100
AcDbEntity
  8
CAPA_BASE
 62
    18
420
        0
440
 33554687
100
AcDbHatch
 10
0.0
 20
0.0
 30
0.0
210
0.0
220
0.0
230
1.0
  2
SOLID
 70
     1
 71
     1
 91
        1
 92
        1
 93
        3
 72
     1
 10
120.3924804676278
 20
55.33115827486421
 11
120.0824804676281
 21
52.8311582748638
 72
     1
 10
120.0824804676281
 20
52.8311582748638
 11
120.7024804676275
 21
52.8311582748638
 72
     1
 10
120.7024804676275
 20
52.8311582748638
 11
120.3924804676278
 21
55.33115827486421
 97
        1
330
354
 75
     2
 76
     1
 98
        1
 10
0.0
 20
0.0
450
        0
451
        0
460
0.0
461
0.0
452
        0
462
0.0
453
        0
470

  0
LWPOLYLINE
  5
356
330
350
100
AcDbEntity
  8
CAPA_BASE
100
AcDbPolyline
 90
        4
 70
     1
 43
0.0
 10
120.3924804676278
 20
-0.1688417251355079
 10
120.7024804676275
 20
2.331158274864259
 10
120.0824804676281
 20
2.331158274864259
 10
120.0824804676281
 20
2.331158274864259
  0
HATCH
  5
357
330
350
100
AcDbEntity
  8
CAPA_BASE
 62
    18
420
        0
440
 33554687
100
AcDbHatch
 10
0.0
 20
0.0
 30
0.0
210
0.0
220
0.0
230
1.0
  2
SOLID
 70
     1
 71
     1
 91
        1
 92
        1
 93
        3
 72
     1
 10
120.3924804676278
 20
-0.1688417251355079
 11
120.7024804676275
 21
2.331158274864259
 72
     1
 10
120.7024804676275
 20
2.331158274864259
 11
120.0824804676281
 21
2.331158274864259
 72
     1
 10
120.0824804676281
 20
2.331158274864259
 11
120.3924804676278
 21
-0.1688417251355081
 97
        1
330
356
 75
     2
 76
     1
 98
        1
 10
0.0
 20
0.0
450
        0
451
        0
460
0.0
461
0.0
452
        0
462
0.0
453
        0
470

  0
LINE
  5
358
330
350
100
AcDbEntity
  8
CAPA_BASE
 62
    18
420
        0
370
    25
100
AcDbLine
 10
73.8924804676284
 20
55.33115827486421
 30
0.0
 11
121.3924804676284
 21
55.33115827486421
 31
0.0
  0
LINE
  5
359
330
350
100
AcDbEntity
  8
CAPA_BASE
 62
    18
420
        0
370
    25
100
AcDbLine
 10
111.3924804676281
 20
-0.1688417251355079
 30
0.0
 11
121.3924804676284
 21
-0.1688417251355079
 31
0.0
  0
LINE
  5
35A
330
350
100
AcDbEntity
  8
CAPA_BASE
 62
    18
420
        0
370
    25
100
AcDbLine
 10
120.3924804676278
 20
55.33115827486421
 30
0.0
 11
120.3924804676278
 21
-0.1688417251355079
 31
0.0
  0
MTEXT
  5
35B
330
350
100
AcDbEntity
  8
CAPA_BASE
100
AcDbMText
 10
119.5987290825141
 20
24.93525661268916
 30
0.0
 40
0.2
 41
0.0
 46
0.0
 71
     7
 72
     1
  1
\C18;\c0;\FArial Bold|b1|i0|c1;\H2.997200;\W0.700000;111
 11
0.0000000000000003
 21
1.0
 31
0.0
 73
     1
 44
1.0
  0
ENDBLK
  5
353
330
350
100
AcDbEntity
  8
0
100
AcDbBlockEnd
  0
ENDSEC
  0
SECTION
  2
ENTITIES
  0
SPLINE
  5
78
330
70
100
AcDbEntity
  8
0
 62
    18
420
        0
370
    25
100
AcDbSpline
210
0.0
220
0.0
230
1.0
 70
     8
 71
     3
 72
     8
 73
     4
 74
     0
 42
0.0000000001
 43
0.0000000001
 40
0.0
 40
0.0
 40
0.0
 40
0.0
 40
1.0
 40
1.0
 40
1.0
 40
1.0
 10
106.7674804676278
 20
86.22247794756418
 30
0.0
 10
107.5959075923746
 20
86.22247794756418
 30
0.0
 10
108.2674804676276
 20
86.89405082281782
 30
0.0
 10
108.2674804676276
 20
87.72247794756458
 30
0.0
  0
SPLINE
  5
79
330
70
100
AcDbEntity
  8
0
 62
    18
420
        0
370
    25
100
AcDbSpline
210
0.0
220
0.0
230
1.0
 70
     8
 71
     3
 72
     8
 73
     4
 74
     0
 42
0.0000000001
 43
0.0000000001
 40
0.0
 40
0.0
 40
0.0
 40
0.0
 40
1.0
 40
1.0
 40
1.0
 40
1.0
 10
106.7674804676278
 20
84.72247794756382
 30
0.0
 10
108.4243347171201
 20
84.72247794756382
 30
0.0
 10
109.7674804676273
 20
86.0656236980717
 30
0.0
 10
109.7674804676273
 20
87.72247794756458
 30
0.0
  0
LINE
  5
7A
330
70
100
AcDbEntity
  8
0
 62
    18
420
        0
370
    25
100
AcDbLine
 10
108.2674804676276
 20
90.12440173626403
 30
0.0
 11
108.2674804676276
 21
87.72247794756458
 31
0.0
  0
LINE
  5
7B
330
70
100
AcDbEntity
  8
0
 62
    18
420
        0
370
    25
100
AcDbLine
 10
109.7674804676273
 20
87.72247794756458
 30
0.0
 11
109.7674804676273
 21
92.7224779475641
 31
0.0
  0
LINE
  5
7C
330
70
100
AcDbEntity
  8
0
 62
    18
420
        0
370
    25
100
AcDbLine
 10
106.7674804676278
 20
86.22247794756418
 30
0.0
 11
14.01748046762797
 21
86.22247794756418
 31
0.0
  0
LINE
  5
7D
330
70
100
AcDbEntity
  8
0
 62
    18
420
        0
370
    25
100
AcDbLine
 10
14.01748046762797
 20
84.72247794756382
 30
0.0
 11
106.7674804676278
 21
84.72247794756382
 31
0.0
  0
LINE
  5
7E
330
70
100
AcDbEntity
  8
0
 62
    18
420
        0
370
    25
100
AcDbLine
 10
11.01748046762787
 20
92.7224779475641
 30
0.0
 11
11.01748046762787
 21
87.72247794756458
 31
0.0
  0
LINE
  5
7F
330
70
100
AcDbEntity
  8
0
 62
    18
420
        0
370
    25
100
AcDbLine
 10
12.51748046762792
 20
87.72247794756458
 30
0.0
 11
12.51748046762792
 21
90.12440173626403
 31
0.0
  0
SPLINE
  5
80
330
70
100
AcDbEntity
  8
0
 62
    18
420
        0
370
    25
100
AcDbSpline
210
0.0
220
0.0
230
1.0
 70
     8
 71
     3
 72
     8
 73
     4
 74
     0
 42
0.0000000001
 43
0.0000000001
 40
0.0
 40
0.0
 40
0.0
 40
0.0
 40
1.0
 40
1.0
 40
1.0
 40
1.0
 10
12.51748046762792
 20
87.72247794756458
 30
0.0
 10
12.51748046762792
 20
86.89405082281782
 30
0.0
 10
13.18905334288186
 20
86.22247794756418
 30
0.0
 10
14.01748046762797
 20
86.22247794756418
 30
0.0
  0
SPLINE
  5
81
330
70
100
AcDbEntity
  8
0
 62
    18
420
        0
370
    25
100
AcDbSpline
210
0.0
220
0.0
230
1.0
 70
     8
 71
     3
 72
     8
 73
     4
 74
     0
 42
0.0000000001
 43
0.0000000001
 40
0.0
 40
0.0
 40
0.0
 40
0.0
 40
1.0
 40
1.0
 40
1.0
 40
1.0
 10
11.01748046762787
 20
87.72247794756458
 30
0.0
 10
11.01748046762787
 20
86.0656236980717
 30
0.0
 10
12.36062621813543
 20
84.72247794756382
 30
0.0
 10
14.01748046762797
 20
84.72247794756382
 30
0.0
  0
LINE
  5
82
330
70
100
AcDbEntity
  8
0
 62
    18
420
        0
370
    25
100
AcDbLine
 10
108.2674804676276
 20
94.72247794756418
 30
0.0
 11
108.2674804676276
 21
92.7224779475641
 31
0.0
  0
LINE
  5
83
330
70
100
AcDbEntity
  8
0
 62
    18
420
        0
370
    25
100
AcDbLine
 10
109.7674804676273
 20
92.7224779475641
 30
0.0
 11
109.7674804676273
 21
94.72247794756418
 31
0.0
  0
LINE
  5
84
330
70
100
AcDbEntity
  8
0
 62
    18
420
        0
370
    25
100
AcDbLine
 10
106.7674804676278
 20
91.22247794756404
 30
0.0
 11
14.01748046762797
 21
91.22247794756404
 31
0.0
  0
LINE
  5
85
330
70
100
AcDbEntity
  8
0
 62
    18
420
        0
370
    25
100
AcDbLine
 10
14.01748046762797
 20
89.72247794756398
 30
0.0
 11
106.7674804676278
 21
89.72247794756398
 31
0.0
  0
SPLINE
  5
86
330
70
100
AcDbEntity
  8
0
 62
    18
420
        0
370
    25
100
AcDbSpline
210
0.0
220
0.0
230
1.0
 70
     8
 71
     3
 72
     8
 73
     4
 74
     0
 42
0.0000000001
 43
0.0000000001
 40
0.0
 40
0.0
 40
0.0
 40
0.0
 40
1.0
 40
1.0
 40
1.0
 40
1.0
 10
12.51748046762792
 20
92.7224779475641
 30
0.0
 10
12.51748046762792
 20
91.89405082281799
 30
0.0
 10
13.18905334288186
 20
91.22247794756404
 30
0.0
 10
14.01748046762797
 20
91.22247794756404
 30
0.0
  0
SPLINE
  5
87
330
70
100
AcDbEntity
  8
0
 62
    18
420
        0
370
    25
100
AcDbSpline
210
0.0
220
0.0
230
1.0
 70
     8
 71
     3
 72
     8
 73
     4
 74
     0
 42
0.0000000001
 43
0.0000000001
 40
0.0
 40
0.0
 40
0.0
 40
0.0
 40
1.0
 40
1.0
 40
1.0
 40
1.0
 10
11.01748046762787
 20
92.7224779475641
 30
0.0
 10
11.01748046762787
 20
91.06562369807187
 30
0.0
 10
12.36062621813543
 20
89.72247794756398
 30
0.0
 10
14.01748046762797
 20
89.72247794756398
 30
0.0
  0
SPLINE
  5
88
330
70
100
AcDbEntity
  8
0
 62
    18
420
        0
370
    25
100
AcDbSpline
210
0.0
220
0.0
230
1.0
 70
     8
 71
     3
 72
     8
 73
     4
 74
     0
 42
0.0000000001
 43
0.0000000001
 40
0.0
 40
0.0
 40
0.0
 40
0.0
 40
1.0
 40
1.0
 40
1.0
 40
1.0
 10
106.7674804676278
 20
91.22247794756404
 30
0.0
 10
107.5959075923746
 20
91.22247794756404
 30
0.0
 10
108.2674804676276
 20
91.89405082281799
 30
0.0
 10
108.2674804676276
 20
92.7224779475641
 30
0.0
  0
SPLINE
  5
89
330
70
100
AcDbEntity
  8
0
 62
    18
420
        0
370
    25
100
AcDbSpline
210
0.0
220
0.0
230
1.0
 70
     8
 71
     3
 72
     8
 73
     4
 74
     0
 42
0.0000000001
 43
0.0000000001
 40
0.0
 40
0.0
 40
0.0
 40
0.0
 40
1.0
 40
1.0
 40
1.0
 40
1.0
 10
106.7674804676278
 20
89.72247794756398
 30
0.0
 10
108.4243347171201
 20
89.72247794756398
 30
0.0
 10
109.7674804676273
 20
91.06562369807187
 30
0.0
 10
109.7674804676273
 20
92.7224779475641
 30
0.0
  0
LINE
  5
8A
330
70
100
AcDbEntity
  8
0
 62
    18
420
        0
370
    25
100
AcDbLine
 10
11.01748046762787
 20
94.72247794756418
 30
0.0
 11
11.01748046762787
 21
92.7224779475641
 31
0.0
  0
LINE
  5
8B
330
70
100
AcDbEntity
  8
0
 62
    18
420
        0
370
    25
100
AcDbLine
 10
12.51748046762792
 20
92.7224779475641
 30
0.0
 11
12.51748046762792
 21
94.72247794756418
 31
0.0
  0
CIRCLE
  5
8C
330
70
100
AcDbEntity
  8
0
 62
    18
420
        0
370
    25
100
AcDbCircle
 10
60.39248046762793
 20
97.22247794756418
 30
0.0
 40
3.75939849624055
  0
CIRCLE
  5
8D
330
70
100
AcDbEntity
  8
0
 62
    18
420
        0
370
    25
100
AcDbCircle
 10
60.39248046762801
 20
97.22247794756418
 30
0.0
 40
3.9999999999999
  0
SPLINE
  5
8E
330
70
100
AcDbEntity
  8
0
 62
    18
420
        0
370
    25
100
AcDbSpline
210
0.0
220
0.0
230
1.0
 70
     8
 71
     3
 72
     8
 73
     4
 74
     0
 42
0.0000000001
 43
0.0000000001
 40
0.0
 40
0.0
 40
0.0
 40
0.0
 40
1.0
 40
1.0
 40
1.0
 40
1.0
 10
10.64248046762793
 20
99.72247794756404
 30
0.0
 10
10.50440928017036
 20
99.72247794756404
 30
0.0
 10
10.39248046762809
 20
99.61054913502175
 30
0.0
 10
10.39248046762809
 20
99.47247794756417
 30
0.0
  0
LINE
  5
8F
330
70
100
AcDbEntity
  8
0
 62
    18
420
        0
370
    25
100
AcDbLine
 10
12.89248046762785
 20
99.72247794756404
 30
0.0
 11
10.64248046762793
 21
99.72247794756404
 31
0.0
  0
SPLINE
  5
90
330
70
100
AcDbEntity
  8
0
 62
    18
420
        0
370
    25
100
AcDbSpline
210
0.0
220
0.0
230
1.0
 70
     8
 71
     3
 72
     8
 73
     4
 74
     0
 42
0.0000000001
 43
0.0000000001
 40
0.0
 40
0.0
 40
0.0
 40
0.0
 40
1.0
 40
1.0
 40
1.0
 40
1.0
 10
13.14248046762802
 20
99.47247794756417
 30
0.0
 10
13.14248046762802
 20
99.61054913502175
 30
0.0
 10
13.03055165508575
 20
99.72247794756404
 30
0.0
 10
12.89248046762785
 20
99.72247794756404
 30
0.0
  0
LINE
  5
91
330
70
100
AcDbEntity
  8
0
 62
    18
420
        0
370
    25
100
AcDbLine
 10
13.14248046762802
 20
94.97247794756402
 30
0.0
 11
13.14248046762802
 21
99.47247794756417
 31
0.0
  0
SPLINE
  5
92
330
70
100
AcDbEntity
  8
0
 62
    18
420
        0
370
    25
100
AcDbSpline
210
0.0
220
0.0
230
1.0
 70
     8
 71
     3
 72
     8
 73
     4
 74
     0
 42
0.0000000001
 43
0.0000000001
 40
0.0
 40
0.0
 40
0.0
 40
0.0
 40
1.0
 40
1.0
 40
1.0
 40
1.0
 10
12.89248046762785
 20
94.72247794756418
 30
0.0
 10
13.03055165508575
 20
94.72247794756418
 30
0.0
 10
13.14248046762802
 20
94.83440676010644
 30
0.0
 10
13.14248046762802
 20
94.97247794756402
 30
0.0
  0
LINE
  5
93
330
70
100
AcDbEntity
  8
0
 62
    18
420
        0
370
    25
100
AcDbLine
 10
12.89248046762785
 20
94.72247794756418
 30
0.0
 11
10.64248046762793
 21
94.72247794756418
 31
0.0
  0
SPLINE
  5
94
330
70
100
AcDbEntity
  8
0
 62
    18
420
        0
370
    25
100
AcDbSpline
210
0.0
220
0.0
230
1.0
 70
     8
 71
     3
 72
     8
 73
     4
 74
     0
 42
0.0000000001
 43
0.0000000001
 40
0.0
 40
0.0
 40
0.0
 40
0.0
 40
1.0
 40
1.0
 40
1.0
 40
1.0
 10
10.39248046762809
 20
94.97247794756402
 30
0.0
 10
10.39248046762809
 20
94.83440676010644
 30
0.0
 10
10.50440928017036
 20
94.72247794756418
 30
0.0
 10
10.64248046762793
 20
94.72247794756418
 30
0.0
  0
LINE
  5
95
330
70
100
AcDbEntity
  8
0
 62
    18
420
        0
370
    25
100
AcDbLine
 10
10.39248046762809
 20
99.47247794756417
 30
0.0
 11
10.39248046762809
 21
94.97247794756402
 31
0.0
  0
SPLINE
  5
96
330
70
100
AcDbEntity
  8
0
 62
    18
420
        0
370
    25
100
AcDbSpline
210
0.0
220
0.0
230
1.0
 70
     8
 71
     3
 72
     8
 73
     4
 74
     0
 42
0.0000000001
 43
0.0000000001
 40
0.0
 40
0.0
 40
0.0
 40
0.0
 40
1.0
 40
1.0
 40
1.0
 40
1.0
 10
107.6424804676275
 20
94.97247794756402
 30
0.0
 10
107.6424804676275
 20
94.83440676010644
 30
0.0
 10
107.7544092801707
 20
94.72247794756418
 30
0.0
 10
107.8924804676283
 20
94.72247794756418
 30
0.0
  0
LINE
  5
97
330
70
100
AcDbEntity
  8
0
 62
    18
420
        0
370
    25
100
AcDbLine
 10
107.6424804676275
 20
99.47247794756417
 30
0.0
 11
107.6424804676275
 21
94.97247794756402
 31
0.0
  0
SPLINE
  5
98
330
70
100
AcDbEntity
  8
0
 62
    18
420
        0
370
    25
100
AcDbSpline
210
0.0
220
0.0
230
1.0
 70
     8
 71
     3
 72
     8
 73
     4
 74
     0
 42
0.0000000001
 43
0.0000000001
 40
0.0
 40
0.0
 40
0.0
 40
0.0
 40
1.0
 40
1.0
 40
1.0
 40
1.0
 10
107.8924804676283
 20
99.72247794756404
 30
0.0
 10
107.7544092801707
 20
99.72247794756404
 30
0.0
 10
107.6424804676275
 20
99.61054913502175
 30
0.0
 10
107.6424804676275
 20
99.47247794756417
 30
0.0
  0
LINE
  5
99
330
70
100
AcDbEntity
  8
0
 62
    18
420
        0
370
    25
100
AcDbLine
 10
110.1424804676279
 20
99.72247794756404
 30
0.0
 11
107.8924804676283
 21
99.72247794756404
 31
0.0
  0
SPLINE
  5
9A
330
70
100
AcDbEntity
  8
0
 62
    18
420
        0
370
    25
100
AcDbSpline
210
0.0
220
0.0
230
1.0
 70
     8
 71
     3
 72
     8
 73
     4
 74
     0
 42
0.0000000001
 43
0.0000000001
 40
0.0
 40
0.0
 40
0.0
 40
0.0
 40
1.0
 40
1.0
 40
1.0
 40
1.0
 10
110.3924804676274
 20
99.47247794756417
 30
0.0
 10
110.3924804676274
 20
99.61054913502175
 30
0.0
 10
110.2805516550855
 20
99.72247794756434
 30
0.0
 10
110.1424804676279
 20
99.72247794756434
 30
0.0
  0
SPLINE
  5
9B
330
70
100
AcDbEntity
  8
0
 62
    18
420
        0
370
    25
100
AcDbSpline
210
0.0
220
0.0
230
1.0
 70
     8
 71
     3
 72
     8
 73
     4
 74
     0
 42
0.0000000001
 43
0.0000000001
 40
0.0
 40
0.0
 40
0.0
 40
0.0
 40
1.0
 40
1.0
 40
1.0
 40
1.0
 10
110.1424804676279
 20
94.72247794756418
 30
0.0
 10
110.2805516550855
 20
94.72247794756418
 30
0.0
 10
110.3924804676274
 20
94.83440676010644
 30
0.0
 10
110.3924804676274
 20
94.97247794756402
 30
0.0
  0
LINE
  5
9C
330
70
100
AcDbEntity
  8
0
 62
    18
420
        0
370
    25
100
AcDbLine
 10
110.1424804676279
 20
94.72247794756418
 30
0.0
 11
107.8924804676283
 21
94.72247794756418
 31
0.0
  0
LINE
  5
9D
330
70
100
AcDbEntity
  8
0
 62
    18
420
        0
370
    25
100
AcDbLine
 10
110.3924804676274
 20
99.47247794756417
 30
0.0
 11
110.3924804676274
 21
94.97247794756402
 31
0.0
  0
LINE
  5
9E
330
70
100
AcDbEntity
  8
0
 62
    18
420
        0
370
    25
100
AcDbLine
 10
12.89248046762785
 20
99.72247794756404
 30
0.0
 11
17.89248046762803
 21
99.72247794756404
 31
0.0
  0
LINE
  5
9F
330
70
100
AcDbEntity
  8
0
 62
    18
420
        0
370
    25
100
AcDbLine
 10
17.89248046762803
 20
99.72247794756404
 30
0.0
 11
17.89248046762803
 21
99.47247794756417
 31
0.0
  0
LINE
  5
A0
330
70
100
AcDbEntity
  8
0
 62
    18
420
        0
370
    25
100
AcDbLine
 10
17.89248046762803
 20
99.47247794756417
 30
0.0
 11
13.14248046762802
 21
99.47247794756417
 31
0.0
  0
LINE
  5
A1
330
70
100
AcDbEntity
  8
0
 62
    18
420
        0
370
    25
100
AcDbLine
 10
17.89248046762803
 20
99.47247794756417
 30
0.0
 11
17.89248046762803
 21
94.97247794756402
 31
0.0
  0
LINE
  5
A2
330
70
100
AcDbEntity
  8
0
 62
    18
420
        0
370
    25
100
AcDbLine
 10
13.14248046762802
 20
94.97247794756402
 30
0.0
 11
17.89248046762803
 21
94.97247794756402
 31
0.0
  0
LINE
  5
A3
330
70
100
AcDbEntity
  8
0
 62
    18
420
        0
370
    25
100
AcDbLine
 10
17.89248046762803
 20
94.97247794756402
 30
0.0
 11
17.89248046762803
 21
94.72247794756418
 31
0.0
  0
LINE
  5
A4
330
70
100
AcDbEntity
  8
0
 62
    18
420
        0
370
    25
100
AcDbLine
 10
17.89248046762803
 20
94.72247794756418
 30
0.0
 11
12.89248046762785
 21
94.72247794756418
 31
0.0
  0
LINE
  5
A5
330
70
100
AcDbEntity
  8
0
 62
    18
420
        0
370
    25
100
AcDbLine
 10
102.8924804676275
 20
94.97247794756402
 30
0.0
 11
107.6424804676275
 21
94.97247794756402
 31
0.0
  0
LINE
  5
A6
330
70
100
AcDbEntity
  8
0
 62
    18
420
        0
370
    25
100
AcDbLine
 10
102.8924804676275
 20
94.97247794756402
 30
0.0
 11
102.8924804676275
 21
94.72247794756418
 31
0.0
  0
LINE
  5
A7
330
70
100
AcDbEntity
  8
0
 62
    18
420
        0
370
    25
100
AcDbLine
 10
107.8924804676283
 20
94.72247794756418
 30
0.0
 11
102.8924804676275
 21
94.72247794756418
 31
0.0
  0
LINE
  5
A8
330
70
100
AcDbEntity
  8
0
 62
    18
420
        0
370
    25
100
AcDbLine
 10
107.6424804676275
 20
99.47247794756417
 30
0.0
 11
102.8924804676275
 21
99.47247794756417
 31
0.0
  0
LINE
  5
A9
330
70
100
AcDbEntity
  8
0
 62
    18
420
        0
370
    25
100
AcDbLine
 10
102.8924804676275
 20
99.72247794756404
 30
0.0
 11
102.8924804676275
 21
99.47247794756417
 31
0.0
  0
LINE
  5
AA
330
70
100
AcDbEntity
  8
0
 62
    18
420
        0
370
    25
100
AcDbLine
 10
102.8924804676275
 20
99.72247794756404
 30
0.0
 11
107.8924804676283
 21
99.72247794756404
 31
0.0
  0
LINE
  5
AB
330
70
100
AcDbEntity
  8
0
 62
    18
420
        0
370
    25
100
AcDbLine
 10
102.8924804676275
 20
99.47247794756417
 30
0.0
 11
102.8924804676275
 21
94.97247794756402
 31
0.0
  0
LINE
  5
AC
330
70
100
AcDbEntity
  8
0
 62
    18
420
        0
370
    25
100
AcDbLine
 10
17.89248046762803
 20
99.72247794756404
 30
0.0
 11
57.26998146842799
 21
99.72247794756404
 31
0.0
  0
LINE
  5
AD
330
70
100
AcDbEntity
  8
0
 62
    18
420
        0
370
    25
100
AcDbLine
 10
63.51497946682787
 20
99.72247794756404
 30
0.0
 11
102.8924804676275
 21
99.72247794756404
 31
0.0
  0
LINE
  5
AE
330
70
100
AcDbEntity
  8
0
 62
    18
420
        0
370
    25
100
AcDbLine
 10
102.8924804676275
 20
94.72247794756418
 30
0.0
 11
63.51497946682787
 21
94.72247794756418
 31
0.0
  0
LINE
  5
AF
330
70
100
AcDbEntity
  8
0
 62
    18
420
        0
370
    25
100
AcDbLine
 10
57.26998146842799
 20
94.72247794756418
 30
0.0
 11
17.89248046762803
 21
94.72247794756418
 31
0.0
  0
LINE
  5
B0
330
70
100
AcDbEntity
  8
0
 62
    18
420
        0
370
    25
100
AcDbLine
 10
57.56763225082782
 20
94.39762973066404
 30
0.0
 11
54.39248046762804
 21
91.22247794756404
 31
0.0
  0
LINE
  5
B1
330
70
100
AcDbEntity
  8
0
 62
    18
420
        0
370
    25
100
AcDbLine
 10
52.89248046762798
 20
89.72247794756398
 30
0.0
 11
49.39248046762786
 21
86.22247794756418
 31
0.0
  0
LINE
  5
B2
330
70
100
AcDbEntity
  8
0
 62
    18
420
        0
370
    25
100
AcDbLine
 10
48.39228178382794
 20
109.2226766313642
 30
0.0
 11
48.37123593362804
 21
109.2226681633641
 31
0.0
  0
LWPOLYLINE
  5
B3
330
70
100
AcDbEntity
  8
0
 62
    18
420
        0
370
    25
100
AcDbPolyline
 90
        8
 70
     0
 43
0.0
 10
48.39228234112784
 20
109.2226760739642
 10
50.15958591262795
 20
106.407742529164
 10
52.08656599632809
 20
103.6884416484642
 10
53.16379758702784
 20
102.356064571664
 10
54.32846170722792
 20
101.0907189305643
 10
54.99457971652798
 20
100.4576589840642
 10
55.708442177828
 20
99.8722082094641
 10
55.93164352952785
 20
99.72247794756404
  0
LINE
  5
B4
330
70
100
AcDbEntity
  8
0
 62
    18
420
        0
370
    25
100
AcDbLine
 10
63.1865680145281
 20
94.42839040076419
 30
0.0
 11
66.39248046762782
 21
91.22247794756404
 31
0.0
  0
LINE
  5
B5
330
70
100
AcDbEntity
  8
0
 62
    18
420
        0
370
    25
100
AcDbLine
 10
67.89248046762819
 20
89.72247794756398
 30
0.0
 11
71.39248046762799
 21
86.22247794756418
 31
0.0
  0
SPLINE
  5
B6
330
70
100
AcDbEntity
  8
0
 62
    18
420
        0
370
    25
100
AcDbSpline
210
0.0
220
0.0
230
1.0
 70
     8
 71
     3
 72
     8
 73
     4
 74
     0
 42
0.0000000001
 43
0.0000000001
 40
0.0
 40
0.0
 40
0.0
 40
0.0
 40
1.0
 40
1.0
 40
1.0
 40
1.0
 10
72.4137207645651
 20
109.2331843327415
 30
0.0
 10
72.40560877318642
 20
109.2325493168509
 30
0.0
 10
72.39806284406888
 20
109.2287804926777
 30
0.0
 10
72.39268227466249
 20
109.2226766314268
 30
0.0
  0
LWPOLYLINE
  5
B7
330
70
100
AcDbEntity
  8
0
 62
    18
420
        0
370
    25
100
AcDbPolyline
 90
        8
 70
     0
 43
0.0
 10
64.852243650528
 20
99.72247794756404
 10
65.0751022153281
 20
99.87150684276429
 10
65.7855721715283
 20
100.4531995474643
 10
66.45579868282803
 20
101.089579597264
 10
67.61608767072812
 20
102.349588279964
 10
68.6981245085284
 20
103.687656614864
 10
70.61932418772819
 20
106.3984983734642
 10
72.3926785942278
 20
109.2226760739642
  0
SPLINE
  5
B8
330
70
100
AcDbEntity
  8
0
 62
    18
420
        0
370
    25
100
AcDbSpline
210
0.0
220
0.0
230
1.0
 70
     8
 71
     3
 72
     8
 73
     4
 74
     0
 42
0.0000000001
 43
0.0000000001
 40
0.0
 40
0.0
 40
0.0
 40
0.0
 40
1.0
 40
1.0
 40
1.0
 40
1.0
 10
72.89248046768932
 20
109.2224779475605
 30
0.0
 10
72.72677559045985
 20
109.2436553523181
 30
0.0
 10
72.55957494776646
 20
109.2507622525756
 30
0.0
 10
72.39267069285983
 20
109.2437224724632
 30
0.0
  0
SPLINE
  5
B9
330
70
100
AcDbEntity
  8
0
 62
    18
420
        0
370
    25
100
AcDbSpline
210
0.0
220
0.0
230
1.0
 70
     8
 71
     3
 72
     8
 73
     4
 74
     0
 42
0.0000000001
 43
0.0000000001
 40
0.0
 40
0.0
 40
0.0
 40
0.0
 40
1.0
 40
1.0
 40
1.0
 40
1.0
 10
72.89248046770602
 20
109.2224779476147
 30
0.0
 10
72.73322826336339
 20
109.2351661509453
 30
0.0
 10
72.57338096950357
 20
109.2387407765426
 30
0.0
 10
72.41372076461772
 20
109.2331843327424
 30
0.0
  0
LINE
  5
BA
330
70
100
AcDbEntity
  8
0
 62
    18
420
        0
370
    25
100
AcDbLine
 10
72.39267069282774
 20
109.2437224724642
 30
0.0
 11
72.39268227462783
 21
109.2226766313642
 31
0.0
  0
LINE
  5
BB
330
70
100
AcDbEntity
  8
0
 62
    18
420
        0
370
    25
100
AcDbLine
 10
72.89248046762773
 20
109.222477947564
 30
0.0
 11
72.89248046762773
 21
99.72247794756404
 31
0.0
  0
LINE
  5
BC
330
70
100
AcDbEntity
  8
0
 62
    18
420
        0
370
    25
100
AcDbLine
 10
72.89248046762773
 20
94.72247794756418
 30
0.0
 11
72.89248046762773
 21
91.22247794756404
 31
0.0
  0
LINE
  5
BD
330
70
100
AcDbEntity
  8
0
 62
    18
420
        0
370
    25
100
AcDbLine
 10
72.89248046762773
 20
89.72247794756398
 30
0.0
 11
72.89248046762773
 21
86.22247794756418
 31
0.0
  0
LINE
  5
BE
330
70
100
AcDbEntity
  8
0
 62
    18
420
        0
370
    25
100
AcDbLine
 10
47.8924804676278
 20
86.22247794756418
 30
0.0
 11
47.8924804676278
 21
89.72247794756398
 31
0.0
  0
LINE
  5
BF
330
70
100
AcDbEntity
  8
0
 62
    18
420
        0
370
    25
100
AcDbLine
 10
47.8924804676278
 20
91.22247794756404
 30
0.0
 11
47.8924804676278
 21
94.72247794756418
 31
0.0
  0
LINE
  5
C0
330
70
100
AcDbEntity
  8
0
 62
    18
420
        0
370
    25
100
AcDbLine
 10
47.8924804676278
 20
99.72247794756404
 30
0.0
 11
47.8924804676278
 21
109.222477947564
 31
0.0
  0
SPLINE
  5
C1
330
70
100
AcDbEntity
  8
0
 62
    18
420
        0
370
    25
100
AcDbSpline
210
0.0
220
0.0
230
1.0
 70
     8
 71
     3
 72
     8
 73
     4
 74
     0
 42
0.0000000001
 43
0.0000000001
 40
0.0
 40
0.0
 40
0.0
 40
0.0
 40
1.0
 40
1.0
 40
1.0
 40
1.0
 10
48.37123593372846
 20
109.2226681633936
 30
0.0
 10
48.21165075311243
 20
109.2227281440909
 30
0.0
 10
48.05206554999907
 20
109.2226647387963
 30
0.0
 10
47.89248046742888
 20
109.2224779475663
 30
0.0
  0
LWPOLYLINE
  5
C2
330
70
100
AcDbEntity
  8
0
 62
    18
420
        0
370
    25
100
AcDbPolyline
 90
        6
 70
     0
 43
0.0
 10
60.39248046762793
 20
109.2467392949641
 10
59.39248046762789
 20
109.2467116644642
 10
55.3924805160279
 20
109.246098041164
 10
51.89238531762795
 20
109.2450492519643
 10
48.39229024252789
 20
109.2437224724642
 10
48.38177408352811
 20
109.243718245464
  0
SPLINE
  5
C3
330
70
100
AcDbEntity
  8
0
 62
    18
420
        0
370
    25
100
AcDbSpline
210
0.0
220
0.0
230
1.0
 70
     8
 71
     3
 72
     8
 73
     4
 74
     0
 42
0.0000000001
 43
0.0000000001
 40
0.0
 40
0.0
 40
0.0
 40
0.0
 40
1.0
 40
1.0
 40
1.0
 40
1.0
 10
48.39248046768943
 20
109.7224779475605
 30
0.0
 10
48.38118208807837
 20
109.5631579282388
 30
0.0
 10
48.37760910497258
 20
109.4033840679533
 30
0.0
 10
48.38177408352587
 20
109.2437182453985
 30
0.0
  0
LINE
  5
C4
330
70
100
AcDbEntity
  8
0
 62
    18
420
        0
370
    25
100
AcDbLine
 10
48.39248046762783
 20
109.722477947564
 30
0.0
 11
60.39248046762793
 21
109.722477947564
 31
0.0
  0
LINE
  5
C5
330
70
100
AcDbEntity
  8
0
 62
    18
420
        0
370
    25
100
AcDbLine
 10
60.39248046762793
 20
109.2467392949641
 30
0.0
 11
60.39248046762793
 21
109.722477947564
 31
0.0
  0
SPLINE
  5
C6
330
70
100
AcDbEntity
  8
0
 62
    18
420
        0
370
    25
100
AcDbSpline
210
0.0
220
0.0
230
1.0
 70
     8
 71
     3
 72
     8
 73
     4
 74
     0
 42
0.0000000001
 43
0.0000000001
 40
0.0
 40
0.0
 40
0.0
 40
0.0
 40
1.0
 40
1.0
 40
1.0
 40
1.0
 10
48.39248046768108
 20
109.722477947592
 30
0.0
 10
48.37130305368813
 20
109.5567730680167
 30
0.0
 10
48.36419615034986
 20
109.3895724216965
 30
0.0
 10
48.37123593363349
 20
109.2226681634235
 30
0.0
  0
SPLINE
  5
C7
330
70
100
AcDbEntity
  8
0
 62
    18
420
        0
370
    25
100
AcDbSpline
210
0.0
220
0.0
230
1.0
 70
     8
 71
     3
 72
     8
 73
     4
 74
     0
 42
0.0000000001
 43
0.0000000001
 40
0.0
 40
0.0
 40
0.0
 40
0.0
 40
1.0
 40
1.0
 40
1.0
 40
1.0
 10
48.38177408349443
 20
109.2437182454652
 30
0.0
 10
48.38241175217779
 20
109.2356061013753
 30
0.0
 10
48.38618003344052
 20
109.2280601382051
 30
0.0
 10
48.39228178384622
 20
109.2226766314419
 30
0.0
  0
LINE
  5
C8
330
70
100
AcDbEntity
  8
0
 62
    18
420
        0
370
    25
100
AcDbLine
 10
60.39248046762793
 20
109.2226766313642
 30
0.0
 11
60.39248046762793
 21
109.2467392949641
 31
0.0
  0
LINE
  5
C9
330
70
100
AcDbEntity
  8
0
 62
    18
420
        0
370
    25
100
AcDbLine
 10
60.39248046762793
 20
109.2226766313642
 30
0.0
 11
48.39228178382794
 21
109.2226766313642
 31
0.0
  0
LWPOLYLINE
  5
CA
330
70
100
AcDbEntity
  8
0
 62
    18
420
        0
370
    25
100
AcDbPolyline
 90
        5
 70
     0
 43
0.0
 10
72.39267069282774
 20
109.2437224724642
 10
71.39267083572831
 20
109.2441194123642
 10
67.39267128532819
 20
109.2455437560641
 10
63.89257602652799
 20
109.2464147638642
 10
60.39248046762793
 20
109.2467392949641
  0
LINE
  5
CB
330
70
100
AcDbEntity
  8
0
 62
    18
420
        0
370
    25
100
AcDbLine
 10
72.39268227462783
 20
109.2226766313642
 30
0.0
 11
60.39248046762793
 21
109.2226766313642
 31
0.0
  0
LINE
  5
CC
330
70
100
AcDbEntity
  8
0
 62
    18
420
        0
370
    25
100
AcDbLine
 10
60.39248046762793
 20
109.722477947564
 30
0.0
 11
72.39248046762803
 21
109.722477947564
 31
0.0
  0
SPLINE
  5
CD
330
70
100
AcDbEntity
  8
0
 62
    18
420
        0
370
    25
100
AcDbSpline
210
0.0
220
0.0
230
1.0
 70
     8
 71
     3
 72
     8
 73
     4
 74
     0
 42
0.0000000001
 43
0.0000000001
 40
0.0
 40
0.0
 40
0.0
 40
0.0
 40
1.0
 40
1.0
 40
1.0
 40
1.0
 10
72.39267069284956
 20
109.2437224724523
 30
0.0
 10
72.39273067649506
 20
109.4033076560779
 30
0.0
 10
72.39266726808574
 20
109.5628928622098
 30
0.0
 10
72.39248046767873
 20
109.72247794778
 30
0.0
  0
SPLINE
  5
CE
330
70
100
AcDbEntity
  8
0
 62
    18
420
        0
370
    25
100
AcDbSpline
210
0.0
220
0.0
230
1.0
 70
     8
 71
     3
 72
     8
 73
     4
 74
     0
 42
0.0000000001
 43
0.0000000001
 40
0.0
 40
0.0
 40
0.0
 40
0.0
 40
1.0
 40
1.0
 40
1.0
 40
1.0
 10
72.89248046762773
 20
109.2224779476426
 30
0.0
 10
72.89248046758473
 20
109.4986203225273
 30
0.0
 10
72.66862284251303
 20
109.722477947564
 30
0.0
 10
72.39248046762803
 20
109.722477947564
 30
0.0
  0
SPLINE
  5
CF
330
70
100
AcDbEntity
  8
0
 62
    18
420
        0
370
    25
100
AcDbSpline
210
0.0
220
0.0
230
1.0
 70
     8
 71
     3
 72
     8
 73
     4
 74
     0
 42
0.0000000001
 43
0.0000000001
 40
0.0
 40
0.0
 40
0.0
 40
0.0
 40
1.0
 40
1.0
 40
1.0
 40
1.0
 10
48.39248046762783
 20
109.722477947564
 30
0.0
 10
48.11633809271267
 20
109.722477947564
 30
0.0
 10
47.8924804676278
 20
109.4986203224795
 30
0.0
 10
47.8924804676278
 20
109.222477947564
 30
0.0
  0
LINE
  5
D0
330
70
100
AcDbEntity
  8
0
 62
     8
420
  8421504
370
    25
100
AcDbLine
 10
102.8924804676275
 20
99.47247794756417
 30
0.0
 11
63.69966960652802
 21
99.47247794756417
 31
0.0
  0
LINE
  5
D1
330
70
100
AcDbEntity
  8
0
 62
     8
420
  8421504
370
    25
100
AcDbLine
 10
57.08529132882794
 20
99.47247794756417
 30
0.0
 11
17.89248046762803
 21
99.47247794756417
 31
0.0
  0
LINE
  5
D2
330
70
100
AcDbEntity
  8
0
 62
     8
420
  8421504
370
    25
100
AcDbLine
 10
17.89248046762803
 20
94.97247794756402
 30
0.0
 11
57.08529132882794
 21
94.97247794756402
 31
0.0
  0
LINE
  5
D3
330
70
100
AcDbEntity
  8
0
 62
     8
420
  8421504
370
    25
100
AcDbLine
 10
63.69966960652802
 20
94.97247794756402
 30
0.0
 11
102.8924804676275
 21
94.97247794756402
 31
0.0
  0
LWPOLYLINE
  5
D4
330
70
100
AcDbEntity
  8
0
 62
     8
420
  8421504
370
    25
100
AcDbPolyline
 90
        4
 70
     0
 43
0.0
 10
48.37123593362804
 20
109.2226681633641
 10
48.37083905072794
 20
108.2226683061643
 10
48.36941870572782
 20
104.2226687530642
 10
48.36875774802805
 20
99.72247794756404
  0
LWPOLYLINE
  5
D5
330
70
100
AcDbEntity
  8
0
 62
     8
420
  8421504
370
    25
100
AcDbPolyline
 90
        3
 70
     0
 43
0.0
 10
48.368441352928
 20
94.72247794756418
 10
48.36864515422799
 20
93.17546662556427
 10
48.36928135072799
 20
91.22247794756404
  0
LINE
  5
D6
330
70
100
AcDbEntity
  8
0
 62
     8
420
  8421504
370
    25
100
AcDbLine
 10
48.36976998372787
 20
89.72247794756398
 30
0.0
 11
48.37091012732784
 21
86.22247794756418
 31
0.0
  0
LINE
  5
D7
330
70
100
AcDbEntity
  8
0
 62
     8
420
  8421504
370
    25
100
AcDbLine
 10
72.41412195222813
 20
86.22247794756418
 30
0.0
 11
72.41536475422792
 21
89.72247794756398
 31
0.0
  0
LINE
  5
D8
330
70
100
AcDbEntity
  8
0
 62
     8
420
  8421504
370
    25
100
AcDbLine
 10
72.4156891308278
 20
91.22247794756404
 30
0.0
 11
72.41620318732824
 21
94.72247794756418
 31
0.0
  0
LWPOLYLINE
  5
D9
330
70
100
AcDbEntity
  8
0
 62
     8
420
  8421504
370
    25
100
AcDbPolyline
 90
        4
 70
     0
 43
0.0
 10
72.41651958242797
 20
99.72247794756404
 10
72.41631578112765
 20
101.269489269664
 10
72.4137249907276
 20
109.2226681746641
 10
72.41372076452788
 20
109.2331843326641
  0
LINE
  5
DA
330
70
100
AcDbEntity
  8
0
 62
     8
420
  8421504
370
    25
100
AcDbLine
 10
109.0174804676275
 20
87.72247794756458
 30
0.0
 11
109.7674804676273
 21
87.72247794756458
 31
0.0
  0
LINE
  5
DB
330
70
100
AcDbEntity
  8
0
 62
     8
420
  8421504
370
    25
100
AcDbLine
 10
108.2674804676276
 20
87.72247794756458
 30
0.0
 11
109.0174804676275
 21
87.72247794756458
 31
0.0
  0
LINE
  5
DC
330
70
100
AcDbEntity
  8
0
 62
     8
420
  8421504
370
    25
100
AcDbLine
 10
106.7674804676278
 20
85.47247794756369
 30
0.0
 11
106.7674804676278
 21
84.72247794756382
 31
0.0
  0
LINE
  5
DD
330
70
100
AcDbEntity
  8
0
 62
     8
420
  8421504
370
    25
100
AcDbLine
 10
106.7674804676278
 20
86.22247794756418
 30
0.0
 11
106.7674804676278
 21
85.47247794756369
 31
0.0
  0
LINE
  5
DE
330
70
100
AcDbEntity
  8
0
 62
     8
420
  8421504
370
    25
100
AcDbLine
 10
14.01748046762797
 20
85.47247794756369
 30
0.0
 11
14.01748046762797
 21
84.72247794756382
 31
0.0
  0
LINE
  5
DF
330
70
100
AcDbEntity
  8
0
 62
     8
420
  8421504
370
    25
100
AcDbLine
 10
14.01748046762797
 20
86.22247794756418
 30
0.0
 11
14.01748046762797
 21
85.47247794756369
 31
0.0
  0
LINE
  5
E0
330
70
100
AcDbEntity
  8
0
 62
     8
420
  8421504
370
    25
100
AcDbLine
 10
11.76748046762805
 20
87.72247794756458
 30
0.0
 11
11.01748046762787
 21
87.72247794756458
 31
0.0
  0
LINE
  5
E1
330
70
100
AcDbEntity
  8
0
 62
     8
420
  8421504
370
    25
100
AcDbLine
 10
12.51748046762792
 20
87.72247794756458
 30
0.0
 11
11.76748046762805
 21
87.72247794756458
 31
0.0
  0
LINE
  5
E2
330
70
100
AcDbEntity
  8
0
 62
     8
420
  8421504
370
    25
100
AcDbLine
 10
109.0174804676275
 20
92.7224779475641
 30
0.0
 11
109.7674804676273
 21
92.7224779475641
 31
0.0
  0
LINE
  5
E3
330
70
100
AcDbEntity
  8
0
 62
     8
420
  8421504
370
    25
100
AcDbLine
 10
108.2674804676276
 20
92.7224779475641
 30
0.0
 11
109.0174804676275
 21
92.7224779475641
 31
0.0
  0
LINE
  5
E4
330
70
100
AcDbEntity
  8
0
 62
     8
420
  8421504
370
    25
100
AcDbLine
 10
106.7674804676278
 20
90.47247794756419
 30
0.0
 11
106.7674804676278
 21
89.72247794756398
 31
0.0
  0
LINE
  5
E5
330
70
100
AcDbEntity
  8
0
 62
     8
420
  8421504
370
    25
100
AcDbLine
 10
106.7674804676278
 20
91.22247794756404
 30
0.0
 11
106.7674804676278
 21
90.47247794756419
 31
0.0
  0
LINE
  5
E6
330
70
100
AcDbEntity
  8
0
 62
     8
420
  8421504
370
    25
100
AcDbLine
 10
14.01748046762797
 20
90.47247794756419
 30
0.0
 11
14.01748046762797
 21
89.72247794756398
 31
0.0
  0
LINE
  5
E7
330
70
100
AcDbEntity
  8
0
 62
     8
420
  8421504
370
    25
100
AcDbLine
 10
14.01748046762797
 20
91.22247794756404
 30
0.0
 11
14.01748046762797
 21
90.47247794756419
 31
0.0
  0
LINE
  5
E8
330
70
100
AcDbEntity
  8
0
 62
     8
420
  8421504
370
    25
100
AcDbLine
 10
11.76748046762805
 20
92.7224779475641
 30
0.0
 11
11.01748046762787
 21
92.7224779475641
 31
0.0
  0
LINE
  5
E9
330
70
100
AcDbEntity
  8
0
 62
     8
420
  8421504
370
    25
100
AcDbLine
 10
12.51748046762792
 20
92.7224779475641
 30
0.0
 11
11.76748046762805
 21
92.7224779475641
 31
0.0
  0
LINE
  5
EA
330
70
100
AcDbEntity
  8
0
 62
    18
420
        0
370
    25
100
AcDbLine
 10
145.4757643594286
 20
101.222477947564
 30
0.0
 11
142.3962780044282
 21
101.222477947564
 31
0.0
  0
LINE
  5
EB
330
70
100
AcDbEntity
  8
0
 62
    18
420
        0
370
    25
100
AcDbLine
 10
142.3962780044282
 20
93.22247794756412
 30
0.0
 11
145.4757643594286
 21
93.22247794756412
 31
0.0
  0
SPLINE
  5
EC
330
70
100
AcDbEntity
  8
0
 62
    18
420
        0
370
    25
100
AcDbSpline
210
0.0
220
0.0
230
1.0
 70
     8
 71
     3
 72
     8
 73
     4
 74
     0
 42
0.0000000001
 43
0.0000000001
 40
0.0
 40
0.0
 40
0.0
 40
0.0
 40
1.0
 40
1.0
 40
1.0
 40
1.0
 10
145.4757643594286
 20
93.22247794756412
 30
0.0
 10
145.6101784732512
 20
93.22247794756412
 30
0.0
 10
145.7205344713267
 20
93.32876035533614
 30
0.0
 10
145.7255876335003
 20
93.46307945132343
 30
0.0
  0
SPLINE
  5
ED
330
70
100
AcDbEntity
  8
0
 62
    18
420
        0
370
    25
100
AcDbSpline
210
0.0
220
0.0
230
1.0
 70
     8
 71
     3
 72
     8
 73
     4
 74
     0
 42
0.0000000001
 43
0.0000000001
 40
0.0
 40
0.0
 40
0.0
 40
0.0
 40
1.0
 40
1.0
 40
1.0
 40
1.0
 10
145.7255876335003
 20
100.9818764438051
 30
0.0
 10
145.7205344713267
 20
101.1161955397924
 30
0.0
 10
145.6101784732512
 20
101.222477947564
 30
0.0
 10
145.4757643594286
 20
101.222477947564
 30
0.0
  0
SPLINE
  5
EE
330
70
100
AcDbEntity
  8
0
 62
    18
420
        0
370
    25
100
AcDbSpline
210
0.0
220
0.0
230
1.0
 70
     8
 71
     3
 72
     8
 73
     4
 74
     0
 42
0.0000000001
 43
0.0000000001
 40
0.0
 40
0.0
 40
0.0
 40
0.0
 40
1.0
 40
1.0
 40
1.0
 40
1.0
 10
145.7255876335208
 20
93.46307945141102
 30
0.0
 10
145.7413774614483
 20
93.88279196808275
 30
0.0
 10
145.7545228845153
 20
94.30259979807461
 30
0.0
 10
145.7650231200877
 20
94.72247794750545
 30
0.0
  0
SPLINE
  5
EF
330
70
100
AcDbEntity
  8
0
 62
    18
420
        0
370
    25
100
AcDbSpline
210
0.0
220
0.0
230
1.0
 70
     8
 71
     3
 72
     8
 73
     4
 74
     0
 42
0.0000000001
 43
0.0000000001
 40
0.0
 40
0.0
 40
0.0
 40
0.0
 40
1.0
 40
1.0
 40
1.0
 40
1.0
 10
145.7650231200877
 20
99.72247794762242
 30
0.0
 10
145.754522884514
 20
100.1423560971113
 30
0.0
 10
145.7413774614444
 20
100.5621639271625
 30
0.0
 10
145.7255876335144
 20
100.9818764438914
 30
0.0
  0
SPLINE
  5
F0
330
70
100
AcDbEntity
  8
0
 62
    18
420
        0
370
    25
100
AcDbSpline
210
0.0
220
0.0
230
1.0
 70
     8
 71
     3
 72
     8
 73
     4
 74
     0
 42
0.0000000001
 43
0.0000000001
 40
0.0
 40
0.0
 40
0.0
 40
0.0
 40
1.0
 40
1.0
 40
1.0
 40
1.0
 10
142.3962780044282
 20
94.04180167566424
 30
0.0
 10
142.3962780044282
 20
94.09668966106352
 30
0.0
 10
142.3520365534109
 20
94.14131888601755
 30
0.0
 10
142.2971506579782
 20
94.1417978679707
 30
0.0
  0
SPLINE
  5
F1
330
70
100
AcDbEntity
  8
0
 62
    18
420
        0
370
    25
100
AcDbSpline
210
0.0
220
0.0
230
1.0
 70
     8
 71
     3
 72
     8
 73
     4
 74
     0
 42
0.0000000001
 43
0.0000000001
 40
0.0
 40
0.0
 40
0.0
 40
0.0
 40
1.0
 40
1.0
 40
1.0
 40
1.0
 10
142.3298021358355
 20
100.3032647180611
 30
0.0
 10
142.3696581124887
 20
100.3174467708976
 30
0.0
 10
142.3962780044282
 20
100.3551739347794
 30
0.0
 10
142.3962780044282
 20
100.3974779475643
 30
0.0
  0
LWPOLYLINE
  5
F2
330
70
100
AcDbEntity
  8
0
 62
    18
420
        0
370
    25
100
AcDbPolyline
 90
        3
 70
     0
 43
0.0
 10
142.0380400133276
 20
85.19842277996458
 10
142.2288384481281
 20
90.089813116764
 10
142.2992512401285
 20
93.84511412386428
  0
LWPOLYLINE
  5
F3
330
70
100
AcDbEntity
  8
0
 62
    18
420
        0
370
    25
100
AcDbPolyline
 90
        5
 70
     0
 43
0.0
 10
142.2992518622275
 20
93.84630320156405
 10
142.2992338387278
 20
93.99971822196404
 10
142.2991346255276
 20
94.27069084266426
 10
142.2990063341282
 20
94.63655377836401
 10
142.2989229024276
 20
94.95829712506418
  0
SPLINE
  5
F4
330
70
100
AcDbEntity
  8
0
 62
    18
420
        0
370
    25
100
AcDbSpline
210
0.0
220
0.0
230
1.0
 70
     8
 71
     3
 72
     8
 73
     4
 74
     0
 42
0.0000000001
 43
0.0000000001
 40
0.0
 40
0.0
 40
0.0
 40
0.0
 40
1.0
 40
1.0
 40
1.0
 40
1.0
 10
141.5397262757485
 20
84.72247794779354
 30
0.0
 10
141.8065319104315
 20
84.72246987175767
 30
0.0
 10
142.0263398476021
 20
84.93194876193244
 30
0.0
 10
142.0391635439494
 20
85.19844604067179
 30
0.0
  0
LINE
  5
F5
330
70
100
AcDbEntity
  8
0
 62
    18
420
        0
370
    25
100
AcDbLine
 10
182.5462780044276
 20
94.72247794756418
 30
0.0
 11
182.5462780044276
 21
87.72247794756458
 31
0.0
  0
LINE
  5
F6
330
70
100
AcDbEntity
  8
0
 62
    18
420
        0
370
    25
100
AcDbLine
 10
184.0462780044286
 20
87.72247794756458
 30
0.0
 11
184.0462780044286
 21
94.72247794756418
 31
0.0
  0
LINE
  5
F7
330
70
100
AcDbEntity
  8
0
 62
    18
420
        0
370
    25
100
AcDbLine
 10
182.5462780044276
 20
87.72247794756458
 30
0.0
 11
182.5462780044276
 21
85.47247794756369
 31
0.0
  0
LINE
  5
F8
330
70
100
AcDbEntity
  8
0
 62
    18
420
        0
370
    25
100
AcDbLine
 10
184.0462780044286
 20
85.47247794756369
 30
0.0
 11
184.0462780044286
 21
87.72247794756458
 31
0.0
  0
LINE
  5
F9
330
70
100
AcDbEntity
  8
0
 62
    18
420
        0
370
    25
100
AcDbLine
 10
190.7962780044274
 20
94.72247794756418
 30
0.0
 11
190.7962780044274
 21
92.7224779475641
 31
0.0
  0
LINE
  5
FA
330
70
100
AcDbEntity
  8
0
 62
    18
420
        0
370
    25
100
AcDbLine
 10
192.2962780044284
 20
92.7224779475641
 30
0.0
 11
192.2962780044284
 21
94.72247794756418
 31
0.0
  0
LINE
  5
FB
330
70
100
AcDbEntity
  8
0
 62
    18
420
        0
370
    25
100
AcDbLine
 10
190.7962780044274
 20
92.7224779475641
 30
0.0
 11
190.7962780044274
 21
90.47247794756419
 31
0.0
  0
LINE
  5
FC
330
70
100
AcDbEntity
  8
0
 62
    18
420
        0
370
    25
100
AcDbLine
 10
192.2962780044284
 20
90.47247794756419
 30
0.0
 11
192.2962780044284
 21
92.7224779475641
 31
0.0
  0
LINE
  5
FD
330
70
100
AcDbEntity
  8
0
 62
    18
420
        0
370
    25
100
AcDbLine
 10
149.5462780044283
 20
94.72247794756418
 30
0.0
 11
149.5462780044283
 21
87.72247794756458
 31
0.0
  0
LINE
  5
FE
330
70
100
AcDbEntity
  8
0
 62
    18
420
        0
370
    25
100
AcDbLine
 10
151.046278004428
 20
87.72247794756458
 30
0.0
 11
151.046278004428
 21
94.72247794756418
 31
0.0
  0
LINE
  5
FF
330
70
100
AcDbEntity
  8
0
 62
    18
420
        0
370
    25
100
AcDbLine
 10
151.046278004428
 20
85.47247794756369
 30
0.0
 11
151.046278004428
 21
87.72247794756458
 31
0.0
  0
LINE
  5
100
330
70
100
AcDbEntity
  8
0
 62
    18
420
        0
370
    25
100
AcDbLine
 10
149.5462780044283
 20
87.72247794756458
 30
0.0
 11
149.5462780044283
 21
85.47247794756369
 31
0.0
  0
LINE
  5
101
330
70
100
AcDbEntity
  8
0
 62
    18
420
        0
370
    25
100
AcDbLine
 10
157.7962780044281
 20
94.72247794756418
 30
0.0
 11
157.7962780044281
 21
87.72247794756458
 31
0.0
  0
LINE
  5
102
330
70
100
AcDbEntity
  8
0
 62
    18
420
        0
370
    25
100
AcDbLine
 10
159.2962780044278
 20
87.72247794756458
 30
0.0
 11
159.2962780044278
 21
94.72247794756418
 31
0.0
  0
LINE
  5
103
330
70
100
AcDbEntity
  8
0
 62
    18
420
        0
370
    25
100
AcDbLine
 10
159.2962780044278
 20
85.47247794756369
 30
0.0
 11
159.2962780044278
 21
87.72247794756458
 31
0.0
  0
LINE
  5
104
330
70
100
AcDbEntity
  8
0
 62
    18
420
        0
370
    25
100
AcDbLine
 10
157.7962780044281
 20
87.72247794756458
 30
0.0
 11
157.7962780044281
 21
85.47247794756369
 31
0.0
  0
LINE
  5
105
330
70
100
AcDbEntity
  8
0
 62
    18
420
        0
370
    25
100
AcDbLine
 10
166.0462780044279
 20
94.72247794756418
 30
0.0
 11
166.0462780044279
 21
87.72247794756458
 31
0.0
  0
LINE
  5
106
330
70
100
AcDbEntity
  8
0
 62
    18
420
        0
370
    25
100
AcDbLine
 10
167.5462780044277
 20
87.72247794756458
 30
0.0
 11
167.5462780044277
 21
94.72247794756418
 31
0.0
  0
LINE
  5
107
330
70
100
AcDbEntity
  8
0
 62
    18
420
        0
370
    25
100
AcDbLine
 10
167.5462780044277
 20
85.47247794756369
 30
0.0
 11
167.5462780044277
 21
87.72247794756458
 31
0.0
  0
LINE
  5
108
330
70
100
AcDbEntity
  8
0
 62
    18
420
        0
370
    25
100
AcDbLine
 10
166.0462780044279
 20
87.72247794756458
 30
0.0
 11
166.0462780044279
 21
85.47247794756369
 31
0.0
  0
LINE
  5
109
330
70
100
AcDbEntity
  8
0
 62
    18
420
        0
370
    25
100
AcDbLine
 10
174.2962780044277
 20
94.72247794756418
 30
0.0
 11
174.2962780044277
 21
87.72247794756458
 31
0.0
  0
LINE
  5
10A
330
70
100
AcDbEntity
  8
0
 62
    18
420
        0
370
    25
100
AcDbLine
 10
175.7962780044275
 20
87.72247794756458
 30
0.0
 11
175.7962780044275
 21
94.72247794756418
 31
0.0
  0
LINE
  5
10B
330
70
100
AcDbEntity
  8
0
 62
    18
420
        0
370
    25
100
AcDbLine
 10
175.7962780044275
 20
85.47247794756369
 30
0.0
 11
175.7962780044275
 21
87.72247794756458
 31
0.0
  0
LINE
  5
10C
330
70
100
AcDbEntity
  8
0
 62
    18
420
        0
370
    25
100
AcDbLine
 10
174.2962780044277
 20
87.72247794756458
 30
0.0
 11
174.2962780044277
 21
85.47247794756369
 31
0.0
  0
LINE
  5
10D
330
70
100
AcDbEntity
  8
0
 62
    18
420
        0
370
    25
100
AcDbLine
 10
142.3962780044282
 20
94.48080614506412
 30
0.0
 11
142.3962780044282
 21
93.22247794756412
 31
0.0
  0
LINE
  5
10E
330
70
100
AcDbEntity
  8
0
 62
    18
420
        0
370
    25
100
AcDbLine
 10
144.9480233115282
 20
94.50364588236402
 30
0.0
 11
142.3962780044282
 21
94.48080614506412
 31
0.0
  0
SPLINE
  5
10F
330
70
100
AcDbEntity
  8
0
 62
    18
420
        0
370
    25
100
AcDbSpline
210
0.0
220
0.0
230
1.0
 70
     8
 71
     3
 72
     8
 73
     4
 74
     0
 42
0.0000000001
 43
0.0000000001
 40
0.0
 40
0.0
 40
0.0
 40
0.0
 40
1.0
 40
1.0
 40
1.0
 40
1.0
 10
144.9480233114986
 20
94.5036458823929
 30
0.0
 10
145.0592687296897
 20
94.50587162330554
 30
0.0
 10
145.1478393920649
 20
94.59750955095975
 30
0.0
 10
145.1462780043986
 20
94.70876627686747
 30
0.0
  0
SPLINE
  5
110
330
70
100
AcDbEntity
  8
0
 62
    18
420
        0
370
    25
100
AcDbSpline
210
0.0
220
0.0
230
1.0
 70
     8
 71
     3
 72
     8
 73
     4
 74
     0
 42
0.0000000001
 43
0.0000000001
 40
0.0
 40
0.0
 40
0.0
 40
0.0
 40
1.0
 40
1.0
 40
1.0
 40
1.0
 10
145.1462780044423
 20
99.73618961832649
 30
0.0
 10
145.1478317170838
 20
99.84744330370984
 30
0.0
 10
145.0592654297794
 20
99.93907670478343
 30
0.0
 10
144.9480233115423
 20
99.94131001280107
 30
0.0
  0
LINE
  5
111
330
70
100
AcDbEntity
  8
0
 62
    18
420
        0
370
    25
100
AcDbLine
 10
142.3962780044282
 20
99.96414975016417
 30
0.0
 11
144.9480233115282
 21
99.94131001276418
 31
0.0
  0
LINE
  5
112
330
70
100
AcDbEntity
  8
0
 62
    18
420
        0
370
    25
100
AcDbLine
 10
142.3962780044282
 20
101.222477947564
 30
0.0
 11
142.3962780044282
 21
99.96414975016417
 31
0.0
  0
SPLINE
  5
113
330
70
100
AcDbEntity
  8
0
 62
    18
420
        0
370
    25
100
AcDbSpline
210
0.0
220
0.0
230
1.0
 70
     8
 71
     3
 72
     8
 73
     4
 74
     0
 42
0.0000000001
 43
0.0000000001
 40
0.0
 40
0.0
 40
0.0
 40
0.0
 40
1.0
 40
1.0
 40
1.0
 40
1.0
 10
144.9471506580073
 20
94.67161287633468
 30
0.0
 10
144.9466165892651
 20
94.61562263112654
 30
0.0
 10
144.9469075053547
 20
94.55962755586547
 30
0.0
 10
144.9480233115576
 20
94.50364588239676
 30
0.0
  0
SPLINE
  5
114
330
70
100
AcDbEntity
  8
0
 62
    18
420
        0
370
    25
100
AcDbSpline
210
0.0
220
0.0
230
1.0
 70
     8
 71
     3
 72
     8
 73
     4
 74
     0
 42
0.0000000001
 43
0.0000000001
 40
0.0
 40
0.0
 40
0.0
 40
0.0
 40
1.0
 40
1.0
 40
1.0
 40
1.0
 10
144.9480233115576
 20
99.94131001273176
 30
0.0
 10
144.9469075053547
 20
99.88532833926273
 30
0.0
 10
144.9466165892651
 20
99.82933326400164
 30
0.0
 10
144.9471506580073
 20
99.77334301879384
 30
0.0
  0
SPLINE
  5
115
330
70
100
AcDbEntity
  8
0
 62
    18
420
        0
370
    25
100
AcDbSpline
210
0.0
220
0.0
230
1.0
 70
     8
 71
     3
 72
     8
 73
     4
 74
     0
 42
0.0000000001
 43
0.0000000001
 40
0.0
 40
0.0
 40
0.0
 40
0.0
 40
1.0
 40
1.0
 40
1.0
 40
1.0
 10
142.4954053508782
 20
94.65021681917052
 30
0.0
 10
142.4405194554456
 20
94.64973783721736
 30
0.0
 10
142.3962780044282
 20
94.60510861226334
 30
0.0
 10
142.3962780044282
 20
94.55022062686406
 30
0.0
  0
LINE
  5
116
330
70
100
AcDbEntity
  8
0
 62
    18
420
        0
370
    25
100
AcDbLine
 10
142.4954053509283
 20
94.65021681916409
 30
0.0
 11
144.9471506580279
 21
94.6716128763642
 31
0.0
  0
LINE
  5
117
330
70
100
AcDbEntity
  8
0
 62
    18
420
        0
370
    25
100
AcDbLine
 10
142.3962780044282
 20
94.48080614506412
 30
0.0
 11
142.3962780044282
 21
94.55022062686406
 31
0.0
  0
LINE
  5
118
330
70
100
AcDbEntity
  8
0
 62
    18
420
        0
370
    25
100
AcDbLine
 10
144.9471506580279
 20
99.77334301886411
 30
0.0
 11
142.4954053509283
 21
99.79473907596409
 31
0.0
  0
SPLINE
  5
119
330
70
100
AcDbEntity
  8
0
 62
    18
420
        0
370
    25
100
AcDbSpline
210
0.0
220
0.0
230
1.0
 70
     8
 71
     3
 72
     8
 73
     4
 74
     0
 42
0.0000000001
 43
0.0000000001
 40
0.0
 40
0.0
 40
0.0
 40
0.0
 40
1.0
 40
1.0
 40
1.0
 40
1.0
 10
142.3962780044282
 20
99.89473526826445
 30
0.0
 10
142.3962780044282
 20
99.83984728286486
 30
0.0
 10
142.4405194554456
 20
99.79521805791085
 30
0.0
 10
142.4954053508782
 20
99.79473907595799
 30
0.0
  0
LINE
  5
11A
330
70
100
AcDbEntity
  8
0
 62
    18
420
        0
370
    25
100
AcDbLine
 10
142.3962780044282
 20
99.89473526826413
 30
0.0
 11
142.3962780044282
 21
99.96414975016417
 31
0.0
  0
SPLINE
  5
11B
330
70
100
AcDbEntity
  8
0
 62
    18
420
        0
370
    25
100
AcDbSpline
210
0.0
220
0.0
230
1.0
 70
     8
 71
     3
 72
     8
 73
     4
 74
     0
 42
0.0000000001
 43
0.0000000001
 40
0.0
 40
0.0
 40
0.0
 40
0.0
 40
1.0
 40
1.0
 40
1.0
 40
1.0
 10
142.2971506579692
 20
94.4971216237754
 30
0.0
 10
142.3378510333683
 20
94.49334390711792
 30
0.0
 10
142.376871626988
 20
94.51424585491189
 30
0.0
 10
142.3962780044192
 20
94.55022062684706
 30
0.0
  0
LINE
  5
11C
330
70
100
AcDbEntity
  8
0
 62
    18
420
        0
370
    25
100
AcDbLine
 10
142.4954053509283
 20
94.65021681916409
 30
0.0
 11
142.2971506580283
 21
94.64848667666405
 31
0.0
  0
SPLINE
  5
11D
330
70
100
AcDbEntity
  8
0
 62
    18
420
        0
370
    25
100
AcDbSpline
210
0.0
220
0.0
230
1.0
 70
     8
 71
     3
 72
     8
 73
     4
 74
     0
 42
0.0000000001
 43
0.0000000001
 40
0.0
 40
0.0
 40
0.0
 40
0.0
 40
1.0
 40
1.0
 40
1.0
 40
1.0
 10
142.3962780044796
 20
99.89473526831098
 30
0.0
 10
142.3822598668174
 20
99.92381883816106
 30
0.0
 10
142.3537876349738
 20
99.94321178830047
 30
0.0
 10
142.3215908967237
 20
99.94560600316432
 30
0.0
  0
LINE
  5
11E
330
70
100
AcDbEntity
  8
0
 62
    18
420
        0
370
    25
100
AcDbLine
 10
142.3175136206274
 20
99.79629151356412
 30
0.0
 11
142.3215908967275
 21
99.94560600316432
 31
0.0
  0
LINE
  5
11F
330
70
100
AcDbEntity
  8
0
 62
    18
420
        0
370
    25
100
AcDbLine
 10
142.3175136206274
 20
99.79629151356412
 30
0.0
 11
142.4954053509283
 21
99.79473907596409
 31
0.0
  0
LINE
  5
120
330
70
100
AcDbEntity
  8
0
 62
    18
420
        0
370
    25
100
AcDbLine
 10
142.3215908967275
 20
99.94560600316432
 30
0.0
 11
142.3312728006281
 21
100.3001683461642
 31
0.0
  0
LINE
  5
121
330
70
100
AcDbEntity
  8
0
 62
    18
420
        0
370
    25
100
AcDbLine
 10
149.7962780044279
 20
94.72247794756418
 30
0.0
 11
142.5462780044274
 21
94.72247794756418
 31
0.0
  0
SPLINE
  5
122
330
70
100
AcDbEntity
  8
0
 62
    18
420
        0
370
    25
100
AcDbSpline
210
0.0
220
0.0
230
1.0
 70
     8
 71
     3
 72
     8
 73
     4
 74
     0
 42
0.0000000001
 43
0.0000000001
 40
0.0
 40
0.0
 40
0.0
 40
0.0
 40
1.0
 40
1.0
 40
1.0
 40
1.0
 10
142.2962780044279
 20
94.97247794756402
 30
0.0
 10
142.2962780044279
 20
94.83440676010644
 30
0.0
 10
142.4082068169699
 20
94.72247794756418
 30
0.0
 10
142.5462780044274
 20
94.72247794756418
 30
0.0
  0
LINE
  5
123
330
70
100
AcDbEntity
  8
0
 62
    18
420
        0
370
    25
100
AcDbLine
 10
142.2962780044279
 20
94.97247794756402
 30
0.0
 11
149.7962780044279
 21
94.97247794756402
 31
0.0
  0
LINE
  5
124
330
70
100
AcDbEntity
  8
0
 62
    18
420
        0
370
    25
100
AcDbLine
 10
149.7962780044279
 20
94.72247794756418
 30
0.0
 11
149.7962780044279
 21
94.97247794756402
 31
0.0
  0
LINE
  5
125
330
70
100
AcDbEntity
  8
0
 62
    18
420
        0
370
    25
100
AcDbLine
 10
149.7962780044279
 20
99.47247794756417
 30
0.0
 11
142.2962780044279
 21
99.47247794756417
 31
0.0
  0
SPLINE
  5
126
330
70
100
AcDbEntity
  8
0
 62
    18
420
        0
370
    25
100
AcDbSpline
210
0.0
220
0.0
230
1.0
 70
     8
 71
     3
 72
     8
 73
     4
 74
     0
 42
0.0000000001
 43
0.0000000001
 40
0.0
 40
0.0
 40
0.0
 40
0.0
 40
1.0
 40
1.0
 40
1.0
 40
1.0
 10
142.5462780044274
 20
99.72247794756404
 30
0.0
 10
142.4082068169699
 20
99.72247794756404
 30
0.0
 10
142.2962780044279
 20
99.61054913502175
 30
0.0
 10
142.2962780044279
 20
99.47247794756417
 30
0.0
  0
LINE
  5
127
330
70
100
AcDbEntity
  8
0
 62
    18
420
        0
370
    25
100
AcDbLine
 10
142.5462780044274
 20
99.72247794756404
 30
0.0
 11
149.7962780044279
 21
99.72247794756404
 31
0.0
  0
LINE
  5
128
330
70
100
AcDbEntity
  8
0
 62
    18
420
        0
370
    25
100
AcDbLine
 10
149.7962780044279
 20
99.47247794756417
 30
0.0
 11
149.7962780044279
 21
99.72247794756404
 31
0.0
  0
LINE
  5
129
330
70
100
AcDbEntity
  8
0
 62
    18
420
        0
370
    25
100
AcDbLine
 10
149.7962780044279
 20
99.47247794756417
 30
0.0
 11
149.7962780044279
 21
94.97247794756402
 31
0.0
  0
LINE
  5
12A
330
70
100
AcDbEntity
  8
0
 62
    18
420
        0
370
    25
100
AcDbLine
 10
142.2962780044279
 20
99.47247794756417
 30
0.0
 11
142.2962780044279
 21
94.97247794756402
 31
0.0
  0
LINE
  5
12B
330
70
100
AcDbEntity
  8
0
 62
    18
420
        0
370
    25
100
AcDbLine
 10
194.2962780044284
 20
94.72247794756418
 30
0.0
 11
149.7962780044279
 21
94.72247794756418
 31
0.0
  0
LINE
  5
12C
330
70
100
AcDbEntity
  8
0
 62
    18
420
        0
370
    25
100
AcDbLine
 10
149.7962780044279
 20
94.97247794756402
 30
0.0
 11
194.3944334632279
 21
94.97247794756402
 31
0.0
  0
SPLINE
  5
12D
330
70
100
AcDbEntity
  8
0
 62
    18
420
        0
370
    25
100
AcDbSpline
210
0.0
220
0.0
230
1.0
 70
     8
 71
     3
 72
     8
 73
     4
 74
     0
 42
0.0000000001
 43
0.0000000001
 40
0.0
 40
0.0
 40
0.0
 40
0.0
 40
1.0
 40
1.0
 40
1.0
 40
1.0
 10
194.2962780044028
 20
94.72247794758759
 30
0.0
 10
194.330714840412
 20
94.80512635401325
 30
0.0
 10
194.3634403108145
 20
94.88847747577898
 30
0.0
 10
194.394433463224
 20
94.97247794758006
 30
0.0
  0
LINE
  5
12E
330
70
100
AcDbEntity
  8
0
 62
    18
420
        0
370
    25
100
AcDbLine
 10
194.3944334632279
 20
99.47247794756417
 30
0.0
 11
149.7962780044279
 21
99.47247794756417
 31
0.0
  0
LINE
  5
12F
330
70
100
AcDbEntity
  8
0
 62
    18
420
        0
370
    25
100
AcDbLine
 10
149.7962780044279
 20
99.72247794756404
 30
0.0
 11
194.2962780044284
 21
99.72247794756404
 31
0.0
  0
SPLINE
  5
130
330
70
100
AcDbEntity
  8
0
 62
    18
420
        0
370
    25
100
AcDbSpline
210
0.0
220
0.0
230
1.0
 70
     8
 71
     3
 72
     8
 73
     4
 74
     0
 42
0.0000000001
 43
0.0000000001
 40
0.0
 40
0.0
 40
0.0
 40
0.0
 40
1.0
 40
1.0
 40
1.0
 40
1.0
 10
194.3944334632997
 20
99.47247794761937
 30
0.0
 10
194.3634403108889
 20
99.55647841942335
 30
0.0
 10
194.3307148404852
 20
99.63982954119195
 30
0.0
 10
194.2962780044734
 20
99.72247794761985
 30
0.0
  0
SPLINE
  5
131
330
70
100
AcDbEntity
  8
0
 62
    18
420
        0
370
    25
100
AcDbSpline
210
0.0
220
0.0
230
1.0
 70
     8
 71
     3
 72
     8
 73
     4
 74
     0
 42
0.0000000001
 43
0.0000000001
 40
0.0
 40
0.0
 40
0.0
 40
0.0
 40
1.0
 40
1.0
 40
1.0
 40
1.0
 10
194.3944334632523
 20
94.97247794756274
 30
0.0
 10
194.9302261848193
 20
96.42463230748319
 30
0.0
 10
194.9302261848193
 20
98.02032358764535
 30
0.0
 10
194.3944334632523
 20
99.47247794756547
 30
0.0
  0
LWPOLYLINE
  5
132
330
70
100
AcDbEntity
  8
0
 62
    18
420
        0
370
    25
100
AcDbPolyline
 90
        5
 70
     0
 43
0.0
 10
142.0373761064282
 20
85.22227926376428
 10
142.0373748347282
 20
85.22224929076449
 10
142.036928737928
 20
85.21174134116426
 10
142.0367054953279
 20
85.2064873745641
 10
142.0364821232279
 20
85.20123341356404
  0
LINE
  5
133
330
70
100
AcDbEntity
  8
0
 62
    18
420
        0
370
    25
100
AcDbLine
 10
141.5369336938284
 20
85.22247794756415
 30
0.0
 11
142.0364821232279
 21
85.20123341356404
 31
0.0
  0
LWPOLYLINE
  5
134
330
70
100
AcDbEntity
  8
0
 62
    18
420
        0
370
    25
100
AcDbPolyline
 90
        7
 70
     0
 43
0.0
 10
142.0364782986284
 20
85.21177156366368
 10
142.0012978729276
 20
85.21252515866382
 10
141.9137867508279
 20
85.21439998636402
 10
141.7838010067273
 20
85.21718548166415
 10
141.6259674131274
 20
85.22056885476388
 10
141.5523405736276
 20
85.22214756436417
 10
141.5369336938284
 20
85.22247795316426
  0
SPLINE
  5
135
330
70
100
AcDbEntity
  8
0
 62
    18
420
        0
370
    25
100
AcDbSpline
210
0.0
220
0.0
230
1.0
 70
     8
 71
     3
 72
     8
 73
     4
 74
     0
 42
0.0000000001
 43
0.0000000001
 40
0.0
 40
0.0
 40
0.0
 40
0.0
 40
1.0
 40
1.0
 40
1.0
 40
1.0
 10
142.0364782985617
 20
85.21177156368294
 30
0.0
 10
142.0370875419922
 20
85.21524071089137
 30
0.0
 10
142.0373879876694
 20
85.21875704592638
 30
0.0
 10
142.0373761063794
 20
85.2222792638002
 30
0.0
  0
LWPOLYLINE
  5
136
330
70
100
AcDbEntity
  8
0
 62
    18
420
        0
370
    25
100
AcDbPolyline
 90
        7
 70
     0
 43
0.0
 10
142.0364821232279
 20
109.2226681633641
 10
142.0368398982279
 20
108.2226683061643
 10
142.0381043118281
 20
104.2226687530642
 10
142.0391291662286
 20
96.2226687166642
 10
142.0387817745273
 20
93.17546662556427
 10
142.0364821239273
 20
85.22228772056447
 10
142.0364782986284
 20
85.21177156366368
  0
LWPOLYLINE
  5
137
330
70
100
AcDbEntity
  8
0
 62
    18
420
        0
370
    25
100
AcDbPolyline
 90
        4
 70
     0
 43
0.0
 10
141.5369336938284
 20
85.22247794756415
 10
141.5393502285275
 20
93.17555971746413
 10
141.5393704972282
 20
101.1286410521641
 10
141.5369336936282
 20
109.222477947564
  0
LINE
  5
138
330
70
100
AcDbEntity
  8
0
 62
    18
420
        0
370
    25
100
AcDbLine
 10
142.0364821232279
 20
109.2226681633641
 30
0.0
 11
141.5369336936282
 21
109.222477947564
 31
0.0
  0
LINE
  5
139
330
70
100
AcDbEntity
  8
0
 62
    18
420
        0
370
    25
100
AcDbLine
 10
139.2962780044284
 20
109.722477947564
 30
0.0
 11
141.5369336938284
 21
109.722477947564
 31
0.0
  0
LINE
  5
13A
330
70
100
AcDbEntity
  8
0
 62
    18
420
        0
370
    25
100
AcDbLine
 10
141.5369336936282
 20
109.222477947564
 30
0.0
 11
141.5369336938284
 21
109.722477947564
 31
0.0
  0
LINE
  5
13B
330
70
100
AcDbEntity
  8
0
 62
    18
420
        0
370
    25
100
AcDbLine
 10
141.5369336936282
 20
109.222477947564
 30
0.0
 11
139.2962780044284
 21
109.222477947564
 31
0.0
  0
LINE
  5
13C
330
70
100
AcDbEntity
  8
0
 62
    18
420
        0
370
    25
100
AcDbLine
 10
139.2962780044284
 20
109.222477947564
 30
0.0
 11
139.2962780044284
 21
109.722477947564
 31
0.0
  0
LINE
  5
13D
330
70
100
AcDbEntity
  8
0
 62
    18
420
        0
370
    25
100
AcDbLine
 10
139.2962780044284
 20
85.22247794756415
 30
0.0
 11
141.5369336938284
 21
85.22247794756415
 31
0.0
  0
LINE
  5
13E
330
70
100
AcDbEntity
  8
0
 62
    18
420
        0
370
    25
100
AcDbLine
 10
139.2962780044284
 20
109.222477947564
 30
0.0
 11
139.2962780044284
 21
85.22247794756415
 31
0.0
  0
LINE
  5
13F
330
70
100
AcDbEntity
  8
0
 62
    18
420
        0
370
    25
100
AcDbLine
 10
141.5369336936282
 20
84.72247794756382
 30
0.0
 11
141.5369336938284
 21
85.22247794756415
 31
0.0
  0
LINE
  5
140
330
70
100
AcDbEntity
  8
0
 62
    18
420
        0
370
    25
100
AcDbLine
 10
141.5369336936282
 20
84.72247794756382
 30
0.0
 11
139.2962780044284
 21
84.72247794756382
 31
0.0
  0
LINE
  5
141
330
70
100
AcDbEntity
  8
0
 62
    18
420
        0
370
    25
100
AcDbLine
 10
139.2962780044284
 20
84.72247794756382
 30
0.0
 11
139.2962780044284
 21
85.22247794756415
 31
0.0
  0
SPLINE
  5
142
330
70
100
AcDbEntity
  8
0
 62
    18
420
        0
370
    25
100
AcDbSpline
210
0.0
220
0.0
230
1.0
 70
     8
 71
     3
 72
     8
 73
     4
 74
     0
 42
0.0000000001
 43
0.0000000001
 40
0.0
 40
0.0
 40
0.0
 40
0.0
 40
1.0
 40
1.0
 40
1.0
 40
1.0
 10
142.0364821232741
 20
109.2226681634212
 30
0.0
 10
142.0365018071739
 20
109.4986115861744
 30
0.0
 10
141.8128770890986
 20
109.7223533006542
 30
0.0
 10
141.536933693795
 20
109.7224779475939
 30
0.0
  0
SPLINE
  5
143
330
70
100
AcDbEntity
  8
0
 62
    18
420
        0
370
    25
100
AcDbSpline
210
0.0
220
0.0
230
1.0
 70
     8
 71
     3
 72
     8
 73
     4
 74
     0
 42
0.0000000001
 43
0.0000000001
 40
0.0
 40
0.0
 40
0.0
 40
0.0
 40
1.0
 40
1.0
 40
1.0
 40
1.0
 10
141.5369336936205
 20
84.72247794761644
 30
0.0
 10
141.8048131097043
 20
84.72247795677413
 30
0.0
 10
142.0251001867801
 20
84.93359591043835
 30
0.0
 10
142.0364821232959
 20
85.20123341356919
 30
0.0
  0
SPLINE
  5
144
330
70
100
AcDbEntity
  8
0
 62
    18
420
        0
370
    25
100
AcDbSpline
210
0.0
220
0.0
230
1.0
 70
     8
 71
     3
 72
     8
 73
     4
 74
     0
 42
0.0000000001
 43
0.0000000001
 40
0.0
 40
0.0
 40
0.0
 40
0.0
 40
1.0
 40
1.0
 40
1.0
 40
1.0
 10
142.0373761063948
 20
85.2222792637848
 30
0.0
 10
142.1890495875603
 20
88.48831028988467
 30
0.0
 10
142.275861893351
 20
91.75703084677058
 30
0.0
 10
142.2977617003273
 20
95.02650846663504
 30
0.0
  0
LINE
  5
145
330
70
100
AcDbEntity
  8
0
 62
    18
420
        0
370
    25
100
AcDbLine
 10
142.0373761064282
 20
109.2226766313642
 30
0.0
 11
142.0364821232279
 21
109.2226681633641
 31
0.0
  0
LINE
  5
146
330
70
100
AcDbEntity
  8
0
 62
    18
420
        0
370
    25
100
AcDbLine
 10
142.0373761255277
 20
109.2226760739642
 30
0.0
 11
142.2962780044279
 21
99.19774344976408
 31
0.0
  0
LWPOLYLINE
  5
147
330
70
100
AcDbEntity
  8
0
 62
    18
420
        0
370
    25
100
AcDbPolyline
 90
        4
 70
     0
 43
0.0
 10
142.2984454845283
 20
94.96085683746416
 10
142.2984583838276
 20
94.94426867356429
 10
142.298498082128
 20
94.89633429016425
 10
142.2985401544274
 20
94.84747794756426
  0
LINE
  5
148
330
70
100
AcDbEntity
  8
0
 62
    18
420
        0
370
    25
100
AcDbLine
 10
142.0364782985014
 20
109.2437182454168
 30
0.0
 11
142.0382717097106
 21
109.2457215600469
 31
0.0
  0
SPLINE
  5
149
330
70
100
AcDbEntity
  8
0
 62
    18
420
        0
370
    25
100
AcDbSpline
210
0.0
220
0.0
230
1.0
 70
     8
 71
     3
 72
     8
 73
     4
 74
     0
 42
0.0000000001
 43
0.0000000001
 40
0.0
 40
0.0
 40
0.0
 40
0.0
 40
1.0
 40
1.0
 40
1.0
 40
1.0
 10
142.0364782985078
 20
109.2437182454181
 30
0.0
 10
142.0250998430963
 20
109.5113564853808
 30
0.0
 10
141.8048136981102
 20
109.7224770302918
 30
0.0
 10
141.5369336937475
 20
109.7224779475814
 30
0.0
  0
LINE
  5
14A
330
70
100
AcDbEntity
  8
0
 62
    18
420
        0
370
    25
100
AcDbLine
 10
141.5369336938284
 20
109.722477947564
 30
0.0
 11
141.539739085228
 21
109.722477947564
 31
0.0
  0
LWPOLYLINE
  5
14B
330
70
100
AcDbEntity
  8
0
 62
    18
420
        0
370
    25
100
AcDbPolyline
 90
        7
 70
     0
 43
0.0
 10
142.0364782985283
 20
109.2437182454643
 10
142.0366418564274
 20
109.2398738689643
 10
142.0368056458283
 20
109.2360288622642
 10
142.0370010935284
 20
109.2314471568641
 10
142.037184796528
 20
109.2271474004642
 10
142.0372827616273
 20
109.2248571191642
 10
142.0373761064282
 20
109.2226766313642
  0
LWPOLYLINE
  5
14C
330
70
100
AcDbEntity
  8
0
 62
    18
420
        0
370
    25
100
AcDbPolyline
 90
        3
 70
     0
 43
0.0
 10
142.0403179255282
 20
109.2226766313642
 10
142.0396642431275
 20
109.236151736764
 10
142.0391501254282
 20
109.2467392949641
  0
LINE
  5
14D
330
70
100
AcDbEntity
  8
0
 62
    18
420
        0
370
    25
100
AcDbLine
 10
142.0403179255282
 20
109.2226766313642
 30
0.0
 11
142.0373761064282
 21
109.2226766313642
 31
0.0
  0
SPLINE
  5
14E
330
70
100
AcDbEntity
  8
0
 62
    18
420
        0
370
    25
100
AcDbSpline
210
0.0
220
0.0
230
1.0
 70
     8
 71
     3
 72
    11
 73
     7
 74
     0
 42
0.0000000001
 43
0.0000000001
 40
0.0
 40
0.0
 40
0.0
 40
0.0
 40
1.0
 40
1.0
 40
1.0
 40
2.0
 40
2.0
 40
2.0
 40
2.0
 10
182.5462780044276
 20
85.47247794756369
 30
0.0
 10
182.5462780044276
 20
85.05826438519095
 30
0.0
 10
182.8820644420547
 20
84.72247794756382
 30
0.0
 10
183.2962780044274
 20
84.72247794756382
 30
0.0
 10
183.7104915668014
 20
84.72247794756382
 30
0.0
 10
184.0462780044286
 20
85.05826438519095
 30
0.0
 10
184.0462780044286
 20
85.47247794756369
 30
0.0
  0
SPLINE
  5
14F
330
70
100
AcDbEntity
  8
0
 62
    18
420
        0
370
    25
100
AcDbSpline
210
0.0
220
0.0
230
1.0
 70
     8
 71
     3
 72
    11
 73
     7
 74
     0
 42
0.0000000001
 43
0.0000000001
 40
0.0
 40
0.0
 40
0.0
 40
0.0
 40
1.0
 40
1.0
 40
1.0
 40
2.0
 40
2.0
 40
2.0
 40
2.0
 10
190.7962780044274
 20
90.47247794756419
 30
0.0
 10
190.7962780044274
 20
90.05826438519113
 30
0.0
 10
191.1320644420545
 20
89.72247794756398
 30
0.0
 10
191.5462780044285
 20
89.72247794756398
 30
0.0
 10
191.9604915668012
 20
89.72247794756398
 30
0.0
 10
192.2962780044284
 20
90.05826438519113
 30
0.0
 10
192.2962780044284
 20
90.47247794756419
 30
0.0
  0
SPLINE
  5
150
330
70
100
AcDbEntity
  8
0
 62
    18
420
        0
370
    25
100
AcDbSpline
210
0.0
220
0.0
230
1.0
 70
     8
 71
     3
 72
    11
 73
     7
 74
     0
 42
0.0000000001
 43
0.0000000001
 40
0.0
 40
0.0
 40
0.0
 40
0.0
 40
1.0
 40
1.0
 40
1.0
 40
2.0
 40
2.0
 40
2.0
 40
2.0
 10
149.5462780044283
 20
85.47247794756369
 30
0.0
 10
149.5462780044283
 20
85.05826438519095
 30
0.0
 10
149.8820644420554
 20
84.72247794756382
 30
0.0
 10
150.2962780044282
 20
84.72247794756382
 30
0.0
 10
150.7104915668009
 20
84.72247794756382
 30
0.0
 10
151.046278004428
 20
85.05826438519095
 30
0.0
 10
151.046278004428
 20
85.47247794756369
 30
0.0
  0
SPLINE
  5
151
330
70
100
AcDbEntity
  8
0
 62
    18
420
        0
370
    25
100
AcDbSpline
210
0.0
220
0.0
230
1.0
 70
     8
 71
     3
 72
    11
 73
     7
 74
     0
 42
0.0000000001
 43
0.0000000001
 40
0.0
 40
0.0
 40
0.0
 40
0.0
 40
1.0
 40
1.0
 40
1.0
 40
2.0
 40
2.0
 40
2.0
 40
2.0
 10
157.7962780044281
 20
85.47247794756369
 30
0.0
 10
157.7962780044281
 20
85.05826438519095
 30
0.0
 10
158.1320644420553
 20
84.72247794756382
 30
0.0
 10
158.546278004428
 20
84.72247794756382
 30
0.0
 10
158.9604915668007
 20
84.72247794756382
 30
0.0
 10
159.2962780044278
 20
85.05826438519095
 30
0.0
 10
159.2962780044278
 20
85.47247794756369
 30
0.0
  0
SPLINE
  5
152
330
70
100
AcDbEntity
  8
0
 62
    18
420
        0
370
    25
100
AcDbSpline
210
0.0
220
0.0
230
1.0
 70
     8
 71
     3
 72
    11
 73
     7
 74
     0
 42
0.0000000001
 43
0.0000000001
 40
0.0
 40
0.0
 40
0.0
 40
0.0
 40
1.0
 40
1.0
 40
1.0
 40
2.0
 40
2.0
 40
2.0
 40
2.0
 10
166.0462780044279
 20
85.47247794756369
 30
0.0
 10
166.0462780044279
 20
85.05826438519095
 30
0.0
 10
166.382064442055
 20
84.72247794756382
 30
0.0
 10
166.7962780044278
 20
84.72247794756382
 30
0.0
 10
167.2104915668005
 20
84.72247794756382
 30
0.0
 10
167.5462780044277
 20
85.05826438519095
 30
0.0
 10
167.5462780044277
 20
85.47247794756369
 30
0.0
  0
SPLINE
  5
153
330
70
100
AcDbEntity
  8
0
 62
    18
420
        0
370
    25
100
AcDbSpline
210
0.0
220
0.0
230
1.0
 70
     8
 71
     3
 72
    11
 73
     7
 74
     0
 42
0.0000000001
 43
0.0000000001
 40
0.0
 40
0.0
 40
0.0
 40
0.0
 40
1.0
 40
1.0
 40
1.0
 40
2.0
 40
2.0
 40
2.0
 40
2.0
 10
174.2962780044277
 20
85.47247794756369
 30
0.0
 10
174.2962780044277
 20
85.05826438519095
 30
0.0
 10
174.6320644420549
 20
84.72247794756382
 30
0.0
 10
175.0462780044276
 20
84.72247794756382
 30
0.0
 10
175.4604915668016
 20
84.72247794756382
 30
0.0
 10
175.7962780044275
 20
85.05826438519095
 30
0.0
 10
175.7962780044275
 20
85.47247794756369
 30
0.0
  0
LINE
  5
154
330
70
100
AcDbEntity
  8
0
 62
     8
420
  8421504
370
    25
100
AcDbLine
 10
145.4757643594286
 20
93.22247794756412
 30
0.0
 11
145.4757643594286
 21
94.72247794756418
 31
0.0
  0
LINE
  5
155
330
70
100
AcDbEntity
  8
0
 62
     8
420
  8421504
370
    25
100
AcDbLine
 10
145.4757643594286
 20
99.72247794756404
 30
0.0
 11
145.4757643594286
 21
101.222477947564
 31
0.0
  0
SPLINE
  5
156
330
70
100
AcDbEntity
  8
0
 62
     8
420
  8421504
370
    25
100
AcDbSpline
210
0.0
220
0.0
230
1.0
 70
     8
 71
     3
 72
     8
 73
     4
 74
     0
 42
0.0000000001
 43
0.0000000001
 40
0.0
 40
0.0
 40
0.0
 40
0.0
 40
1.0
 40
1.0
 40
1.0
 40
1.0
 10
145.1462780044872
 20
99.73618961824628
 30
0.0
 10
145.1247125064664
 20
99.73651135953581
 30
0.0
 10
145.1033672548939
 20
99.7318173549657
 30
0.0
 10
145.0839263266448
 20
99.72247794753805
 30
0.0
  0
SPLINE
  5
157
330
70
100
AcDbEntity
  8
0
 62
     8
420
  8421504
370
    25
100
AcDbSpline
210
0.0
220
0.0
230
1.0
 70
     8
 71
     3
 72
     8
 73
     4
 74
     0
 42
0.0000000001
 43
0.0000000001
 40
0.0
 40
0.0
 40
0.0
 40
0.0
 40
1.0
 40
1.0
 40
1.0
 40
1.0
 10
145.0839263266435
 20
94.72247794758983
 30
0.0
 10
145.1033672548939
 20
94.7131385401625
 30
0.0
 10
145.1247125064664
 20
94.70844453559241
 30
0.0
 10
145.1462780044859
 20
94.70876627688189
 30
0.0
  0
LINE
  5
158
330
70
100
AcDbEntity
  8
0
 62
     8
420
  8421504
370
    25
100
AcDbLine
 10
145.7255876335285
 20
100.9818764438641
 30
0.0
 11
145.7255876335285
 21
99.72247794756404
 31
0.0
  0
LINE
  5
159
330
70
100
AcDbEntity
  8
0
 62
     8
420
  8421504
370
    25
100
AcDbLine
 10
145.7255876335285
 20
94.72247794756418
 30
0.0
 11
145.7255876335285
 21
93.46307945136418
 31
0.0
  0
LINE
  5
15A
330
70
100
AcDbEntity
  8
0
 62
     8
420
  8421504
370
    25
100
AcDbLine
 10
142.0390035702513
 20
85.1983851941002
 30
0.0
 11
142.0373329875703
 21
85.20029324875849
 31
0.0
  0
LINE
  5
15B
330
70
100
AcDbEntity
  8
0
 62
     8
420
  8421504
370
    25
100
AcDbLine
 10
184.0462780044286
 20
87.72247794756458
 30
0.0
 11
182.5462780044276
 21
87.72247794756458
 31
0.0
  0
LINE
  5
15C
330
70
100
AcDbEntity
  8
0
 62
     8
420
  8421504
370
    25
100
AcDbLine
 10
192.2962780044284
 20
92.7224779475641
 30
0.0
 11
190.7962780044274
 21
92.7224779475641
 31
0.0
  0
LINE
  5
15D
330
70
100
AcDbEntity
  8
0
 62
     8
420
  8421504
370
    25
100
AcDbLine
 10
149.5462780044283
 20
87.72247794756458
 30
0.0
 11
151.046278004428
 21
87.72247794756458
 31
0.0
  0
LINE
  5
15E
330
70
100
AcDbEntity
  8
0
 62
     8
420
  8421504
370
    25
100
AcDbLine
 10
157.7962780044281
 20
87.72247794756458
 30
0.0
 11
159.2962780044278
 21
87.72247794756458
 31
0.0
  0
LINE
  5
15F
330
70
100
AcDbEntity
  8
0
 62
     8
420
  8421504
370
    25
100
AcDbLine
 10
166.0462780044279
 20
87.72247794756458
 30
0.0
 11
167.5462780044277
 21
87.72247794756458
 31
0.0
  0
LINE
  5
160
330
70
100
AcDbEntity
  8
0
 62
     8
420
  8421504
370
    25
100
AcDbLine
 10
174.2962780044277
 20
87.72247794756458
 30
0.0
 11
175.7962780044275
 21
87.72247794756458
 31
0.0
  0
LINE
  5
161
330
70
100
AcDbEntity
  8
0
 62
    18
420
        0
370
    25
100
AcDbLine
 10
64.39248046762807
 20
49.15167191986406
 30
0.0
 11
64.39248046762807
 21
49.48115827486447
 31
0.0
  0
LINE
  5
162
330
70
100
AcDbEntity
  8
0
 62
    18
420
        0
370
    25
100
AcDbLine
 10
56.39248046762811
 20
49.48115827486447
 30
0.0
 11
56.39248046762811
 21
49.15167191986406
 31
0.0
  0
SPLINE
  5
163
330
70
100
AcDbEntity
  8
0
 62
    18
420
        0
370
    25
100
AcDbSpline
210
0.0
220
0.0
230
1.0
 70
     8
 71
     3
 72
     8
 73
     4
 74
     0
 42
0.0000000001
 43
0.0000000001
 40
0.0
 40
0.0
 40
0.0
 40
0.0
 40
1.0
 40
1.0
 40
1.0
 40
1.0
 10
56.39248046762811
 20
49.15167191986406
 30
0.0
 10
56.39248046762811
 20
49.01725780604142
 30
0.0
 10
56.4987628753998
 20
48.90690180796533
 30
0.0
 10
56.6330819713871
 20
48.90184864579108
 30
0.0
  0
SPLINE
  5
164
330
70
100
AcDbEntity
  8
0
 62
    18
420
        0
370
    25
100
AcDbSpline
210
0.0
220
0.0
230
1.0
 70
     8
 71
     3
 72
     8
 73
     4
 74
     0
 42
0.0000000001
 43
0.0000000001
 40
0.0
 40
0.0
 40
0.0
 40
0.0
 40
1.0
 40
1.0
 40
1.0
 40
1.0
 10
64.15187896386875
 20
48.90184864579108
 30
0.0
 10
64.28619805985606
 20
48.90690180796533
 30
0.0
 10
64.39248046762807
 20
49.01725780604142
 30
0.0
 10
64.39248046762807
 20
49.15167191986406
 30
0.0
  0
SPLINE
  5
165
330
70
100
AcDbEntity
  8
0
 62
    18
420
        0
370
    25
100
AcDbSpline
210
0.0
220
0.0
230
1.0
 70
     8
 71
     3
 72
     8
 73
     4
 74
     0
 42
0.0000000001
 43
0.0000000001
 40
0.0
 40
0.0
 40
0.0
 40
0.0
 40
1.0
 40
1.0
 40
1.0
 40
1.0
 10
56.633081971475
 20
48.90184864577118
 30
0.0
 10
57.8856610138501
 20
48.8547258968429
 30
0.0
 10
59.13901534610922
 20
48.83115827486429
 30
0.0
 10
60.39248046762793
 20
48.83115827486429
 30
0.0
  0
SPLINE
  5
166
330
70
100
AcDbEntity
  8
0
 62
    18
420
        0
370
    25
100
AcDbSpline
210
0.0
220
0.0
230
1.0
 70
     8
 71
     3
 72
     8
 73
     4
 74
     0
 42
0.0000000001
 43
0.0000000001
 40
0.0
 40
0.0
 40
0.0
 40
0.0
 40
1.0
 40
1.0
 40
1.0
 40
1.0
 10
60.39248046762793
 20
48.83115827486429
 30
0.0
 10
61.6459455892047
 20
48.83115827486429
 30
0.0
 10
62.89929992152222
 20
48.85472589684483
 30
0.0
 10
64.15187896395538
 20
48.90184864577824
 30
0.0
  0
SPLINE
  5
167
330
70
100
AcDbEntity
  8
0
 62
    18
420
        0
370
    25
100
AcDbSpline
210
0.0
220
0.0
230
1.0
 70
     8
 71
     3
 72
     8
 73
     4
 74
     0
 42
0.0000000001
 43
0.0000000001
 40
0.0
 40
0.0
 40
0.0
 40
0.0
 40
1.0
 40
1.0
 40
1.0
 40
1.0
 10
63.35343934572179
 20
49.68024541661827
 30
0.0
 10
63.34806616936501
 20
49.63379934912131
 30
0.0
 10
63.37927868281699
 20
49.59101867645564
 30
0.0
 10
63.4251484183877
 20
49.58195911969308
 30
0.0
  0
LINE
  5
168
330
70
100
AcDbEntity
  8
0
 62
    18
420
        0
370
    25
100
AcDbLine
 10
63.35306008832782
 20
49.68022109886398
 30
0.0
 11
63.33226629322791
 21
52.23127975646376
 31
0.0
  0
LINE
  5
169
330
70
100
AcDbEntity
  8
0
 62
    18
420
        0
370
    25
100
AcDbLine
 10
57.45269365212793
 20
52.23115831106394
 30
0.0
 11
57.43190084702781
 21
49.68022109886398
 31
0.0
  0
SPLINE
  5
16A
330
70
100
AcDbEntity
  8
0
 62
    18
420
        0
370
    25
100
AcDbSpline
210
0.0
220
0.0
230
1.0
 70
     8
 71
     3
 72
     8
 73
     4
 74
     0
 42
0.0000000001
 43
0.0000000001
 40
0.0
 40
0.0
 40
0.0
 40
0.0
 40
1.0
 40
1.0
 40
1.0
 40
1.0
 10
57.36065219329308
 20
49.58330378753054
 30
0.0
 10
57.4058705300666
 20
49.59239608179524
 30
0.0
 10
57.43672163798782
 20
49.63443305512542
 30
0.0
 10
57.4318358771119
 20
49.68029695308713
 30
0.0
  0
SPLINE
  5
16B
330
70
100
AcDbEntity
  8
0
 62
    18
420
        0
370
    25
100
AcDbSpline
210
0.0
220
0.0
230
1.0
 70
     8
 71
     3
 72
     8
 73
     4
 74
     0
 42
0.0000000001
 43
0.0000000001
 40
0.0
 40
0.0
 40
0.0
 40
0.0
 40
1.0
 40
1.0
 40
1.0
 40
1.0
 10
59.63289738859901
 20
52.23339920209465
 30
0.0
 10
59.68521166452935
 20
52.22880877401763
 30
0.0
 10
59.73431639796258
 20
52.2591671246815
 30
0.0
 10
59.75359191759455
 20
52.30801699509054
 30
0.0
  0
LWPOLYLINE
  5
16C
330
70
100
AcDbEntity
  8
0
 62
    18
420
        0
370
    25
100
AcDbPolyline
 90
        6
 70
     0
 43
0.0
 10
61.15087239342805
 20
52.23288915116369
 10
61.13298964232799
 20
52.23246982056404
 10
61.08412247602795
 20
52.24871537256447
 10
61.04921160302783
 20
52.27679652626424
 10
61.03174749442807
 20
52.30595077236428
 10
61.03148008142786
 20
52.30746792406384
  0
SPLINE
  5
16D
330
70
100
AcDbEntity
  8
0
 62
    18
420
        0
370
    25
100
AcDbSpline
210
0.0
220
0.0
230
1.0
 70
     8
 71
     3
 72
     8
 73
     4
 74
     0
 42
0.0000000001
 43
0.0000000001
 40
0.0
 40
0.0
 40
0.0
 40
0.0
 40
1.0
 40
1.0
 40
1.0
 40
1.0
 10
56.49248046762811
 20
49.58115827486416
 30
0.0
 10
56.43725199264501
 20
49.58115827486416
 30
0.0
 10
56.39248046762778
 20
49.53638674984725
 30
0.0
 10
56.39248046762778
 20
49.48115827486447
 30
0.0
  0
SPLINE
  5
16E
330
70
100
AcDbEntity
  8
0
 62
    18
420
        0
370
    25
100
AcDbSpline
210
0.0
220
0.0
230
1.0
 70
     8
 71
     3
 72
     8
 73
     4
 74
     0
 42
0.0000000001
 43
0.0000000001
 40
0.0
 40
0.0
 40
0.0
 40
0.0
 40
1.0
 40
1.0
 40
1.0
 40
1.0
 10
64.39248046762807
 20
49.48115827486447
 30
0.0
 10
64.39248046762807
 20
49.53638674984725
 30
0.0
 10
64.34770894261117
 20
49.58115827486416
 30
0.0
 10
64.29248046762807
 20
49.58115827486416
 30
0.0
  0
LINE
  5
16F
330
70
100
AcDbEntity
  8
0
 62
    18
420
        0
370
    25
100
AcDbLine
 10
107.6424804676275
 20
-0.1688417251355079
 30
0.0
 11
110.3924804676274
 21
-0.1688417251355079
 31
0.0
  0
LINE
  5
170
330
70
100
AcDbEntity
  8
0
 62
    18
420
        0
370
    25
100
AcDbLine
 10
10.39248046762809
 20
-0.1688417251355079
 30
0.0
 11
13.14248046762802
 21
-0.1688417251355079
 31
0.0
  0
LINE
  5
171
330
70
100
AcDbEntity
  8
0
 62
    18
420
        0
370
    25
100
AcDbLine
 10
62.77871395632811
 20
52.32849253276429
 30
0.0
 11
62.86060923752803
 21
52.32848047526372
 31
0.0
  0
LWPOLYLINE
  5
172
330
70
100
AcDbEntity
  8
0
 62
    18
420
        0
370
    25
100
AcDbPolyline
 90
        3
 70
     0
 43
0.0
 10
63.52863545632803
 20
52.3311582748641
 10
67.29288177822789
 20
52.39196114246399
 10
72.41653293292834
 20
52.58947774006387
  0
LWPOLYLINE
  5
173
330
70
100
AcDbEntity
  8
0
 62
    18
420
        0
370
    25
100
AcDbPolyline
 90
        3
 70
     0
 43
0.0
 10
48.36842800202783
 20
52.58947772986406
 10
53.49205051232785
 20
52.39196194796441
 10
57.256274862528
 20
52.3311582748641
  0
SPLINE
  5
174
330
70
100
AcDbEntity
  8
0
 62
    18
420
        0
370
    25
100
AcDbSpline
210
0.0
220
0.0
230
1.0
 70
     8
 71
     3
 72
     8
 73
     4
 74
     0
 42
0.0000000001
 43
0.0000000001
 40
0.0
 40
0.0
 40
0.0
 40
0.0
 40
1.0
 40
1.0
 40
1.0
 40
1.0
 10
72.41634099690573
 20
52.58826451822148
 30
0.0
 10
72.68290893874888
 20
52.60099993202386
 30
0.0
 10
72.89248854543598
 20
52.82083801489606
 30
0.0
 10
72.89248046739928
 20
53.08771000352999
 30
0.0
  0
SPLINE
  5
175
330
70
100
AcDbEntity
  8
0
 62
    18
420
        0
370
    25
100
AcDbSpline
210
0.0
220
0.0
230
1.0
 70
     8
 71
     3
 72
     8
 73
     4
 74
     0
 42
0.0000000001
 43
0.0000000001
 40
0.0
 40
0.0
 40
0.0
 40
0.0
 40
1.0
 40
1.0
 40
1.0
 40
1.0
 10
47.89248046785689
 20
53.08771000352999
 30
0.0
 10
47.89247239182839
 20
52.8209043688522
 30
0.0
 10
48.10195128200156
 20
52.60109643168988
 30
0.0
 10
48.36844856073674
 20
52.58827273534261
 30
0.0
  0
LINE
  5
176
330
70
100
AcDbEntity
  8
0
 62
    18
420
        0
370
    25
100
AcDbLine
 10
107.6424804676275
 20
12.08115827486444
 30
0.0
 11
106.7674804676278
 21
12.08115827486444
 31
0.0
  0
LINE
  5
177
330
70
100
AcDbEntity
  8
0
 62
    18
420
        0
370
    25
100
AcDbLine
 10
106.7674804676278
 20
10.58115827486407
 30
0.0
 11
107.6424804676275
 21
10.58115827486407
 31
0.0
  0
LINE
  5
178
330
70
100
AcDbEntity
  8
0
 62
    18
420
        0
370
    25
100
AcDbLine
 10
14.01748046762797
 20
12.08115827486444
 30
0.0
 11
13.14248046762802
 21
12.08115827486444
 31
0.0
  0
LINE
  5
179
330
70
100
AcDbEntity
  8
0
 62
    18
420
        0
370
    25
100
AcDbLine
 10
13.14248046762802
 20
10.58115827486407
 30
0.0
 11
14.01748046762797
 21
10.58115827486407
 31
0.0
  0
LINE
  5
17A
330
70
100
AcDbEntity
  8
0
 62
    18
420
        0
370
    25
100
AcDbLine
 10
106.7674804676278
 20
12.08115827486444
 30
0.0
 11
14.01748046762797
 21
12.08115827486444
 31
0.0
  0
LINE
  5
17B
330
70
100
AcDbEntity
  8
0
 62
    18
420
        0
370
    25
100
AcDbLine
 10
14.01748046762797
 20
10.58115827486407
 30
0.0
 11
106.7674804676278
 21
10.58115827486407
 31
0.0
  0
LINE
  5
17C
330
70
100
AcDbEntity
  8
0
 62
    18
420
        0
370
    25
100
AcDbLine
 10
107.6424804676275
 20
3.831158274863991
 30
0.0
 11
106.7674804676278
 21
3.831158274863991
 31
0.0
  0
LINE
  5
17D
330
70
100
AcDbEntity
  8
0
 62
    18
420
        0
370
    25
100
AcDbLine
 10
106.7674804676278
 20
2.331158274864259
 30
0.0
 11
107.6424804676275
 21
2.331158274864259
 31
0.0
  0
LINE
  5
17E
330
70
100
AcDbEntity
  8
0
 62
    18
420
        0
370
    25
100
AcDbLine
 10
14.01748046762797
 20
3.831158274863991
 30
0.0
 11
13.14248046762802
 21
3.831158274863991
 31
0.0
  0
LINE
  5
17F
330
70
100
AcDbEntity
  8
0
 62
    18
420
        0
370
    25
100
AcDbLine
 10
13.14248046762802
 20
2.331158274864259
 30
0.0
 11
14.01748046762797
 21
2.331158274864259
 31
0.0
  0
LINE
  5
180
330
70
100
AcDbEntity
  8
0
 62
    18
420
        0
370
    25
100
AcDbLine
 10
106.7674804676278
 20
3.831158274863991
 30
0.0
 11
14.01748046762797
 21
3.831158274863991
 31
0.0
  0
LINE
  5
181
330
70
100
AcDbEntity
  8
0
 62
    18
420
        0
370
    25
100
AcDbLine
 10
14.01748046762797
 20
2.331158274864259
 30
0.0
 11
106.7674804676278
 21
2.331158274864259
 31
0.0
  0
LINE
  5
182
330
70
100
AcDbEntity
  8
0
 62
    18
420
        0
370
    25
100
AcDbLine
 10
106.7674804676278
 20
43.58115827486459
 30
0.0
 11
107.6424804676275
 21
43.58115827486459
 31
0.0
  0
LINE
  5
183
330
70
100
AcDbEntity
  8
0
 62
    18
420
        0
370
    25
100
AcDbLine
 10
107.6358969579278
 20
45.08115827486432
 30
0.0
 11
106.7674804676278
 21
45.08115827486432
 31
0.0
  0
LINE
  5
184
330
70
100
AcDbEntity
  8
0
 62
    18
420
        0
370
    25
100
AcDbLine
 10
13.14248046762802
 20
43.58115827486459
 30
0.0
 11
14.01748046762797
 21
43.58115827486459
 31
0.0
  0
LINE
  5
185
330
70
100
AcDbEntity
  8
0
 62
    18
420
        0
370
    25
100
AcDbLine
 10
14.01748046762797
 20
45.08115827486432
 30
0.0
 11
13.14906397742783
 21
45.08115827486432
 31
0.0
  0
LINE
  5
186
330
70
100
AcDbEntity
  8
0
 62
    18
420
        0
370
    25
100
AcDbLine
 10
14.01748046762797
 20
43.58115827486459
 30
0.0
 11
106.7674804676278
 21
43.58115827486459
 31
0.0
  0
LINE
  5
187
330
70
100
AcDbEntity
  8
0
 62
    18
420
        0
370
    25
100
AcDbLine
 10
106.7674804676278
 20
45.08115827486432
 30
0.0
 11
14.01748046762797
 21
45.08115827486432
 31
0.0
  0
LINE
  5
188
330
70
100
AcDbEntity
  8
0
 62
    18
420
        0
370
    25
100
AcDbLine
 10
106.7674804676278
 20
35.33115827486414
 30
0.0
 11
107.6424804676275
 21
35.33115827486414
 31
0.0
  0
LINE
  5
189
330
70
100
AcDbEntity
  8
0
 62
    18
420
        0
370
    25
100
AcDbLine
 10
107.6424804676275
 20
36.83115827486452
 30
0.0
 11
106.7674804676278
 21
36.83115827486452
 31
0.0
  0
LINE
  5
18A
330
70
100
AcDbEntity
  8
0
 62
    18
420
        0
370
    25
100
AcDbLine
 10
13.14248046762802
 20
35.33115827486414
 30
0.0
 11
14.01748046762797
 21
35.33115827486414
 31
0.0
  0
LINE
  5
18B
330
70
100
AcDbEntity
  8
0
 62
    18
420
        0
370
    25
100
AcDbLine
 10
14.01748046762797
 20
36.83115827486452
 30
0.0
 11
13.14248046762802
 21
36.83115827486452
 31
0.0
  0
LINE
  5
18C
330
70
100
AcDbEntity
  8
0
 62
    18
420
        0
370
    25
100
AcDbLine
 10
14.01748046762797
 20
35.33115827486414
 30
0.0
 11
106.7674804676278
 21
35.33115827486414
 31
0.0
  0
LINE
  5
18D
330
70
100
AcDbEntity
  8
0
 62
    18
420
        0
370
    25
100
AcDbLine
 10
106.7674804676278
 20
36.83115827486452
 30
0.0
 11
14.01748046762797
 21
36.83115827486452
 31
0.0
  0
LINE
  5
18E
330
70
100
AcDbEntity
  8
0
 62
    18
420
        0
370
    25
100
AcDbLine
 10
106.7674804676278
 20
27.08115827486433
 30
0.0
 11
107.6424804676275
 21
27.08115827486433
 31
0.0
  0
LINE
  5
18F
330
70
100
AcDbEntity
  8
0
 62
    18
420
        0
370
    25
100
AcDbLine
 10
107.6424804676275
 20
28.58115827486406
 30
0.0
 11
106.7674804676278
 21
28.58115827486406
 31
0.0
  0
LINE
  5
190
330
70
100
AcDbEntity
  8
0
 62
    18
420
        0
370
    25
100
AcDbLine
 10
13.14248046762802
 20
27.08115827486433
 30
0.0
 11
14.01748046762797
 21
27.08115827486433
 31
0.0
  0
LINE
  5
191
330
70
100
AcDbEntity
  8
0
 62
    18
420
        0
370
    25
100
AcDbLine
 10
14.01748046762797
 20
28.58115827486406
 30
0.0
 11
13.14248046762802
 21
28.58115827486406
 31
0.0
  0
LINE
  5
192
330
70
100
AcDbEntity
  8
0
 62
    18
420
        0
370
    25
100
AcDbLine
 10
14.01748046762797
 20
27.08115827486433
 30
0.0
 11
106.7674804676278
 21
27.08115827486433
 31
0.0
  0
LINE
  5
193
330
70
100
AcDbEntity
  8
0
 62
    18
420
        0
370
    25
100
AcDbLine
 10
106.7674804676278
 20
28.58115827486406
 30
0.0
 11
14.01748046762797
 21
28.58115827486406
 31
0.0
  0
LINE
  5
194
330
70
100
AcDbEntity
  8
0
 62
    18
420
        0
370
    25
100
AcDbLine
 10
106.7674804676278
 20
18.83115827486388
 30
0.0
 11
107.6424804676275
 21
18.83115827486388
 31
0.0
  0
LINE
  5
195
330
70
100
AcDbEntity
  8
0
 62
    18
420
        0
370
    25
100
AcDbLine
 10
107.6424804676275
 20
20.33115827486426
 30
0.0
 11
106.7674804676278
 21
20.33115827486426
 31
0.0
  0
LINE
  5
196
330
70
100
AcDbEntity
  8
0
 62
    18
420
        0
370
    25
100
AcDbLine
 10
13.14248046762802
 20
18.83115827486388
 30
0.0
 11
14.01748046762797
 21
18.83115827486388
 31
0.0
  0
LINE
  5
197
330
70
100
AcDbEntity
  8
0
 62
    18
420
        0
370
    25
100
AcDbLine
 10
14.01748046762797
 20
20.33115827486426
 30
0.0
 11
13.14248046762802
 21
20.33115827486426
 31
0.0
  0
LINE
  5
198
330
70
100
AcDbEntity
  8
0
 62
    18
420
        0
370
    25
100
AcDbLine
 10
14.01748046762797
 20
18.83115827486388
 30
0.0
 11
106.7674804676278
 21
18.83115827486388
 31
0.0
  0
LINE
  5
199
330
70
100
AcDbEntity
  8
0
 62
    18
420
        0
370
    25
100
AcDbLine
 10
106.7674804676278
 20
20.33115827486426
 30
0.0
 11
14.01748046762797
 21
20.33115827486426
 31
0.0
  0
SPLINE
  5
19A
330
70
100
AcDbEntity
  8
0
 62
    18
420
        0
370
    25
100
AcDbSpline
210
0.0
220
0.0
230
1.0
 70
     8
 71
     3
 72
     8
 73
     4
 74
     0
 42
0.0000000001
 43
0.0000000001
 40
0.0
 40
0.0
 40
0.0
 40
0.0
 40
1.0
 40
1.0
 40
1.0
 40
1.0
 10
57.28100916995124
 20
49.48115827482469
 30
0.0
 10
57.3833134944294
 20
49.48987837767873
 30
0.0
 10
57.46112629325867
 20
49.57677002342485
 30
0.0
 10
57.45854928215835
 20
49.67941296772471
 30
0.0
  0
LINE
  5
19B
330
70
100
AcDbEntity
  8
0
 62
    18
420
        0
370
    25
100
AcDbLine
 10
57.47988098832788
 20
52.23115827486441
 30
0.0
 11
57.45854928212787
 21
49.67941296776449
 31
0.0
  0
LINE
  5
19C
330
70
100
AcDbEntity
  8
0
 62
    18
420
        0
370
    25
100
AcDbLine
 10
63.32641165322809
 20
49.67941296776449
 30
0.0
 11
63.30507994702808
 21
52.23115827486441
 31
0.0
  0
SPLINE
  5
19D
330
70
100
AcDbEntity
  8
0
 62
    18
420
        0
370
    25
100
AcDbSpline
210
0.0
220
0.0
230
1.0
 70
     8
 71
     3
 72
     8
 73
     4
 74
     0
 42
0.0000000001
 43
0.0000000001
 40
0.0
 40
0.0
 40
0.0
 40
0.0
 40
1.0
 40
1.0
 40
1.0
 40
1.0
 10
63.32641165315493
 20
49.67941296779658
 30
0.0
 10
63.32395748306225
 20
49.57681526972166
 30
0.0
 10
63.40170591445882
 20
49.48999550151016
 30
0.0
 10
63.50395176536204
 20
49.48115827489656
 30
0.0
  0
LINE
  5
19E
330
70
100
AcDbEntity
  8
0
 62
    18
420
        0
370
    25
100
AcDbLine
 10
63.30507994702808
 20
52.23115827486441
 30
0.0
 11
57.47988098832788
 21
52.23115827486441
 31
0.0
  0
SPLINE
  5
19F
330
70
100
AcDbEntity
  8
0
 62
    18
420
        0
370
    25
100
AcDbSpline
210
0.0
220
0.0
230
1.0
 70
     8
 71
     3
 72
     8
 73
     4
 74
     0
 42
0.0000000001
 43
0.0000000001
 40
0.0
 40
0.0
 40
0.0
 40
0.0
 40
1.0
 40
1.0
 40
1.0
 40
1.0
 10
59.63302328043703
 20
52.23115827489586
 30
0.0
 10
59.68830010890968
 20
52.22842493391168
 30
0.0
 10
59.74031015670701
 20
52.2574026383773
 30
0.0
 10
59.76707392785471
 20
52.30584538265239
 30
0.0
  0
SPLINE
  5
1A0
330
70
100
AcDbEntity
  8
0
 62
    18
420
        0
370
    25
100
AcDbSpline
210
0.0
220
0.0
230
1.0
 70
     8
 71
     3
 72
     8
 73
     4
 74
     0
 42
0.0000000001
 43
0.0000000001
 40
0.0
 40
0.0
 40
0.0
 40
0.0
 40
1.0
 40
1.0
 40
1.0
 40
1.0
 10
59.76707392779984
 20
52.30584538264084
 30
0.0
 10
60.18388592726886
 20
52.29136692110369
 30
0.0
 10
60.60107500798699
 20
52.29136692110369
 30
0.0
 10
61.01788700745601
 20
52.30584538264084
 30
0.0
  0
SPLINE
  5
1A1
330
70
100
AcDbEntity
  8
0
 62
    18
420
        0
370
    25
100
AcDbSpline
210
0.0
220
0.0
230
1.0
 70
     8
 71
     3
 72
     8
 73
     4
 74
     0
 42
0.0000000001
 43
0.0000000001
 40
0.0
 40
0.0
 40
0.0
 40
0.0
 40
1.0
 40
1.0
 40
1.0
 40
1.0
 10
61.0178870074804
 20
52.30584538263121
 30
0.0
 10
61.04490225636804
 20
52.25765399478703
 30
0.0
 10
61.096742232286
 20
52.22877104687103
 30
0.0
 10
61.1519376548971
 20
52.23115827487468
 30
0.0
  0
LINE
  5
1A2
330
70
100
AcDbEntity
  8
0
 62
    18
420
        0
370
    25
100
AcDbLine
 10
59.85647126882804
 20
52.30992265866398
 30
0.0
 11
60.92848966652791
 21
52.30992265866398
 31
0.0
  0
LWPOLYLINE
  5
1A3
330
70
100
AcDbEntity
  8
0
 62
    18
420
        0
370
    25
100
AcDbPolyline
 90
        8
 70
     0
 43
0.0
 10
61.01788700752788
 20
52.30584538266394
 10
61.02945282872781
 20
52.30666849476397
 10
61.03029789852791
 20
52.307550748164
 10
61.02063739542799
 20
52.30837630856403
 10
61.00119881282789
 20
52.30910232396446
 10
60.97290216192786
 20
52.30964629666406
 10
60.9391968476281
 20
52.30990726936447
 10
60.92848966652791
 20
52.30992265866398
  0
LWPOLYLINE
  5
1A4
330
70
100
AcDbEntity
  8
0
 62
    18
420
        0
370
    25
100
AcDbPolyline
 90
        8
 70
     0
 43
0.0
 10
59.85647126882804
 20
52.30992265866398
 10
59.82240201022789
 20
52.30976325906454
 10
59.79217731342797
 20
52.30930632066406
 10
59.76888151712798
 20
52.30859594596415
 10
59.755724397228
 20
52.30771289576384
 10
59.75467528162806
 20
52.30679905446422
 10
59.7645062777281
 20
52.30597217796383
 10
59.76707392782808
 20
52.30584538266394
  0
SPLINE
  5
1A5
330
70
100
AcDbEntity
  8
0
 62
    18
420
        0
370
    25
100
AcDbSpline
210
0.0
220
0.0
230
1.0
 70
     8
 71
     3
 72
     8
 73
     4
 74
     0
 42
0.0000000001
 43
0.0000000001
 40
0.0
 40
0.0
 40
0.0
 40
0.0
 40
1.0
 40
1.0
 40
1.0
 40
1.0
 10
63.5039517654182
 20
49.4811582748709
 30
0.0
 10
63.5092845111054
 20
49.5300290004461
 30
0.0
 10
63.47484543933068
 20
49.57430268126036
 30
0.0
 10
63.42616498297512
 20
49.58115827487122
 30
0.0
  0
SPLINE
  5
1A6
330
70
100
AcDbEntity
  8
0
 62
    18
420
        0
370
    25
100
AcDbSpline
210
0.0
220
0.0
230
1.0
 70
     8
 71
     3
 72
     8
 73
     4
 74
     0
 42
0.0000000001
 43
0.0000000001
 40
0.0
 40
0.0
 40
0.0
 40
0.0
 40
1.0
 40
1.0
 40
1.0
 40
1.0
 10
57.35879595238085
 20
49.58115827487122
 30
0.0
 10
57.31011549602495
 20
49.57430268126036
 30
0.0
 10
57.27567642425055
 20
49.5300290004461
 30
0.0
 10
57.28100916993777
 20
49.4811582748709
 30
0.0
  0
LINE
  5
1A7
330
70
100
AcDbEntity
  8
0
 62
    18
420
        0
370
    25
100
AcDbLine
 10
57.20696638042791
 20
49.58115827486416
 30
0.0
 11
57.35879595242801
 21
49.58115827486416
 31
0.0
  0
LINE
  5
1A8
330
70
100
AcDbEntity
  8
0
 62
    18
420
        0
370
    25
100
AcDbLine
 10
63.42616498292795
 20
49.58115827486416
 30
0.0
 11
63.57799455492806
 21
49.58115827486416
 31
0.0
  0
SPLINE
  5
1A9
330
70
100
AcDbEntity
  8
0
 62
    18
420
        0
370
    25
100
AcDbSpline
210
0.0
220
0.0
230
1.0
 70
     8
 71
     3
 72
     8
 73
     4
 74
     0
 42
0.0000000001
 43
0.0000000001
 40
0.0
 40
0.0
 40
0.0
 40
0.0
 40
1.0
 40
1.0
 40
1.0
 40
1.0
 10
61.01233477672184
 20
52.35054760997208
 30
0.0
 10
60.5991994407418
 20
52.36346011092107
 30
0.0
 10
60.18576149451405
 20
52.36346011092107
 30
0.0
 10
59.77262615853401
 20
52.35054760997208
 30
0.0
  0
LINE
  5
1AA
330
70
100
AcDbEntity
  8
0
 62
    18
420
        0
370
    25
100
AcDbLine
 10
60.92686301812807
 20
52.34662452796383
 30
0.0
 11
59.8580979172279
 21
52.34662452796383
 31
0.0
  0
LWPOLYLINE
  5
1AB
330
70
100
AcDbEntity
  8
0
 62
    18
420
        0
370
    25
100
AcDbPolyline
 90
        8
 70
     0
 43
0.0
 10
59.77262615852792
 20
52.35054760996437
 10
59.76216642172794
 20
52.34993519846439
 10
59.7582494893279
 20
52.34907329116426
 10
59.76560521582808
 20
52.34822640726428
 10
59.78340391272784
 20
52.34749034836396
 10
59.80962680532807
 20
52.3469482999645
 10
59.84130446422795
 20
52.34666121516464
 10
59.8580979172279
 20
52.34662452796383
  0
LWPOLYLINE
  5
1AC
330
70
100
AcDbEntity
  8
0
 62
    18
420
        0
370
    25
100
AcDbPolyline
 90
        8
 70
     0
 43
0.0
 10
60.92686301812807
 20
52.34662452796383
 10
60.94851906222805
 20
52.34668583156373
 10
60.97959398492799
 20
52.34701289356435
 10
61.0047272254281
 20
52.34758705776418
 10
61.02109438722812
 20
52.34834388056373
 10
61.0268455292278
 20
52.34919838646415
 10
61.02131826892803
 20
52.35005432026429
 10
61.01233477682804
 20
52.35054760996437
  0
SPLINE
  5
1AD
330
70
100
AcDbEntity
  8
0
 62
    18
420
        0
370
    25
100
AcDbSpline
210
0.0
220
0.0
230
1.0
 70
     8
 71
     3
 72
     8
 73
     4
 74
     0
 42
0.0000000001
 43
0.0000000001
 40
0.0
 40
0.0
 40
0.0
 40
0.0
 40
1.0
 40
1.0
 40
1.0
 40
1.0
 10
110.3924804676274
 20
44.83115827486416
 30
0.0
 10
110.3924804676274
 20
48.97329389859471
 30
0.0
 10
107.0346160913587
 20
52.3311582748641
 30
0.0
 10
102.8924804676275
 20
52.3311582748641
 30
0.0
  0
LINE
  5
1AE
330
70
100
AcDbEntity
  8
0
 62
    18
420
        0
370
    25
100
AcDbLine
 10
110.3924804676274
 20
44.83115827486416
 30
0.0
 11
110.1424804676279
 21
44.83115827486416
 31
0.0
  0
SPLINE
  5
1AF
330
70
100
AcDbEntity
  8
0
 62
    18
420
        0
370
    25
100
AcDbSpline
210
0.0
220
0.0
230
1.0
 70
     8
 71
     3
 72
     8
 73
     4
 74
     0
 42
0.0000000001
 43
0.0000000001
 40
0.0
 40
0.0
 40
0.0
 40
0.0
 40
1.0
 40
1.0
 40
1.0
 40
1.0
 10
110.1424804676279
 20
44.83115827486416
 30
0.0
 10
110.1424804676279
 20
48.83522271113713
 30
0.0
 10
106.8965449039011
 20
52.08115827486393
 30
0.0
 10
102.8924804676275
 20
52.08115827486393
 30
0.0
  0
LINE
  5
1B0
330
70
100
AcDbEntity
  8
0
 62
    18
420
        0
370
    25
100
AcDbLine
 10
102.8924804676275
 20
52.3311582748641
 30
0.0
 11
102.8924804676275
 21
52.08115827486393
 31
0.0
  0
SPLINE
  5
1B1
330
70
100
AcDbEntity
  8
0
 62
    18
420
        0
370
    25
100
AcDbSpline
210
0.0
220
0.0
230
1.0
 70
     8
 71
     3
 72
     8
 73
     4
 74
     0
 42
0.0000000001
 43
0.0000000001
 40
0.0
 40
0.0
 40
0.0
 40
0.0
 40
1.0
 40
1.0
 40
1.0
 40
1.0
 10
107.8924804676283
 20
44.83115827486416
 30
0.0
 10
107.8924804676283
 20
47.59258202401829
 30
0.0
 10
105.6539042167816
 20
49.83115827486432
 30
0.0
 10
102.8924804676275
 20
49.83115827486432
 30
0.0
  0
LINE
  5
1B2
330
70
100
AcDbEntity
  8
0
 62
    18
420
        0
370
    25
100
AcDbLine
 10
102.8924804676275
 20
49.83115827486432
 30
0.0
 11
102.8924804676275
 21
52.08115827486393
 31
0.0
  0
LINE
  5
1B3
330
70
100
AcDbEntity
  8
0
 62
    18
420
        0
370
    25
100
AcDbLine
 10
110.1424804676279
 20
44.83115827486416
 30
0.0
 11
107.8924804676283
 21
44.83115827486416
 31
0.0
  0
LINE
  5
1B4
330
70
100
AcDbEntity
  8
0
 62
    18
420
        0
370
    25
100
AcDbLine
 10
17.89248046762803
 20
52.08115827486393
 30
0.0
 11
17.89248046762803
 21
49.83115827486432
 31
0.0
  0
LINE
  5
1B5
330
70
100
AcDbEntity
  8
0
 62
    18
420
        0
370
    25
100
AcDbLine
 10
47.8924804676278
 20
52.31645855226463
 30
0.0
 11
59.74765832782794
 21
52.31645855226463
 31
0.0
  0
LINE
  5
1B6
330
70
100
AcDbEntity
  8
0
 62
    18
420
        0
370
    25
100
AcDbLine
 10
61.03924809532791
 20
52.31645855226463
 30
0.0
 11
72.89248046762773
 21
52.31645855226463
 31
0.0
  0
LINE
  5
1B7
330
70
100
AcDbEntity
  8
0
 62
    18
420
        0
370
    25
100
AcDbLine
 10
72.89248046762773
 20
52.3311582748641
 30
0.0
 11
72.89248046762773
 21
52.31645855226463
 31
0.0
  0
LINE
  5
1B8
330
70
100
AcDbEntity
  8
0
 62
    18
420
        0
370
    25
100
AcDbLine
 10
72.89248046762773
 20
52.3311582748641
 30
0.0
 11
102.8924804676275
 21
52.3311582748641
 31
0.0
  0
LINE
  5
1B9
330
70
100
AcDbEntity
  8
0
 62
    18
420
        0
370
    25
100
AcDbLine
 10
17.89248046762803
 20
52.3311582748641
 30
0.0
 11
17.89248046762803
 21
52.08115827486393
 31
0.0
  0
LINE
  5
1BA
330
70
100
AcDbEntity
  8
0
 62
    18
420
        0
370
    25
100
AcDbLine
 10
17.89248046762803
 20
52.3311582748641
 30
0.0
 11
47.8924804676278
 21
52.3311582748641
 31
0.0
  0
LINE
  5
1BB
330
70
100
AcDbEntity
  8
0
 62
    18
420
        0
370
    25
100
AcDbLine
 10
47.8924804676278
 20
52.3311582748641
 30
0.0
 11
47.8924804676278
 21
52.31645855226463
 31
0.0
  0
LINE
  5
1BC
330
70
100
AcDbEntity
  8
0
 62
    18
420
        0
370
    25
100
AcDbLine
 10
107.8924804676283
 20
44.83115827486416
 30
0.0
 11
107.6424804676275
 21
44.83115827486416
 31
0.0
  0
SPLINE
  5
1BD
330
70
100
AcDbEntity
  8
0
 62
    18
420
        0
370
    25
100
AcDbSpline
210
0.0
220
0.0
230
1.0
 70
     8
 71
     3
 72
     8
 73
     4
 74
     0
 42
0.0000000001
 43
0.0000000001
 40
0.0
 40
0.0
 40
0.0
 40
0.0
 40
1.0
 40
1.0
 40
1.0
 40
1.0
 10
107.6424804676275
 20
44.83115827486416
 30
0.0
 10
107.6424804676275
 20
47.45451083656006
 30
0.0
 10
105.515833029324
 20
49.58115827486416
 30
0.0
 10
102.8924804676275
 20
49.58115827486416
 30
0.0
  0
LINE
  5
1BE
330
70
100
AcDbEntity
  8
0
 62
    18
420
        0
370
    25
100
AcDbLine
 10
102.8924804676275
 20
49.83115827486432
 30
0.0
 11
102.8924804676275
 21
49.58115827486416
 31
0.0
  0
LINE
  5
1BF
330
70
100
AcDbEntity
  8
0
 62
    18
420
        0
370
    25
100
AcDbLine
 10
110.1424804676279
 20
0.3311582748641889
 30
0.0
 11
110.1424804676279
 21
44.83115827486416
 31
0.0
  0
LINE
  5
1C0
330
70
100
AcDbEntity
  8
0
 62
    18
420
        0
370
    25
100
AcDbLine
 10
110.3924804676274
 20
44.83115827486416
 30
0.0
 11
110.3924804676274
 21
0.2330028160641353
 31
0.0
  0
LWPOLYLINE
  5
1C1
330
70
100
AcDbEntity
  8
0
 62
    18
420
        0
370
    25
100
AcDbPolyline
 90
        6
 70
     0
 43
0.0
 10
110.3924804676274
 20
0.2330028160641353
 10
110.3766431449282
 20
0.2660297330639947
 10
110.3304517759277
 20
0.2963734860642087
 10
110.2602751494283
 20
0.3189554249640308
 10
110.1793513439284
 20
0.330019892764339
 10
110.1424804676279
 20
0.3311582748641889
  0
LINE
  5
1C2
330
70
100
AcDbEntity
  8
0
 62
    18
420
        0
370
    25
100
AcDbLine
 10
107.6424804676275
 20
0.2330028160641353
 30
0.0
 11
107.6424804676275
 21
44.83115827486416
 31
0.0
  0
LINE
  5
1C3
330
70
100
AcDbEntity
  8
0
 62
    18
420
        0
370
    25
100
AcDbLine
 10
107.8924804676283
 20
44.83115827486416
 30
0.0
 11
107.8924804676283
 21
0.3311582748641889
 31
0.0
  0
LWPOLYLINE
  5
1C4
330
70
100
AcDbEntity
  8
0
 62
    18
420
        0
370
    25
100
AcDbPolyline
 90
        6
 70
     0
 43
0.0
 10
107.8924804676283
 20
0.3311582748641889
 10
107.8143252823275
 20
0.3259525790642355
 10
107.7450553178284
 20
0.3113443666640771
 10
107.6895318229277
 20
0.2888696233641961
 10
107.6529343239283
 20
0.2598764805642725
 10
107.6424804676275
 20
0.2330028160641353
  0
LINE
  5
1C5
330
70
100
AcDbEntity
  8
0
 62
    18
420
        0
370
    25
100
AcDbLine
 10
110.1424804676279
 20
0.3311582748641889
 30
0.0
 11
107.8924804676283
 21
0.3311582748641889
 31
0.0
  0
LINE
  5
1C6
330
70
100
AcDbEntity
  8
0
 62
    18
420
        0
370
    25
100
AcDbLine
 10
102.8924804676275
 20
49.58115827486416
 30
0.0
 11
63.57799455492806
 21
49.58115827486416
 31
0.0
  0
LINE
  5
1C7
330
70
100
AcDbEntity
  8
0
 62
    18
420
        0
370
    25
100
AcDbLine
 10
57.20696638042791
 20
49.58115827486416
 30
0.0
 11
17.89248046762803
 21
49.58115827486416
 31
0.0
  0
LINE
  5
1C8
330
70
100
AcDbEntity
  8
0
 62
    18
420
        0
370
    25
100
AcDbLine
 10
17.89248046762803
 20
49.83115827486432
 30
0.0
 11
17.89248046762803
 21
49.58115827486416
 31
0.0
  0
SPLINE
  5
1C9
330
70
100
AcDbEntity
  8
0
 62
    18
420
        0
370
    25
100
AcDbSpline
210
0.0
220
0.0
230
1.0
 70
     8
 71
     3
 72
     8
 73
     4
 74
     0
 42
0.0000000001
 43
0.0000000001
 40
0.0
 40
0.0
 40
0.0
 40
0.0
 40
1.0
 40
1.0
 40
1.0
 40
1.0
 10
17.89248046762803
 20
52.3311582748641
 30
0.0
 10
13.75034484389715
 20
52.3311582748641
 30
0.0
 10
10.39248046762809
 20
48.97329389859471
 30
0.0
 10
10.39248046762809
 20
44.83115827486416
 30
0.0
  0
SPLINE
  5
1CA
330
70
100
AcDbEntity
  8
0
 62
    18
420
        0
370
    25
100
AcDbSpline
210
0.0
220
0.0
230
1.0
 70
     8
 71
     3
 72
     8
 73
     4
 74
     0
 42
0.0000000001
 43
0.0000000001
 40
0.0
 40
0.0
 40
0.0
 40
0.0
 40
1.0
 40
1.0
 40
1.0
 40
1.0
 10
17.89248046762803
 20
52.08115827486393
 30
0.0
 10
13.88841603135473
 20
52.08115827486393
 30
0.0
 10
10.64248046762793
 20
48.83522271113713
 30
0.0
 10
10.64248046762793
 20
44.83115827486416
 30
0.0
  0
LINE
  5
1CB
330
70
100
AcDbEntity
  8
0
 62
    18
420
        0
370
    25
100
AcDbLine
 10
10.39248046762809
 20
44.83115827486416
 30
0.0
 11
10.64248046762793
 21
44.83115827486416
 31
0.0
  0
SPLINE
  5
1CC
330
70
100
AcDbEntity
  8
0
 62
    18
420
        0
370
    25
100
AcDbSpline
210
0.0
220
0.0
230
1.0
 70
     8
 71
     3
 72
     8
 73
     4
 74
     0
 42
0.0000000001
 43
0.0000000001
 40
0.0
 40
0.0
 40
0.0
 40
0.0
 40
1.0
 40
1.0
 40
1.0
 40
1.0
 10
17.89248046762803
 20
49.83115827486432
 30
0.0
 10
15.1310567184739
 20
49.83115827486432
 30
0.0
 10
12.89248046762785
 20
47.59258202401829
 30
0.0
 10
12.89248046762785
 20
44.83115827486416
 30
0.0
  0
LINE
  5
1CD
330
70
100
AcDbEntity
  8
0
 62
    18
420
        0
370
    25
100
AcDbLine
 10
12.89248046762785
 20
44.83115827486416
 30
0.0
 11
10.64248046762793
 21
44.83115827486416
 31
0.0
  0
SPLINE
  5
1CE
330
70
100
AcDbEntity
  8
0
 62
    18
420
        0
370
    25
100
AcDbSpline
210
0.0
220
0.0
230
1.0
 70
     8
 71
     3
 72
     8
 73
     4
 74
     0
 42
0.0000000001
 43
0.0000000001
 40
0.0
 40
0.0
 40
0.0
 40
0.0
 40
1.0
 40
1.0
 40
1.0
 40
1.0
 10
17.89248046762803
 20
49.58115827486416
 30
0.0
 10
15.26912790593179
 20
49.58115827486416
 30
0.0
 10
13.14248046762802
 20
47.45451083656006
 30
0.0
 10
13.14248046762802
 20
44.83115827486416
 30
0.0
  0
LINE
  5
1CF
330
70
100
AcDbEntity
  8
0
 62
    18
420
        0
370
    25
100
AcDbLine
 10
12.89248046762785
 20
44.83115827486416
 30
0.0
 11
13.14248046762802
 21
44.83115827486416
 31
0.0
  0
LINE
  5
1D0
330
70
100
AcDbEntity
  8
0
 62
    18
420
        0
370
    25
100
AcDbLine
 10
12.89248046762785
 20
0.3311582748641889
 30
0.0
 11
12.89248046762785
 21
44.83115827486416
 31
0.0
  0
LINE
  5
1D1
330
70
100
AcDbEntity
  8
0
 62
    18
420
        0
370
    25
100
AcDbLine
 10
13.14248046762802
 20
44.83115827486416
 30
0.0
 11
13.14248046762802
 21
0.2330028160641353
 31
0.0
  0
LWPOLYLINE
  5
1D2
330
70
100
AcDbEntity
  8
0
 62
    18
420
        0
370
    25
100
AcDbPolyline
 90
        6
 70
     0
 43
0.0
 10
13.14248046762802
 20
0.2330028160641353
 10
13.12664314492786
 20
0.2660297330639947
 10
13.08045177592794
 20
0.2963734860642087
 10
13.01027514942795
 20
0.3189554249640308
 10
12.92935134392805
 20
0.330019892764339
 10
12.89248046762785
 20
0.3311582748641889
  0
LINE
  5
1D3
330
70
100
AcDbEntity
  8
0
 62
    18
420
        0
370
    25
100
AcDbLine
 10
12.89248046762785
 20
0.3311582748641889
 30
0.0
 11
10.64248046762793
 21
0.3311582748641889
 31
0.0
  0
LINE
  5
1D4
330
70
100
AcDbEntity
  8
0
 62
    18
420
        0
370
    25
100
AcDbLine
 10
10.64248046762793
 20
44.83115827486416
 30
0.0
 11
10.64248046762793
 21
0.3311582748641889
 31
0.0
  0
LINE
  5
1D5
330
70
100
AcDbEntity
  8
0
 62
    18
420
        0
370
    25
100
AcDbLine
 10
10.39248046762809
 20
0.2330028160641353
 30
0.0
 11
10.39248046762809
 21
44.83115827486416
 31
0.0
  0
LWPOLYLINE
  5
1D6
330
70
100
AcDbEntity
  8
0
 62
    18
420
        0
370
    25
100
AcDbPolyline
 90
        6
 70
     0
 43
0.0
 10
10.64248046762793
 20
0.3311582748641889
 10
10.5643252823281
 20
0.3259525790642355
 10
10.49505531782807
 20
0.3113443666640771
 10
10.43953182292794
 20
0.2888696233641961
 10
10.40293432392791
 20
0.2598764805642725
 10
10.39248046762809
 20
0.2330028160641353
  0
LINE
  5
1D7
330
70
100
AcDbEntity
  8
0
 62
    18
420
        0
370
    25
100
AcDbLine
 10
107.6424804676275
 20
0.2330028160641353
 30
0.0
 11
107.6424804676275
 21
-0.1688417251355079
 31
0.0
  0
LINE
  5
1D8
330
70
100
AcDbEntity
  8
0
 62
    18
420
        0
370
    25
100
AcDbLine
 10
110.3924804676274
 20
0.2330028160641353
 30
0.0
 11
110.3924804676274
 21
-0.1688417251355079
 31
0.0
  0
LINE
  5
1D9
330
70
100
AcDbEntity
  8
0
 62
    18
420
        0
370
    25
100
AcDbLine
 10
13.14248046762802
 20
-0.1688417251355079
 30
0.0
 11
13.14248046762802
 21
0.2330028160641353
 31
0.0
  0
LINE
  5
1DA
330
70
100
AcDbEntity
  8
0
 62
    18
420
        0
370
    25
100
AcDbLine
 10
10.39248046762809
 20
0.2330028160641353
 30
0.0
 11
10.39248046762809
 21
-0.1688417251355079
 31
0.0
  0
LINE
  5
1DB
330
70
100
AcDbEntity
  8
0
 62
    18
420
        0
370
    25
100
AcDbLine
 10
47.8924804676278
 20
52.32878079476424
 30
0.0
 11
57.36951887572786
 21
52.32878079476424
 31
0.0
  0
LINE
  5
1DC
330
70
100
AcDbEntity
  8
0
 62
    18
420
        0
370
    25
100
AcDbLine
 10
57.44529087432781
 20
52.32878079476424
 30
0.0
 11
59.23270132502794
 21
52.32878079476424
 31
0.0
  0
LINE
  5
1DD
330
70
100
AcDbEntity
  8
0
 62
    18
420
        0
370
    25
100
AcDbLine
 10
61.55225961032801
 20
52.32878079476424
 30
0.0
 11
72.89248046762773
 21
52.32878079476424
 31
0.0
  0
LINE
  5
1DE
330
70
100
AcDbEntity
  8
0
 62
    18
420
        0
370
    25
100
AcDbLine
 10
47.8924804676278
 20
52.3311582748641
 30
0.0
 11
59.44283414462798
 21
52.3311582748641
 31
0.0
  0
LINE
  5
1DF
330
70
100
AcDbEntity
  8
0
 62
    18
420
        0
370
    25
100
AcDbLine
 10
61.34212679072797
 20
52.3311582748641
 30
0.0
 11
72.89248046762773
 21
52.3311582748641
 31
0.0
  0
LWPOLYLINE
  5
1E0
330
70
100
AcDbEntity
  8
0
 62
    18
420
        0
370
    25
100
AcDbPolyline
 90
        5
 70
     0
 43
0.0
 10
48.39228178382794
 20
52.59006017286449
 10
48.39225181082783
 20
52.59006144456439
 10
48.38174386122792
 20
52.59050754136463
 10
48.37648989472787
 20
52.59073078396406
 10
48.37123593362804
 20
52.59095415606413
  0
LINE
  5
1E1
330
70
100
AcDbEntity
  8
0
 62
    18
420
        0
370
    25
100
AcDbLine
 10
48.37123593362804
 20
52.59095415606413
 30
0.0
 11
48.39248046762783
 21
53.09050258556435
 31
0.0
  0
LWPOLYLINE
  5
1E2
330
70
100
AcDbEntity
  8
0
 62
    18
420
        0
370
    25
100
AcDbPolyline
 90
       11
 70
     0
 43
0.0
 10
48.38177408352811
 20
52.59095798076431
 10
48.38199689022813
 20
52.60135966606434
 10
48.38252767842782
 20
52.62613840666411
 10
48.38332191372808
 20
52.66321298556456
 10
48.38440250612801
 20
52.71364952916421
 10
48.38567897022811
 20
52.77322083086443
 10
48.38718800122793
 20
52.84363527346369
 10
48.38880338952812
 20
52.91899993116424
 10
48.39057137402799
 20
53.00146886716373
 10
48.39215008362796
 20
53.07509570646459
 10
48.39248046762783
 20
53.09050258556435
  0
SPLINE
  5
1E3
330
70
100
AcDbEntity
  8
0
 62
    18
420
        0
370
    25
100
AcDbSpline
210
0.0
220
0.0
230
1.0
 70
     8
 71
     3
 72
     8
 73
     4
 74
     0
 42
0.0000000001
 43
0.0000000001
 40
0.0
 40
0.0
 40
0.0
 40
0.0
 40
1.0
 40
1.0
 40
1.0
 40
1.0
 10
48.38177408353357
 20
52.59095798075212
 30
0.0
 10
48.38524293992561
 20
52.59034650706897
 30
0.0
 10
48.38875947425661
 20
52.59004604435342
 30
0.0
 10
48.39228178388506
 20
52.59006017288502
 30
0.0
  0
LWPOLYLINE
  5
1E4
330
70
100
AcDbEntity
  8
0
 62
    18
420
        0
370
    25
100
AcDbPolyline
 90
        6
 70
     0
 43
0.0
 10
60.39248046762793
 20
52.58828615396448
 10
59.39248046762789
 20
52.58830996206405
 10
55.3924805160279
 20
52.58884221196432
 10
51.89238531762795
 20
52.58976504476372
 10
48.39229024252789
 20
52.59095415546415
 10
48.38177408352811
 20
52.59095798076431
  0
LWPOLYLINE
  5
1E5
330
70
100
AcDbEntity
  8
0
 62
    18
420
        0
370
    25
100
AcDbPolyline
 90
        4
 70
     0
 43
0.0
 10
48.39248046762783
 20
53.09050258556435
 10
54.08703907592811
 20
53.08860350546371
 10
57.23975973972803
 20
53.08793905426421
 10
60.39248046762793
 20
53.08769719406402
  0
LINE
  5
1E6
330
70
100
AcDbEntity
  8
0
 62
    18
420
        0
370
    25
100
AcDbLine
 10
60.39248046762793
 20
52.58828615396448
 30
0.0
 11
60.39248046762793
 21
53.08769719406402
 31
0.0
  0
LINE
  5
1E7
330
70
100
AcDbEntity
  8
0
 62
    18
420
        0
370
    25
100
AcDbLine
 10
72.39248046762803
 20
55.33115827486421
 30
0.0
 11
48.39248046762783
 21
55.33115827486421
 31
0.0
  0
LINE
  5
1E8
330
70
100
AcDbEntity
  8
0
 62
    18
420
        0
370
    25
100
AcDbLine
 10
72.39248046762803
 20
53.09050258556435
 30
0.0
 11
72.39248046762803
 21
55.33115827486421
 31
0.0
  0
LWPOLYLINE
  5
1E9
330
70
100
AcDbEntity
  8
0
 62
    18
420
        0
370
    25
100
AcDbPolyline
 90
        4
 70
     0
 43
0.0
 10
60.39248046762793
 20
53.08769719406402
 10
66.08705851642778
 20
53.08844687886399
 10
69.23976952732809
 20
53.08936941466456
 10
72.39248046762803
 20
53.09050258556435
  0
LINE
  5
1EA
330
70
100
AcDbEntity
  8
0
 62
    18
420
        0
370
    25
100
AcDbLine
 10
48.39248046762783
 20
55.33115827486421
 30
0.0
 11
48.39248046762783
 21
53.09050258556435
 31
0.0
  0
LINE
  5
1EB
330
70
100
AcDbEntity
  8
0
 62
    18
420
        0
370
    25
100
AcDbLine
 10
72.39248046762803
 20
55.33115827486421
 30
0.0
 11
72.89248046762773
 21
55.33115827486421
 31
0.0
  0
LINE
  5
1EC
330
70
100
AcDbEntity
  8
0
 62
    18
420
        0
370
    25
100
AcDbLine
 10
72.89248046762773
 20
55.33115827486421
 30
0.0
 11
72.89248046762773
 21
53.09050258546426
 31
0.0
  0
LINE
  5
1ED
330
70
100
AcDbEntity
  8
0
 62
    18
420
        0
370
    25
100
AcDbLine
 10
72.39248046762803
 20
53.09050258556435
 30
0.0
 11
72.89248046762773
 21
53.09050258546426
 31
0.0
  0
LINE
  5
1EE
330
70
100
AcDbEntity
  8
0
 62
    18
420
        0
370
    25
100
AcDbLine
 10
47.8924804676278
 20
53.09050258576457
 30
0.0
 11
48.39248046762783
 21
53.09050258556435
 31
0.0
  0
LINE
  5
1EF
330
70
100
AcDbEntity
  8
0
 62
    18
420
        0
370
    25
100
AcDbLine
 10
47.8924804676278
 20
53.09050258576457
 30
0.0
 11
47.8924804676278
 21
55.33115827486421
 31
0.0
  0
LINE
  5
1F0
330
70
100
AcDbEntity
  8
0
 62
    18
420
        0
370
    25
100
AcDbLine
 10
47.8924804676278
 20
55.33115827486421
 30
0.0
 11
48.39248046762783
 21
55.33115827486421
 31
0.0
  0
SPLINE
  5
1F1
330
70
100
AcDbEntity
  8
0
 62
    18
420
        0
370
    25
100
AcDbSpline
210
0.0
220
0.0
230
1.0
 70
     8
 71
     3
 72
     8
 73
     4
 74
     0
 42
0.0000000001
 43
0.0000000001
 40
0.0
 40
0.0
 40
0.0
 40
0.0
 40
1.0
 40
1.0
 40
1.0
 40
1.0
 10
72.39267069281234
 20
52.59095415543335
 30
0.0
 10
72.66861411208722
 20
52.5909344767935
 30
0.0
 10
72.89235582090177
 20
52.81455919363036
 30
0.0
 10
72.89248046764185
 20
53.09050258545399
 30
0.0
  0
LINE
  5
1F2
330
70
100
AcDbEntity
  8
0
 62
    18
420
        0
370
    25
100
AcDbLine
 10
72.39267069282774
 20
52.59095415546415
 30
0.0
 11
72.39248046762803
 21
53.09050258556435
 31
0.0
  0
LWPOLYLINE
  5
1F3
330
70
100
AcDbEntity
  8
0
 62
    18
420
        0
370
    25
100
AcDbPolyline
 90
        5
 70
     0
 43
0.0
 10
72.39267069282774
 20
52.59095415546415
 10
71.39267083572831
 20
52.59059596786445
 10
67.39267128532819
 20
52.58932796416416
 10
63.89257602652799
 20
52.58856672226439
 10
60.39248046762793
 20
52.58828615396448
  0
SPLINE
  5
1F4
330
70
100
AcDbEntity
  8
0
 62
    18
420
        0
370
    25
100
AcDbSpline
210
0.0
220
0.0
230
1.0
 70
     8
 71
     3
 72
     8
 73
     4
 74
     0
 42
0.0000000001
 43
0.0000000001
 40
0.0
 40
0.0
 40
0.0
 40
0.0
 40
1.0
 40
1.0
 40
1.0
 40
1.0
 10
47.89248046768011
 20
53.09050258567088
 30
0.0
 10
47.8924804768378
 20
52.82262316958836
 30
0.0
 10
48.10359843050171
 20
52.60233609251127
 30
0.0
 10
48.37123593363284
 20
52.59095415599547
 30
0.0
  0
LWPOLYLINE
  5
1F5
330
70
100
AcDbEntity
  8
0
 62
    18
420
        0
370
    25
100
AcDbPolyline
 90
        7
 70
     0
 43
0.0
 10
72.41372076452788
 20
52.59095798066421
 10
72.40987638902764
 20
52.59079442286398
 10
72.40603138302795
 20
52.5906306334643
 10
72.4014496781281
 20
52.59043518576422
 10
72.39714992192805
 20
52.59025148286412
 10
72.39485963992803
 20
52.59015351766402
 10
72.39268227462783
 20
52.59006017286449
  0
SPLINE
  5
1F6
330
70
100
AcDbEntity
  8
0
 62
    18
420
        0
370
    25
100
AcDbSpline
210
0.0
220
0.0
230
1.0
 70
     8
 71
     3
 72
     8
 73
     4
 74
     0
 42
0.0000000001
 43
0.0000000001
 40
0.0
 40
0.0
 40
0.0
 40
0.0
 40
1.0
 40
1.0
 40
1.0
 40
1.0
 10
62.27568744268013
 20
52.32878079477901
 30
0.0
 10
62.65455139198514
 20
52.32833727408212
 30
0.0
 10
63.03341573067055
 20
52.32833727408212
 30
0.0
 10
63.41227967997556
 20
52.32878079477901
 30
0.0
  0
SPLINE
  5
1F7
330
70
100
AcDbEntity
  8
0
 62
    18
420
        0
370
    25
100
AcDbSpline
210
0.0
220
0.0
230
1.0
 70
     8
 71
     3
 72
     8
 73
     4
 74
     0
 42
0.0000000001
 43
0.0000000001
 40
0.0
 40
0.0
 40
0.0
 40
0.0
 40
1.0
 40
1.0
 40
1.0
 40
1.0
 10
63.41227967955621
 20
52.32878079472896
 30
0.0
 10
66.40715834202673
 20
52.35756499276692
 30
0.0
 10
69.40119237793919
 20
52.44467463023938
 30
0.0
 10
72.39267859427465
 20
52.59006015375981
 30
0.0
  0
LWPOLYLINE
  5
1F8
330
70
100
AcDbEntity
  8
0
 62
    18
420
        0
370
    25
100
AcDbPolyline
 90
        3
 70
     0
 43
0.0
 10
57.36951887572786
 20
52.32878079476424
 10
57.93851207882806
 20
52.32846654546374
 10
58.50927339022794
 20
52.32878079476424
  0
SPLINE
  5
1F9
330
70
100
AcDbEntity
  8
0
 62
    18
420
        0
370
    25
100
AcDbSpline
210
0.0
220
0.0
230
1.0
 70
     8
 71
     3
 72
     8
 73
     4
 74
     0
 42
0.0000000001
 43
0.0000000001
 40
0.0
 40
0.0
 40
0.0
 40
0.0
 40
1.0
 40
1.0
 40
1.0
 40
1.0
 10
48.39228234125521
 20
52.59006015379704
 30
0.0
 10
51.38271705026642
 20
52.44476001330312
 30
0.0
 10
54.37569549682353
 20
52.35765041258653
 30
0.0
 10
57.36951887585812
 20
52.32878079477901
 30
0.0
  0
LINE
  5
1FA
330
70
100
AcDbEntity
  8
0
 62
    18
420
        0
370
    25
100
AcDbLine
 10
60.39248046762793
 20
52.58711835376445
 30
0.0
 11
60.39248046762793
 21
52.58828615396448
 31
0.0
  0
LWPOLYLINE
  5
1FB
330
70
100
AcDbEntity
  8
0
 62
    18
420
        0
370
    25
100
AcDbPolyline
 90
        5
 70
     0
 43
0.0
 10
60.39248046762793
 20
52.58711835376445
 10
57.26748046762806
 20
52.58736860976429
 10
54.14248053682805
 20
52.58805592136372
 10
51.26738113892797
 20
52.58897225386415
 10
48.39228178382794
 20
52.59006017286449
  0
LINE
  5
1FC
330
70
100
AcDbEntity
  8
0
 62
    18
420
        0
370
    25
100
AcDbLine
 10
72.39267069287908
 20
52.59095415542436
 30
0.0
 11
72.39267591298911
 21
52.59035812939492
 31
0.0
  0
LWPOLYLINE
  5
1FD
330
70
100
AcDbEntity
  8
0
 62
    18
420
        0
370
    25
100
AcDbPolyline
 90
        5
 70
     0
 43
0.0
 10
72.39268227462783
 20
52.59006017286449
 10
69.26767936702801
 20
52.58888443916404
 10
66.14267951292804
 20
52.58792131186424
 10
63.2675800395279
 20
52.58733111736403
 10
60.39248046762793
 20
52.58711835376445
  0
SPLINE
  5
1FE
330
70
100
AcDbEntity
  8
0
 62
    18
420
        0
370
    25
100
AcDbSpline
210
0.0
220
0.0
230
1.0
 70
     8
 71
     3
 72
     8
 73
     4
 74
     0
 42
0.0000000001
 43
0.0000000001
 40
0.0
 40
0.0
 40
0.0
 40
0.0
 40
1.0
 40
1.0
 40
1.0
 40
1.0
 10
72.41372076461323
 20
52.59095798072452
 30
0.0
 10
72.68135906718363
 20
52.60233629797561
 30
0.0
 10
72.89247969059693
 20
52.82262252444853
 30
0.0
 10
72.89248046770537
 20
53.09050258549377
 30
0.0
  0
LINE
  5
1FF
330
70
100
AcDbEntity
  8
0
 62
    18
420
        0
370
    25
100
AcDbLine
 10
62.27568744292782
 20
52.32878079476424
 30
0.0
 11
63.41227967972787
 21
52.32878079476424
 31
0.0
  0
LINE
  5
200
330
70
100
AcDbEntity
  8
0
 62
    18
420
        0
370
    25
100
AcDbLine
 10
61.49185998792789
 20
52.32916866756428
 30
0.0
 11
62.27568762772785
 21
52.32878079476424
 31
0.0
  0
SPLINE
  5
201
330
70
100
AcDbEntity
  8
0
 62
    18
420
        0
370
    25
100
AcDbSpline
210
0.0
220
0.0
230
1.0
 70
     8
 71
     3
 72
     8
 73
     4
 74
     0
 42
0.0000000001
 43
0.0000000001
 40
0.0
 40
0.0
 40
0.0
 40
0.0
 40
1.0
 40
1.0
 40
1.0
 40
1.0
 10
61.14248046766661
 20
52.34148173724436
 30
0.0
 10
61.25865780709125
 20
52.33148259507146
 30
0.0
 10
61.37526696700863
 20
52.32737297610637
 30
0.0
 10
61.49185998794843
 20
52.32916866763936
 30
0.0
  0
SPLINE
  5
202
330
70
100
AcDbEntity
  8
0
 62
    18
420
        0
370
    25
100
AcDbSpline
210
0.0
220
0.0
230
1.0
 70
     8
 71
     3
 72
     8
 73
     4
 74
     0
 42
0.0000000001
 43
0.0000000001
 40
0.0
 40
0.0
 40
0.0
 40
0.0
 40
1.0
 40
1.0
 40
1.0
 40
1.0
 10
61.14248046763742
 20
52.34148173720073
 30
0.0
 10
60.64302667689045
 20
52.37453349235483
 30
0.0
 10
60.14193425836541
 20
52.37453349235483
 30
0.0
 10
59.64248046761843
 20
52.34148173720073
 30
0.0
  0
SPLINE
  5
203
330
70
100
AcDbEntity
  8
0
 62
    18
420
        0
370
    25
100
AcDbSpline
210
0.0
220
0.0
230
1.0
 70
     8
 71
     3
 72
     8
 73
     4
 74
     0
 42
0.0000000001
 43
0.0000000001
 40
0.0
 40
0.0
 40
0.0
 40
0.0
 40
1.0
 40
1.0
 40
1.0
 40
1.0
 10
59.29310094740721
 20
52.32916866763295
 30
0.0
 10
59.40970541439374
 20
52.32515970390885
 30
0.0
 10
59.52644752038166
 20
52.32927400824973
 30
0.0
 10
59.64248046770379
 20
52.34148173723795
 30
0.0
  0
LINE
  5
204
330
70
100
AcDbEntity
  8
0
 62
    18
420
        0
370
    25
100
AcDbLine
 10
58.50927330762811
 20
52.32878079476424
 30
0.0
 11
59.29310094732796
 21
52.32916866756428
 31
0.0
  0
LINE
  5
205
330
70
100
AcDbEntity
  8
0
 62
    18
420
        0
370
    25
100
AcDbLine
 10
57.36951887572786
 20
52.32878079476424
 30
0.0
 11
58.50927339022794
 21
52.32878079476424
 31
0.0
  0
LINE
  5
206
330
70
100
AcDbEntity
  8
0
 62
     8
420
  8421504
370
    25
100
AcDbLine
 10
56.39248046762811
 20
49.15167191986406
 30
0.0
 11
64.39248046762807
 21
49.15167191986406
 31
0.0
  0
LINE
  5
207
330
70
100
AcDbEntity
  8
0
 62
     8
420
  8421504
370
    25
100
AcDbLine
 10
64.39248046762807
 20
49.48115827486447
 30
0.0
 11
63.50395176542782
 21
49.48115827486447
 31
0.0
  0
LINE
  5
208
330
70
100
AcDbEntity
  8
0
 62
     8
420
  8421504
370
    25
100
AcDbLine
 10
57.28100916992782
 20
49.48115827486447
 30
0.0
 11
56.39248046762811
 21
49.48115827486447
 31
0.0
  0
LINE
  5
209
330
70
100
AcDbEntity
  8
0
 62
     8
420
  8421504
370
    25
100
AcDbLine
 10
64.15187896392811
 20
48.90184864576412
 30
0.0
 11
56.63308197142785
 21
48.90184864576412
 31
0.0
  0
SPLINE
  5
20A
330
70
100
AcDbEntity
  8
0
 62
     8
420
  8421504
370
    25
100
AcDbSpline
210
0.0
220
0.0
230
1.0
 70
     8
 71
     3
 72
     8
 73
     4
 74
     0
 42
0.0000000001
 43
0.0000000001
 40
0.0
 40
0.0
 40
0.0
 40
0.0
 40
1.0
 40
1.0
 40
1.0
 40
1.0
 10
63.32641165321525
 20
49.67941296779017
 30
0.0
 10
63.33530059976718
 20
49.67933102732242
 30
0.0
 10
63.34418928259042
 20
49.67960322202869
 30
0.0
 10
63.35305655987795
 20
49.68022890449238
 30
0.0
  0
SPLINE
  5
20B
330
70
100
AcDbEntity
  8
0
 62
     8
420
  8421504
370
    25
100
AcDbSpline
210
0.0
220
0.0
230
1.0
 70
     8
 71
     3
 72
     8
 73
     4
 74
     0
 42
0.0000000001
 43
0.0000000001
 40
0.0
 40
0.0
 40
0.0
 40
0.0
 40
1.0
 40
1.0
 40
1.0
 40
1.0
 10
57.43190087060031
 20
49.68022081335411
 30
0.0
 10
57.44077011382814
 20
49.67961162883283
 30
0.0
 10
57.4496594246877
 20
49.67934214971476
 30
0.0
 10
57.45854928216798
 20
49.67941296778118
 30
0.0
  0
LINE
  5
20C
330
70
100
AcDbEntity
  8
0
 62
     8
420
  8421504
370
    25
100
AcDbLine
 10
17.89248046762803
 20
49.83115827486432
 30
0.0
 11
57.43313114272787
 21
49.83115827486432
 31
0.0
  0
LINE
  5
20D
330
70
100
AcDbEntity
  8
0
 62
     8
420
  8421504
370
    25
100
AcDbLine
 10
63.35182979252799
 20
49.83115827486432
 30
0.0
 11
102.8924804676275
 21
49.83115827486432
 31
0.0
  0
LINE
  5
20E
330
70
100
AcDbEntity
  8
0
 62
     8
420
  8421504
370
    25
100
AcDbLine
 10
102.8924804676275
 20
52.08115827486393
 30
0.0
 11
63.33348994032784
 21
52.08115827486393
 31
0.0
  0
LINE
  5
20F
330
70
100
AcDbEntity
  8
0
 62
     8
420
  8421504
370
    25
100
AcDbLine
 10
57.45147099502812
 20
52.08115827486393
 30
0.0
 11
17.89248046762803
 21
52.08115827486393
 31
0.0
  0
LWPOLYLINE
  5
210
330
70
100
AcDbEntity
  8
0
 62
     8
420
  8421504
370
    25
100
AcDbPolyline
 90
        5
 70
     0
 43
0.0
 10
72.41657321912772
 20
52.58843271076425
 10
72.41671721572801
 20
52.58830711316416
 10
72.41631578112765
 20
52.58865450476404
 10
72.4137249907276
 20
52.59095415536404
 10
72.41372076452788
 20
52.59095798066421
  0
LINE
  5
211
330
70
100
AcDbEntity
  8
0
 62
     8
420
  8421504
370
    25
100
AcDbLine
 10
48.36838771620994
 20
52.58843271082008
 30
0.0
 11
48.37029576954569
 21
52.59010329236533
 31
0.0
  0
LINE
  5
212
330
70
100
AcDbEntity
  8
0
 62
     8
420
  8421504
370
    25
100
AcDbLine
 10
106.7674804676278
 20
12.08115827486444
 30
0.0
 11
106.7674804676278
 21
10.58115827486407
 31
0.0
  0
LINE
  5
213
330
70
100
AcDbEntity
  8
0
 62
     8
420
  8421504
370
    25
100
AcDbLine
 10
14.01748046762797
 20
12.08115827486444
 30
0.0
 11
14.01748046762797
 21
10.58115827486407
 31
0.0
  0
LINE
  5
214
330
70
100
AcDbEntity
  8
0
 62
     8
420
  8421504
370
    25
100
AcDbLine
 10
106.7674804676278
 20
3.831158274863991
 30
0.0
 11
106.7674804676278
 21
2.331158274864259
 31
0.0
  0
LINE
  5
215
330
70
100
AcDbEntity
  8
0
 62
     8
420
  8421504
370
    25
100
AcDbLine
 10
14.01748046762797
 20
3.831158274863991
 30
0.0
 11
14.01748046762797
 21
2.331158274864259
 31
0.0
  0
LINE
  5
216
330
70
100
AcDbEntity
  8
0
 62
     8
420
  8421504
370
    25
100
AcDbLine
 10
106.7674804676278
 20
43.58115827486459
 30
0.0
 11
106.7674804676278
 21
45.08115827486432
 31
0.0
  0
LINE
  5
217
330
70
100
AcDbEntity
  8
0
 62
     8
420
  8421504
370
    25
100
AcDbLine
 10
14.01748046762797
 20
43.58115827486459
 30
0.0
 11
14.01748046762797
 21
45.08115827486432
 31
0.0
  0
LINE
  5
218
330
70
100
AcDbEntity
  8
0
 62
     8
420
  8421504
370
    25
100
AcDbLine
 10
106.7674804676278
 20
35.33115827486414
 30
0.0
 11
106.7674804676278
 21
36.83115827486452
 31
0.0
  0
LINE
  5
219
330
70
100
AcDbEntity
  8
0
 62
     8
420
  8421504
370
    25
100
AcDbLine
 10
14.01748046762797
 20
35.33115827486414
 30
0.0
 11
14.01748046762797
 21
36.83115827486452
 31
0.0
  0
LINE
  5
21A
330
70
100
AcDbEntity
  8
0
 62
     8
420
  8421504
370
    25
100
AcDbLine
 10
106.7674804676278
 20
27.08115827486433
 30
0.0
 11
106.7674804676278
 21
28.58115827486406
 31
0.0
  0
LINE
  5
21B
330
70
100
AcDbEntity
  8
0
 62
     8
420
  8421504
370
    25
100
AcDbLine
 10
14.01748046762797
 20
27.08115827486433
 30
0.0
 11
14.01748046762797
 21
28.58115827486406
 31
0.0
  0
LINE
  5
21C
330
70
100
AcDbEntity
  8
0
 62
     8
420
  8421504
370
    25
100
AcDbLine
 10
106.7674804676278
 20
18.83115827486388
 30
0.0
 11
106.7674804676278
 21
20.33115827486426
 31
0.0
  0
LINE
  5
21D
330
70
100
AcDbEntity
  8
0
 62
     8
420
  8421504
370
    25
100
AcDbLine
 10
14.01748046762797
 20
18.83115827486388
 30
0.0
 11
14.01748046762797
 21
20.33115827486426
 31
0.0
  0
LWPOLYLINE
  5
21E
330
70
100
AcDbEntity
  8
0
 62
    18
420
        0
370
    25
100
AcDbPolyline
 90
       16
 70
     0
 43
0.0
 10
122.1483092227277
 20
-23.24288148513593
 10
122.3642804594286
 20
-23.36623223403614
 10
122.7544035141274
 20
-23.46855252903593
 10
123.175993924128
 20
-23.47522102973601
 10
123.6240875533279
 20
-23.38658216393566
 10
124.0897079948285
 20
-23.20256680813583
 10
124.5594382849275
 20
-22.92699944453575
 10
125.0189628135274
 20
-22.56819424653565
 10
125.4554511183282
 20
-22.13709243993594
 10
125.8579791701277
 20
-21.64560732143566
 10
126.2165840296273
 20
-21.10673645093563
 10
126.5222814846274
 20
-20.53438208163574
 10
126.7671849800275
 20
-19.94314366983598
 10
126.9446841633284
 20
-19.34795302563566
 10
127.049563828228
 20
-18.76347962343605
 10
127.0786196231276
 20
-18.27988214453566
  0
SPLINE
  5
21F
330
70
100
AcDbEntity
  8
0
 62
    18
420
        0
370
    25
100
AcDbSpline
210
0.0
220
0.0
230
1.0
 70
     8
 71
     3
 72
     8
 73
     4
 74
     0
 42
0.0000000001
 43
0.0000000001
 40
0.0
 40
0.0
 40
0.0
 40
0.0
 40
1.0
 40
1.0
 40
1.0
 40
1.0
 10
127.0786196231442
 20
-18.27988214449074
 30
0.0
 10
127.1648062600958
 20
-17.51878770377548
 30
0.0
 10
126.8138928448254
 20
-16.77425864019447
 30
0.0
 10
126.1720027426018
 20
-16.35632326152284
 30
0.0
  0
LINE
  5
220
330
70
100
AcDbEntity
  8
0
 62
    18
420
        0
370
    25
100
AcDbLine
 10
126.1768066589286
 20
-16.34645190463552
 30
0.0
 11
123.9992809747278
 21
-15.08939308443558
 31
0.0
  0
LINE
  5
221
330
70
100
AcDbEntity
  8
0
 62
    18
420
        0
370
    25
100
AcDbLine
 10
121.5374438663279
 20
-22.90555886133576
 30
0.0
 11
122.1771317284279
 21
-23.2748428037356
 31
0.0
  0
LWPOLYLINE
  5
222
330
70
100
AcDbEntity
  8
0
 62
    18
420
        0
370
    25
100
AcDbPolyline
 90
        8
 70
     0
 43
0.0
 10
121.7296745005284
 20
-18.68423355583614
 10
121.7296787279274
 20
-18.68419426273597
 10
121.7327219805281
 20
-18.68821945503583
 10
121.7376443678282
 20
-18.70005513483571
 10
121.7415590235285
 20
-18.720053383136
 10
121.7421657328279
 20
-18.75167882063606
 10
121.7337366719277
 20
-18.80345383863597
 10
121.7089583809279
 20
-18.86870838373571
  0
LINE
  5
223
330
70
100
AcDbEntity
  8
0
 62
    18
420
        0
370
    25
100
AcDbLine
 10
119.961238895428
 20
-17.62852939693579
 30
0.0
 11
121.7298504172275
 21
-18.68427786133606
 31
0.0
  0
LWPOLYLINE
  5
224
330
70
100
AcDbEntity
  8
0
 62
    18
420
        0
370
    25
100
AcDbPolyline
 90
        6
 70
     0
 43
0.0
 10
121.7317876873278
 20
-22.99022627943578
 10
121.752916168428
 20
-23.0083030097359
 10
121.7640542227281
 20
-23.01861050633606
 10
121.7641229798279
 20
-23.01861235093588
 10
121.760235322828
 20
-23.01369164493602
 10
121.7575381929277
 20
-23.00945883433605
  0
LINE
  5
225
330
70
100
AcDbEntity
  8
0
 62
    18
420
        0
370
    25
100
AcDbLine
 10
125.2574088040276
 20
-57.08787303443577
 30
0.0
 11
93.76945142552772
 21
-38.91026216113582
 31
0.0
  0
LINE
  5
226
330
70
100
AcDbEntity
  8
0
 62
    18
420
        0
370
    25
100
AcDbLine
 10
91.9284814846282
 20
-43.93617937163608
 30
0.0
 11
123.4164388632282
 21
-62.11379024493603
 31
0.0
  0
SPLINE
  5
227
330
70
100
AcDbEntity
  8
0
 62
    18
420
        0
370
    25
100
AcDbSpline
210
0.0
220
0.0
230
1.0
 70
     8
 71
     3
 72
     8
 73
     4
 74
     0
 42
0.0000000001
 43
0.0000000001
 40
0.0
 40
0.0
 40
0.0
 40
0.0
 40
1.0
 40
1.0
 40
1.0
 40
1.0
 10
91.92848148468209
 20
-33.90976247620904
 30
0.0
 10
91.26590321498257
 20
-34.27153567454654
 30
0.0
 10
90.69269443927707
 20
-34.77701557286522
 30
0.0
 10
90.25088510577743
 20
-35.38913837373574
 30
0.0
  0
LINE
  5
228
330
70
100
AcDbEntity
  8
0
 62
    18
420
        0
370
    25
100
AcDbLine
 10
89.67999548982815
 20
-37.0857540971357
 30
0.0
 11
89.67999548982815
 21
-40.76018775063563
 31
0.0
  0
SPLINE
  5
229
330
70
100
AcDbEntity
  8
0
 62
    18
420
        0
370
    25
100
AcDbSpline
210
0.0
220
0.0
230
1.0
 70
     8
 71
     3
 72
     8
 73
     4
 74
     0
 42
0.0000000001
 43
0.0000000001
 40
0.0
 40
0.0
 40
0.0
 40
0.0
 40
1.0
 40
1.0
 40
1.0
 40
1.0
 10
92.44933733152086
 20
-37.22974643015736
 30
0.0
 10
92.58190250941218
 20
-37.9748749140798
 30
0.0
 10
93.07690738870654
 20
-38.60502005863166
 30
0.0
 10
93.76945142544943
 20
-38.91026216109155
 30
0.0
  0
SPLINE
  5
22A
330
70
100
AcDbEntity
  8
0
 62
    18
420
        0
370
    25
100
AcDbSpline
210
0.0
220
0.0
230
1.0
 70
     8
 71
     3
 72
     8
 73
     4
 74
     0
 42
0.0000000001
 43
0.0000000001
 40
0.0
 40
0.0
 40
0.0
 40
0.0
 40
1.0
 40
1.0
 40
1.0
 40
1.0
 10
90.27084121103298
 20
-42.47668244779942
 30
0.0
 10
90.70239278771268
 20
-43.08544939278969
 30
0.0
 10
91.26997126444582
 20
-43.58518329401738
 30
0.0
 10
91.92848148470519
 20
-43.93617937157641
 30
0.0
  0
LINE
  5
22B
330
70
100
AcDbEntity
  8
0
 62
    18
420
        0
370
    25
100
AcDbLine
 10
152.0325578855277
 20
0.787582276264023
 30
0.0
 11
124.2645654447275
 21
-15.24253854913583
 31
0.0
  0
LINE
  5
22C
330
70
100
AcDbEntity
  8
0
 62
    18
420
        0
370
    25
100
AcDbLine
 10
120.044925387028
 20
-17.67848490383596
 30
0.0
 11
91.9284814846282
 21
-33.90976247623599
 31
0.0
  0
LINE
  5
22D
330
70
100
AcDbEntity
  8
0
 62
    18
420
        0
370
    25
100
AcDbLine
 10
93.79146603362753
 20
-38.92297092393603
 30
0.0
 11
121.607176272328
 21
-22.86530320023612
 31
0.0
  0
LINE
  5
22E
330
70
100
AcDbEntity
  8
0
 62
    18
420
        0
370
    25
100
AcDbLine
 10
126.787592702228
 20
-19.87471245173587
 30
0.0
 11
153.8735278263284
 21
-4.2383349342356
 31
0.0
  0
LINE
  5
22F
330
70
100
AcDbEntity
  8
0
 62
    18
420
        0
370
    25
100
AcDbLine
 10
194.0235432744274
 20
-17.39002859703592
 30
0.0
 11
162.5355858959275
 21
0.787582276264023
 31
0.0
  0
LINE
  5
230
330
70
100
AcDbEntity
  8
0
 62
    18
420
        0
370
    25
100
AcDbLine
 10
160.694615955028
 20
-4.2383349342356
 30
0.0
 11
192.182573333628
 21
-22.41594580753555
 31
0.0
  0
SPLINE
  5
231
330
70
100
AcDbEntity
  8
0
 62
    18
420
        0
370
    25
100
AcDbSpline
210
0.0
220
0.0
230
1.0
 70
     8
 71
     3
 72
     8
 73
     4
 74
     0
 42
0.0000000001
 43
0.0000000001
 40
0.0
 40
0.0
 40
0.0
 40
0.0
 40
1.0
 40
1.0
 40
1.0
 40
1.0
 10
162.5355858959031
 20
0.7875822762851991
 30
0.0
 10
159.2473562361154
 20
2.513784623452703
 30
0.0
 10
155.3207875453398
 20
2.513784623452703
 30
0.0
 10
152.0325578855534
 20
0.7875822762851991
 30
0.0
  0
SPLINE
  5
232
330
70
100
AcDbEntity
  8
0
 62
    18
420
        0
370
    25
100
AcDbSpline
210
0.0
220
0.0
230
1.0
 70
     8
 71
     3
 72
     8
 73
     4
 74
     0
 42
0.0000000001
 43
0.0000000001
 40
0.0
 40
0.0
 40
0.0
 40
0.0
 40
1.0
 40
1.0
 40
1.0
 40
1.0
 10
160.6946159550818
 20
-4.238334934208006
 30
0.0
 10
159.6734071144274
 20
-3.687853738885796
 30
0.0
 10
158.5280027761608
 20
-3.408687696851812
 30
0.0
 10
157.3680281856602
 20
-3.427555447834873
 30
0.0
  0
SPLINE
  5
233
330
70
100
AcDbEntity
  8
0
 62
    18
420
        0
370
    25
100
AcDbSpline
210
0.0
220
0.0
230
1.0
 70
     8
 71
     3
 72
     8
 73
     4
 74
     0
 42
0.0000000001
 43
0.0000000001
 40
0.0
 40
0.0
 40
0.0
 40
0.0
 40
1.0
 40
1.0
 40
1.0
 40
1.0
 10
157.3680281856358
 20
-3.427555447857333
 30
0.0
 10
156.1520920564645
 20
-3.385073000808977
 30
0.0
 10
154.9465338894752
 20
-3.664781608886924
 30
0.0
 10
153.8735278263425
 20
-4.238334934230466
 30
0.0
  0
SPLINE
  5
234
330
70
100
AcDbEntity
  8
0
 62
    18
420
        0
370
    25
100
AcDbSpline
210
0.0
220
0.0
230
1.0
 70
     8
 71
     3
 72
     8
 73
     4
 74
     0
 42
0.0000000001
 43
0.0000000001
 40
0.0
 40
0.0
 40
0.0
 40
0.0
 40
1.0
 40
1.0
 40
1.0
 40
1.0
 10
112.6565342625694
 20
-33.33276354562672
 30
0.0
 10
112.8111734729146
 20
-33.4220348615652
 30
0.0
 10
113.0016822225672
 20
-33.42206626508862
 30
0.0
 10
113.1563508555321
 20
-33.33284593555459
 30
0.0
  0
SPLINE
  5
235
330
70
100
AcDbEntity
  8
0
 62
    18
420
        0
370
    25
100
AcDbSpline
210
0.0
220
0.0
230
1.0
 70
     8
 71
     3
 72
     8
 73
     4
 74
     0
 42
0.0000000001
 43
0.0000000001
 40
0.0
 40
0.0
 40
0.0
 40
0.0
 40
1.0
 40
1.0
 40
1.0
 40
1.0
 10
130.3767519086463
 20
-3.487843402905246
 30
0.0
 10
130.3705455723314
 20
-3.315737719010873
 30
0.0
 10
130.2762051920323
 20
-3.158939634054831
 30
0.0
 10
130.1270563774868
 20
-3.072837856145957
 30
0.0
  0
LWPOLYLINE
  5
236
330
70
100
AcDbEntity
  8
0
 62
    18
420
        0
370
    25
100
AcDbPolyline
 90
        3
 70
     0
 43
0.0
 10
130.377039048328
 20
-23.10297524633608
 10
130.3784028180283
 20
-18.51752042013599
 10
130.3782960427284
 20
-17.80184353553594
  0
LINE
  5
237
330
70
100
AcDbEntity
  8
0
 62
    18
420
        0
370
    25
100
AcDbLine
 10
130.3773877200277
 20
-11.71368136343565
 30
0.0
 11
130.3761621604278
 21
-3.499193239435988
 31
0.0
  0
LINE
  5
238
330
70
100
AcDbEntity
  8
0
 62
    18
420
        0
370
    25
100
AcDbLine
 10
130.3758497951281
 20
-3.493348404235899
 30
0.0
 11
130.375656182428
 21
-3.487347434535841
 31
0.0
  0
LWPOLYLINE
  5
239
330
70
100
AcDbEntity
  8
0
 62
    18
420
        0
370
    25
100
AcDbPolyline
 90
        3
 70
     0
 43
0.0
 10
113.1563216318276
 20
-33.33281937233558
 10
117.1292724107275
 20
-31.04085828203611
 10
130.1314601552278
 20
-23.53226805863585
  0
LINE
  5
23A
330
70
100
AcDbEntity
  8
0
 62
    18
420
        0
370
    25
100
AcDbLine
 10
111.072151430428
 20
-32.41811880533554
 30
0.0
 11
112.6565342625283
 21
-33.3327635455356
 31
0.0
  0
LINE
  5
23B
330
70
100
AcDbEntity
  8
0
 62
    18
420
        0
370
    25
100
AcDbLine
 10
130.1270563774278
 20
-3.07283785613569
 30
0.0
 11
128.5426735452273
 21
-2.158193115835526
 31
0.0
  0
LINE
  5
23C
330
70
100
AcDbEntity
  8
0
 62
    18
420
        0
370
    25
100
AcDbLine
 10
130.1360373614285
 20
-23.52833778033609
 30
0.0
 11
130.1411790938284
 21
-23.52514304793612
 31
0.0
  0
SPLINE
  5
23D
330
70
100
AcDbEntity
  8
0
 62
    18
420
        0
370
    25
100
AcDbSpline
210
0.0
220
0.0
230
1.0
 70
     8
 71
     3
 72
     8
 73
     4
 74
     0
 42
0.0000000001
 43
0.0000000001
 40
0.0
 40
0.0
 40
0.0
 40
0.0
 40
1.0
 40
1.0
 40
1.0
 40
1.0
 10
130.1431619690764
 20
-23.52616035995565
 30
0.0
 10
130.2886826032677
 20
-23.43469048570461
 30
0.0
 10
130.3770199795981
 20
-23.27488741817831
 30
0.0
 10
130.3770766669345
 20
-23.10300667563463
 30
0.0
  0
LINE
  5
23E
330
70
100
AcDbEntity
  8
0
 62
    18
420
        0
370
    25
100
AcDbLine
 10
115.7870436248282
 20
-57.70943412313581
 30
0.0
 11
115.7870436248282
 21
-62.85519435233569
 31
0.0
  0
LINE
  5
23F
330
70
100
AcDbEntity
  8
0
 62
    18
420
        0
370
    25
100
AcDbLine
 10
117.287043624828
 20
-62.85519435233569
 30
0.0
 11
117.287043624828
 21
-58.57536569133571
 31
0.0
  0
SPLINE
  5
240
330
70
100
AcDbEntity
  8
0
 62
    18
420
        0
370
    25
100
AcDbSpline
210
0.0
220
0.0
230
1.0
 70
     8
 71
     3
 72
    11
 73
     7
 74
     0
 42
0.0000000001
 43
0.0000000001
 40
0.0
 40
0.0
 40
0.0
 40
0.0
 40
1.0
 40
1.0
 40
1.0
 40
2.0
 40
2.0
 40
2.0
 40
2.0
 10
115.7870436248385
 20
-62.85519435228628
 30
0.0
 10
115.7044101441993
 20
-63.80754223719807
 30
0.0
 10
116.4094529725655
 20
-64.64656040878503
 30
0.0
 10
117.361800857478
 20
-64.72919388942483
 30
0.0
 10
117.7662825756095
 20
-64.7642900268281
 30
0.0
 10
118.1702299413986
 20
-64.65608065944102
 30
0.0
 10
118.5030034072466
 20
-64.42348870001409
 30
0.0
  0
LWPOLYLINE
  5
241
330
70
100
AcDbEntity
  8
0
 62
    18
420
        0
370
    25
100
AcDbPolyline
 90
        9
 70
     0
 43
0.0
 10
117.7530643577273
 20
-63.12441540643579
 10
117.6427176373276
 20
-63.18102618153576
 10
117.4797235528285
 20
-63.23428094553556
 10
117.3950951350285
 20
-63.23958103173551
 10
117.378102978128
 20
-63.23581300083585
 10
117.361106390428
 20
-63.21553248283608
 10
117.3224682956279
 20
-63.12865306373598
 10
117.2898270149279
 20
-62.9399650802361
 10
117.287043624828
 20
-62.85519435233569
  0
LINE
  5
242
330
70
100
AcDbEntity
  8
0
 62
    18
420
        0
370
    25
100
AcDbLine
 10
183.3372183128274
 20
-25.26348922073556
 30
0.0
 11
125.6092098351279
 21
-58.58915915803605
 31
0.0
  0
LINE
  5
243
330
70
100
AcDbEntity
  8
0
 62
    18
420
        0
370
    25
100
AcDbLine
 10
121.4600735170282
 20
-60.98440457023556
 30
0.0
 11
117.7530643577273
 21
-63.12441540643579
 31
0.0
  0
LINE
  5
244
330
70
100
AcDbEntity
  8
0
 62
    18
420
        0
370
    25
100
AcDbLine
 10
118.5030034072273
 20
-64.4234887000359
 30
0.0
 11
121.6703085292274
 21
-62.59504237273605
 31
0.0
  0
LINE
  5
245
330
70
100
AcDbEntity
  8
0
 62
    18
420
        0
370
    25
100
AcDbLine
 10
125.5196347862273
 20
-60.37287362473574
 30
0.0
 11
184.0871573623274
 21
-26.56256251423557
 31
0.0
  0
LINE
  5
246
330
70
100
AcDbEntity
  8
0
 62
    18
420
        0
370
    25
100
AcDbLine
 10
184.553178095228
 20
-18.01158968573597
 30
0.0
 11
184.553178095228
 21
-23.15734991493584
 31
0.0
  0
LINE
  5
247
330
70
100
AcDbEntity
  8
0
 62
    18
420
        0
370
    25
100
AcDbLine
 10
186.0531780952278
 20
-23.15734991493584
 30
0.0
 11
186.0531780952278
 21
-18.87752125393586
 31
0.0
  0
SPLINE
  5
248
330
70
100
AcDbEntity
  8
0
 62
    18
420
        0
370
    25
100
AcDbSpline
210
0.0
220
0.0
230
1.0
 70
     8
 71
     3
 72
     8
 73
     4
 74
     0
 42
0.0000000001
 43
0.0000000001
 40
0.0
 40
0.0
 40
0.0
 40
0.0
 40
1.0
 40
1.0
 40
1.0
 40
1.0
 10
184.0871573622671
 20
-26.56256251431899
 30
0.0
 10
185.2670628962858
 20
-25.82416075113822
 30
0.0
 10
186.0036437247883
 20
-24.54837851973872
 30
0.0
 10
186.0531780951995
 20
-23.15734991499103
 30
0.0
  0
SPLINE
  5
249
330
70
100
AcDbEntity
  8
0
 62
    18
420
        0
370
    25
100
AcDbSpline
210
0.0
220
0.0
230
1.0
 70
     8
 71
     3
 72
     8
 73
     4
 74
     0
 42
0.0000000001
 43
0.0000000001
 40
0.0
 40
0.0
 40
0.0
 40
0.0
 40
1.0
 40
1.0
 40
1.0
 40
1.0
 10
183.3372183128441
 20
-25.26348922072337
 30
0.0
 10
184.0535499554305
 20
-24.79394951840013
 30
0.0
 10
184.5047229773117
 20
-24.01248186722526
 30
0.0
 10
184.5531780952511
 20
-23.157349914966
 30
0.0
  0
LINE
  5
24A
330
70
100
AcDbEntity
  8
0
 62
    18
420
        0
370
    25
100
AcDbLine
 10
121.6206745696279
 20
-61.07711758443592
 30
0.0
 11
121.6206745696279
 21
-62.14017375413559
 31
0.0
  0
LINE
  5
24B
330
70
100
AcDbEntity
  8
0
 62
    18
420
        0
370
    25
100
AcDbLine
 10
123.1206745696276
 20
-62.14017375413559
 30
0.0
 11
123.1206745696276
 21
-61.94304915253571
 31
0.0
  0
SPLINE
  5
24C
330
70
100
AcDbEntity
  8
0
 62
    18
420
        0
370
    25
100
AcDbSpline
210
0.0
220
0.0
230
1.0
 70
     8
 71
     3
 72
    11
 73
     7
 74
     0
 42
0.0000000001
 43
0.0000000001
 40
0.0
 40
0.0
 40
0.0
 40
0.0
 40
1.0
 40
1.0
 40
1.0
 40
2.0
 40
2.0
 40
2.0
 40
2.0
 10
121.6206745696394
 20
-62.14017375418627
 30
0.0
 10
121.538041088999
 20
-63.09252163909807
 30
0.0
 10
122.2430839173665
 20
-63.93153981068504
 30
0.0
 10
123.1954318022776
 20
-64.01417329132484
 30
0.0
 10
123.5999135204091
 20
-64.04926942872812
 30
0.0
 10
124.0038608861982
 20
-63.94106006134102
 30
0.0
 10
124.3366343520462
 20
-63.70846810191409
 30
0.0
  0
LWPOLYLINE
  5
24D
330
70
100
AcDbEntity
  8
0
 62
    18
420
        0
370
    25
100
AcDbPolyline
 90
        9
 70
     0
 43
0.0
 10
123.5866953025283
 20
-62.4093948083358
 10
123.4763485821285
 20
-62.46600558343576
 10
123.3133544976282
 20
-62.5192603473361
 10
123.2287260798281
 20
-62.52456043363551
 10
123.2117339229277
 20
-62.52079240263574
 10
123.1947373352276
 20
-62.50051188463598
 10
123.1560992404275
 20
-62.41363246563598
 10
123.1234579597275
 20
-62.224944482036
 10
123.1206745696276
 20
-62.14017375413559
  0
LINE
  5
24E
330
70
100
AcDbEntity
  8
0
 62
    18
420
        0
370
    25
100
AcDbLine
 10
189.1708492576283
 20
-24.54846862253611
 30
0.0
 11
123.5866953025283
 21
-62.4093948083358
 31
0.0
  0
LINE
  5
24F
330
70
100
AcDbEntity
  8
0
 62
    18
420
        0
370
    25
100
AcDbLine
 10
124.3366343520282
 20
-63.7084681019359
 30
0.0
 11
189.9207883071283
 21
-25.84754191613558
 31
0.0
  0
LINE
  5
250
330
70
100
AcDbEntity
  8
0
 62
    18
420
        0
370
    25
100
AcDbLine
 10
190.3868090400277
 20
-21.37927314703607
 30
0.0
 11
190.3868090400277
 21
-22.44232931673574
 31
0.0
  0
LINE
  5
251
330
70
100
AcDbEntity
  8
0
 62
    18
420
        0
370
    25
100
AcDbLine
 10
191.8868090400274
 20
-22.44232931673574
 30
0.0
 11
191.8868090400274
 21
-22.24520471513586
 31
0.0
  0
SPLINE
  5
252
330
70
100
AcDbEntity
  8
0
 62
    18
420
        0
370
    25
100
AcDbSpline
210
0.0
220
0.0
230
1.0
 70
     8
 71
     3
 72
     8
 73
     4
 74
     0
 42
0.0000000001
 43
0.0000000001
 40
0.0
 40
0.0
 40
0.0
 40
0.0
 40
1.0
 40
1.0
 40
1.0
 40
1.0
 10
189.9207883070667
 20
-25.84754191611889
 30
0.0
 10
191.1006938410854
 20
-25.10914015293812
 30
0.0
 10
191.8372746695879
 20
-23.83335792153926
 30
0.0
 10
191.8868090400004
 20
-22.44232931679157
 30
0.0
  0
SPLINE
  5
253
330
70
100
AcDbEntity
  8
0
 62
    18
420
        0
370
    25
100
AcDbSpline
210
0.0
220
0.0
230
1.0
 70
     8
 71
     3
 72
     8
 73
     4
 74
     0
 42
0.0000000001
 43
0.0000000001
 40
0.0
 40
0.0
 40
0.0
 40
0.0
 40
1.0
 40
1.0
 40
1.0
 40
1.0
 10
189.1708492576437
 20
-24.54846862252327
 30
0.0
 10
189.8871809002302
 20
-24.07892892020003
 30
0.0
 10
190.3383539221113
 20
-23.29746126902515
 30
0.0
 10
190.3868090400507
 20
-22.4423293167659
 30
0.0
  0
LINE
  5
254
330
70
100
AcDbEntity
  8
0
 62
    18
420
        0
370
    25
100
AcDbLine
 10
92.45251984572792
 20
-44.23870027803551
 30
0.0
 11
92.45251984572792
 21
-49.38446050723603
 31
0.0
  0
LINE
  5
255
330
70
100
AcDbEntity
  8
0
 62
    18
420
        0
370
    25
100
AcDbLine
 10
93.95251984572828
 20
-49.38446050723603
 30
0.0
 11
93.95251984572828
 21
-45.10463184623605
 31
0.0
  0
LWPOLYLINE
  5
256
330
70
100
AcDbEntity
  8
0
 62
    18
420
        0
370
    25
100
AcDbPolyline
 90
        9
 70
     0
 43
0.0
 10
94.41854057862766
 20
-49.6536815614356
 10
94.30819385812784
 20
-49.71029233643611
 10
94.14519977362811
 20
-49.7635471004359
 10
94.06057135582804
 20
-49.76884718673596
 10
94.04357919892827
 20
-49.76507915573555
 10
94.02658261132827
 20
-49.74479863773579
 10
93.9879445165282
 20
-49.65791921873579
 10
93.95530323572808
 20
-49.46923123513581
 10
93.95251984572828
 20
-49.38446050723603
  0
SPLINE
  5
257
330
70
100
AcDbEntity
  8
0
 62
    18
420
        0
370
    25
100
AcDbSpline
210
0.0
220
0.0
230
1.0
 70
     8
 71
     3
 72
    11
 73
     7
 74
     0
 42
0.0000000001
 43
0.0000000001
 40
0.0
 40
0.0
 40
0.0
 40
0.0
 40
1.0
 40
1.0
 40
1.0
 40
2.0
 40
2.0
 40
2.0
 40
2.0
 10
92.45251984563871
 20
-49.38446050728608
 30
0.0
 10
92.36988636499956
 20
-50.33680839219787
 30
0.0
 10
93.07492919336578
 20
-51.17582656378548
 30
0.0
 10
94.02727707827819
 20
-51.25846004442464
 30
0.0
 10
94.43175879640973
 20
-51.29355618182792
 30
0.0
 10
94.83570616219815
 20
-51.18534681444147
 30
0.0
 10
95.1684796280468
 20
-50.95275485501389
 30
0.0
  0
LINE
  5
258
330
70
100
AcDbEntity
  8
0
 62
    18
420
        0
370
    25
100
AcDbLine
 10
95.16847962812766
 20
-50.9527548549356
 30
0.0
 11
98.28615079042808
 21
-49.15296160263614
 31
0.0
  0
LINE
  5
259
330
70
100
AcDbEntity
  8
0
 62
    18
420
        0
370
    25
100
AcDbLine
 10
104.8992002622278
 20
-45.33532940313572
 30
0.0
 11
160.7526335831276
 21
-13.09182866923602
 31
0.0
  0
LINE
  5
25A
330
70
100
AcDbEntity
  8
0
 62
    18
420
        0
370
    25
100
AcDbLine
 10
160.0026945336276
 20
-11.79275537563591
 30
0.0
 11
103.3990783512281
 21
-44.46932745733612
 31
0.0
  0
LINE
  5
25B
330
70
100
AcDbEntity
  8
0
 62
    18
420
        0
370
    25
100
AcDbLine
 10
98.12554973792785
 20
-47.5136707251359
 30
0.0
 11
94.41854057862766
 21
-49.6536815614356
 31
0.0
  0
LINE
  5
25C
330
70
100
AcDbEntity
  8
0
 62
    18
420
        0
370
    25
100
AcDbLine
 10
161.2186543160282
 20
-4.540855840735778
 30
0.0
 11
161.2186543160282
 21
-9.686616069835546
 31
0.0
  0
LINE
  5
25D
330
70
100
AcDbEntity
  8
0
 62
    18
420
        0
370
    25
100
AcDbLine
 10
162.7186543160279
 20
-9.686616069835546
 30
0.0
 11
162.7186543160279
 21
-5.406787408835568
 31
0.0
  0
SPLINE
  5
25E
330
70
100
AcDbEntity
  8
0
 62
    18
420
        0
370
    25
100
AcDbSpline
210
0.0
220
0.0
230
1.0
 70
     8
 71
     3
 72
     8
 73
     4
 74
     0
 42
0.0000000001
 43
0.0000000001
 40
0.0
 40
0.0
 40
0.0
 40
0.0
 40
1.0
 40
1.0
 40
1.0
 40
1.0
 10
160.0026945336443
 20
-11.79275537562371
 30
0.0
 10
160.7190261762307
 20
-11.32321567330047
 30
0.0
 10
161.1701991981118
 20
-10.54174802212496
 30
0.0
 10
161.2186543160513
 20
-9.686616069865706
 30
0.0
  0
SPLINE
  5
25F
330
70
100
AcDbEntity
  8
0
 62
    18
420
        0
370
    25
100
AcDbSpline
210
0.0
220
0.0
230
1.0
 70
     8
 71
     3
 72
     8
 73
     4
 74
     0
 42
0.0000000001
 43
0.0000000001
 40
0.0
 40
0.0
 40
0.0
 40
0.0
 40
1.0
 40
1.0
 40
1.0
 40
1.0
 10
160.7526335831661
 20
-13.09182866921934
 30
0.0
 10
161.9325391171861
 20
-12.35342690603792
 30
0.0
 10
162.6691199456873
 20
-11.07764467463906
 30
0.0
 10
162.7186543160998
 20
-9.686616069891375
 30
0.0
  0
LINE
  5
260
330
70
100
AcDbEntity
  8
0
 62
    18
420
        0
370
    25
100
AcDbLine
 10
98.28615079042808
 20
-47.60638373933562
 30
0.0
 11
98.28615079042808
 21
-52.75214396853613
 31
0.0
  0
LINE
  5
261
330
70
100
AcDbEntity
  8
0
 62
    18
420
        0
370
    25
100
AcDbLine
 10
99.78615079042782
 20
-52.75214396853613
 30
0.0
 11
99.78615079042782
 21
-48.47231530743605
 31
0.0
  0
LWPOLYLINE
  5
262
330
70
100
AcDbEntity
  8
0
 62
    18
420
        0
370
    25
100
AcDbPolyline
 90
        9
 70
     0
 43
0.0
 10
100.2521715234279
 20
-53.02136502263559
 10
100.1418248029281
 20
-53.07797579773557
 10
99.97883071842837
 20
-53.13123056173601
 10
99.89420230062831
 20
-53.13653064793595
 10
99.87721014372789
 20
-53.13276261703565
 10
99.86021355612791
 20
-53.11248209903588
 10
99.82157546132782
 20
-53.02560267993579
 10
99.78893418052772
 20
-52.8369146964359
 10
99.78615079042782
 20
-52.75214396853613
  0
SPLINE
  5
263
330
70
100
AcDbEntity
  8
0
 62
    18
420
        0
370
    25
100
AcDbSpline
210
0.0
220
0.0
230
1.0
 70
     8
 71
     3
 72
    11
 73
     7
 74
     0
 42
0.0000000001
 43
0.0000000001
 40
0.0
 40
0.0
 40
0.0
 40
0.0
 40
1.0
 40
1.0
 40
1.0
 40
2.0
 40
2.0
 40
2.0
 40
2.0
 10
98.28615079043899
 20
-52.75214396848608
 30
0.0
 10
98.2035173097992
 20
-53.70449185339786
 30
0.0
 10
98.90856013816604
 20
-54.54351002498547
 30
0.0
 10
99.86090802307783
 20
-54.62614350562463
 30
0.0
 10
100.2653897412093
 20
-54.66123964302791
 30
0.0
 10
100.6693371069984
 20
-54.55303027564147
 30
0.0
 10
101.0021105728464
 20
-54.32043831621388
 30
0.0
  0
LINE
  5
264
330
70
100
AcDbEntity
  8
0
 62
    18
420
        0
370
    25
100
AcDbLine
 10
101.0021105728278
 20
-54.32043831623571
 30
0.0
 11
104.1197817352277
 21
-52.52064506383613
 31
0.0
  0
LINE
  5
265
330
70
100
AcDbEntity
  8
0
 62
    18
420
        0
370
    25
100
AcDbLine
 10
110.7328312070275
 20
-48.70301286443582
 30
0.0
 11
166.5862645279285
 21
-16.45951213043602
 31
0.0
  0
LINE
  5
266
330
70
100
AcDbEntity
  8
0
 62
    18
420
        0
370
    25
100
AcDbLine
 10
165.8363254784285
 20
-15.160438836936
 30
0.0
 11
109.2327092960278
 21
-47.83701091863558
 31
0.0
  0
LINE
  5
267
330
70
100
AcDbEntity
  8
0
 62
    18
420
        0
370
    25
100
AcDbLine
 10
103.9591806827281
 20
-50.881354186436
 30
0.0
 11
100.2521715234279
 21
-53.02136502263559
 31
0.0
  0
LINE
  5
268
330
70
100
AcDbEntity
  8
0
 62
    18
420
        0
370
    25
100
AcDbLine
 10
167.0522852608279
 20
-7.908539301935773
 30
0.0
 11
167.0522852608279
 21
-13.05429953113565
 31
0.0
  0
LINE
  5
269
330
70
100
AcDbEntity
  8
0
 62
    18
420
        0
370
    25
100
AcDbLine
 10
168.5522852608276
 20
-13.05429953113565
 30
0.0
 11
168.5522852608276
 21
-8.774470870135669
 31
0.0
  0
SPLINE
  5
26A
330
70
100
AcDbEntity
  8
0
 62
    18
420
        0
370
    25
100
AcDbSpline
210
0.0
220
0.0
230
1.0
 70
     8
 71
     3
 72
     8
 73
     4
 74
     0
 42
0.0000000001
 43
0.0000000001
 40
0.0
 40
0.0
 40
0.0
 40
0.0
 40
1.0
 40
1.0
 40
1.0
 40
1.0
 10
165.8363254784439
 20
-15.16043883692317
 30
0.0
 10
166.5526571210303
 20
-14.69089913459993
 30
0.0
 10
167.0038301429115
 20
-13.90943148342506
 30
0.0
 10
167.0522852608509
 20
-13.0542995311658
 30
0.0
  0
SPLINE
  5
26B
330
70
100
AcDbEntity
  8
0
 62
    18
420
        0
370
    25
100
AcDbSpline
210
0.0
220
0.0
230
1.0
 70
     8
 71
     3
 72
     8
 73
     4
 74
     0
 42
0.0000000001
 43
0.0000000001
 40
0.0
 40
0.0
 40
0.0
 40
0.0
 40
1.0
 40
1.0
 40
1.0
 40
1.0
 10
166.586264527967
 20
-16.45951213041933
 30
0.0
 10
167.7661700619857
 20
-15.72111036723791
 30
0.0
 10
168.5027508904882
 20
-14.44532813583906
 30
0.0
 10
168.5522852608995
 20
-13.05429953109137
 30
0.0
  0
LINE
  5
26C
330
70
100
AcDbEntity
  8
0
 62
    18
420
        0
370
    25
100
AcDbLine
 10
104.1197817352277
 20
-50.97406720063571
 30
0.0
 11
104.1197817352277
 21
-56.11982742973612
 31
0.0
  0
LINE
  5
26D
330
70
100
AcDbEntity
  8
0
 62
    18
420
        0
370
    25
100
AcDbLine
 10
105.6197817352274
 20
-56.11982742973612
 30
0.0
 11
105.6197817352274
 21
-51.83999876873551
 31
0.0
  0
LWPOLYLINE
  5
26E
330
70
100
AcDbEntity
  8
0
 62
    18
420
        0
370
    25
100
AcDbPolyline
 90
        9
 70
     0
 43
0.0
 10
106.0858024682282
 20
-56.38904848393569
 10
105.9754557477283
 20
-56.44565925903567
 10
105.812461663228
 20
-56.49891402293601
 10
105.7278332454279
 20
-56.50421410923605
 10
105.7108410885275
 20
-56.50044607833574
 10
105.6938445009275
 20
-56.48016556023588
 10
105.6552064061274
 20
-56.39328614123589
 10
105.6225651253273
 20
-56.20459815763591
 10
105.6197817352274
 20
-56.11982742973612
  0
SPLINE
  5
26F
330
70
100
AcDbEntity
  8
0
 62
    18
420
        0
370
    25
100
AcDbSpline
210
0.0
220
0.0
230
1.0
 70
     8
 71
     3
 72
    11
 73
     7
 74
     0
 42
0.0000000001
 43
0.0000000001
 40
0.0
 40
0.0
 40
0.0
 40
0.0
 40
1.0
 40
1.0
 40
1.0
 40
2.0
 40
2.0
 40
2.0
 40
2.0
 10
104.1197817352392
 20
-56.11982742978618
 30
0.0
 10
104.0371482545988
 20
-57.07217531469797
 30
0.0
 10
104.7421910829663
 20
-57.91119348628494
 30
0.0
 10
105.6945389678787
 20
-57.99382696692473
 30
0.0
 10
106.099020686009
 20
-58.02892310432802
 30
0.0
 10
106.502968051798
 20
-57.92071373694092
 30
0.0
 10
106.835741517646
 20
-57.68812177751399
 30
0.0
  0
LINE
  5
270
330
70
100
AcDbEntity
  8
0
 62
    18
420
        0
370
    25
100
AcDbLine
 10
106.8357415176281
 20
-57.68812177753581
 30
0.0
 11
109.9534126800273
 21
-55.8883285251356
 31
0.0
  0
LINE
  5
271
330
70
100
AcDbEntity
  8
0
 62
    18
420
        0
370
    25
100
AcDbLine
 10
116.5664621518284
 20
-52.07069632573592
 30
0.0
 11
172.4198954727281
 21
-19.82719559173611
 31
0.0
  0
LINE
  5
272
330
70
100
AcDbEntity
  8
0
 62
    18
420
        0
370
    25
100
AcDbLine
 10
171.6699564232281
 20
-18.528122298136
 30
0.0
 11
115.0663402408274
 21
-51.20469437983558
 31
0.0
  0
LINE
  5
273
330
70
100
AcDbEntity
  8
0
 62
    18
420
        0
370
    25
100
AcDbLine
 10
109.7928116274276
 20
-54.24903764773611
 30
0.0
 11
106.0858024682282
 21
-56.38904848393569
 31
0.0
  0
LINE
  5
274
330
70
100
AcDbEntity
  8
0
 62
    18
420
        0
370
    25
100
AcDbLine
 10
172.8859162056275
 20
-11.27622276323587
 30
0.0
 11
172.8859162056275
 21
-16.42198299243575
 31
0.0
  0
LINE
  5
275
330
70
100
AcDbEntity
  8
0
 62
    18
420
        0
370
    25
100
AcDbLine
 10
174.3859162056285
 20
-16.42198299243575
 30
0.0
 11
174.3859162056285
 21
-12.14215433133566
 31
0.0
  0
SPLINE
  5
276
330
70
100
AcDbEntity
  8
0
 62
    18
420
        0
370
    25
100
AcDbSpline
210
0.0
220
0.0
230
1.0
 70
     8
 71
     3
 72
     8
 73
     4
 74
     0
 42
0.0000000001
 43
0.0000000001
 40
0.0
 40
0.0
 40
0.0
 40
0.0
 40
1.0
 40
1.0
 40
1.0
 40
1.0
 10
171.6699564232435
 20
-18.52812229812317
 30
0.0
 10
172.38628806583
 20
-18.05858259579992
 30
0.0
 10
172.8374610877124
 20
-17.27711494462505
 30
0.0
 10
172.8859162056519
 20
-16.4219829923658
 30
0.0
  0
SPLINE
  5
277
330
70
100
AcDbEntity
  8
0
 62
    18
420
        0
370
    25
100
AcDbSpline
210
0.0
220
0.0
230
1.0
 70
     8
 71
     3
 72
     8
 73
     4
 74
     0
 42
0.0000000001
 43
0.0000000001
 40
0.0
 40
0.0
 40
0.0
 40
0.0
 40
1.0
 40
1.0
 40
1.0
 40
1.0
 10
172.4198954726665
 20
-19.82719559171943
 30
0.0
 10
173.5998010066865
 20
-19.08879382853801
 30
0.0
 10
174.3363818351878
 20
-17.81301159713916
 30
0.0
 10
174.3859162056003
 20
-16.42198299239147
 30
0.0
  0
LINE
  5
278
330
70
100
AcDbEntity
  8
0
 62
    18
420
        0
370
    25
100
AcDbLine
 10
109.9534126800273
 20
-54.34175066193581
 30
0.0
 11
109.9534126800273
 21
-59.48751089103559
 31
0.0
  0
LINE
  5
279
330
70
100
AcDbEntity
  8
0
 62
    18
420
        0
370
    25
100
AcDbLine
 10
111.4534126800283
 20
-59.48751089103559
 30
0.0
 11
111.4534126800283
 21
-55.2076822300356
 31
0.0
  0
LWPOLYLINE
  5
27A
330
70
100
AcDbEntity
  8
0
 62
    18
420
        0
370
    25
100
AcDbPolyline
 90
        9
 70
     0
 43
0.0
 10
111.9194334129277
 20
-59.75673194523579
 10
111.809086692528
 20
-59.81334272023566
 10
111.6460926080276
 20
-59.8665974842361
 10
111.5614641902275
 20
-59.87189757053552
 10
111.5444720333284
 20
-59.86812953953574
 10
111.5274754456283
 20
-59.84784902153599
 10
111.4888373508283
 20
-59.76096960253599
 10
111.4561960701282
 20
-59.572281618936
 10
111.4534126800283
 20
-59.48751089103559
  0
SPLINE
  5
27B
330
70
100
AcDbEntity
  8
0
 62
    18
420
        0
370
    25
100
AcDbSpline
210
0.0
220
0.0
230
1.0
 70
     8
 71
     3
 72
    11
 73
     7
 74
     0
 42
0.0000000001
 43
0.0000000001
 40
0.0
 40
0.0
 40
0.0
 40
0.0
 40
1.0
 40
1.0
 40
1.0
 40
2.0
 40
2.0
 40
2.0
 40
2.0
 10
109.9534126800389
 20
-59.48751089108628
 30
0.0
 10
109.8707791993997
 20
-60.43985877599807
 30
0.0
 10
110.5758220277659
 20
-61.27887694758504
 30
0.0
 10
111.5281699126783
 20
-61.36151042822483
 30
0.0
 10
111.9326516308099
 20
-61.39660656562812
 30
0.0
 10
112.3365989965977
 20
-61.28839719824102
 30
0.0
 10
112.6693724624469
 20
-61.0558052388141
 30
0.0
  0
LINE
  5
27C
330
70
100
AcDbEntity
  8
0
 62
    18
420
        0
370
    25
100
AcDbLine
 10
112.6693724624277
 20
-61.0558052387358
 30
0.0
 11
115.7870436248282
 21
-59.25601198643569
 31
0.0
  0
LINE
  5
27D
330
70
100
AcDbEntity
  8
0
 62
    18
420
        0
370
    25
100
AcDbLine
 10
122.4000930965279
 20
-55.43837978693591
 30
0.0
 11
178.2535264175278
 21
-23.19487905303557
 31
0.0
  0
LINE
  5
27E
330
70
100
AcDbEntity
  8
0
 62
    18
420
        0
370
    25
100
AcDbLine
 10
177.5035873680277
 20
-21.8958057594361
 30
0.0
 11
120.8999711856283
 21
-54.57237784113567
 31
0.0
  0
LINE
  5
27F
330
70
100
AcDbEntity
  8
0
 62
    18
420
        0
370
    25
100
AcDbLine
 10
115.6264425722285
 20
-57.6167211089361
 30
0.0
 11
111.9194334129277
 21
-59.75673194523579
 31
0.0
  0
LINE
  5
280
330
70
100
AcDbEntity
  8
0
 62
    18
420
        0
370
    25
100
AcDbLine
 10
178.7195471504284
 20
-14.64390622453597
 30
0.0
 11
178.7195471504284
 21
-19.78966645363574
 31
0.0
  0
LINE
  5
281
330
70
100
AcDbEntity
  8
0
 62
    18
420
        0
370
    25
100
AcDbLine
 10
180.2195471504281
 20
-19.78966645363574
 30
0.0
 11
180.2195471504281
 21
-15.50983779263576
 31
0.0
  0
SPLINE
  5
282
330
70
100
AcDbEntity
  8
0
 62
    18
420
        0
370
    25
100
AcDbSpline
210
0.0
220
0.0
230
1.0
 70
     8
 71
     3
 72
     8
 73
     4
 74
     0
 42
0.0000000001
 43
0.0000000001
 40
0.0
 40
0.0
 40
0.0
 40
0.0
 40
1.0
 40
1.0
 40
1.0
 40
1.0
 10
177.5035873680431
 20
-21.89580575942327
 30
0.0
 10
178.2199190106309
 20
-21.42626605710002
 30
0.0
 10
178.671092032512
 20
-20.64479840592515
 30
0.0
 10
178.7195471504515
 20
-19.7896664536659
 30
0.0
  0
SPLINE
  5
283
330
70
100
AcDbEntity
  8
0
 62
    18
420
        0
370
    25
100
AcDbSpline
210
0.0
220
0.0
230
1.0
 70
     8
 71
     3
 72
     8
 73
     4
 74
     0
 42
0.0000000001
 43
0.0000000001
 40
0.0
 40
0.0
 40
0.0
 40
0.0
 40
1.0
 40
1.0
 40
1.0
 40
1.0
 10
178.2535264174674
 20
-23.19487905301953
 30
0.0
 10
179.4334319514862
 20
-22.45647728983811
 30
0.0
 10
180.1700127799887
 20
-21.18069505843926
 30
0.0
 10
180.2195471503999
 20
-19.78966645369157
 30
0.0
  0
LWPOLYLINE
  5
284
330
70
100
AcDbEntity
  8
0
 62
    18
420
        0
370
    25
100
AcDbPolyline
 90
       36
 70
     0
 43
0.0
 10
127.0119170947283
 20
-18.3780245139356
 10
126.9691971817282
 20
-17.85456968413605
 10
126.8424104956278
 20
-17.39726248503562
 10
126.6356320649275
 20
-17.02080114623562
 10
126.3555079186284
 20
-16.73728544493592
 10
126.0110414771283
 20
-16.55582780913594
 10
125.6133041753274
 20
-16.48226043653553
 10
125.1750796174285
 20
-16.51894784293559
 10
124.7104527013274
 20
-16.66471086493592
 10
124.2343569182281
 20
-16.91486455913611
 10
123.7620943784283
 20
-17.2613687799357
 10
123.3088439886284
 20
-17.69308659653602
 10
122.8891735891274
 20
-18.19614224313557
 10
122.5165717319281
 20
-18.75436709733559
 10
122.203014147428
 20
-19.34981935303553
 10
121.9585788342276
 20
-19.96336068473603
 10
121.7911221444284
 20
-20.57527136933564
 10
121.7060262739275
 20
-21.16588409383586
 10
121.7060262739275
 20
-21.71621607923565
 10
121.7911221444284
 20
-22.2085792029356
 10
121.9585788342276
 20
-22.62714850883579
 10
122.203014147428
 20
-22.95847083513554
 10
122.5165717319281
 20
-23.19189720963601
 10
122.8891735891274
 20
-23.31992511663598
 10
123.3088439886284
 20
-23.33843963373572
 10
123.7620943784283
 20
-23.24684568923611
 10
124.2343569182281
 20
-23.04808718783606
 10
124.7104527013274
 20
-22.74855239133589
 10
125.1750796174285
 20
-22.3578685945358
 10
125.6133041753274
 20
-21.88859269613598
 10
126.0110414771283
 20
-21.3558076095361
 10
126.3555079186284
 20
-20.7766374859359
 10
126.6356320649275
 20
-20.16969732963566
 10
126.8424104956278
 20
-19.55449469653554
 10
126.9691971817282
 20
-18.9508027055359
 10
127.0119170947283
 20
-18.3780245139356
  0
LINE
  5
285
330
70
100
AcDbEntity
  8
0
 62
    18
420
        0
370
    25
100
AcDbLine
 10
122.1771317284279
 20
-23.2748428037356
 30
0.0
 11
122.146267525928
 21
-23.25646671453594
 31
0.0
  0
LWPOLYLINE
  5
286
330
70
100
AcDbEntity
  8
0
 62
    18
420
        0
370
    25
100
AcDbPolyline
 90
        6
 70
     0
 43
0.0
 10
121.729197283228
 20
-23.01290126953601
 10
121.7489199096281
 20
-23.02412612113589
 10
121.7743568967283
 20
-23.03779467253612
 10
121.7884086223274
 20
-23.04338197453558
 10
121.7792484099279
 20
-23.03026495973595
 10
121.7438447036281
 20
-22.99881305973574
  0
LWPOLYLINE
  5
287
330
70
100
AcDbEntity
  8
0
 62
    18
420
        0
370
    25
100
AcDbPolyline
 90
        9
 70
     0
 43
0.0
 10
121.7438447036281
 20
-18.89371672283555
 10
121.4750069118283
 20
-19.50799881163589
 10
121.2772529569279
 20
-20.12712209333614
 10
121.1562763273277
 20
-20.73326153323582
 10
121.1155600330284
 20
-21.30896591133579
 10
121.1562763273277
 20
-21.83766025663592
 10
121.2772529569279
 20
-22.30412305303568
 10
121.4750069118283
 20
-22.69492447843602
 10
121.7438447036281
 20
-22.99881305973574
  0
LWPOLYLINE
  5
288
330
70
100
AcDbEntity
  8
0
 62
    18
420
        0
370
    25
100
AcDbPolyline
 90
        6
 70
     0
 43
0.0
 10
121.7438447036281
 20
-18.89371672283555
 10
121.7728552695285
 20
-18.82018902623584
 10
121.7894733939285
 20
-18.72121854613586
 10
121.7817304557281
 20
-18.64880529603595
 10
121.7620347205284
 20
-18.60450595503558
 10
121.729197283228
 20
-18.57282658573569
  0
LINE
  5
289
330
70
100
AcDbEntity
  8
0
 62
    18
420
        0
370
    25
100
AcDbLine
 10
119.9399246667276
 20
-17.50383653503558
 30
0.0
 11
121.729197283228
 21
-18.57282658573569
 31
0.0
  0
LWPOLYLINE
  5
28A
330
70
100
AcDbEntity
  8
0
 62
    18
420
        0
370
    25
100
AcDbPolyline
 90
       10
 70
     0
 43
0.0
 10
123.9992809747278
 20
-15.08939308443558
 10
123.6757683761282
 20
-14.95515148463553
 10
123.2376559385279
 20
-14.90222549313584
 10
122.7589781409277
 20
-14.96892263953599
 10
122.255417055928
 20
-15.15305784333561
 10
121.7434699631283
 20
-15.44859860923569
 10
121.2399088781273
 20
-15.84586265873554
 10
120.7612310805284
 20
-16.33183513353592
 10
120.323118642828
 20
-16.89059497863567
 10
119.9399246667276
 20
-17.50383653503558
  0
SPLINE
  5
28B
330
70
100
AcDbEntity
  8
0
 62
    18
420
        0
370
    25
100
AcDbSpline
210
0.0
220
0.0
230
1.0
 70
     8
 71
     3
 72
     8
 73
     4
 74
     0
 42
0.0000000001
 43
0.0000000001
 40
0.0
 40
0.0
 40
0.0
 40
0.0
 40
1.0
 40
1.0
 40
1.0
 40
1.0
 10
121.7093606041386
 20
-18.8686476070381
 30
0.0
 10
121.7188412732083
 20
-18.87947179469634
 30
0.0
 10
121.730623822025
 20
-18.8880374259679
 30
0.0
 10
121.7438447036538
 20
-18.89371672287854
 30
0.0
  0
LINE
  5
28C
330
70
100
AcDbEntity
  8
0
 62
    18
420
        0
370
    25
100
AcDbLine
 10
121.7319524438283
 20
-22.99005060413612
 30
0.0
 11
121.7438447036281
 21
-22.99881305973574
 31
0.0
  0
SPLINE
  5
28D
330
70
100
AcDbEntity
  8
0
 62
    18
420
        0
370
    25
100
AcDbSpline
210
0.0
220
0.0
230
1.0
 70
     8
 71
     3
 72
     8
 73
     4
 74
     0
 42
0.0000000001
 43
0.0000000001
 40
0.0
 40
0.0
 40
0.0
 40
0.0
 40
1.0
 40
1.0
 40
1.0
 40
1.0
 10
119.9207022224412
 20
-17.57161317334267
 30
0.0
 10
119.9229848039687
 20
-17.59646965569764
 30
0.0
 10
119.9387414291006
 20
-17.61806125308589
 30
0.0
 10
119.9617171846584
 20
-17.6278167412852
 30
0.0
  0
SPLINE
  5
28E
330
70
100
AcDbEntity
  8
0
 62
    18
420
        0
370
    25
100
AcDbSpline
210
0.0
220
0.0
230
1.0
 70
     8
 71
     3
 72
     8
 73
     4
 74
     0
 42
0.0000000001
 43
0.0000000001
 40
0.0
 40
0.0
 40
0.0
 40
0.0
 40
1.0
 40
1.0
 40
1.0
 40
1.0
 10
119.9399246667237
 20
-17.5038365350452
 30
0.0
 10
119.927595515286
 20
-17.52431368247682
 30
0.0
 10
119.9209593475206
 20
-17.54771222295414
 30
0.0
 10
119.9207022223706
 20
-17.57161317332727
 30
0.0
  0
SPLINE
  5
28F
330
70
100
AcDbEntity
  8
0
 62
    18
420
        0
370
    25
100
AcDbSpline
210
0.0
220
0.0
230
1.0
 70
     8
 71
     3
 72
     8
 73
     4
 74
     0
 42
0.0000000001
 43
0.0000000001
 40
0.0
 40
0.0
 40
0.0
 40
0.0
 40
1.0
 40
1.0
 40
1.0
 40
1.0
 10
123.5197230890691
 20
-58.00617878759378
 30
0.0
 10
123.4149347160557
 20
-58.08770991136614
 30
0.0
 10
123.3720774676565
 20
-58.22591832683195
 30
0.0
 10
123.4123527843186
 20
-58.35243246094474
 30
0.0
  0
LINE
  5
290
330
70
100
AcDbEntity
  8
0
 62
    18
420
        0
370
    25
100
AcDbLine
 10
125.110713346728
 20
-57.08771966183606
 30
0.0
 11
123.519723089028
 21
-58.00617878763613
 31
0.0
  0
LWPOLYLINE
  5
291
330
70
100
AcDbEntity
  8
0
 62
    18
420
        0
370
    25
100
AcDbPolyline
 90
        6
 70
     0
 43
0.0
 10
125.3568964325278
 20
-57.22987130723602
 10
125.3223441972276
 20
-57.15135306343555
 10
125.2682256935285
 20
-57.09473838903595
 10
125.2026354829278
 20
-57.06869689393608
 10
125.1375899510279
 20
-57.07536583013612
 10
125.110713346728
 20
-57.08771966183606
  0
SPLINE
  5
292
330
70
100
AcDbEntity
  8
0
 62
    18
420
        0
370
    25
100
AcDbSpline
210
0.0
220
0.0
230
1.0
 70
     8
 71
     3
 72
     8
 73
     4
 74
     0
 42
0.0000000001
 43
0.0000000001
 40
0.0
 40
0.0
 40
0.0
 40
0.0
 40
1.0
 40
1.0
 40
1.0
 40
1.0
 10
125.3568964326048
 20
-60.90430496068333
 30
0.0
 10
125.738731638807
 20
-59.70925304832126
 30
0.0
 10
125.738731638807
 20
-58.42492321955059
 30
0.0
 10
125.3568964326048
 20
-57.22987130718853
 30
0.0
  0
SPLINE
  5
293
330
70
100
AcDbEntity
  8
0
 62
    18
420
        0
370
    25
100
AcDbSpline
210
0.0
220
0.0
230
1.0
 70
     8
 71
     3
 72
     8
 73
     4
 74
     0
 42
0.0000000001
 43
0.0000000001
 40
0.0
 40
0.0
 40
0.0
 40
0.0
 40
1.0
 40
1.0
 40
1.0
 40
1.0
 10
125.1107133466715
 20
-61.17042372122525
 30
0.0
 10
125.2177049205938
 20
-61.10853791370712
 30
0.0
 10
125.3035121015894
 20
-61.01578214791381
 30
0.0
 10
125.356896432515
 20
-60.90430496067756
 30
0.0
  0
LINE
  5
294
330
70
100
AcDbEntity
  8
0
 62
    18
420
        0
370
    25
100
AcDbLine
 10
125.110713346728
 20
-61.17042372123616
 30
0.0
 11
123.519723089028
 21
-62.08888284703559
 31
0.0
  0
LWPOLYLINE
  5
295
330
70
100
AcDbEntity
  8
0
 62
    18
420
        0
370
    25
100
AcDbPolyline
 90
        6
 70
     0
 43
0.0
 10
123.4123527843276
 20
-62.02686611443571
 10
123.400197905628
 20
-62.07842091523602
 10
123.4114038623284
 20
-62.11026270363607
 10
123.4450583887275
 20
-62.11786812063592
 10
123.4944564002284
 20
-62.10216606313582
 10
123.519723089028
 20
-62.08888284703559
  0
SPLINE
  5
296
330
70
100
AcDbEntity
  8
0
 62
    18
420
        0
370
    25
100
AcDbSpline
210
0.0
220
0.0
230
1.0
 70
     8
 71
     3
 72
     8
 73
     4
 74
     0
 42
0.0000000001
 43
0.0000000001
 40
0.0
 40
0.0
 40
0.0
 40
0.0
 40
1.0
 40
1.0
 40
1.0
 40
1.0
 10
123.4123527843058
 20
-62.02686611448319
 30
0.0
 10
123.7941879905079
 20
-60.83181420212112
 30
0.0
 10
123.7941879905079
 20
-59.54748437335045
 30
0.0
 10
123.4123527843058
 20
-58.35243246098839
 30
0.0
  0
LINE
  5
297
330
70
100
AcDbEntity
  8
0
 62
    18
420
        0
370
    25
100
AcDbLine
 10
123.4123527843276
 20
-58.35243246093576
 30
0.0
 11
91.87669463092843
 21
-40.14728451653559
 31
0.0
  0
LINE
  5
298
330
70
100
AcDbEntity
  8
0
 62
    18
420
        0
370
    25
100
AcDbLine
 10
91.87669463092843
 20
-43.82171817003553
 30
0.0
 11
123.4123527843276
 21
-62.02686611443571
 31
0.0
  0
LINE
  5
299
330
70
100
AcDbEntity
  8
0
 62
    18
420
        0
370
    25
100
AcDbLine
 10
91.87669463092843
 20
-40.14728451653559
 30
0.0
 11
91.87669463092843
 21
-43.82171817003553
 31
0.0
  0
SPLINE
  5
29A
330
70
100
AcDbEntity
  8
0
 62
    18
420
        0
370
    25
100
AcDbSpline
210
0.0
220
0.0
230
1.0
 70
     8
 71
     3
 72
     8
 73
     4
 74
     0
 42
0.0000000001
 43
0.0000000001
 40
0.0
 40
0.0
 40
0.0
 40
0.0
 40
1.0
 40
1.0
 40
1.0
 40
1.0
 10
92.05347132628318
 20
-39.84109829952146
 30
0.0
 10
91.94829623087569
 20
-39.90837474933761
 30
0.0
 10
91.88237019821752
 20
-40.02256198710806
 30
0.0
 10
91.87669463098618
 20
-40.14728451647013
 30
0.0
  0
LINE
  5
29B
330
70
100
AcDbEntity
  8
0
 62
    18
420
        0
370
    25
100
AcDbLine
 10
92.05347132622799
 20
-39.84109829953558
 30
0.0
 11
123.519723089028
 21
-58.00617878763613
 31
0.0
  0
LINE
  5
29C
330
70
100
AcDbEntity
  8
0
 62
    18
420
        0
370
    25
100
AcDbLine
 10
125.110713346728
 20
-57.08771966183606
 30
0.0
 11
93.64446158392793
 21
-38.92263917373614
 31
0.0
  0
LINE
  5
29D
330
70
100
AcDbEntity
  8
0
 62
    18
420
        0
370
    25
100
AcDbLine
 10
93.64446158392793
 20
-38.92263917373614
 30
0.0
 11
92.05347132622799
 21
-39.84109829953558
 31
0.0
  0
SPLINE
  5
29E
330
70
100
AcDbEntity
  8
0
 62
    18
420
        0
370
    25
100
AcDbSpline
210
0.0
220
0.0
230
1.0
 70
     8
 71
     3
 72
     8
 73
     4
 74
     0
 42
0.0000000001
 43
0.0000000001
 40
0.0
 40
0.0
 40
0.0
 40
0.0
 40
1.0
 40
1.0
 40
1.0
 40
1.0
 10
90.2172846958482
 20
-35.47651260338639
 30
0.0
 10
89.51308225650727
 20
-36.43877662848491
 30
0.0
 10
89.51618896884546
 20
-37.74710061867313
 30
0.0
 10
90.22495337560258
 20
-38.70600944921232
 30
0.0
  0
LWPOLYLINE
  5
29F
330
70
100
AcDbEntity
  8
0
 62
    18
420
        0
370
    25
100
AcDbPolyline
 90
       13
 70
     0
 43
0.0
 10
92.05347132622799
 20
-33.92213948883566
 10
91.42818377272783
 20
-34.33374782313567
 10
90.90131131242824
 20
-34.78895093793563
 10
90.48186887912789
 20
-35.27996018153591
 10
90.17703324922763
 20
-35.79837424983601
 10
89.99202024492841
 20
-36.33532293433551
 10
89.92999548982766
 20
-36.88161889423567
 10
89.99202024492841
 20
-37.42791485403572
 10
90.17703324922763
 20
-37.96486353853587
 10
90.48186887912789
 20
-38.48327760683596
 10
90.90131131242824
 20
-38.97428685053571
 10
91.42818377272783
 20
-39.42948996523556
 10
92.05347132622799
 20
-39.84109829953558
  0
SPLINE
  5
2A0
330
70
100
AcDbEntity
  8
0
 62
    18
420
        0
370
    25
100
AcDbSpline
210
0.0
220
0.0
230
1.0
 70
     8
 71
     3
 72
     8
 73
     4
 74
     0
 42
0.0000000001
 43
0.0000000001
 40
0.0
 40
0.0
 40
0.0
 40
0.0
 40
1.0
 40
1.0
 40
1.0
 40
1.0
 10
89.67999548982108
 20
-40.76018775063306
 30
0.0
 10
89.69004839533434
 20
-41.34751572518052
 30
0.0
 10
89.88282842537099
 20
-41.91712224750699
 30
0.0
 10
90.23153959020428
 20
-42.38983329467642
 30
0.0
  0
LWPOLYLINE
  5
2A1
330
70
100
AcDbEntity
  8
0
 62
    18
420
        0
370
    25
100
AcDbPolyline
 90
       11
 70
     0
 43
0.0
 10
93.64446158392793
 20
-38.92263917373614
 10
93.13491051802833
 20
-38.57822491163605
 10
92.7249628689281
 20
-38.19203457873578
 10
92.42471290832767
 20
-37.77357746263605
 10
92.24155378682793
 20
-37.33315736623583
 10
92.1799954898279
 20
-36.88161889423567
 10
92.24155378682793
 20
-36.43008042213605
 10
92.42471290832767
 20
-35.98966032583593
 10
92.7249628689281
 20
-35.57120320973556
 10
93.13491051802833
 20
-35.18501287673583
 10
93.64446158392793
 20
-34.84059861463574
  0
LINE
  5
2A2
330
70
100
AcDbEntity
  8
0
 62
    18
420
        0
370
    25
100
AcDbLine
 10
92.05347132622799
 20
-33.92213948883566
 30
0.0
 11
93.64446158392793
 21
-34.84059861463574
 31
0.0
  0
SPLINE
  5
2A3
330
70
100
AcDbEntity
  8
0
 62
    18
420
        0
370
    25
100
AcDbSpline
210
0.0
220
0.0
230
1.0
 70
     8
 71
     3
 72
     8
 73
     4
 74
     0
 42
0.0000000001
 43
0.0000000001
 40
0.0
 40
0.0
 40
0.0
 40
0.0
 40
1.0
 40
1.0
 40
1.0
 40
1.0
 10
93.82123827916974
 20
-35.14678483157031
 30
0.0
 10
93.8155627119384
 20
-35.02206230220824
 30
0.0
 10
93.74963667928021
 20
-34.90787506443777
 30
0.0
 10
93.64446158387274
 20
-34.84059861462098
 30
0.0
  0
LINE
  5
2A4
330
70
100
AcDbEntity
  8
0
 62
    18
420
        0
370
    25
100
AcDbLine
 10
92.42999548982806
 20
-37.0857540971357
 30
0.0
 11
92.43820758222767
 21
-37.246927449736
 31
0.0
  0
LINE
  5
2A5
330
70
100
AcDbEntity
  8
0
 62
    18
420
        0
370
    25
100
AcDbLine
 10
93.82123827922749
 20
-35.14678483163577
 30
0.0
 11
93.82123827922749
 21
-38.8212184850356
 31
0.0
  0
SPLINE
  5
2A6
330
70
100
AcDbEntity
  8
0
 62
    18
420
        0
370
    25
100
AcDbSpline
210
0.0
220
0.0
230
1.0
 70
     8
 71
     3
 72
     8
 73
     4
 74
     0
 42
0.0000000001
 43
0.0000000001
 40
0.0
 40
0.0
 40
0.0
 40
0.0
 40
1.0
 40
1.0
 40
1.0
 40
1.0
 10
153.9253146800693
 20
-0.4494400791703993
 30
0.0
 10
153.9196391128392
 20
-0.324717549808331
 30
0.0
 10
153.853713080181
 20
-0.2105303120378639
 30
0.0
 10
153.7485379847735
 20
-0.1432538622210717
 30
0.0
  0
LINE
  5
2A7
330
70
100
AcDbEntity
  8
0
 62
    18
420
        0
370
    25
100
AcDbLine
 10
153.9253146800282
 20
-0.4494400791357476
 30
0.0
 11
153.9253146800282
 21
-4.123873732635683
 31
0.0
  0
LINE
  5
2A8
330
70
100
AcDbEntity
  8
0
 62
    18
420
        0
370
    25
100
AcDbLine
 10
153.7485379847273
 20
-0.1432538621357257
 30
0.0
 11
152.1575477271275
 21
0.7752052636643505
 31
0.0
  0
LWPOLYLINE
  5
2A9
330
70
100
AcDbEntity
  8
0
 62
    18
420
        0
370
    25
100
AcDbPolyline
 90
        6
 70
     0
 43
0.0
 10
192.1784872547274
 20
-22.32902167703586
 10
192.1663323760278
 20
-22.38057647783554
 10
192.1775383327282
 20
-22.41241826623558
 10
192.2111928591274
 20
-22.42002368323607
 10
192.2605908705281
 20
-22.40432162573597
 10
192.2858575594278
 20
-22.39103840963575
  0
SPLINE
  5
2AA
330
70
100
AcDbEntity
  8
0
 62
    18
420
        0
370
    25
100
AcDbSpline
210
0.0
220
0.0
230
1.0
 70
     8
 71
     3
 72
     8
 73
     4
 74
     0
 42
0.0000000001
 43
0.0000000001
 40
0.0
 40
0.0
 40
0.0
 40
0.0
 40
1.0
 40
1.0
 40
1.0
 40
1.0
 10
192.1784872547043
 20
-22.3290216770827
 30
0.0
 10
192.5603224609064
 20
-21.13396976472127
 30
0.0
 10
192.5603224609064
 20
-19.84963993595061
 30
0.0
 10
192.1784872547043
 20
-18.65458802358854
 30
0.0
  0
SPLINE
  5
2AB
330
70
100
AcDbEntity
  8
0
 62
    18
420
        0
370
    25
100
AcDbSpline
210
0.0
220
0.0
230
1.0
 70
     8
 71
     3
 72
     8
 73
     4
 74
     0
 42
0.0000000001
 43
0.0000000001
 40
0.0
 40
0.0
 40
0.0
 40
0.0
 40
1.0
 40
1.0
 40
1.0
 40
1.0
 10
192.2858575594689
 20
-18.30833435019394
 30
0.0
 10
192.1810691864555
 20
-18.38986547396565
 30
0.0
 10
192.1382119380563
 20
-18.52807388943211
 30
0.0
 10
192.1784872547184
 20
-18.6545880235449
 30
0.0
  0
LINE
  5
2AC
330
70
100
AcDbEntity
  8
0
 62
    18
420
        0
370
    25
100
AcDbLine
 10
193.8768478171278
 20
-17.38987522443557
 30
0.0
 11
192.2858575594278
 21
-18.30833435023565
 31
0.0
  0
LWPOLYLINE
  5
2AD
330
70
100
AcDbEntity
  8
0
 62
    18
420
        0
370
    25
100
AcDbPolyline
 90
        6
 70
     0
 43
0.0
 10
194.1230309029276
 20
-17.53202686983553
 10
194.0884786676274
 20
-17.4535086261358
 10
194.0343601639283
 20
-17.39689395163611
 10
193.9687699533276
 20
-17.37085245653559
 10
193.9037244214277
 20
-17.37752139273563
 10
193.8768478171278
 20
-17.38987522443557
  0
SPLINE
  5
2AE
330
70
100
AcDbEntity
  8
0
 62
    18
420
        0
370
    25
100
AcDbSpline
210
0.0
220
0.0
230
1.0
 70
     8
 71
     3
 72
     8
 73
     4
 74
     0
 42
0.0000000001
 43
0.0000000001
 40
0.0
 40
0.0
 40
0.0
 40
0.0
 40
1.0
 40
1.0
 40
1.0
 40
1.0
 10
194.1230309029045
 20
-21.20646052328285
 30
0.0
 10
194.5048661091067
 20
-20.01140861092078
 30
0.0
 10
194.5048661091067
 20
-18.72707878215075
 30
0.0
 10
194.1230309029045
 20
-17.53202686978869
 30
0.0
  0
SPLINE
  5
2AF
330
70
100
AcDbEntity
  8
0
 62
    18
420
        0
370
    25
100
AcDbSpline
210
0.0
220
0.0
230
1.0
 70
     8
 71
     3
 72
     8
 73
     4
 74
     0
 42
0.0000000001
 43
0.0000000001
 40
0.0
 40
0.0
 40
0.0
 40
0.0
 40
1.0
 40
1.0
 40
1.0
 40
1.0
 10
193.8768478170713
 20
-21.4725792838254
 30
0.0
 10
193.9838393909936
 20
-21.41069347630664
 30
0.0
 10
194.0696465719892
 20
-21.31793771051332
 30
0.0
 10
194.1230309029148
 20
-21.20646052327771
 30
0.0
  0
LINE
  5
2B0
330
70
100
AcDbEntity
  8
0
 62
    18
420
        0
370
    25
100
AcDbLine
 10
193.8768478171278
 20
-21.47257928383567
 30
0.0
 11
192.2858575594278
 21
-22.39103840963575
 31
0.0
  0
LINE
  5
2B1
330
70
100
AcDbEntity
  8
0
 62
    18
420
        0
370
    25
100
AcDbLine
 10
192.1784872547274
 20
-18.65458802363603
 30
0.0
 11
160.6428291013282
 21
-0.4494400791357476
 31
0.0
  0
LINE
  5
2B2
330
70
100
AcDbEntity
  8
0
 62
    18
420
        0
370
    25
100
AcDbLine
 10
160.6428291013282
 20
-4.123873732635683
 30
0.0
 11
192.1784872547274
 21
-22.32902167703586
 31
0.0
  0
LINE
  5
2B3
330
70
100
AcDbEntity
  8
0
 62
    18
420
        0
370
    25
100
AcDbLine
 10
160.6428291013282
 20
-0.4494400791357476
 30
0.0
 11
160.6428291013282
 21
-4.123873732635683
 31
0.0
  0
SPLINE
  5
2B4
330
70
100
AcDbEntity
  8
0
 62
    18
420
        0
370
    25
100
AcDbSpline
210
0.0
220
0.0
230
1.0
 70
     8
 71
     3
 72
     8
 73
     4
 74
     0
 42
0.0000000001
 43
0.0000000001
 40
0.0
 40
0.0
 40
0.0
 40
0.0
 40
1.0
 40
1.0
 40
1.0
 40
1.0
 10
160.8196057966829
 20
-0.1432538622210717
 30
0.0
 10
160.7144307012755
 20
-0.2105303120378639
 30
0.0
 10
160.6485046686173
 20
-0.324717549808331
 30
0.0
 10
160.642829101386
 20
-0.4494400791703993
 30
0.0
  0
LINE
  5
2B5
330
70
100
AcDbEntity
  8
0
 62
    18
420
        0
370
    25
100
AcDbLine
 10
160.8196057966278
 20
-0.1432538621357257
 30
0.0
 11
192.2858575594278
 21
-18.30833435023565
 31
0.0
  0
LINE
  5
2B6
330
70
100
AcDbEntity
  8
0
 62
    18
420
        0
370
    25
100
AcDbLine
 10
162.4105960543277
 20
0.7752052636643505
 30
0.0
 11
160.8196057966278
 21
-0.1432538621357257
 31
0.0
  0
LINE
  5
2B7
330
70
100
AcDbEntity
  8
0
 62
    18
420
        0
370
    25
100
AcDbLine
 10
193.8768478171278
 20
-17.38987522443557
 30
0.0
 11
162.4105960543277
 21
0.7752052636643505
 31
0.0
  0
SPLINE
  5
2B8
330
70
100
AcDbEntity
  8
0
 62
    18
420
        0
370
    25
100
AcDbSpline
210
0.0
220
0.0
230
1.0
 70
     8
 71
     3
 72
     8
 73
     4
 74
     0
 42
0.0000000001
 43
0.0000000001
 40
0.0
 40
0.0
 40
0.0
 40
0.0
 40
1.0
 40
1.0
 40
1.0
 40
1.0
 10
160.819605796656
 20
-0.1432538621857782
 30
0.0
 10
158.6048805776377
 20
1.015017527033963
 30
0.0
 10
155.9632632038188
 20
1.015017527033963
 30
0.0
 10
153.7485379847992
 20
-0.1432538621857782
 30
0.0
  0
SPLINE
  5
2B9
330
70
100
AcDbEntity
  8
0
 62
    18
420
        0
370
    25
100
AcDbSpline
210
0.0
220
0.0
230
1.0
 70
     8
 71
     3
 72
     8
 73
     4
 74
     0
 42
0.0000000001
 43
0.0000000001
 40
0.0
 40
0.0
 40
0.0
 40
0.0
 40
1.0
 40
1.0
 40
1.0
 40
1.0
 10
162.4105960543302
 20
0.7752052635918386
 30
0.0
 10
159.1958622518949
 20
2.440876552168019
 30
0.0
 10
155.3722815295616
 20
2.440876552168019
 30
0.0
 10
152.1575477271249
 20
0.7752052635918386
 30
0.0
  0
SPLINE
  5
2BA
330
70
100
AcDbEntity
  8
0
 62
    18
420
        0
370
    25
100
AcDbSpline
210
0.0
220
0.0
230
1.0
 70
     8
 71
     3
 72
     8
 73
     4
 74
     0
 42
0.0000000001
 43
0.0000000001
 40
0.0
 40
0.0
 40
0.0
 40
0.0
 40
1.0
 40
1.0
 40
1.0
 40
1.0
 10
160.642829101368
 20
-0.4494400791158549
 30
0.0
 10
158.5379305632204
 20
0.6472095953385652
 30
0.0
 10
156.0302132182361
 20
0.6472095953385652
 30
0.0
 10
153.9253146800885
 20
-0.4494400791158549
 30
0.0
  0
SPLINE
  5
2BB
330
70
100
AcDbEntity
  8
0
 62
    18
420
        0
370
    25
100
AcDbSpline
210
0.0
220
0.0
230
1.0
 70
     8
 71
     3
 72
     8
 73
     4
 74
     0
 42
0.0000000001
 43
0.0000000001
 40
0.0
 40
0.0
 40
0.0
 40
0.0
 40
1.0
 40
1.0
 40
1.0
 40
1.0
 10
160.642829101368
 20
-4.12387373261579
 30
0.0
 10
158.5379305632204
 20
-3.027224058161371
 30
0.0
 10
156.0302132182361
 20
-3.027224058161371
 30
0.0
 10
153.9253146800885
 20
-4.12387373261579
 30
0.0
  0
SPLINE
  5
2BC
330
70
100
AcDbEntity
  8
0
 62
    18
420
        0
370
    25
100
AcDbSpline
210
0.0
220
0.0
230
1.0
 70
     8
 71
     3
 72
     8
 73
     4
 74
     0
 42
0.0000000001
 43
0.0000000001
 40
0.0
 40
0.0
 40
0.0
 40
0.0
 40
1.0
 40
1.0
 40
1.0
 40
1.0
 10
112.5529605550711
 20
-13.50686165713625
 30
0.0
 10
112.769381310236
 20
-13.61837788673454
 30
0.0
 10
113.0256818277327
 20
-13.62146507829214
 30
0.0
 10
113.2447258737305
 20
-13.51519411027628
 30
0.0
  0
SPLINE
  5
2BD
330
70
100
AcDbEntity
  8
0
 62
    18
420
        0
370
    25
100
AcDbSpline
210
0.0
220
0.0
230
1.0
 70
     8
 71
     3
 72
     8
 73
     4
 74
     0
 42
0.0000000001
 43
0.0000000001
 40
0.0
 40
0.0
 40
0.0
 40
0.0
 40
1.0
 40
1.0
 40
1.0
 40
1.0
 10
112.906513945846
 20
-12.89448922325235
 30
0.0
 10
112.6961637549027
 20
-13.02904212274476
 30
0.0
 10
112.564311689503
 20
-13.25741659831072
 30
0.0
 10
112.5529605551135
 20
-13.50686165707079
 30
0.0
  0
SPLINE
  5
2BE
330
70
100
AcDbEntity
  8
0
 62
    18
420
        0
370
    25
100
AcDbSpline
210
0.0
220
0.0
230
1.0
 70
     8
 71
     3
 72
     8
 73
     4
 74
     0
 42
0.0000000001
 43
0.0000000001
 40
0.0
 40
0.0
 40
0.0
 40
0.0
 40
1.0
 40
1.0
 40
1.0
 40
1.0
 10
113.244725873778
 20
-13.51519411023841
 30
0.0
 10
113.2346963398184
 20
-13.26694202477961
 30
0.0
 10
113.1096796341569
 20
-13.03750458112949
 30
0.0
 10
112.9065139458512
 20
-12.8944892232793
 30
0.0
  0
LWPOLYLINE
  5
2BF
330
70
100
AcDbEntity
  8
0
 62
    18
420
        0
370
    25
100
AcDbPolyline
 90
        6
 70
     0
 43
0.0
 10
121.7469159644283
 20
-8.589507362335721
 10
121.0397923483276
 20
-8.997724261036115
 10
118.2109889003277
 20
-10.63082424693562
 10
115.7353953093283
 20
-12.06005697803562
 10
113.2596135187285
 20
-13.48940795353594
 10
113.2521747665278
 20
-13.49370258233607
  0
SPLINE
  5
2C0
330
70
100
AcDbEntity
  8
0
 62
    18
420
        0
370
    25
100
AcDbSpline
210
0.0
220
0.0
230
1.0
 70
     8
 71
     3
 72
     8
 73
     4
 74
     0
 42
0.0000000001
 43
0.0000000001
 40
0.0
 40
0.0
 40
0.0
 40
0.0
 40
1.0
 40
1.0
 40
1.0
 40
1.0
 10
113.2521747665458
 20
-13.49370258238548
 30
0.0
 10
113.2372668599327
 20
-13.25081994637084
 30
0.0
 10
113.1093031759161
 20
-13.0289910772732
 30
0.0
 10
112.9065139458589
 20
-12.89448922327032
 30
0.0
  0
LWPOLYLINE
  5
2C1
330
70
100
AcDbEntity
  8
0
 62
    18
420
        0
370
    25
100
AcDbPolyline
 90
        4
 70
     0
 43
0.0
 10
112.9065139458281
 20
-12.89448922323567
 10
116.9345178059283
 20
-10.57072251493565
 10
119.1642978044277
 20
-9.284040384436012
 10
121.3937790314273
 20
-7.997185724536101
  0
SPLINE
  5
2C2
330
70
100
AcDbEntity
  8
0
 62
    18
420
        0
370
    25
100
AcDbSpline
210
0.0
220
0.0
230
1.0
 70
     8
 71
     3
 72
     8
 73
     4
 74
     0
 42
0.0000000001
 43
0.0000000001
 40
0.0
 40
0.0
 40
0.0
 40
0.0
 40
1.0
 40
1.0
 40
1.0
 40
1.0
 10
121.7469159644244
 20
-8.589507362295293
 30
0.0
 10
121.7285925752416
 20
-8.347616800402095
 30
0.0
 10
121.5978565155528
 20
-8.12833133421971
 30
0.0
 10
121.3937790313349
 20
-7.997185724458455
 30
0.0
  0
LWPOLYLINE
  5
2C3
330
70
100
AcDbEntity
  8
0
 62
    18
420
        0
370
    25
100
AcDbPolyline
 90
        5
 70
     0
 43
0.0
 10
113.2602396787279
 20
-13.50696112193567
 10
113.2602175853278
 20
-13.50697284773559
 10
113.2524719048278
 20
-13.51108359003591
 10
113.2485989331284
 20
-13.51313887783578
 10
113.2447258737279
 20
-13.51519411023585
  0
SPLINE
  5
2C4
330
70
100
AcDbEntity
  8
0
 62
    18
420
        0
370
    25
100
AcDbSpline
210
0.0
220
0.0
230
1.0
 70
     8
 71
     3
 72
     8
 73
     4
 74
     0
 42
0.0000000001
 43
0.0000000001
 40
0.0
 40
0.0
 40
0.0
 40
0.0
 40
1.0
 40
1.0
 40
1.0
 40
1.0
 10
113.2521747664957
 20
-13.49370258241179
 30
0.0
 10
113.2522825538898
 20
-13.49925101658943
 30
0.0
 10
113.2553622492142
 20
-13.50431396843695
 30
0.0
 10
113.2602396786997
 20
-13.50696112192027
 30
0.0
  0
SPLINE
  5
2C5
330
70
100
AcDbEntity
  8
0
 62
    18
420
        0
370
    25
100
AcDbSpline
210
0.0
220
0.0
230
1.0
 70
     8
 71
     3
 72
     8
 73
     4
 74
     0
 42
0.0000000001
 43
0.0000000001
 40
0.0
 40
0.0
 40
0.0
 40
0.0
 40
1.0
 40
1.0
 40
1.0
 40
1.0
 10
112.5529605552443
 20
-33.10384113781692
 30
0.0
 10
112.7664709380453
 20
-33.22377639295167
 30
0.0
 10
113.0255107579096
 20
-33.23022712909585
 30
0.0
 10
113.2447261653955
 20
-33.12106782299135
 30
0.0
  0
LWPOLYLINE
  5
2C6
330
70
100
AcDbEntity
  8
0
 62
    18
420
        0
370
    25
100
AcDbPolyline
 90
        4
 70
     0
 43
0.0
 10
118.2645103743275
 20
-24.79498314873575
 10
117.8631792255276
 20
-25.47165529873552
 10
116.7600029193278
 20
-27.31900431123607
 10
113.2602396787279
 20
-33.1042650740356
  0
SPLINE
  5
2C7
330
70
100
AcDbEntity
  8
0
 62
    18
420
        0
370
    25
100
AcDbSpline
210
0.0
220
0.0
230
1.0
 70
     8
 71
     3
 72
     8
 73
     4
 74
     0
 42
0.0000000001
 43
0.0000000001
 40
0.0
 40
0.0
 40
0.0
 40
0.0
 40
1.0
 40
1.0
 40
1.0
 40
1.0
 10
113.2447261653981
 20
-33.12106782304012
 30
0.0
 10
113.2512044562184
 20
-33.11683264429926
 30
0.0
 10
113.2565340324119
 20
-33.11106015876965
 30
0.0
 10
113.260239678701
 20
-33.10426507403881
 30
0.0
  0
LWPOLYLINE
  5
2C8
330
70
100
AcDbEntity
  8
0
 62
    18
420
        0
370
    25
100
AcDbPolyline
 90
        8
 70
     0
 43
0.0
 10
113.2602400863275
 20
-13.50696135733591
 10
114.561317604228
 20
-15.11372457123568
 10
115.9735570649283
 20
-16.57621103553575
 10
116.7596061605284
 20
-17.23846717063558
 10
117.6062552896277
 20
-17.80959243113608
 10
118.0888325366284
 20
-18.06127348243575
 10
118.604300789828
 20
-18.25408831763601
 10
118.9321011057274
 20
-18.32090468713595
  0
SPLINE
  5
2C9
330
70
100
AcDbEntity
  8
0
 62
    18
420
        0
370
    25
100
AcDbSpline
210
0.0
220
0.0
230
1.0
 70
     8
 71
     3
 72
     8
 73
     4
 74
     0
 42
0.0000000001
 43
0.0000000001
 40
0.0
 40
0.0
 40
0.0
 40
0.0
 40
1.0
 40
1.0
 40
1.0
 40
1.0
 10
111.3221311135378
 20
-11.97984448300673
 30
0.0
 10
111.1117809227228
 20
-12.11439738263967
 30
0.0
 10
110.9799288574065
 20
-12.34277185818061
 30
0.0
 10
110.9685777229438
 20
-12.59221691690475
 30
0.0
  0
LINE
  5
2CA
330
70
100
AcDbEntity
  8
0
 62
    18
420
        0
370
    25
100
AcDbLine
 10
111.3221311136276
 20
-11.97984448293614
 30
0.0
 11
112.9065139458281
 21
-12.89448922323567
 31
0.0
  0
LINE
  5
2CB
330
70
100
AcDbEntity
  8
0
 62
    18
420
        0
370
    25
100
AcDbLine
 10
112.5529605551276
 20
-13.5068616571356
 30
0.0
 11
110.9685777230285
 21
-12.59221691683608
 31
0.0
  0
LWPOLYLINE
  5
2CC
330
70
100
AcDbEntity
  8
0
 62
    18
420
        0
370
    25
100
AcDbPolyline
 90
        8
 70
     0
 43
0.0
 10
124.9106163618284
 20
-14.86958129323588
 10
125.2275424275276
 20
-14.43115978853614
 10
125.7192979137284
 20
-13.66003491923591
 10
126.1815983089279
 20
-12.86010661363603
 10
126.9790367498276
 20
-11.34434017213578
 10
127.7197170709275
 20
-9.795954763835695
 10
129.0287060928277
 20
-6.76962210853605
 10
130.2310830280275
 20
-3.70990226343582
  0
LWPOLYLINE
  5
2CD
330
70
100
AcDbEntity
  8
0
 62
    18
420
        0
370
    25
100
AcDbPolyline
 90
        3
 70
     0
 43
0.0
 10
121.7477417238282
 20
-8.609632209936002
 10
121.747279500628
 20
-8.598362400635764
 10
121.7469159644283
 20
-8.589507362335721
  0
LWPOLYLINE
  5
2CE
330
70
100
AcDbEntity
  8
0
 62
    18
420
        0
370
    25
100
AcDbPolyline
 90
        5
 70
     0
 43
0.0
 10
121.7477417238282
 20
-8.609632209936002
 10
119.5378560749273
 20
-9.885167729135938
 10
117.3276614299278
 20
-11.16052481223583
 10
115.2940112042277
 20
-12.33377799693579
 10
113.2602396787279
 20
-13.50696112193567
  0
LINE
  5
2CF
330
70
100
AcDbEntity
  8
0
 62
    18
420
        0
370
    25
100
AcDbLine
 10
110.9685777230285
 20
-12.59221691683608
 30
0.0
 11
110.9685777230285
 21
-22.91814888093594
 31
0.0
  0
LINE
  5
2D0
330
70
100
AcDbEntity
  8
0
 62
    18
420
        0
370
    25
100
AcDbLine
 10
110.9685777230285
 20
-29.00683541653551
 30
0.0
 11
110.9685777230285
 21
-32.18919640213571
 31
0.0
  0
LINE
  5
2D1
330
70
100
AcDbEntity
  8
0
 62
    18
420
        0
370
    25
100
AcDbLine
 10
110.9685777230285
 20
-32.18919640213571
 30
0.0
 11
112.5529605552276
 21
-33.10384114243588
 31
0.0
  0
LINE
  5
2D2
330
70
100
AcDbEntity
  8
0
 62
    18
420
        0
370
    25
100
AcDbLine
 10
128.2926938620277
 20
-2.182947141135618
 30
0.0
 11
111.3221311136276
 21
-11.97984448293614
 31
0.0
  0
LINE
  5
2D3
330
70
100
AcDbEntity
  8
0
 62
    18
420
        0
370
    25
100
AcDbLine
 10
129.8770766943283
 20
-3.097591881435782
 30
0.0
 11
128.2926938620277
 21
-2.182947141135618
 31
0.0
  0
LWPOLYLINE
  5
2D4
330
70
100
AcDbEntity
  8
0
 62
    18
420
        0
370
    25
100
AcDbPolyline
 90
        4
 70
     0
 43
0.0
 10
121.3937790314273
 20
-7.997185724536101
 10
125.4199236784274
 20
-5.672329843935925
 10
127.6485746820285
 20
-4.385003839336153
 10
129.8770766943283
 20
-3.097591881435782
  0
LWPOLYLINE
  5
2D5
330
70
100
AcDbEntity
  8
0
 62
    18
420
        0
370
    25
100
AcDbPolyline
 90
        5
 70
     0
 43
0.0
 10
130.230445286228
 20
-3.692355310335979
 10
129.5235918830282
 20
-4.100381403935799
 10
126.6960616901273
 20
-5.732552013535828
 10
124.2216588772281
 20
-7.160904622835518
 10
121.7469159644283
 20
-8.589507362335721
  0
SPLINE
  5
2D6
330
70
100
AcDbEntity
  8
0
 62
    18
420
        0
370
    25
100
AcDbSpline
210
0.0
220
0.0
230
1.0
 70
     8
 71
     3
 72
     8
 73
     4
 74
     0
 42
0.0000000001
 43
0.0000000001
 40
0.0
 40
0.0
 40
0.0
 40
0.0
 40
1.0
 40
1.0
 40
1.0
 40
1.0
 10
130.2304452862178
 20
-3.692355310271167
 30
0.0
 10
130.2129427863844
 20
-3.449498908109386
 30
0.0
 10
130.0819954036334
 20
-3.229098125043308
 30
0.0
 10
129.8770766942833
 20
-3.097591881352361
 30
0.0
  0
LWPOLYLINE
  5
2D7
330
70
100
AcDbEntity
  8
0
 62
    18
420
        0
370
    25
100
AcDbPolyline
 90
        5
 70
     0
 43
0.0
 10
130.2310856169277
 20
-3.709900298036152
 10
130.231082500728
 20
-3.709876584535841
 10
130.2307640759285
 20
-3.701116044535563
 10
130.230604726628
 20
-3.696735701735951
 10
130.230445286228
 20
-3.692355310335979
  0
LWPOLYLINE
  5
2D8
330
70
100
AcDbEntity
  8
0
 62
    18
420
        0
370
    25
100
AcDbPolyline
 90
        5
 70
     0
 43
0.0
 10
130.2310856169277
 20
-3.709900298036152
 10
128.0222062390285
 20
-4.98601909893587
 10
125.8131786848282
 20
-6.262049866635678
 10
123.7805936811275
 20
-7.435918052535935
 10
121.7477417238282
 20
-8.609632209936002
  0
SPLINE
  5
2D9
330
70
100
AcDbEntity
  8
0
 62
    18
420
        0
370
    25
100
AcDbSpline
210
0.0
220
0.0
230
1.0
 70
     8
 71
     3
 72
     8
 73
     4
 74
     0
 42
0.0000000001
 43
0.0000000001
 40
0.0
 40
0.0
 40
0.0
 40
0.0
 40
1.0
 40
1.0
 40
1.0
 40
1.0
 10
130.2453272298892
 20
-3.692365845398515
 30
0.0
 10
130.2392720280966
 20
-3.697014368288253
 30
0.0
 10
130.2343937402604
 20
-3.703020577546956
 30
0.0
 10
130.2310856170098
 20
-3.709900298062462
 30
0.0
  0
LWPOLYLINE
  5
2DA
330
70
100
AcDbEntity
  8
0
 62
    18
420
        0
370
    25
100
AcDbPolyline
 90
        5
 70
     0
 43
0.0
 10
130.2310834085281
 20
-23.3072055251356
 10
130.2311037034281
 20
-23.30719276103583
 10
130.2382185077282
 20
-23.30271782173597
 10
130.2417757668281
 20
-23.30048027673581
 10
130.2453329304278
 20
-23.29824268163564
  0
LWPOLYLINE
  5
2DB
330
70
100
AcDbEntity
  8
0
 62
    18
420
        0
370
    25
100
AcDbPolyline
 90
        3
 70
     0
 43
0.0
 10
126.2646830854284
 20
-21.01668105693569
 10
126.970788712628
 20
-21.42444314203587
 10
130.2310834085281
 20
-23.3072055251356
  0
SPLINE
  5
2DC
330
70
100
AcDbEntity
  8
0
 62
    18
420
        0
370
    25
100
AcDbSpline
210
0.0
220
0.0
230
1.0
 70
     8
 71
     3
 72
     8
 73
     4
 74
     0
 42
0.0000000001
 43
0.0000000001
 40
0.0
 40
0.0
 40
0.0
 40
0.0
 40
1.0
 40
1.0
 40
1.0
 40
1.0
 10
130.2378786285542
 20
-23.31973108633742
 30
0.0
 10
130.2383089904499
 20
-23.31457545375133
 30
0.0
 10
130.2356399849851
 20
-23.3096557026099
 30
0.0
 10
130.2310834085422
 20
-23.30720552509581
 30
0.0
  0
LWPOLYLINE
  5
2DD
330
70
100
AcDbEntity
  8
0
 62
    18
420
        0
370
    25
100
AcDbPolyline
 90
        7
 70
     0
 43
0.0
 10
113.2596135249273
 20
-33.12108148543576
 10
113.9669731903277
 20
-32.71334760413584
 10
116.7962940744283
 20
-31.08220747123572
 10
122.4538730311278
 20
-27.81795278293599
 10
124.608324650428
 20
-26.57360293573569
 10
130.2304452876282
 20
-23.32402883663569
 10
130.2378786285285
 20
-23.31973108633614
  0
LWPOLYLINE
  5
2DE
330
70
100
AcDbEntity
  8
0
 62
    18
420
        0
370
    25
100
AcDbPolyline
 90
        5
 70
     0
 43
0.0
 10
113.2602396787279
 20
-33.1042650740356
 10
113.2602387880279
 20
-33.10428902423558
 10
113.2599263403275
 20
-33.11268536903564
 10
113.2597699785275
 20
-33.11688345583558
 10
113.2596135249273
 20
-33.12108148543576
  0
SPLINE
  5
2DF
330
70
100
AcDbEntity
  8
0
 62
    18
420
        0
370
    25
100
AcDbSpline
210
0.0
220
0.0
230
1.0
 70
     8
 71
     3
 72
     8
 73
     4
 74
     0
 42
0.0000000001
 43
0.0000000001
 40
0.0
 40
0.0
 40
0.0
 40
0.0
 40
1.0
 40
1.0
 40
1.0
 40
1.0
 10
112.5529605552662
 20
-33.10384114244615
 30
0.0
 10
112.7704470558849
 20
-33.22869244041929
 30
0.0
 10
113.0362973596919
 20
-33.23517843938234
 30
0.0
 10
113.2596135249453
 20
-33.12108148546271
 30
0.0
  0
SPLINE
  5
2E0
330
70
100
AcDbEntity
  8
0
 62
    18
420
        0
370
    25
100
AcDbSpline
210
0.0
220
0.0
230
1.0
 70
     8
 71
     3
 72
     8
 73
     4
 74
     0
 42
0.0000000001
 43
0.0000000001
 40
0.0
 40
0.0
 40
0.0
 40
0.0
 40
1.0
 40
1.0
 40
1.0
 40
1.0
 10
130.2304452861921
 20
-3.692355310352663
 30
0.0
 10
130.3137396761697
 20
-3.657056033106659
 30
0.0
 10
130.3702427068855
 20
-3.578074354780973
 30
0.0
 10
130.3767519085756
 20
-3.487843402946314
 30
0.0
  0
LWPOLYLINE
  5
2E1
330
70
100
AcDbEntity
  8
0
 62
    18
420
        0
370
    25
100
AcDbPolyline
 90
        4
 70
     0
 43
0.0
 10
130.3724163310283
 20
-3.499411320535612
 10
130.3759089651274
 20
-3.518962453235759
 10
130.3365088692277
 20
-3.611621561435792
 10
130.2453272298276
 20
-3.692365845335629
  0
LWPOLYLINE
  5
2E2
330
70
100
AcDbEntity
  8
0
 62
    18
420
        0
370
    25
100
AcDbPolyline
 90
        4
 70
     0
 43
0.0
 10
130.1297763887283
 20
-23.52891701463597
 10
130.1492640275275
 20
-23.52169445593612
 10
130.2124694389284
 20
-23.43969735933575
 10
130.2378786285285
 20
-23.31973108633614
  0
SPLINE
  5
2E3
330
70
100
AcDbEntity
  8
0
 62
    18
420
        0
370
    25
100
AcDbSpline
210
0.0
220
0.0
230
1.0
 70
     8
 71
     3
 72
     8
 73
     4
 74
     0
 42
0.0000000001
 43
0.0000000001
 40
0.0
 40
0.0
 40
0.0
 40
0.0
 40
1.0
 40
1.0
 40
1.0
 40
1.0
 10
110.968577723017
 20
-32.18919640217485
 30
0.0
 10
110.9586989557975
 20
-32.27869366104457
 30
0.0
 10
110.9984063281234
 20
-32.36645635028474
 30
0.0
 10
111.0721514304511
 20
-32.41811880540999
 30
0.0
  0
SPLINE
  5
2E4
330
70
100
AcDbEntity
  8
0
 62
    18
420
        0
370
    25
100
AcDbSpline
210
0.0
220
0.0
230
1.0
 70
     8
 71
     3
 72
     8
 73
     4
 74
     0
 42
0.0000000001
 43
0.0000000001
 40
0.0
 40
0.0
 40
0.0
 40
0.0
 40
1.0
 40
1.0
 40
1.0
 40
1.0
 10
128.542673545262
 20
-2.158193115829109
 30
0.0
 10
128.460897778534
 20
-2.121257708529049
 30
0.0
 10
128.3656374896733
 20
-2.130690777512051
 30
0.0
 10
128.2926938621022
 20
-2.182947141076582
 30
0.0
  0
LWPOLYLINE
  5
2E5
330
70
100
AcDbEntity
  8
0
 62
     8
420
  8421504
370
    25
100
AcDbPolyline
 90
       20
 70
     0
 43
0.0
 10
122.146267525928
 20
-23.25646671453594
 10
122.0102683120284
 20
-23.16090641563604
 10
121.7274794509274
 20
-22.85778930733607
 10
121.5191170961278
 20
-22.4620863327358
 10
121.3915122324274
 20
-21.98582072633559
 10
121.3485420689275
 20
-21.44346357783598
 10
121.3915122324274
 20
-20.85149413453601
 10
121.5191170961278
 20
-20.22789908863579
 10
121.7274794509274
 20
-19.59162605983575
 10
122.0102683120284
 20
-18.96200788223575
 10
122.3588912830278
 20
-18.35817518553608
 10
122.7627556313279
 20
-17.798475120736
 10
123.2095901431278
 20
-17.2999138910357
 10
123.6858179778276
 20
-16.8776400271359
 10
124.1769691937283
 20
-16.54448410663583
 10
124.6681204096276
 20
-16.31056890373556
 10
125.1443482443274
 20
-16.18300181333599
 10
125.5911827561273
 20
-16.16565889703552
 10
125.9950471044274
 20
-16.25906711063583
 10
126.1779095849279
 20
-16.3470893128356
  0
LINE
  5
2E6
330
70
100
AcDbEntity
  8
0
 62
     8
420
  8421504
370
    25
100
AcDbLine
 10
121.729197283228
 20
-23.01290126953601
 30
0.0
 11
121.5402252324282
 21
-22.90395321283568
 31
0.0
  0
LWPOLYLINE
  5
2E7
330
70
100
AcDbEntity
  8
0
 62
     8
420
  8421504
370
    25
100
AcDbPolyline
 90
        7
 70
     0
 43
0.0
 10
121.7296647208284
 20
-18.68416655303564
 10
121.7262149659279
 20
-18.68177527693584
 10
121.7154922509281
 20
-18.66802048173593
 10
121.7102366591276
 20
-18.64845971973593
 10
121.710886392828
 20
-18.62472393403582
 10
121.7173872785273
 20
-18.59879217403609
 10
121.729197283228
 20
-18.57282658573569
  0
SPLINE
  5
2E8
330
70
100
AcDbEntity
  8
0
 62
     8
420
  8421504
370
    25
100
AcDbSpline
210
0.0
220
0.0
230
1.0
 70
     8
 71
     3
 72
     8
 73
     4
 74
     0
 42
0.0000000001
 43
0.0000000001
 40
0.0
 40
0.0
 40
0.0
 40
0.0
 40
1.0
 40
1.0
 40
1.0
 40
1.0
 10
121.709792748433
 20
-22.96882099571942
 30
0.0
 10
121.7089274698758
 20
-22.98575602655512
 30
0.0
 10
121.7161233027713
 20
-23.00210242644165
 30
0.0
 10
121.729197283178
 20
-23.01290126956168
 30
0.0
  0
SPLINE
  5
2E9
330
70
100
AcDbEntity
  8
0
 62
     8
420
  8421504
370
    25
100
AcDbSpline
210
0.0
220
0.0
230
1.0
 70
     8
 71
     3
 72
     8
 73
     4
 74
     0
 42
0.0000000001
 43
0.0000000001
 40
0.0
 40
0.0
 40
0.0
 40
0.0
 40
1.0
 40
1.0
 40
1.0
 40
1.0
 10
93.76945142549436
 20
-38.91026216113262
 30
0.0
 10
93.72856354213098
 20
-38.89179445748258
 30
0.0
 10
93.6809333977013
 20
-38.89651099197376
 30
0.0
 10
93.64446158391508
 20
-38.92263917375603
 30
0.0
  0
SPLINE
  5
2EA
330
70
100
AcDbEntity
  8
0
 62
     8
420
  8421504
370
    25
100
AcDbSpline
210
0.0
220
0.0
230
1.0
 70
     8
 71
     3
 72
     8
 73
     4
 74
     0
 42
0.0000000001
 43
0.0000000001
 40
0.0
 40
0.0
 40
0.0
 40
0.0
 40
1.0
 40
1.0
 40
1.0
 40
1.0
 10
91.87669463095216
 20
-43.82171816999188
 30
0.0
 10
91.87175524733602
 20
-43.86646679942771
 30
0.0
 10
91.89160893350024
 20
-43.91034814405101
 30
0.0
 10
91.92848148466927
 20
-43.93617937160914
 30
0.0
  0
SPLINE
  5
2EB
330
70
100
AcDbEntity
  8
0
 62
     8
420
  8421504
370
    25
100
AcDbSpline
210
0.0
220
0.0
230
1.0
 70
     8
 71
     3
 72
     8
 73
     4
 74
     0
 42
0.0000000001
 43
0.0000000001
 40
0.0
 40
0.0
 40
0.0
 40
0.0
 40
1.0
 40
1.0
 40
1.0
 40
1.0
 10
90.22495337553969
 20
-38.70600944927584
 30
0.0
 10
90.6603981340671
 20
-39.3043003658704
 30
0.0
 10
91.22493151111189
 20
-39.79690044975795
 30
0.0
 10
91.87669463093421
 20
-40.1472845165311
 30
0.0
  0
SPLINE
  5
2EC
330
70
100
AcDbEntity
  8
0
 62
     8
420
  8421504
370
    25
100
AcDbSpline
210
0.0
220
0.0
230
1.0
 70
     8
 71
     3
 72
     8
 73
     4
 74
     0
 42
0.0000000001
 43
0.0000000001
 40
0.0
 40
0.0
 40
0.0
 40
0.0
 40
1.0
 40
1.0
 40
1.0
 40
1.0
 10
92.05347132626007
 20
-33.9221394888947
 30
0.0
 10
92.01700675976956
 20
-33.89601782675478
 30
0.0
 10
91.96938916894501
 20
-33.89129647302232
 30
0.0
 10
91.92850501669836
 20
-33.90974889663942
 30
0.0
  0
SPLINE
  5
2ED
330
70
100
AcDbEntity
  8
0
 62
     8
420
  8421504
370
    25
100
AcDbSpline
210
0.0
220
0.0
230
1.0
 70
     8
 71
     3
 72
     8
 73
     4
 74
     0
 42
0.0000000001
 43
0.0000000001
 40
0.0
 40
0.0
 40
0.0
 40
0.0
 40
1.0
 40
1.0
 40
1.0
 40
1.0
 10
90.23153959019465
 20
-42.38983329469247
 30
0.0
 10
90.66631788821206
 20
-42.98380812412427
 30
0.0
 10
91.22841833445233
 20
-43.47304051100873
 30
0.0
 10
91.87669463091687
 20
-43.82171816998483
 30
0.0
  0
SPLINE
  5
2EE
330
70
100
AcDbEntity
  8
0
 62
     8
420
  8421504
370
    25
100
AcDbSpline
210
0.0
220
0.0
230
1.0
 70
     8
 71
     3
 72
     8
 73
     4
 74
     0
 42
0.0000000001
 43
0.0000000001
 40
0.0
 40
0.0
 40
0.0
 40
0.0
 40
1.0
 40
1.0
 40
1.0
 40
1.0
 10
93.82123827924289
 20
-35.14678483162485
 30
0.0
 10
93.03586380526063
 20
-35.48765822900749
 30
0.0
 10
92.50137293519259
 20
-36.23257592253756
 30
0.0
 10
92.42999548987942
 20
-37.08575409720372
 30
0.0
  0
SPLINE
  5
2EF
330
70
100
AcDbEntity
  8
0
 62
     8
420
  8421504
370
    25
100
AcDbSpline
210
0.0
220
0.0
230
1.0
 70
     8
 71
     3
 72
     8
 73
     4
 74
     0
 42
0.0000000001
 43
0.0000000001
 40
0.0
 40
0.0
 40
0.0
 40
0.0
 40
1.0
 40
1.0
 40
1.0
 40
1.0
 10
93.78813196989094
 20
-38.92104620984407
 30
0.0
 10
93.81209601036692
 20
-38.89354951839578
 30
0.0
 10
93.82402277958993
 20
-38.85758591324954
 30
0.0
 10
93.82123827919796
 20
-38.8212184850465
 30
0.0
  0
LINE
  5
2F0
330
70
100
AcDbEntity
  8
0
 62
     8
420
  8421504
370
    25
100
AcDbLine
 10
93.64446158392793
 20
-34.84059861463574
 30
0.0
 11
121.6812829314283
 21
-18.65528616473582
 31
0.0
  0
LINE
  5
2F1
330
70
100
AcDbEntity
  8
0
 62
     8
420
  8421504
370
    25
100
AcDbLine
 10
125.9287705920274
 20
-16.20326373103585
 30
0.0
 11
153.7485379847273
 21
-0.1432538621357257
 31
0.0
  0
LINE
  5
2F2
330
70
100
AcDbEntity
  8
0
 62
     8
420
  8421504
370
    25
100
AcDbLine
 10
153.9253146800282
 20
-0.4494400791357476
 30
0.0
 11
126.2772022966274
 21
-16.41035562043581
 31
0.0
  0
LINE
  5
2F3
330
70
100
AcDbEntity
  8
0
 62
     8
420
  8421504
370
    25
100
AcDbLine
 10
121.620777867028
 20
-19.09845222593558
 30
0.0
 11
93.82123827922749
 21
-35.14678483163577
 31
0.0
  0
LINE
  5
2F4
330
70
100
AcDbEntity
  8
0
 62
     8
420
  8421504
370
    25
100
AcDbLine
 10
93.82123827922749
 20
-38.8212184850356
 30
0.0
 11
121.5588844222281
 21
-22.80861620453558
 31
0.0
  0
LINE
  5
2F5
330
70
100
AcDbEntity
  8
0
 62
     8
420
  8421504
370
    25
100
AcDbLine
 10
126.8180566409286
 20
-19.77256070693558
 30
0.0
 11
153.9253146800282
 21
-4.123873732635683
 31
0.0
  0
LINE
  5
2F6
330
70
100
AcDbEntity
  8
0
 62
     8
420
  8421504
370
    25
100
AcDbLine
 10
152.1575477271275
 20
0.7752052636643505
 30
0.0
 11
124.3377803344276
 21
-15.28480460523577
 31
0.0
  0
LINE
  5
2F7
330
70
100
AcDbEntity
  8
0
 62
     8
420
  8421504
370
    25
100
AcDbLine
 10
120.1169151518279
 20
-17.72145820953582
 30
0.0
 11
92.05347132622799
 21
-33.92213948883566
 31
0.0
  0
SPLINE
  5
2F8
330
70
100
AcDbEntity
  8
0
 62
     8
420
  8421504
370
    25
100
AcDbSpline
210
0.0
220
0.0
230
1.0
 70
     8
 71
     3
 72
     8
 73
     4
 74
     0
 42
0.0000000001
 43
0.0000000001
 40
0.0
 40
0.0
 40
0.0
 40
0.0
 40
1.0
 40
1.0
 40
1.0
 40
1.0
 10
152.1575477271403
 20
0.775205263643816
 30
0.0
 10
152.1210759133554
 20
0.8013334454260812
 30
0.0
 10
152.0734457689244
 20
0.8060499799172614
 30
0.0
 10
152.0325578855611
 20
0.7875822762672316
 30
0.0
  0
SPLINE
  5
2F9
330
70
100
AcDbEntity
  8
0
 62
     8
420
  8421504
370
    25
100
AcDbSpline
210
0.0
220
0.0
230
1.0
 70
     8
 71
     3
 72
     8
 73
     4
 74
     0
 42
0.0000000001
 43
0.0000000001
 40
0.0
 40
0.0
 40
0.0
 40
0.0
 40
1.0
 40
1.0
 40
1.0
 40
1.0
 10
153.8735278263438
 20
-4.238334934283726
 30
0.0
 10
153.9110005438955
 20
-4.213005609365371
 30
0.0
 10
153.9310272613572
 20
-4.168741824630275
 30
0.0
 10
153.9253146800603
 20
-4.123873732666485
 30
0.0
  0
SPLINE
  5
2FA
330
70
100
AcDbEntity
  8
0
 62
     8
420
  8421504
370
    25
100
AcDbSpline
210
0.0
220
0.0
230
1.0
 70
     8
 71
     3
 72
     8
 73
     4
 74
     0
 42
0.0000000001
 43
0.0000000001
 40
0.0
 40
0.0
 40
0.0
 40
0.0
 40
1.0
 40
1.0
 40
1.0
 40
1.0
 10
162.5355858958941
 20
0.7875822762672316
 30
0.0
 10
162.4946980125308
 20
0.8060499799172614
 30
0.0
 10
162.4470678681011
 20
0.8013334454260812
 30
0.0
 10
162.4105960543149
 20
0.775205263643816
 30
0.0
  0
SPLINE
  5
2FB
330
70
100
AcDbEntity
  8
0
 62
     8
420
  8421504
370
    25
100
AcDbSpline
210
0.0
220
0.0
230
1.0
 70
     8
 71
     3
 72
     8
 73
     4
 74
     0
 42
0.0000000001
 43
0.0000000001
 40
0.0
 40
0.0
 40
0.0
 40
0.0
 40
1.0
 40
1.0
 40
1.0
 40
1.0
 10
160.6428291013269
 20
-4.123873732597181
 30
0.0
 10
160.6371165200467
 20
-4.168741824559047
 30
0.0
 10
160.6571432375045
 20
-4.213005609286442
 30
0.0
 10
160.6946159550446
 20
-4.238334934214423
 30
0.0
  0
LWPOLYLINE
  5
2FC
330
70
100
AcDbEntity
  8
0
 62
     8
420
  8421504
370
    25
100
AcDbPolyline
 90
        4
 70
     0
 43
0.0
 10
113.2447258737279
 20
-13.51519411023585
 10
113.2446982202276
 20
-14.33204286003603
 10
113.2445879601284
 20
-17.59930167183592
 10
113.2445228828274
 20
-21.60427370673569
  0
LWPOLYLINE
  5
2FD
330
70
100
AcDbEntity
  8
0
 62
     8
420
  8421504
370
    25
100
AcDbPolyline
 90
        3
 70
     0
 43
0.0
 10
113.2445540262285
 20
-27.69294226363574
 10
113.2447258820276
 20
-33.11248423843604
 10
113.2447261654276
 20
-33.12106782303563
  0
LINE
  5
2FE
330
70
100
AcDbEntity
  8
0
 62
     8
420
  8421504
370
    25
100
AcDbLine
 10
112.5529605552276
 20
-33.10384114243588
 30
0.0
 11
112.5542796543276
 21
-28.09142917653555
 31
0.0
  0
LWPOLYLINE
  5
2FF
330
70
100
AcDbEntity
  8
0
 62
     8
420
  8421504
370
    25
100
AcDbPolyline
 90
        3
 70
     0
 43
0.0
 10
112.5546794737284
 20
-22.00251183013551
 10
112.5546836354278
 20
-20.11680452003587
 10
112.5529605551276
 20
-13.5068616571356
  0
LWPOLYLINE
  5
300
330
70
100
AcDbEntity
  8
0
 62
     8
420
  8421504
370
    25
100
AcDbPolyline
 90
        4
 70
     0
 43
0.0
 10
130.2453329304278
 20
-23.29824268163564
 10
130.2458665541274
 20
-22.48168602233574
 10
130.2477649650283
 20
-19.21545948783556
 10
130.248083681928
 20
-17.87701353133603
  0
LWPOLYLINE
  5
301
330
70
100
AcDbEntity
  8
0
 62
     8
420
  8421504
370
    25
100
AcDbPolyline
 90
        4
 70
     0
 43
0.0
 10
130.2491299486281
 20
-11.78772299883599
 10
130.2487909870285
 20
-10.19492886973579
 10
130.2453329231278
 20
-3.700952554036086
 10
130.2453272298276
 20
-3.692365845335629
  0
SPLINE
  5
302
330
70
100
AcDbEntity
  8
0
 62
     8
420
  8421504
370
    25
100
AcDbSpline
210
0.0
220
0.0
230
1.0
 70
     8
 71
     3
 72
     8
 73
     4
 74
     0
 42
0.0000000001
 43
0.0000000001
 40
0.0
 40
0.0
 40
0.0
 40
0.0
 40
1.0
 40
1.0
 40
1.0
 40
1.0
 10
113.156350855482
 20
-33.33284593551737
 30
0.0
 10
113.2251183041401
 20
-33.28490065072197
 30
0.0
 10
113.2641834874445
 20
-33.20478828191673
 30
0.0
 10
113.2596135249312
 20
-33.12108148546849
 30
0.0
  0
SPLINE
  5
303
330
70
100
AcDbEntity
  8
0
 62
     8
420
  8421504
370
    25
100
AcDbSpline
210
0.0
220
0.0
230
1.0
 70
     8
 71
     3
 72
     8
 73
     4
 74
     0
 42
0.0000000001
 43
0.0000000001
 40
0.0
 40
0.0
 40
0.0
 40
0.0
 40
1.0
 40
1.0
 40
1.0
 40
1.0
 10
112.5529605552739
 20
-33.10384114245962
 30
0.0
 10
112.543081787917
 20
-33.19333840128506
 30
0.0
 10
112.5827891602019
 20
-33.2811010905387
 30
0.0
 10
112.6565342625412
 20
-33.33276354559784
 30
0.0
  0
SPLINE
  5
304
330
70
100
AcDbEntity
  8
0
 62
     8
420
  8421504
370
    25
100
AcDbSpline
210
0.0
220
0.0
230
1.0
 70
     8
 71
     3
 72
     8
 73
     4
 74
     0
 42
0.0000000001
 43
0.0000000001
 40
0.0
 40
0.0
 40
0.0
 40
0.0
 40
1.0
 40
1.0
 40
1.0
 40
1.0
 10
130.1270563774612
 20
-3.072837856129273
 30
0.0
 10
130.0452806107344
 20
-3.035902448829213
 30
0.0
 10
129.9500203218737
 20
-3.045335517812215
 30
0.0
 10
129.8770766943026
 20
-3.097591881376746
 30
0.0
  0
SPLINE
  5
305
330
70
100
AcDbEntity
  8
0
 62
     8
420
  8421504
370
    25
100
AcDbSpline
210
0.0
220
0.0
230
1.0
 70
     8
 71
     3
 72
     8
 73
     4
 74
     0
 42
0.0000000001
 43
0.0000000001
 40
0.0
 40
0.0
 40
0.0
 40
0.0
 40
1.0
 40
1.0
 40
1.0
 40
1.0
 10
130.245332930447
 20
-23.29824268170302
 30
0.0
 10
130.3200701216194
 20
-23.26035222635524
 30
0.0
 10
130.3699022269438
 20
-23.18651131102883
 30
0.0
 10
130.3770766596897
 20
-23.10302561245948
 30
0.0
  0
SPLINE
  5
306
330
70
100
AcDbEntity
  8
0
 62
     8
420
  8421504
370
    25
100
AcDbSpline
210
0.0
220
0.0
230
1.0
 70
     8
 71
     3
 72
     8
 73
     4
 74
     0
 42
0.0000000001
 43
0.0000000001
 40
0.0
 40
0.0
 40
0.0
 40
0.0
 40
1.0
 40
1.0
 40
1.0
 40
1.0
 10
130.1423734068124
 20
-23.52665320233246
 30
0.0
 10
130.214114323026
 20
-23.47363037902846
 30
0.0
 10
130.2531141148483
 20
-23.38711130385949
 30
0.0
 10
130.2453329303674
 20
-23.29824268162281
 30
0.0
  0
LWPOLYLINE
  5
307
330
70
100
AcDbEntity
  8
0
 62
     8
420
  8421504
370
    25
100
AcDbPolyline
 90
        7
 70
     0
 43
0.0
 10
117.0673737107281
 20
-63.16134739423588
 10
116.8240561991285
 20
-63.25520257853558
 10
116.5370436248281
 20
-63.28816013633585
 10
116.2500310505277
 20
-63.25520257853558
 10
116.0067135389281
 20
-63.16134739423588
 10
115.8441339754283
 20
-63.02088318463596
 10
115.7870436248282
 20
-62.85519435233569
  0
LWPOLYLINE
  5
308
330
70
100
AcDbEntity
  8
0
 62
     8
420
  8421504
370
    25
100
AcDbPolyline
 90
        3
 70
     0
 43
0.0
 10
117.287043624828
 20
-62.85519435233569
 10
117.2299532742279
 20
-63.02088318463596
 10
117.0673737107281
 20
-63.16134739423588
  0
LWPOLYLINE
  5
309
330
70
100
AcDbEntity
  8
0
 62
     8
420
  8421504
370
    25
100
AcDbPolyline
 90
        4
 70
     0
 43
0.0
 10
118.658363968428
 20
-64.08010509523551
 10
118.6179949943281
 20
-64.29115806293558
 10
118.5030338825273
 20
-64.42347110423563
 10
118.5029248399276
 20
-64.42353403693613
  0
LWPOLYLINE
  5
30A
330
70
100
AcDbEntity
  8
0
 62
     8
420
  8421504
370
    25
100
AcDbPolyline
 90
        7
 70
     0
 43
0.0
 10
117.753262099128
 20
-63.12430137313601
 10
117.9250853449282
 20
-63.09100334863554
 10
118.128033882528
 20
-63.16154644433556
 10
118.3309824200277
 20
-63.3253227425358
 10
118.5030338825273
 20
-63.55739878643579
 10
118.6179949943281
 20
-63.82244310213574
 10
118.658363968428
 20
-64.08010509523551
  0
LWPOLYLINE
  5
30B
330
70
100
AcDbEntity
  8
0
 62
     8
420
  8421504
370
    25
100
AcDbPolyline
 90
        4
 70
     0
 43
0.0
 10
184.2425179234279
 20
-26.21917890943582
 10
184.2021489494281
 20
-26.43023187713589
 10
184.0871878375286
 20
-26.56254491843594
 10
184.0871573623274
 20
-26.56256251423557
  0
LWPOLYLINE
  5
30C
330
70
100
AcDbEntity
  8
0
 62
     8
420
  8421504
370
    25
100
AcDbPolyline
 90
        7
 70
     0
 43
0.0
 10
183.3372183128274
 20
-25.26348922073556
 10
183.5092393000283
 20
-25.23007716293596
 10
183.712187837528
 20
-25.30062025853586
 10
183.9151363751277
 20
-25.46439655673611
 10
184.0871878375286
 20
-25.6964726006361
 10
184.2021489494281
 20
-25.96151691633605
 10
184.2425179234279
 20
-26.21917890943582
  0
LWPOLYLINE
  5
30D
330
70
100
AcDbEntity
  8
0
 62
     8
420
  8421504
370
    25
100
AcDbPolyline
 90
        3
 70
     0
 43
0.0
 10
185.8335081811279
 20
-23.46350295683605
 10
185.9960877446277
 20
-23.32303874723612
 10
186.0531780952278
 20
-23.15734991493584
  0
LWPOLYLINE
  5
30E
330
70
100
AcDbEntity
  8
0
 62
     8
420
  8421504
370
    25
100
AcDbPolyline
 90
        7
 70
     0
 43
0.0
 10
184.553178095228
 20
-23.15734991493584
 10
184.6102684458281
 20
-23.32303874723612
 10
184.7728480093279
 20
-23.46350295683605
 10
185.0161655209275
 20
-23.55735814113574
 10
185.3031780952279
 20
-23.59031569903611
 10
185.5901906695283
 20
-23.55735814113574
 10
185.8335081811279
 20
-23.46350295683605
  0
LWPOLYLINE
  5
30F
330
70
100
AcDbEntity
  8
0
 62
     8
420
  8421504
370
    25
100
AcDbPolyline
 90
        7
 70
     0
 43
0.0
 10
122.9010046555277
 20
-62.4463267961359
 10
122.6576871439281
 20
-62.54018198033612
 10
122.3706745696277
 20
-62.57313953823586
 10
122.0836619953274
 20
-62.54018198033612
 10
121.8403444837278
 20
-62.4463267961359
 10
121.6777649202279
 20
-62.30586258653597
 10
121.6206745696279
 20
-62.14017375413559
  0
LWPOLYLINE
  5
310
330
70
100
AcDbEntity
  8
0
 62
     8
420
  8421504
370
    25
100
AcDbPolyline
 90
        3
 70
     0
 43
0.0
 10
123.1206745696276
 20
-62.14017375413559
 10
123.0635842190276
 20
-62.30586258653597
 10
122.9010046555277
 20
-62.4463267961359
  0
LWPOLYLINE
  5
311
330
70
100
AcDbEntity
  8
0
 62
     8
420
  8421504
370
    25
100
AcDbPolyline
 90
        4
 70
     0
 43
0.0
 10
124.4919949132276
 20
-63.36508449703606
 10
124.4516259391277
 20
-63.57613746473613
 10
124.3366648273282
 20
-63.70845050603553
 10
124.3365557847285
 20
-63.70851343883613
  0
LWPOLYLINE
  5
312
330
70
100
AcDbEntity
  8
0
 62
     8
420
  8421504
370
    25
100
AcDbPolyline
 90
        7
 70
     0
 43
0.0
 10
123.5868930439276
 20
-62.40928077493592
 10
123.7587162897279
 20
-62.37598275053555
 10
123.9616648273277
 20
-62.44652584623556
 10
124.1646133648273
 20
-62.6103021443357
 10
124.3366648273282
 20
-62.84237818823569
 10
124.4516259391277
 20
-63.10742250393563
 10
124.4919949132276
 20
-63.36508449703606
  0
LWPOLYLINE
  5
313
330
70
100
AcDbEntity
  8
0
 62
     8
420
  8421504
370
    25
100
AcDbPolyline
 90
        4
 70
     0
 43
0.0
 10
190.0761488682276
 20
-25.50415831123573
 10
190.0357798941276
 20
-25.7152112790359
 10
189.9208187823282
 20
-25.84752432023584
 10
189.9207883071283
 20
-25.84754191613558
  0
LWPOLYLINE
  5
314
330
70
100
AcDbEntity
  8
0
 62
     8
420
  8421504
370
    25
100
AcDbPolyline
 90
        7
 70
     0
 43
0.0
 10
189.1708492576283
 20
-24.54846862253611
 10
189.3428702448279
 20
-24.51505656473586
 10
189.5458187823276
 20
-24.58559966043587
 10
189.7487673199274
 20
-24.749375958536
 10
189.9208187823282
 20
-24.981452002436
 10
190.0357798941276
 20
-25.24649631813595
 10
190.0761488682276
 20
-25.50415831123573
  0
LWPOLYLINE
  5
315
330
70
100
AcDbEntity
  8
0
 62
     8
420
  8421504
370
    25
100
AcDbPolyline
 90
        3
 70
     0
 43
0.0
 10
191.6671391259275
 20
-22.74848235873605
 10
191.8297186894273
 20
-22.60801814913612
 10
191.8868090400274
 20
-22.44232931673574
  0
LWPOLYLINE
  5
316
330
70
100
AcDbEntity
  8
0
 62
     8
420
  8421504
370
    25
100
AcDbPolyline
 90
        7
 70
     0
 43
0.0
 10
190.3868090400277
 20
-22.44232931673574
 10
190.4438993906277
 20
-22.60801814913612
 10
190.6064789541275
 20
-22.74848235873605
 10
190.8497964657285
 20
-22.84233754293563
 10
191.1368090400275
 20
-22.87529510083601
 10
191.4238216143279
 20
-22.84233754293563
 10
191.6671391259275
 20
-22.74848235873605
  0
LWPOLYLINE
  5
317
330
70
100
AcDbEntity
  8
0
 62
     8
420
  8421504
370
    25
100
AcDbPolyline
 90
        3
 70
     0
 43
0.0
 10
93.73284993152829
 20
-49.69061354913559
 10
93.89542949502814
 20
-49.55014933963577
 10
93.95251984572828
 20
-49.38446050723603
  0
LWPOLYLINE
  5
318
330
70
100
AcDbEntity
  8
0
 62
     8
420
  8421504
370
    25
100
AcDbPolyline
 90
        7
 70
     0
 43
0.0
 10
92.45251984572792
 20
-49.38446050723603
 10
92.50961019632796
 20
-49.55014933963577
 10
92.67218975982844
 20
-49.69061354913559
 10
92.91550727142805
 20
-49.78446873343592
 10
93.20251984572841
 20
-49.81742629133566
 10
93.48953241992804
 20
-49.78446873343592
 10
93.73284993152829
 20
-49.69061354913559
  0
LWPOLYLINE
  5
319
330
70
100
AcDbEntity
  8
0
 62
     8
420
  8421504
370
    25
100
AcDbPolyline
 90
        8
 70
     0
 43
0.0
 10
95.32384018922822
 20
-50.60937125013586
 10
95.28347121512828
 20
-50.35170925703608
 10
95.16851010332754
 20
-50.08666494133549
 10
94.99645864092803
 20
-49.85458889743615
 10
94.79351010332825
 20
-49.6908125992359
 10
94.59056156582793
 20
-49.620269503636
 10
94.41851010332767
 20
-49.65369915723587
 10
94.41463517442818
 20
-49.65598355553589
  0
LWPOLYLINE
  5
31A
330
70
100
AcDbEntity
  8
0
 62
     8
420
  8421504
370
    25
100
AcDbPolyline
 90
        3
 70
     0
 43
0.0
 10
95.16862343402783
 20
-50.95267177393574
 10
95.28347121512828
 20
-50.82042421783593
 10
95.32384018922822
 20
-50.60937125013586
  0
LWPOLYLINE
  5
31B
330
70
100
AcDbEntity
  8
0
 62
     8
420
  8421504
370
    25
100
AcDbPolyline
 90
        7
 70
     0
 43
0.0
 10
160.9079941443282
 20
-12.74844506433552
 10
160.8676251702283
 20
-12.49078307123575
 10
160.7526640584275
 20
-12.22573875553581
 10
160.5806125959279
 20
-11.99366271163581
 10
160.3776640584283
 20
-11.82988641353567
 10
160.1747155208285
 20
-11.75934331783566
 10
160.0026945336276
 20
-11.79275537563591
  0
LWPOLYLINE
  5
31C
330
70
100
AcDbEntity
  8
0
 62
     8
420
  8421504
370
    25
100
AcDbPolyline
 90
        4
 70
     0
 43
0.0
 10
160.7526335831276
 20
-13.09182866923602
 10
160.7526640584275
 20
-13.09181107333564
 10
160.8676251702283
 20
-12.9594980321357
 10
160.9079941443282
 20
-12.74844506433552
  0
LWPOLYLINE
  5
31D
330
70
100
AcDbEntity
  8
0
 62
     8
420
  8421504
370
    25
100
AcDbPolyline
 90
        7
 70
     0
 43
0.0
 10
162.4989844019281
 20
-9.992769111835855
 10
162.2556668903285
 20
-10.08662429603607
 10
161.9686543160281
 20
-10.11958185393581
 10
161.6816417418278
 20
-10.08662429603607
 10
161.4383242302282
 20
-9.992769111835855
 10
161.2757446667284
 20
-9.85230490223593
 10
161.2186543160282
 20
-9.686616069835546
  0
LWPOLYLINE
  5
31E
330
70
100
AcDbEntity
  8
0
 62
     8
420
  8421504
370
    25
100
AcDbPolyline
 90
        3
 70
     0
 43
0.0
 10
162.7186543160279
 20
-9.686616069835546
 10
162.6615639654279
 20
-9.85230490223593
 10
162.4989844019281
 20
-9.992769111835855
  0
LWPOLYLINE
  5
31F
330
70
100
AcDbEntity
  8
0
 62
     8
420
  8421504
370
    25
100
AcDbPolyline
 90
        3
 70
     0
 43
0.0
 10
99.56648087632792
 20
-53.05829701043569
 10
99.72906043982776
 20
-52.91783280083577
 10
99.78615079042782
 20
-52.75214396853613
  0
LWPOLYLINE
  5
320
330
70
100
AcDbEntity
  8
0
 62
     8
420
  8421504
370
    25
100
AcDbPolyline
 90
        7
 70
     0
 43
0.0
 10
98.28615079042808
 20
-52.75214396853613
 10
98.34324114112824
 20
-52.91783280083577
 10
98.50582070462808
 20
-53.05829701043569
 10
98.74913821622769
 20
-53.15215219473603
 10
99.03615079042795
 20
-53.18510975253565
 10
99.32316336472831
 20
-53.15215219473603
 10
99.56648087632792
 20
-53.05829701043569
  0
LWPOLYLINE
  5
321
330
70
100
AcDbEntity
  8
0
 62
     8
420
  8421504
370
    25
100
AcDbPolyline
 90
        8
 70
     0
 43
0.0
 10
101.1574711340278
 20
-53.97705471143596
 10
101.1171021599279
 20
-53.71939271833555
 10
101.0021410481278
 20
-53.4543484026356
 10
100.8300895857276
 20
-53.2222723587356
 10
100.6271410481279
 20
-53.058496060536
 10
100.4241925106282
 20
-52.98795296483599
 10
100.2521410481279
 20
-53.02138261853597
 10
100.2482661192278
 20
-53.02366701683599
  0
LWPOLYLINE
  5
322
330
70
100
AcDbEntity
  8
0
 62
     8
420
  8421504
370
    25
100
AcDbPolyline
 90
        3
 70
     0
 43
0.0
 10
101.002254378728
 20
-54.32035523513573
 10
101.1171021599279
 20
-54.18810767913603
 10
101.1574711340278
 20
-53.97705471143596
  0
LWPOLYLINE
  5
323
330
70
100
AcDbEntity
  8
0
 62
     8
420
  8421504
370
    25
100
AcDbPolyline
 90
        7
 70
     0
 43
0.0
 10
166.7416250891279
 20
-16.11612852563563
 10
166.7012561150279
 20
-15.85846653253585
 10
166.5862950032285
 20
-15.59342221683591
 10
166.4142435407276
 20
-15.36134617293591
 10
166.2112950032279
 20
-15.19756987473567
 10
166.0083464656281
 20
-15.12702677913576
 10
165.8363254784285
 20
-15.160438836936
  0
LWPOLYLINE
  5
324
330
70
100
AcDbEntity
  8
0
 62
     8
420
  8421504
370
    25
100
AcDbPolyline
 90
        4
 70
     0
 43
0.0
 10
166.5862645279285
 20
-16.45951213043602
 10
166.5862950032285
 20
-16.45949453463574
 10
166.7012561150279
 20
-16.3271814933357
 10
166.7416250891279
 20
-16.11612852563563
  0
LWPOLYLINE
  5
325
330
70
100
AcDbEntity
  8
0
 62
     8
420
  8421504
370
    25
100
AcDbPolyline
 90
        7
 70
     0
 43
0.0
 10
168.3326153467277
 20
-13.36045257303585
 10
168.0892978351281
 20
-13.45430775733553
 10
167.8022852608277
 20
-13.48726531523591
 10
167.5152726866274
 20
-13.45430775733553
 10
167.2719551749277
 20
-13.36045257303585
 10
167.1093756114279
 20
-13.21998836343592
 10
167.0522852608279
 20
-13.05429953113565
  0
LWPOLYLINE
  5
326
330
70
100
AcDbEntity
  8
0
 62
     8
420
  8421504
370
    25
100
AcDbPolyline
 90
        3
 70
     0
 43
0.0
 10
168.5522852608276
 20
-13.05429953113565
 10
168.4951949102275
 20
-13.21998836343592
 10
168.3326153467277
 20
-13.36045257303585
  0
LWPOLYLINE
  5
327
330
70
100
AcDbEntity
  8
0
 62
     8
420
  8421504
370
    25
100
AcDbPolyline
 90
        3
 70
     0
 43
0.0
 10
105.4001118211275
 20
-56.4259804717358
 10
105.5626913846274
 20
-56.28551626213587
 10
105.6197817352274
 20
-56.11982742973612
  0
LWPOLYLINE
  5
328
330
70
100
AcDbEntity
  8
0
 62
     8
420
  8421504
370
    25
100
AcDbPolyline
 90
        7
 70
     0
 43
0.0
 10
104.1197817352277
 20
-56.11982742973612
 10
104.1768720858277
 20
-56.28551626213587
 10
104.3394516493276
 20
-56.4259804717358
 10
104.5827691610286
 20
-56.51983565593602
 10
104.8697817352276
 20
-56.55279321383575
 10
105.1567943095279
 20
-56.51983565593602
 10
105.4001118211275
 20
-56.4259804717358
  0
LWPOLYLINE
  5
329
330
70
100
AcDbEntity
  8
0
 62
     8
420
  8421504
370
    25
100
AcDbPolyline
 90
        8
 70
     0
 43
0.0
 10
106.9911020788275
 20
-57.34473817263595
 10
106.9507331047275
 20
-57.08707617953554
 10
106.8357719929281
 20
-56.8220318638356
 10
106.6637205305285
 20
-56.5899558199356
 10
106.4607719929275
 20
-56.4261795218361
 10
106.2578234553277
 20
-56.35563642613609
 10
106.0857719929282
 20
-56.38906607983607
 10
106.0818970640274
 20
-56.3913504781361
  0
LWPOLYLINE
  5
32A
330
70
100
AcDbEntity
  8
0
 62
     8
420
  8421504
370
    25
100
AcDbPolyline
 90
        3
 70
     0
 43
0.0
 10
106.8358853235276
 20
-57.68803869643583
 10
106.9507331047275
 20
-57.55579114043612
 10
106.9911020788275
 20
-57.34473817263595
  0
LWPOLYLINE
  5
32B
330
70
100
AcDbEntity
  8
0
 62
     8
420
  8421504
370
    25
100
AcDbPolyline
 90
        7
 70
     0
 43
0.0
 10
172.5752560338274
 20
-19.48381198683562
 10
172.5348870598276
 20
-19.22614999383595
 10
172.4199259480281
 20
-18.9611056780359
 10
172.2478744855285
 20
-18.72902963423601
 10
172.0449259480275
 20
-18.56525333603577
 10
171.8419774104277
 20
-18.49471024033575
 10
171.6699564232281
 20
-18.528122298136
  0
LWPOLYLINE
  5
32C
330
70
100
AcDbEntity
  8
0
 62
     8
420
  8421504
370
    25
100
AcDbPolyline
 90
        4
 70
     0
 43
0.0
 10
172.4198954727281
 20
-19.82719559173611
 10
172.4199259480281
 20
-19.82717799583574
 10
172.5348870598276
 20
-19.6948649546358
 10
172.5752560338274
 20
-19.48381198683562
  0
LWPOLYLINE
  5
32D
330
70
100
AcDbEntity
  8
0
 62
     8
420
  8421504
370
    25
100
AcDbPolyline
 90
        7
 70
     0
 43
0.0
 10
174.1662462915286
 20
-16.72813603433595
 10
173.9229287799277
 20
-16.82199121853553
 10
173.6359162056274
 20
-16.85494877643591
 10
173.3489036313283
 20
-16.82199121853553
 10
173.1055861197274
 20
-16.72813603433595
 10
172.9430065562275
 20
-16.58767182473602
 10
172.8859162056275
 20
-16.42198299243575
  0
LWPOLYLINE
  5
32E
330
70
100
AcDbEntity
  8
0
 62
     8
420
  8421504
370
    25
100
AcDbPolyline
 90
        3
 70
     0
 43
0.0
 10
174.3859162056285
 20
-16.42198299243575
 10
174.3288258550284
 20
-16.58767182473602
 10
174.1662462915286
 20
-16.72813603433595
  0
LWPOLYLINE
  5
32F
330
70
100
AcDbEntity
  8
0
 62
     8
420
  8421504
370
    25
100
AcDbPolyline
 90
        3
 70
     0
 43
0.0
 10
111.2337427659285
 20
-59.79366393293579
 10
111.3963223294283
 20
-59.65319972343596
 10
111.4534126800283
 20
-59.48751089103559
  0
LWPOLYLINE
  5
330
330
70
100
AcDbEntity
  8
0
 62
     8
420
  8421504
370
    25
100
AcDbPolyline
 90
        7
 70
     0
 43
0.0
 10
109.9534126800273
 20
-59.48751089103559
 10
110.0105030306274
 20
-59.65319972343596
 10
110.1730825941285
 20
-59.79366393293579
 10
110.4164001057281
 20
-59.88751911723611
 10
110.7034126800285
 20
-59.92047667513586
 10
110.9904252543276
 20
-59.88751911723611
 10
111.2337427659285
 20
-59.79366393293579
  0
LWPOLYLINE
  5
331
330
70
100
AcDbEntity
  8
0
 62
     8
420
  8421504
370
    25
100
AcDbPolyline
 90
        8
 70
     0
 43
0.0
 10
112.8247330236284
 20
-60.71242163393606
 10
112.7843640495284
 20
-60.45475964083564
 10
112.6694029377277
 20
-60.18971532513569
 10
112.4973514752281
 20
-59.9576392812357
 10
112.2944029377284
 20
-59.7938629830361
 10
112.0914544001273
 20
-59.72331988743555
 10
111.9194029377278
 20
-59.75674954103607
 10
111.9155280088283
 20
-59.75903393933609
  0
LWPOLYLINE
  5
332
330
70
100
AcDbEntity
  8
0
 62
     8
420
  8421504
370
    25
100
AcDbPolyline
 90
        3
 70
     0
 43
0.0
 10
112.6695162683285
 20
-61.05572215773594
 10
112.7843640495284
 20
-60.92347460163612
 10
112.8247330236284
 20
-60.71242163393606
  0
LWPOLYLINE
  5
333
330
70
100
AcDbEntity
  8
0
 62
     8
420
  8421504
370
    25
100
AcDbPolyline
 90
        7
 70
     0
 43
0.0
 10
178.4088869786283
 20
-22.85149544813572
 10
178.3685180046285
 20
-22.59383345503595
 10
178.2535568927276
 20
-22.328789139336
 10
178.0815054303281
 20
-22.09671309543601
 10
177.8785568927284
 20
-21.93293679733587
 10
177.6756083552274
 20
-21.86239370163586
 10
177.5035873680277
 20
-21.8958057594361
  0
LWPOLYLINE
  5
334
330
70
100
AcDbEntity
  8
0
 62
     8
420
  8421504
370
    25
100
AcDbPolyline
 90
        4
 70
     0
 43
0.0
 10
178.2535264175278
 20
-23.19487905303557
 10
178.2535568927276
 20
-23.19486145713584
 10
178.3685180046285
 20
-23.0625484159359
 10
178.4088869786283
 20
-22.85149544813572
  0
LWPOLYLINE
  5
335
330
70
100
AcDbEntity
  8
0
 62
     8
420
  8421504
370
    25
100
AcDbPolyline
 90
        7
 70
     0
 43
0.0
 10
179.9998772363282
 20
-20.09581949563605
 10
179.7565597247273
 20
-20.18967467983563
 10
179.4695471504283
 20
-20.22263223773601
 10
179.1825345761279
 20
-20.18967467983563
 10
178.9392170645283
 20
-20.09581949563605
 10
178.7766375010284
 20
-19.95535528603612
 10
178.7195471504284
 20
-19.78966645363574
  0
LWPOLYLINE
  5
336
330
70
100
AcDbEntity
  8
0
 62
     8
420
  8421504
370
    25
100
AcDbPolyline
 90
        3
 70
     0
 43
0.0
 10
180.2195471504281
 20
-19.78966645363574
 10
180.1624567998281
 20
-19.95535528603612
 10
179.9998772363282
 20
-20.09581949563605
  0
INSERT
  5
339
330
70
100
AcDbEntity
  8
CAPA_BASE
100
AcDbBlockReference
  2
Block_0
 10
0.0
 20
0.0
 30
0.0
  0
INSERT
  5
345
330
70
100
AcDbEntity
  8
CAPA_BASE
100
AcDbBlockReference
  2
Block_1
 10
0.0
 20
0.0
 30
0.0
  0
INSERT
  5
351
330
70
100
AcDbEntity
  8
CAPA_BASE
100
AcDbBlockReference
  2
Block_2
 10
0.0
 20
0.0
 30
0.0
  0
ENDSEC
  0
SECTION
  2
OBJECTS
  0
DICTIONARY
  5
C
330
0
100
AcDbDictionary
281
     1
  3
ACAD_COLOR
350
63
  3
ACAD_DETAILVIEWSTYLE
350
6A
  3
ACAD_GROUP
350
D
  3
ACAD_LAYOUT
350
62
  3
ACAD_MATERIAL
350
10
  3
ACAD_MLEADERSTYLE
350
66
  3
ACAD_MLINESTYLE
350
5F
  3
ACAD_PLOTSETTINGS
350
61
  3
ACAD_PLOTSTYLENAME
350
E
  3
ACAD_SCALELIST
350
42
  3
ACAD_SECTIONVIEWSTYLE
350
68
  3
ACAD_TABLESTYLE
350
64
  3
ACAD_VISUALSTYLE
350
29
  3
ACDB_RECOMPOSE_DATA
350
364
  3
AcDbVariableDictionary
350
35C
  0
DICTIONARY
  5
63
102
{ACAD_REACTORS
330
C
102
}
330
C
100
AcDbDictionary
281
     1
  0
DICTIONARY
  5
6A
102
{ACAD_REACTORS
330
C
102
}
330
C
100
AcDbDictionary
281
     1
  3
Imperial24
350
6B
  0
DICTIONARY
  5
D
102
{ACAD_REACTORS
330
C
102
}
330
C
100
AcDbDictionary
281
     1
  0
DICTIONARY
  5
62
102
{ACAD_REACTORS
330
C
102
}
330
C
100
AcDbDictionary
281
     1
  3
Layout1
350
6F
  3
Layout2
350
77
  3
Model
350
73
  0
DICTIONARY
  5
10
102
{ACAD_REACTORS
330
C
102
}
330
C
100
AcDbDictionary
281
     1
  3
ByBlock
350
19
  3
ByLayer
350
11
  3
Global
350
21
  0
DICTIONARY
  5
66
102
{ACAD_REACTORS
330
C
102
}
330
C
100
AcDbDictionary
281
     1
  3
Standard
350
67
  0
DICTIONARY
  5
5F
102
{ACAD_REACTORS
330
C
102
}
330
C
100
AcDbDictionary
281
     1
  3
Standard
350
60
  0
DICTIONARY
  5
61
102
{ACAD_REACTORS
330
C
102
}
330
C
100
AcDbDictionary
281
     1
  0
ACDBDICTIONARYWDFLT
  5
E
102
{ACAD_REACTORS
330
C
102
}
330
C
100
AcDbDictionary
281
     1
  3
Normal
350
F
100
AcDbDictionaryWithDefault
340
F
  0
DICTIONARY
  5
42
102
{ACAD_REACTORS
330
C
102
}
330
C
100
AcDbDictionary
281
     1
  3
A0
350
43
  3
A1
350
44
  3
A2
350
45
  3
A3
350
46
  3
A4
350
47
  3
A5
350
48
  3
A6
350
49
  3
A7
350
4A
  3
A8
350
4B
  3
A9
350
4C
  3
B0
350
4D
  3
B1
350
4E
  3
B2
350
4F
  3
B3
350
50
  3
B4
350
51
  3
B5
350
52
  3
B6
350
53
  0
DICTIONARY
  5
68
102
{ACAD_REACTORS
330
C
102
}
330
C
100
AcDbDictionary
281
     1
  3
Imperial24
350
69
  0
DICTIONARY
  5
64
102
{ACAD_REACTORS
330
C
102
}
330
C
100
AcDbDictionary
281
     1
  3
Standard
350
65
  0
DICTIONARY
  5
29
102
{ACAD_REACTORS
330
C
102
}
330
C
100
AcDbDictionary
281
     1
  3
2dWireframe
350
2F
  3
Basic
350
2E
  3
Brighten
350
35
  3
ColorChange
350
39
  3
Conceptual
350
32
  3
Dim
350
34
  3
EdgeColorOff
350
41
  3
Facepattern
350
38
  3
Flat
350
2A
  3
FlatWithEdges
350
2B
  3
Gouraud
350
2C
  3
GouraudWithEdges
350
2D
  3
Hidden
350
31
  3
JitterOff
350
3F
  3
Linepattern
350
37
  3
OverhangOff
350
40
  3
Realistic
350
33
  3
Shaded
350
3E
  3
Shaded with edges
350
3D
  3
Shades of Gray
350
3A
  3
Sketchy
350
3B
  3
Thicken
350
36
  3
Wireframe
350
30
  3
X-Ray
350
3C
  0
XRECORD
  5
364
102
{ACAD_REACTORS
330
C
102
}
330
C
100
AcDbXrecord
280
     1
 90
        1
330
65
  0
DICTIONARY
  5
35C
102
{ACAD_REACTORS
330
C
102
}
330
C
100
AcDbDictionary
281
     1
  3
CANNOSCALE
350
361
  3
CMLEADERSTYLE
350
35E
  3
CTABLESTYLE
350
35D
  3
CVIEWDETAILSTYLE
350
35F
  3
CVIEWSECTIONSTYLE
350
360
  0
ACDBDETAILVIEWSTYLE
  5
6B
102
{ACAD_REACTORS
330
6A
102
}
330
6A
100
AcDbModelDocViewStyle
 70
     0
  3
Imperial24
290
     1
300
Imperial24
 90
        0
100
AcDbDetailViewStyle
 70
     0
 71
     0
 90
        3
 71
     1
340
55
 62
   256
 40
0.24
340
0
 62
   256
 40
0.24
300

 40
0.36
280
     3
 71
     2
340
5D
 90
       25
 62
   256
 71
     3
340
55
 62
   256
 40
0.24
 90
        1
 40
0.75
 90
        1
300
%<\AcVar ViewType \f "%tc1">% %<\AcVar ViewDetailId>%\PSCALE %<\AcVar ViewScale \f "%sn">%
 71
     4
340
5D
 90
       25
 62
   256
340
5D
 90
       25
 62
   256
280
     0
  0
LAYOUT
  5
6F
102
{ACAD_REACTORS
330
62
102
}
330
62
100
AcDbPlotSettings
  1

  2

  4

  6

 40
0.0
 41
0.0
 42
0.0
 43
0.0
 44
0.0
 45
0.0
 46
0.0
 47
0.0
 48
0.0
 49
0.0
140
0.0
141
0.0
142
1.0
143
1.0
 70
   688
 72
     0
 73
     0
 74
     5
  7

 75
    16
147
1.0
 76
     0
 77
     2
 78
   300
148
0.0
149
0.0
100
AcDbLayout
  1
Layout1
 70
     1
 71
     1
 10
0.0
 20
0.0
 11
12.0
 21
9.0
 12
0.0
 22
0.0
 32
0.0
 14
0.0
 24
0.0
 34
0.0
 15
0.0
 25
0.0
 35
0.0
146
0.0
 13
0.0
 23
0.0
 33
0.0
 16
1.0
 26
0.0
 36
0.0
 17
0.0
 27
1.0
 37
0.0
 76
     0
330
6C
  0
LAYOUT
  5
77
102
{ACAD_REACTORS
330
62
102
}
330
62
100
AcDbPlotSettings
  1

  2

  4

  6

 40
0.0
 41
0.0
 42
0.0
 43
0.0
 44
0.0
 45
0.0
 46
0.0
 47
0.0
 48
0.0
 49
0.0
140
0.0
141
0.0
142
1.0
143
1.0
 70
   688
 72
     0
 73
     0
 74
     5
  7

 75
    16
147
1.0
 76
     0
 77
     2
 78
   300
148
0.0
149
0.0
100
AcDbLayout
  1
Layout2
 70
     1
 71
     2
 10
0.0
 20
0.0
 11
12.0
 21
9.0
 12
0.0
 22
0.0
 32
0.0
 14
0.0
 24
0.0
 34
0.0
 15
0.0
 25
0.0
 35
0.0
146
0.0
 13
0.0
 23
0.0
 33
0.0
 16
1.0
 26
0.0
 36
0.0
 17
0.0
 27
1.0
 37
0.0
 76
     0
330
74
  0
LAYOUT
  5
73
102
{ACAD_REACTORS
330
62
102
}
330
62
100
AcDbPlotSettings
  1

  2

  4

  6

 40
0.0
 41
0.0
 42
0.0
 43
0.0
 44
0.0
 45
0.0
 46
0.0
 47
0.0
 48
0.0
 49
0.0
140
0.0
141
0.0
142
1.0
143
1.0
 70
  1712
 72
     0
 73
     0
 74
     0
  7

 75
     0
147
1.0
 76
     0
 77
     2
 78
   300
148
0.0
149
0.0
100
AcDbLayout
  1
Model
 70
     1
 71
     0
 10
0.0
 20
0.0
 11
12.0
 21
9.0
 12
0.0
 22
0.0
 32
0.0
 14
0.0
 24
0.0
 34
0.0
 15
0.0
 25
0.0
 35
0.0
146
0.0
 13
0.0
 23
0.0
 33
0.0
 16
1.0
 26
0.0
 36
0.0
 17
0.0
 27
1.0
 37
0.0
 76
     0
330
70
  0
MATERIAL
  5
19
102
{ACAD_XDICTIONARY
360
1A
102
}
102
{ACAD_REACTORS
330
10
102
}
330
10
100
AcDbMaterial
  1
ByBlock
 72
     0
 43
0.0208333333333333
 43
0.0
 43
0.0
 43
0.0
 43
0.0
 43
0.0208333333333333
 43
0.0
 43
0.0
 43
0.0
 43
0.0
 43
1.0
 43
0.0
 43
0.0
 43
0.0
 43
0.0
 43
1.0
 77
     0
 47
0.0208333333333333
 47
0.0
 47
0.0
 47
0.0
 47
0.0
 47
0.0208333333333333
 47
0.0
 47
0.0
 47
0.0
 47
0.0
 47
1.0
 47
0.0
 47
0.0
 47
0.0
 47
0.0
 47
1.0
171
     0
 49
0.0208333333333333
 49
0.0
 49
0.0
 49
0.0
 49
0.0
 49
0.0208333333333333
 49
0.0
 49
0.0
 49
0.0
 49
0.0
 49
1.0
 49
0.0
 49
0.0
 49
0.0
 49
0.0
 49
1.0
175
     0
142
0.0208333333333333
142
0.0
142
0.0
142
0.0
142
0.0
142
0.0208333333333333
142
0.0
142
0.0
142
0.0
142
0.0
142
1.0
142
0.0
142
0.0
142
0.0
142
0.0
142
1.0
179
     0
144
0.0208333333333333
144
0.0
144
0.0
144
0.0
144
0.0
144
0.0208333333333333
144
0.0
144
0.0
144
0.0
144
0.0
144
1.0
144
0.0
144
0.0
144
0.0
144
0.0
144
1.0
147
0.0208333333333333
147
0.0
147
0.0
147
0.0
147
0.0
147
0.0208333333333333
147
0.0
147
0.0
147
0.0
147
0.0
147
1.0
147
0.0
147
0.0
147
0.0
147
0.0
147
1.0
  0
MATERIAL
  5
11
102
{ACAD_XDICTIONARY
360
12
102
}
102
{ACAD_REACTORS
330
10
102
}
330
10
100
AcDbMaterial
  1
ByLayer
 72
     0
 43
0.0208333333333333
 43
0.0
 43
0.0
 43
0.0
 43
0.0
 43
0.0208333333333333
 43
0.0
 43
0.0
 43
0.0
 43
0.0
 43
1.0
 43
0.0
 43
0.0
 43
0.0
 43
0.0
 43
1.0
 77
     0
 47
0.0208333333333333
 47
0.0
 47
0.0
 47
0.0
 47
0.0
 47
0.0208333333333333
 47
0.0
 47
0.0
 47
0.0
 47
0.0
 47
1.0
 47
0.0
 47
0.0
 47
0.0
 47
0.0
 47
1.0
171
     0
 49
0.0208333333333333
 49
0.0
 49
0.0
 49
0.0
 49
0.0
 49
0.0208333333333333
 49
0.0
 49
0.0
 49
0.0
 49
0.0
 49
1.0
 49
0.0
 49
0.0
 49
0.0
 49
0.0
 49
1.0
175
     0
142
0.0208333333333333
142
0.0
142
0.0
142
0.0
142
0.0
142
0.0208333333333333
142
0.0
142
0.0
142
0.0
142
0.0
142
1.0
142
0.0
142
0.0
142
0.0
142
0.0
142
1.0
179
     0
144
0.0208333333333333
144
0.0
144
0.0
144
0.0
144
0.0
144
0.0208333333333333
144
0.0
144
0.0
144
0.0
144
0.0
144
1.0
144
0.0
144
0.0
144
0.0
144
0.0
144
1.0
147
0.0208333333333333
147
0.0
147
0.0
147
0.0
147
0.0
147
0.0208333333333333
147
0.0
147
0.0
147
0.0
147
0.0
147
1.0
147
0.0
147
0.0
147
0.0
147
0.0
147
1.0
  0
MATERIAL
  5
21
102
{ACAD_XDICTIONARY
360
22
102
}
102
{ACAD_REACTORS
330
10
102
}
330
10
100
AcDbMaterial
  1
Global
 72
     0
 43
0.0208333333333333
 43
0.0
 43
0.0
 43
0.0
 43
0.0
 43
0.0208333333333333
 43
0.0
 43
0.0
 43
0.0
 43
0.0
 43
1.0
 43
0.0
 43
0.0
 43
0.0
 43
0.0
 43
1.0
 77
     0
 47
0.0208333333333333
 47
0.0
 47
0.0
 47
0.0
 47
0.0
 47
0.0208333333333333
 47
0.0
 47
0.0
 47
0.0
 47
0.0
 47
1.0
 47
0.0
 47
0.0
 47
0.0
 47
0.0
 47
1.0
171
     0
 49
0.0208333333333333
 49
0.0
 49
0.0
 49
0.0
 49
0.0
 49
0.0208333333333333
 49
0.0
 49
0.0
 49
0.0
 49
0.0
 49
1.0
 49
0.0
 49
0.0
 49
0.0
 49
0.0
 49
1.0
175
     0
142
0.0208333333333333
142
0.0
142
0.0
142
0.0
142
0.0
142
0.0208333333333333
142
0.0
142
0.0
142
0.0
142
0.0
142
1.0
142
0.0
142
0.0
142
0.0
142
0.0
142
1.0
179
     0
144
0.0208333333333333
144
0.0
144
0.0
144
0.0
144
0.0
144
0.0208333333333333
144
0.0
144
0.0
144
0.0
144
0.0
144
1.0
144
0.0
144
0.0
144
0.0
144
0.0
144
1.0
147
0.0208333333333333
147
0.0
147
0.0
147
0.0
147
0.0
147
0.0208333333333333
147
0.0
147
0.0
147
0.0
147
0.0
147
1.0
147
0.0
147
0.0
147
0.0
147
0.0
147
1.0
  0
MLEADERSTYLE
  5
67
102
{ACAD_REACTORS
330
66
102
}
330
66
100
AcDbMLeaderStyle
179
     2
170
     2
171
     1
172
     0
 90
        2
 40
0.0
 41
0.0
173
     1
 91
-1056964608
340
5B
 92
       -2
290
     1
 42
0.09
291
     1
 43
0.36
  3
Standard
 44
0.18
300

342
55
174
     1
178
     6
175
     1
176
     0
 93
-1056964608
 45
0.18
292
     0
297
     0
 46
0.18
 94
-1056964608
 47
1.0
 49
1.0
140
1.0
293
     1
141
0.0
294
     1
177
     0
142
1.0
295
     1
296
     0
143
0.125
271
     0
272
     9
273
     9
298
     1
  0
MLINESTYLE
  5
60
102
{ACAD_REACTORS
330
5F
102
}
330
5F
100
AcDbMlineStyle
  2
STANDARD
 70
     0
  3

 62
   256
 51
90.0
 52
90.0
 71
     2
 49
0.5
 62
   256
  6
BYLAYER
 49
-0.5
 62
   256
  6
BYLAYER
  0
ACDBPLACEHOLDER
  5
F
102
{ACAD_REACTORS
330
E
102
}
330
E
  0
SCALE
  5
43
102
{ACAD_REACTORS
330
42
102
}
330
42
100
AcDbScale
 70
     0
300
1:1
140
1.0
141
1.0
290
     1
  0
SCALE
  5
44
102
{ACAD_REACTORS
330
42
102
}
330
42
100
AcDbScale
 70
     0
300
1/128" = 1'-0"
140
0.0078125
141
12.0
290
     0
  0
SCALE
  5
45
102
{ACAD_REACTORS
330
42
102
}
330
42
100
AcDbScale
 70
     0
300
1/64" = 1'-0"
140
0.015625
141
12.0
290
     0
  0
SCALE
  5
46
102
{ACAD_REACTORS
330
42
102
}
330
42
100
AcDbScale
 70
     0
300
1/32" = 1'-0"
140
0.03125
141
12.0
290
     0
  0
SCALE
  5
47
102
{ACAD_REACTORS
330
42
102
}
330
42
100
AcDbScale
 70
     0
300
1/16" = 1'-0"
140
0.0625
141
12.0
290
     0
  0
SCALE
  5
48
102
{ACAD_REACTORS
330
42
102
}
330
42
100
AcDbScale
 70
     0
300
3/32" = 1'-0"
140
0.09375
141
12.0
290
     0
  0
SCALE
  5
49
102
{ACAD_REACTORS
330
42
102
}
330
42
100
AcDbScale
 70
     0
300
1/8" = 1'-0"
140
0.125
141
12.0
290
     0
  0
SCALE
  5
4A
102
{ACAD_REACTORS
330
42
102
}
330
42
100
AcDbScale
 70
     0
300
3/16" = 1'-0"
140
0.1875
141
12.0
290
     0
  0
SCALE
  5
4B
102
{ACAD_REACTORS
330
42
102
}
330
42
100
AcDbScale
 70
     0
300
1/4" = 1'-0"
140
0.25
141
12.0
290
     0
  0
SCALE
  5
4C
102
{ACAD_REACTORS
330
42
102
}
330
42
100
AcDbScale
 70
     0
300
3/8" = 1'-0"
140
0.375
141
12.0
290
     0
  0
SCALE
  5
4D
102
{ACAD_REACTORS
330
42
102
}
330
42
100
AcDbScale
 70
     0
300
1/2" = 1'-0"
140
0.5
141
12.0
290
     0
  0
SCALE
  5
4E
102
{ACAD_REACTORS
330
42
102
}
330
42
100
AcDbScale
 70
     0
300
3/4" = 1'-0"
140
0.75
141
12.0
290
     0
  0
SCALE
  5
4F
102
{ACAD_REACTORS
330
42
102
}
330
42
100
AcDbScale
 70
     0
300
1" = 1'-0"
140
1.0
141
12.0
290
     0
  0
SCALE
  5
50
102
{ACAD_REACTORS
330
42
102
}
330
42
100
AcDbScale
 70
     0
300
1-1/2" = 1'-0"
140
1.5
141
12.0
290
     0
  0
SCALE
  5
51
102
{ACAD_REACTORS
330
42
102
}
330
42
100
AcDbScale
 70
     0
300
3" = 1'-0"
140
3.0
141
12.0
290
     0
  0
SCALE
  5
52
102
{ACAD_REACTORS
330
42
102
}
330
42
100
AcDbScale
 70
     0
300
6" = 1'-0"
140
6.0
141
12.0
290
     0
  0
SCALE
  5
53
102
{ACAD_REACTORS
330
42
102
}
330
42
100
AcDbScale
 70
     0
300
1'-0" = 1'-0"
140
12.0
141
12.0
290
     0
  0
ACDBSECTIONVIEWSTYLE
  5
69
102
{ACAD_REACTORS
330
68
102
}
330
68
100
AcDbModelDocViewStyle
 70
     0
  3
Imperial24
290
     1
300
Imperial24
 90
        0
100
AcDbSectionViewStyle
 70
     0
 71
     0
 90
       78
 71
     1
340
55
 62
   256
 40
0.24
340
0
340
0
 62
   256
 40
0.24
300
I, O, Q, S, X, Z
 40
0.48
 90
        3
 40
0.18
 90
        1
 71
     2
340
5D
 90
       25
 62
   256
340
5D
 90
       50
 62
   256
 40
0.24
 40
0.0
 40
0.24
 71
     3
340
55
 62
   256
 40
0.24
 90
        1
 40
0.75
 90
        1
300
%<\AcVar ViewType \f "%tc1">% %<\AcVar ViewSectionStartId>%-%<\AcVar ViewSectionEndId>%\PSCALE %<\AcVar ViewScale \f "%sn">%
 71
     4
 62
   256
 62
   257
300
ANSI31
 40
1.0
 90
        0
290
     0
290
     0
 90
        6
 40
0.0
 40
1.570796326794896
 40
0.2617993877991494
 40
1.308996938995747
 40
-0.2617993877991494
 40
1.832595714594046
  0
TABLESTYLE
  5
65
102
{ACAD_XDICTIONARY
360
362
102
}
102
{ACAD_REACTORS
330
64
102
}
330
64
100
AcDbTableStyle
280
     0
  3
Standard
 70
     0
 71
     0
 40
0.06
 41
0.06
280
     0
281
     0
  7
Standard
140
0.18
170
     2
 62
     0
 63
     7
283
     0
 90
      512
 91
        0
  1

274
    -2
284
     1
 64
     0
275
    -2
285
     1
 65
     0
276
    -2
286
     1
 66
     0
277
    -2
287
     1
 67
     0
278
    -2
288
     1
 68
     0
279
    -2
289
     1
 69
     0
  7
Standard
140
0.25
170
     5
 62
     0
 63
     7
283
     0
 90
      512
 91
        0
  1

274
    -2
284
     1
 64
     0
275
    -2
285
     1
 65
     0
276
    -2
286
     1
 66
     0
277
    -2
287
     1
 67
     0
278
    -2
288
     1
 68
     0
279
    -2
289
     1
 69
     0
  7
Standard
140
0.18
170
     5
 62
     0
 63
     7
283
     0
 90
      512
 91
        0
  1

274
    -2
284
     1
 64
     0
275
    -2
285
     1
 65
     0
276
    -2
286
     1
 66
     0
277
    -2
287
     1
 67
     0
278
    -2
288
     1
 68
     0
279
    -2
289
     1
 69
     0
  0
VISUALSTYLE
  5
2F
102
{ACAD_REACTORS
330
29
102
}
330
29
100
AcDbVisualStyle
  2
2dWireframe
 70
     4
177
     3
291
     0
 70
    58
 90
        0
176
     1
 90
        2
176
     1
 90
        0
176
     1
 90
        0
176
     1
 40
0.6
176
     1
 40
30.0
176
     1
 62
     7
420
 16777215
176
     1
 90
        1
176
     1
 90
        4
176
     1
 62
     7
176
     1
 62
   257
176
     1
 90
        1
176
     1
 90
        1
176
     1
 40
1.0
176
     1
 90
        0
176
     1
 62
   257
176
     1
 40
1.0
176
     1
 90
        1
176
     1
 90
        6
176
     1
 90
        2
176
     1
 62
     7
176
     1
 90
        5
176
     1
 90
        0
176
     1
 90
        0
176
     1
290
     0
176
     1
 90
        1
176
     1
 40
0.0
176
     1
 90
        0
176
     1
290
     1
176
     1
290
     1
176
     1
290
     0
176
     1
290
     0
176
     1
290
     0
176
     1
290
     0
176
     1
290
     0
176
     1
290
     0
176
     1
290
     0
176
     1
 90
       50
176
     1
 40
0.0
176
     1
 40
1.0
176
     1
 90
        0
176
     1
 62
    18
420
        0
176
     1
 90
       50
176
     1
 90
        3
176
     1
 62
     5
420
      255
176
     1
290
     0
176
     1
 90
       50
176
     1
 90
       50
176
     1
 90
       50
176
     1
290
     0
176
     1
 90
       50
176
     1
 62
   256
176
     0
 40
1.0
176
     0
 90
        2
176
     1
  1
strokes_ogs.tif
176
     1
290
     0
176
     1
 40
1.0
176
     1
 40
1.0
176
     1
  0
VISUALSTYLE
  5
2E
102
{ACAD_REACTORS
330
29
102
}
330
29
100
AcDbVisualStyle
  2
Basic
 70
     7
177
     3
291
     1
 70
    58
 90
        1
176
     1
 90
        0
176
     1
 90
        1
176
     1
 90
        0
176
     1
 40
0.6
176
     1
 40
30.0
176
     1
 62
     7
420
 16777215
176
     1
 90
        0
176
     1
 90
        4
176
     1
 62
     7
176
     1
 62
   257
176
     1
 90
        1
176
     1
 90
        1
176
     1
 40
1.0
176
     1
 90
        8
176
     1
 62
     7
176
     1
 40
1.0
176
     1
 90
        1
176
     1
 90
        6
176
     1
 90
        2
176
     1
 62
     7
176
     1
 90
        5
176
     1
 90
        0
176
     1
 90
        0
176
     1
290
     0
176
     1
 90
        1
176
     1
 40
0.0
176
     1
 90
        0
176
     1
290
     0
176
     1
290
     1
176
     1
290
     1
176
     1
290
     0
176
     1
290
     0
176
     1
290
     0
176
     1
290
     0
176
     1
290
     0
176
     1
290
     0
176
     1
 90
       50
176
     1
 40
0.0
176
     1
 40
1.0
176
     1
 90
        0
176
     1
 62
    18
420
        0
176
     1
 90
       50
176
     1
 90
        3
176
     1
 62
     5
420
      255
176
     1
290
     0
176
     1
 90
       50
176
     1
 90
       50
176
     1
 90
       50
176
     1
290
     0
176
     1
 90
       50
176
     1
 62
   256
176
     0
 40
1.0
176
     0
 90
        2
176
     1
  1
strokes_ogs.tif
176
     1
290
     0
176
     1
 40
1.0
176
     1
 40
1.0
176
     1
  0
VISUALSTYLE
  5
35
102
{ACAD_REACTORS
330
29
102
}
330
29
100
AcDbVisualStyle
  2
Brighten
 70
    12
177
     3
291
     1
 70
    58
 90
        2
176
     1
 90
        2
176
     1
 90
        0
176
     1
 90
        0
176
     1
 40
0.6
176
     1
 40
30.0
176
     1
 62
     7
420
 16777215
176
     1
 90
        1
176
     1
 90
        4
176
     1
 62
     7
176
     1
 62
   257
176
     1
 90
        1
176
     1
 90
        1
176
     1
 40
1.0
176
     1
 90
        8
176
     1
 62
     7
176
     1
 40
1.0
176
     1
 90
        1
176
     1
 90
        6
176
     1
 90
        2
176
     1
 62
     7
176
     1
 90
        5
176
     1
 90
        0
176
     1
 90
        0
176
     1
290
     0
176
     1
 90
        1
176
     1
 40
50.0
176
     1
 90
        0
176
     1
290
     0
176
     1
290
     1
176
     1
290
     1
176
     1
290
     0
176
     1
290
     0
176
     1
290
     0
176
     1
290
     0
176
     1
290
     0
176
     1
290
     0
176
     1
 90
       50
176
     1
 40
0.0
176
     1
 40
1.0
176
     1
 90
        0
176
     1
 62
    18
420
        0
176
     1
 90
       50
176
     1
 90
        3
176
     1
 62
     5
420
      255
176
     1
290
     0
176
     1
 90
       50
176
     1
 90
       50
176
     1
 90
       50
176
     1
290
     0
176
     1
 90
       50
176
     1
 62
   256
176
     0
 40
1.0
176
     0
 90
        2
176
     1
  1
strokes_ogs.tif
176
     1
290
     0
176
     1
 40
1.0
176
     1
 40
1.0
176
     1
  0
VISUALSTYLE
  5
39
102
{ACAD_REACTORS
330
29
102
}
330
29
100
AcDbVisualStyle
  2
ColorChange
 70
    16
177
     3
291
     1
 70
    58
 90
        2
176
     1
 90
        2
176
     1
 90
        3
176
     1
 90
        0
176
     1
 40
0.6
176
     1
 40
30.0
176
     1
 62
     8
420
  8421504
176
     1
 90
        1
176
     1
 90
        4
176
     1
 62
     7
176
     1
 62
   257
176
     1
 90
        1
176
     1
 90
        1
176
     1
 40
1.0
176
     1
 90
        8
176
     1
 62
     8
420
  8421504
176
     1
 40
1.0
176
     1
 90
        1
176
     1
 90
        6
176
     1
 90
        2
176
     1
 62
     7
176
     1
 90
        5
176
     1
 90
        0
176
     1
 90
        0
176
     1
290
     0
176
     1
 90
        1
176
     1
 40
0.0
176
     1
 90
        0
176
     1
290
     0
176
     1
290
     1
176
     1
290
     1
176
     1
290
     0
176
     1
290
     0
176
     1
290
     0
176
     1
290
     0
176
     1
290
     0
176
     1
290
     0
176
     1
 90
       50
176
     1
 40
0.0
176
     1
 40
1.0
176
     1
 90
        0
176
     1
 62
    18
420
        0
176
     1
 90
       50
176
     1
 90
        3
176
     1
 62
     5
420
      255
176
     1
290
     0
176
     1
 90
       50
176
     1
 90
       50
176
     1
 90
       50
176
     1
290
     0
176
     1
 90
       50
176
     1
 62
   256
176
     0
 40
1.0
176
     0
 90
        2
176
     1
  1
strokes_ogs.tif
176
     1
290
     0
176
     1
 40
1.0
176
     1
 40
1.0
176
     1
  0
VISUALSTYLE
  5
32
102
{ACAD_REACTORS
330
29
102
}
330
29
100
AcDbVisualStyle
  2
Conceptual
 70
     9
177
     3
291
     0
 70
    58
 90
        3
176
     1
 90
        2
176
     1
 90
        0
176
     1
 90
        0
176
     1
 40
0.6
176
     1
 40
30.0
176
     1
 62
     7
420
 16777215
176
     1
 90
        2
176
     1
 90
        2
176
     1
 62
     7
176
     1
 62
   257
176
     1
 90
        1
176
     1
 90
        1
176
     1
 40
179.0
176
     1
 90
        8
176
     1
 62
     7
176
     1
 40
1.0
176
     1
 90
        1
176
     1
 90
        6
176
     1
 90
        2
176
     1
 62
     7
176
     1
 90
        3
176
     1
 90
        0
176
     1
 90
        0
176
     1
290
     0
176
     1
 90
        1
176
     1
 40
0.0
176
     1
 90
        0
176
     1
290
     0
176
     1
290
     1
176
     1
290
     1
176
     1
290
     0
176
     1
290
     0
176
     1
290
     0
176
     1
290
     0
176
     1
290
     0
176
     1
290
     0
176
     1
 90
       50
176
     1
 40
0.0
176
     1
 40
1.0
176
     1
 90
        0
176
     1
 62
    18
420
        0
176
     1
 90
       50
176
     1
 90
        3
176
     1
 62
     5
420
      255
176
     1
290
     0
176
     1
 90
       50
176
     1
 90
       50
176
     1
 90
       50
176
     1
290
     0
176
     1
 90
       50
176
     1
 62
   256
176
     0
 40
1.0
176
     0
 90
        2
176
     1
  1
strokes_ogs.tif
176
     1
290
     0
176
     1
 40
1.0
176
     1
 40
1.0
176
     1
  0
VISUALSTYLE
  5
34
102
{ACAD_REACTORS
330
29
102
}
330
29
100
AcDbVisualStyle
  2
Dim
 70
    11
177
     3
291
     1
 70
    58
 90
        2
176
     1
 90
        2
176
     1
 90
        0
176
     1
 90
        0
176
     1
 40
0.6
176
     1
 40
30.0
176
     1
 62
     7
420
 16777215
176
     1
 90
        1
176
     1
 90
        4
176
     1
 62
     7
176
     1
 62
   257
176
     1
 90
        1
176
     1
 90
        1
176
     1
 40
1.0
176
     1
 90
        8
176
     1
 62
     7
176
     1
 40
1.0
176
     1
 90
        1
176
     1
 90
        6
176
     1
 90
        2
176
     1
 62
     7
176
     1
 90
        5
176
     1
 90
        0
176
     1
 90
        0
176
     1
290
     0
176
     1
 90
        1
176
     1
 40
-50.0
176
     1
 90
        0
176
     1
290
     0
176
     1
290
     1
176
     1
290
     1
176
     1
290
     0
176
     1
290
     0
176
     1
290
     0
176
     1
290
     0
176
     1
290
     0
176
     1
290
     0
176
     1
 90
       50
176
     1
 40
0.0
176
     1
 40
1.0
176
     1
 90
        0
176
     1
 62
    18
420
        0
176
     1
 90
       50
176
     1
 90
        3
176
     1
 62
     5
420
      255
176
     1
290
     0
176
     1
 90
       50
176
     1
 90
       50
176
     1
 90
       50
176
     1
290
     0
176
     1
 90
       50
176
     1
 62
   256
176
     0
 40
1.0
176
     0
 90
        2
176
     1
  1
strokes_ogs.tif
176
     1
290
     0
176
     1
 40
1.0
176
     1
 40
1.0
176
     1
  0
VISUALSTYLE
  5
41
102
{ACAD_REACTORS
330
29
102
}
330
29
100
AcDbVisualStyle
  2
EdgeColorOff
 70
    22
177
     3
291
     1
 70
    58
 90
        2
176
     0
 90
        2
176
     0
 90
        0
176
     0
 90
        0
176
     0
 40
0.6
176
     0
 40
30.0
176
     0
 62
     7
420
 16777215
176
     0
 90
        1
176
     0
 90
        4
176
     0
 62
     7
176
     0
 62
   257
176
     0
 90
        1
176
     0
 90
        1
176
     0
 40
1.0
176
     0
 90
        8
176
     2
 62
     7
176
     0
 40
1.0
176
     0
 90
        1
176
     0
 90
        6
176
     0
 90
        2
176
     0
 62
     7
176
     0
 90
        5
176
     0
 90
        0
176
     0
 90
        0
176
     0
290
     0
176
     0
 90
        1
176
     0
 40
0.0
176
     0
 90
        0
176
     0
290
     0
176
     0
290
     1
176
     0
290
     1
176
     0
290
     0
176
     0
290
     0
176
     0
290
     0
176
     0
290
     0
176
     0
290
     0
176
     0
290
     0
176
     0
 90
       50
176
     0
 40
0.0
176
     0
 40
1.0
176
     0
 90
        0
176
     0
 62
    18
420
        0
176
     0
 90
       50
176
     0
 90
        3
176
     0
 62
     5
420
      255
176
     0
290
     0
176
     0
 90
       50
176
     0
 90
       50
176
     0
 90
       50
176
     0
290
     0
176
     0
 90
       50
176
     0
 62
   256
176
     0
 40
1.0
176
     0
 90
        2
176
     0
  1
strokes_ogs.tif
176
     0
290
     0
176
     0
 40
1.0
176
     0
 40
1.0
176
     0
  0
VISUALSTYLE
  5
38
102
{ACAD_REACTORS
330
29
102
}
330
29
100
AcDbVisualStyle
  2
Facepattern
 70
    15
177
     3
291
     1
 70
    58
 90
        2
176
     1
 90
        2
176
     1
 90
        0
176
     1
 90
        0
176
     1
 40
0.6
176
     1
 40
30.0
176
     1
 62
     7
420
 16777215
176
     1
 90
        1
176
     1
 90
        4
176
     1
 62
     7
176
     1
 62
   257
176
     1
 90
        1
176
     1
 90
        1
176
     1
 40
1.0
176
     1
 90
        8
176
     1
 62
     7
176
     1
 40
1.0
176
     1
 90
        1
176
     1
 90
        6
176
     1
 90
        2
176
     1
 62
     7
176
     1
 90
        5
176
     1
 90
        0
176
     1
 90
        0
176
     1
290
     0
176
     1
 90
        1
176
     1
 40
0.0
176
     1
 90
        0
176
     1
290
     0
176
     1
290
     1
176
     1
290
     1
176
     1
290
     0
176
     1
290
     0
176
     1
290
     0
176
     1
290
     0
176
     1
290
     0
176
     1
290
     0
176
     1
 90
       50
176
     1
 40
0.0
176
     1
 40
1.0
176
     1
 90
        0
176
     1
 62
    18
420
        0
176
     1
 90
       50
176
     1
 90
        3
176
     1
 62
     5
420
      255
176
     1
290
     0
176
     1
 90
       50
176
     1
 90
       50
176
     1
 90
       50
176
     1
290
     0
176
     1
 90
       50
176
     1
 62
   256
176
     0
 40
1.0
176
     0
 90
        2
176
     1
  1
strokes_ogs.tif
176
     1
290
     0
176
     1
 40
1.0
176
     1
 40
1.0
176
     1
  0
VISUALSTYLE
  5
2A
102
{ACAD_REACTORS
330
29
102
}
330
29
100
AcDbVisualStyle
  2
Flat
 70
     0
177
     3
291
     1
 70
    58
 90
        2
176
     1
 90
        1
176
     1
 90
        1
176
     1
 90
        2
176
     1
 40
0.6
176
     1
 40
30.0
176
     1
 62
     7
420
 16777215
176
     1
 90
        0
176
     1
 90
        0
176
     1
 62
     7
176
     1
 62
   257
176
     1
 90
        1
176
     1
 90
        1
176
     1
 40
1.0
176
     1
 90
        8
176
     1
 62
     7
176
     1
 40
1.0
176
     1
 90
        1
176
     1
 90
        6
176
     1
 90
        2
176
     1
 62
     7
176
     1
 90
        5
176
     1
 90
        0
176
     1
 90
        0
176
     1
290
     0
176
     1
 90
       13
176
     1
 40
0.0
176
     1
 90
        0
176
     1
290
     0
176
     1
290
     1
176
     1
290
     1
176
     1
290
     0
176
     1
290
     0
176
     1
290
     0
176
     1
290
     0
176
     1
290
     0
176
     1
290
     0
176
     1
 90
       50
176
     1
 40
0.0
176
     1
 40
1.0
176
     1
 90
        0
176
     1
 62
    18
420
        0
176
     1
 90
       50
176
     1
 90
        3
176
     1
 62
     5
420
      255
176
     1
290
     0
176
     1
 90
       50
176
     1
 90
       50
176
     1
 90
       50
176
     1
290
     0
176
     1
 90
       50
176
     1
 62
   256
176
     0
 40
1.0
176
     0
 90
        2
176
     1
  1
strokes_ogs.tif
176
     1
290
     0
176
     1
 40
1.0
176
     1
 40
1.0
176
     1
  0
VISUALSTYLE
  5
2B
102
{ACAD_REACTORS
330
29
102
}
330
29
100
AcDbVisualStyle
  2
FlatWithEdges
 70
     1
177
     3
291
     1
 70
    58
 90
        2
176
     1
 90
        1
176
     1
 90
        1
176
     1
 90
        2
176
     1
 40
0.6
176
     1
 40
30.0
176
     1
 62
     7
420
 16777215
176
     1
 90
        1
176
     1
 90
        0
176
     1
 62
     7
176
     1
 62
   257
176
     1
 90
        1
176
     1
 90
        1
176
     1
 40
1.0
176
     1
 90
        0
176
     1
 62
   257
176
     1
 40
1.0
176
     1
 90
        1
176
     1
 90
        6
176
     1
 90
        2
176
     1
 62
     7
176
     1
 90
        5
176
     1
 90
        0
176
     1
 90
        0
176
     1
290
     0
176
     1
 90
       13
176
     1
 40
0.0
176
     1
 90
        0
176
     1
290
     0
176
     1
290
     1
176
     1
290
     1
176
     1
290
     0
176
     1
290
     0
176
     1
290
     0
176
     1
290
     0
176
     1
290
     0
176
     1
290
     0
176
     1
 90
       50
176
     1
 40
0.0
176
     1
 40
1.0
176
     1
 90
        0
176
     1
 62
    18
420
        0
176
     1
 90
       50
176
     1
 90
        3
176
     1
 62
     5
420
      255
176
     1
290
     0
176
     1
 90
       50
176
     1
 90
       50
176
     1
 90
       50
176
     1
290
     0
176
     1
 90
       50
176
     1
 62
   256
176
     0
 40
1.0
176
     0
 90
        2
176
     1
  1
strokes_ogs.tif
176
     1
290
     0
176
     1
 40
1.0
176
     1
 40
1.0
176
     1
  0
VISUALSTYLE
  5
2C
102
{ACAD_REACTORS
330
29
102
}
330
29
100
AcDbVisualStyle
  2
Gouraud
 70
     2
177
     3
291
     1
 70
    58
 90
        2
176
     1
 90
        2
176
     1
 90
        1
176
     1
 90
        2
176
     1
 40
0.6
176
     1
 40
30.0
176
     1
 62
     7
420
 16777215
176
     1
 90
        0
176
     1
 90
        0
176
     1
 62
     7
176
     1
 62
   257
176
     1
 90
        1
176
     1
 90
        1
176
     1
 40
1.0
176
     1
 90
        0
176
     1
 62
     7
176
     1
 40
1.0
176
     1
 90
        1
176
     1
 90
        6
176
     1
 90
        2
176
     1
 62
     7
176
     1
 90
        5
176
     1
 90
        0
176
     1
 90
        0
176
     1
290
     0
176
     1
 90
       13
176
     1
 40
0.0
176
     1
 90
        0
176
     1
290
     0
176
     1
290
     1
176
     1
290
     1
176
     1
290
     0
176
     1
290
     0
176
     1
290
     0
176
     1
290
     0
176
     1
290
     0
176
     1
290
     0
176
     1
 90
       50
176
     1
 40
0.0
176
     1
 40
1.0
176
     1
 90
        0
176
     1
 62
    18
420
        0
176
     1
 90
       50
176
     1
 90
        3
176
     1
 62
     5
420
      255
176
     1
290
     0
176
     1
 90
       50
176
     1
 90
       50
176
     1
 90
       50
176
     1
290
     0
176
     1
 90
       50
176
     1
 62
   256
176
     0
 40
1.0
176
     0
 90
        2
176
     1
  1
strokes_ogs.tif
176
     1
290
     0
176
     1
 40
1.0
176
     1
 40
1.0
176
     1
  0
VISUALSTYLE
  5
2D
102
{ACAD_REACTORS
330
29
102
}
330
29
100
AcDbVisualStyle
  2
GouraudWithEdges
 70
     3
177
     3
291
     1
 70
    58
 90
        2
176
     1
 90
        2
176
     1
 90
        1
176
     1
 90
        2
176
     1
 40
0.6
176
     1
 40
30.0
176
     1
 62
     7
420
 16777215
176
     1
 90
        1
176
     1
 90
        0
176
     1
 62
     7
176
     1
 62
   257
176
     1
 90
        1
176
     1
 90
        1
176
     1
 40
1.0
176
     1
 90
        0
176
     1
 62
   257
176
     1
 40
1.0
176
     1
 90
        1
176
     1
 90
        6
176
     1
 90
        2
176
     1
 62
     7
176
     1
 90
        5
176
     1
 90
        0
176
     1
 90
        0
176
     1
290
     0
176
     1
 90
       13
176
     1
 40
0.0
176
     1
 90
        0
176
     1
290
     0
176
     1
290
     1
176
     1
290
     1
176
     1
290
     0
176
     1
290
     0
176
     1
290
     0
176
     1
290
     0
176
     1
290
     0
176
     1
290
     0
176
     1
 90
       50
176
     1
 40
0.0
176
     1
 40
1.0
176
     1
 90
        0
176
     1
 62
    18
420
        0
176
     1
 90
       50
176
     1
 90
        3
176
     1
 62
     5
420
      255
176
     1
290
     0
176
     1
 90
       50
176
     1
 90
       50
176
     1
 90
       50
176
     1
290
     0
176
     1
 90
       50
176
     1
 62
   256
176
     0
 40
1.0
176
     0
 90
        2
176
     1
  1
strokes_ogs.tif
176
     1
290
     0
176
     1
 40
1.0
176
     1
 40
1.0
176
     1
  0
VISUALSTYLE
  5
31
102
{ACAD_REACTORS
330
29
102
}
330
29
100
AcDbVisualStyle
  2
Hidden
 70
     6
177
     3
291
     0
 70
    58
 90
        1
176
     1
 90
        2
176
     1
 90
        2
176
     1
 90
        0
176
     1
 40
0.6
176
     1
 40
30.0
176
     1
 62
     7
420
 16777215
176
     1
 90
        2
176
     1
 90
        2
176
     1
 62
     7
176
     1
 62
   257
176
     1
 90
        2
176
     1
 90
        1
176
     1
 40
40.0
176
     1
 90
        0
176
     1
 62
   257
176
     1
 40
1.0
176
     1
 90
        1
176
     1
 90
        6
176
     1
 90
        2
176
     1
 62
     7
176
     1
 90
        3
176
     1
 90
        0
176
     1
 90
        0
176
     1
290
     0
176
     1
 90
        1
176
     1
 40
0.0
176
     1
 90
        0
176
     1
290
     0
176
     1
290
     1
176
     1
290
     1
176
     1
290
     0
176
     1
290
     0
176
     1
290
     0
176
     1
290
     0
176
     1
290
     0
176
     1
290
     0
176
     1
 90
       50
176
     1
 40
0.0
176
     1
 40
1.0
176
     1
 90
        0
176
     1
 62
    18
420
        0
176
     1
 90
       50
176
     1
 90
        3
176
     1
 62
     5
420
      255
176
     1
290
     0
176
     1
 90
       50
176
     1
 90
       50
176
     1
 90
       50
176
     1
290
     0
176
     1
 90
       50
176
     1
 62
   256
176
     0
 40
1.0
176
     0
 90
        2
176
     1
  1
strokes_ogs.tif
176
     1
290
     0
176
     1
 40
1.0
176
     1
 40
1.0
176
     1
  0
VISUALSTYLE
  5
3F
102
{ACAD_REACTORS
330
29
102
}
330
29
100
AcDbVisualStyle
  2
JitterOff
 70
    20
177
     3
291
     1
 70
    58
 90
        2
176
     0
 90
        2
176
     0
 90
        0
176
     0
 90
        0
176
     0
 40
0.6
176
     0
 40
30.0
176
     0
 62
     7
420
 16777215
176
     0
 90
        1
176
     0
 90
        4
176
     0
 62
     7
176
     0
 62
   257
176
     0
 90
        1
176
     0
 90
        1
176
     0
 40
1.0
176
     0
 90
       10
176
     2
 62
     7
176
     0
 40
1.0
176
     0
 90
        1
176
     0
 90
        6
176
     0
 90
        2
176
     0
 62
     7
176
     0
 90
        5
176
     0
 90
        0
176
     0
 90
        0
176
     0
290
     0
176
     0
 90
        1
176
     0
 40
0.0
176
     0
 90
        0
176
     0
290
     0
176
     0
290
     1
176
     0
290
     1
176
     0
290
     0
176
     0
290
     0
176
     0
290
     0
176
     0
290
     0
176
     0
290
     0
176
     0
290
     0
176
     0
 90
       50
176
     0
 40
0.0
176
     0
 40
1.0
176
     0
 90
        0
176
     0
 62
    18
420
        0
176
     0
 90
       50
176
     0
 90
        3
176
     0
 62
     5
420
      255
176
     0
290
     0
176
     0
 90
       50
176
     0
 90
       50
176
     0
 90
       50
176
     0
290
     0
176
     0
 90
       50
176
     0
 62
   256
176
     0
 40
1.0
176
     0
 90
        2
176
     0
  1
strokes_ogs.tif
176
     0
290
     0
176
     0
 40
1.0
176
     0
 40
1.0
176
     0
  0
VISUALSTYLE
  5
37
102
{ACAD_REACTORS
330
29
102
}
330
29
100
AcDbVisualStyle
  2
Linepattern
 70
    14
177
     3
291
     1
 70
    58
 90
        2
176
     1
 90
        2
176
     1
 90
        0
176
     1
 90
        0
176
     1
 40
0.6
176
     1
 40
30.0
176
     1
 62
     7
420
 16777215
176
     1
 90
        1
176
     1
 90
        4
176
     1
 62
     7
176
     1
 62
   257
176
     1
 90
        7
176
     1
 90
        7
176
     1
 40
1.0
176
     1
 90
        8
176
     1
 62
     7
176
     1
 40
1.0
176
     1
 90
        1
176
     1
 90
        6
176
     1
 90
        2
176
     1
 62
     7
176
     1
 90
        5
176
     1
 90
        0
176
     1
 90
        0
176
     1
290
     0
176
     1
 90
        1
176
     1
 40
0.0
176
     1
 90
        0
176
     1
290
     0
176
     1
290
     1
176
     1
290
     1
176
     1
290
     0
176
     1
290
     0
176
     1
290
     0
176
     1
290
     0
176
     1
290
     0
176
     1
290
     0
176
     1
 90
       50
176
     1
 40
0.0
176
     1
 40
1.0
176
     1
 90
        0
176
     1
 62
    18
420
        0
176
     1
 90
       50
176
     1
 90
        3
176
     1
 62
     5
420
      255
176
     1
290
     0
176
     1
 90
       50
176
     1
 90
       50
176
     1
 90
       50
176
     1
290
     0
176
     1
 90
       50
176
     1
 62
   256
176
     0
 40
1.0
176
     0
 90
        2
176
     1
  1
strokes_ogs.tif
176
     1
290
     0
176
     1
 40
1.0
176
     1
 40
1.0
176
     1
  0
VISUALSTYLE
  5
40
102
{ACAD_REACTORS
330
29
102
}
330
29
100
AcDbVisualStyle
  2
OverhangOff
 70
    21
177
     3
291
     1
 70
    58
 90
        2
176
     0
 90
        2
176
     0
 90
        0
176
     0
 90
        0
176
     0
 40
0.6
176
     0
 40
30.0
176
     0
 62
     7
420
 16777215
176
     0
 90
        1
176
     0
 90
        4
176
     0
 62
     7
176
     0
 62
   257
176
     0
 90
        1
176
     0
 90
        1
176
     0
 40
1.0
176
     0
 90
        9
176
     2
 62
     7
176
     0
 40
1.0
176
     0
 90
        1
176
     0
 90
        6
176
     0
 90
        2
176
     0
 62
     7
176
     0
 90
        5
176
     0
 90
        0
176
     0
 90
        0
176
     0
290
     0
176
     0
 90
        1
176
     0
 40
0.0
176
     0
 90
        0
176
     0
290
     0
176
     0
290
     1
176
     0
290
     1
176
     0
290
     0
176
     0
290
     0
176
     0
290
     0
176
     0
290
     0
176
     0
290
     0
176
     0
290
     0
176
     0
 90
       50
176
     0
 40
0.0
176
     0
 40
1.0
176
     0
 90
        0
176
     0
 62
    18
420
        0
176
     0
 90
       50
176
     0
 90
        3
176
     0
 62
     5
420
      255
176
     0
290
     0
176
     0
 90
       50
176
     0
 90
       50
176
     0
 90
       50
176
     0
290
     0
176
     0
 90
       50
176
     0
 62
   256
176
     0
 40
1.0
176
     0
 90
        2
176
     0
  1
strokes_ogs.tif
176
     0
290
     0
176
     0
 40
1.0
176
     0
 40
1.0
176
     0
  0
VISUALSTYLE
  5
33
102
{ACAD_REACTORS
330
29
102
}
330
29
100
AcDbVisualStyle
  2
Realistic
 70
     8
177
     3
291
     0
 70
    58
 90
        2
176
     1
 90
        3
176
     1
 90
        0
176
     1
 90
        2
176
     1
 40
0.6
176
     1
 40
30.0
176
     1
 62
     7
420
 16777215
176
     1
 90
        0
176
     1
 90
        0
176
     1
 62
     7
176
     1
 62
   257
176
     1
 90
        1
176
     1
 90
        1
176
     1
 40
1.0
176
     1
 90
        8
176
     1
 62
   257
176
     1
 40
1.0
176
     1
 90
        1
176
     1
 90
        6
176
     1
 90
        2
176
     1
 62
     7
176
     1
 90
        3
176
     1
 90
        0
176
     1
 90
        0
176
     1
290
     0
176
     1
 90
       13
176
     1
 40
0.0
176
     1
 90
        0
176
     1
290
     0
176
     1
290
     1
176
     1
290
     1
176
     1
290
     0
176
     1
290
     0
176
     1
290
     0
176
     1
290
     0
176
     1
290
     0
176
     1
290
     0
176
     1
 90
       50
176
     1
 40
0.0
176
     1
 40
1.0
176
     1
 90
        0
176
     1
 62
    18
420
        0
176
     1
 90
       50
176
     1
 90
        3
176
     1
 62
     5
420
      255
176
     1
290
     0
176
     1
 90
       50
176
     1
 90
       50
176
     1
 90
       50
176
     1
290
     0
176
     1
 90
       50
176
     1
 62
   256
176
     0
 40
1.0
176
     0
 90
        2
176
     1
  1
strokes_ogs.tif
176
     1
290
     0
176
     1
 40
1.0
176
     1
 40
1.0
176
     1
  0
VISUALSTYLE
  5
3E
102
{ACAD_REACTORS
330
29
102
}
330
29
100
AcDbVisualStyle
  2
Shaded
 70
    27
177
     3
291
     0
 70
    58
 90
        2
176
     1
 90
        2
176
     1
 90
        1
176
     1
 90
        2
176
     1
 40
0.6
176
     1
 40
30.0
176
     1
 62
     7
420
 16777215
176
     1
 90
        0
176
     1
 90
        4
176
     1
 62
     7
176
     1
 62
   257
176
     1
 90
        1
176
     1
 90
        1
176
     1
 40
1.0
176
     1
 90
        8
176
     1
 62
   257
176
     1
 40
1.0
176
     1
 90
        1
176
     1
 90
        6
176
     1
 90
        2
176
     1
 62
     8
420
  7895160
176
     1
 90
        3
176
     1
 90
        0
176
     1
 90
        0
176
     1
290
     0
176
     1
 90
        5
176
     1
 40
0.0
176
     1
 90
        0
176
     1
290
     0
176
     1
290
     1
176
     1
290
     1
176
     1
290
     0
176
     1
290
     0
176
     1
290
     0
176
     1
290
     0
176
     1
290
     0
176
     1
290
     0
176
     1
 90
       50
176
     1
 40
0.0
176
     1
 40
1.0
176
     1
 90
        0
176
     1
 62
    18
420
        0
176
     1
 90
       50
176
     1
 90
        3
176
     1
 62
     5
420
      255
176
     1
290
     0
176
     1
 90
       50
176
     1
 90
       50
176
     1
 90
       50
176
     1
290
     0
176
     1
 90
       50
176
     1
 62
   256
176
     0
 40
1.0
176
     0
 90
        2
176
     1
  1
strokes_ogs.tif
176
     1
290
     0
176
     1
 40
1.0
176
     1
 40
1.0
176
     1
  0
VISUALSTYLE
  5
3D
102
{ACAD_REACTORS
330
29
102
}
330
29
100
AcDbVisualStyle
  2
Shaded with edges
 70
    26
177
     3
291
     0
 70
    58
 90
        2
176
     1
 90
        2
176
     1
 90
        1
176
     1
 90
        2
176
     1
 40
0.6
176
     1
 40
30.0
176
     1
 62
     7
420
 16777215
176
     1
 90
        1
176
     1
 90
        2
176
     1
 62
     7
176
     1
 62
   257
176
     1
 90
        2
176
     1
 90
        1
176
     1
 40
1.0
176
     1
 90
        8
176
     1
 62
   257
176
     1
 40
1.0
176
     1
 90
        1
176
     1
 90
        6
176
     1
 90
        2
176
     1
 62
     7
176
     1
 90
        3
176
     1
 90
        0
176
     1
 90
        0
176
     1
290
     0
176
     1
 90
        5
176
     1
 40
0.0
176
     1
 90
        0
176
     1
290
     0
176
     1
290
     1
176
     1
290
     1
176
     1
290
     0
176
     1
290
     0
176
     1
290
     0
176
     1
290
     0
176
     1
290
     0
176
     1
290
     0
176
     1
 90
       50
176
     1
 40
0.0
176
     1
 40
1.0
176
     1
 90
        0
176
     1
 62
    18
420
        0
176
     1
 90
       50
176
     1
 90
        3
176
     1
 62
     5
420
      255
176
     1
290
     0
176
     1
 90
       50
176
     1
 90
       50
176
     1
 90
       50
176
     1
290
     0
176
     1
 90
       50
176
     1
 62
   256
176
     0
 40
1.0
176
     0
 90
        2
176
     1
  1
strokes_ogs.tif
176
     1
290
     0
176
     1
 40
1.0
176
     1
 40
1.0
176
     1
  0
VISUALSTYLE
  5
3A
102
{ACAD_REACTORS
330
29
102
}
330
29
100
AcDbVisualStyle
  2
Shades of Gray
 70
    23
177
     3
291
     0
 70
    58
 90
        2
176
     1
 90
        2
176
     1
 90
        3
176
     1
 90
        0
176
     1
 40
0.6
176
     1
 40
30.0
176
     1
 62
     7
420
 16777215
176
     1
 90
        2
176
     1
 90
        2
176
     1
 62
     7
176
     1
 62
     7
176
     1
 90
        1
176
     1
 90
        1
176
     1
 40
40.0
176
     1
 90
        8
176
     1
 62
     7
176
     1
 40
1.0
176
     1
 90
        1
176
     1
 90
        6
176
     1
 90
        2
176
     1
 62
     7
176
     1
 90
        3
176
     1
 90
        0
176
     1
 90
        0
176
     1
290
     0
176
     1
 90
        1
176
     1
 40
0.0
176
     1
 90
        0
176
     1
290
     0
176
     1
290
     1
176
     1
290
     1
176
     1
290
     0
176
     1
290
     0
176
     1
290
     0
176
     1
290
     0
176
     1
290
     0
176
     1
290
     0
176
     1
 90
       50
176
     1
 40
0.0
176
     1
 40
1.0
176
     1
 90
        0
176
     1
 62
    18
420
        0
176
     1
 90
       50
176
     1
 90
        3
176
     1
 62
     5
420
      255
176
     1
290
     0
176
     1
 90
       50
176
     1
 90
       50
176
     1
 90
       50
176
     1
290
     0
176
     1
 90
       50
176
     1
 62
   256
176
     0
 40
1.0
176
     0
 90
        2
176
     1
  1
strokes_ogs.tif
176
     1
290
     0
176
     1
 40
1.0
176
     1
 40
1.0
176
     1
  0
VISUALSTYLE
  5
3B
102
{ACAD_REACTORS
330
29
102
}
330
29
100
AcDbVisualStyle
  2
Sketchy
 70
    24
177
     3
291
     0
 70
    58
 90
        1
176
     1
 90
        2
176
     1
 90
        2
176
     1
 90
        0
176
     1
 40
0.6
176
     1
 40
30.0
176
     1
 62
     7
420
 16777215
176
     1
 90
        2
176
     1
 90
        2
176
     1
 62
     7
176
     1
 62
     7
176
     1
 90
        1
176
     1
 90
        1
176
     1
 40
40.0
176
     1
 90
       11
176
     1
 62
     7
176
     1
 40
1.0
176
     1
 90
        1
176
     1
 90
        6
176
     1
 90
        2
176
     1
 62
     7
176
     1
 90
        6
176
     1
 90
        0
176
     1
 90
        0
176
     1
290
     0
176
     1
 90
        1
176
     1
 40
0.0
176
     1
 90
        0
176
     1
290
     0
176
     1
290
     1
176
     1
290
     1
176
     1
290
     0
176
     1
290
     0
176
     1
290
     0
176
     1
290
     0
176
     1
290
     0
176
     1
290
     0
176
     1
 90
       50
176
     1
 40
0.0
176
     1
 40
1.0
176
     1
 90
        0
176
     1
 62
    18
420
        0
176
     1
 90
       50
176
     1
 90
        3
176
     1
 62
     5
420
      255
176
     1
290
     0
176
     1
 90
       50
176
     1
 90
       50
176
     1
 90
       50
176
     1
290
     0
176
     1
 90
       50
176
     1
 62
   256
176
     0
 40
1.0
176
     0
 90
        2
176
     1
  1
strokes_ogs.tif
176
     1
290
     0
176
     1
 40
1.0
176
     1
 40
1.0
176
     1
  0
VISUALSTYLE
  5
36
102
{ACAD_REACTORS
330
29
102
}
330
29
100
AcDbVisualStyle
  2
Thicken
 70
    13
177
     3
291
     1
 70
    58
 90
        2
176
     1
 90
        2
176
     1
 90
        0
176
     1
 90
        0
176
     1
 40
0.6
176
     1
 40
30.0
176
     1
 62
     7
420
 16777215
176
     1
 90
        1
176
     1
 90
        4
176
     1
 62
     7
176
     1
 62
   257
176
     1
 90
        1
176
     1
 90
        1
176
     1
 40
1.0
176
     1
 90
       12
176
     1
 62
     7
176
     1
 40
1.0
176
     1
 90
        1
176
     1
 90
        6
176
     1
 90
        2
176
     1
 62
     7
176
     1
 90
        5
176
     1
 90
        0
176
     1
 90
        0
176
     1
290
     0
176
     1
 90
        1
176
     1
 40
0.0
176
     1
 90
        0
176
     1
290
     0
176
     1
290
     1
176
     1
290
     1
176
     1
290
     0
176
     1
290
     0
176
     1
290
     0
176
     1
290
     0
176
     1
290
     0
176
     1
290
     0
176
     1
 90
       50
176
     1
 40
0.0
176
     1
 40
1.0
176
     1
 90
        0
176
     1
 62
    18
420
        0
176
     1
 90
       50
176
     1
 90
        3
176
     1
 62
     5
420
      255
176
     1
290
     0
176
     1
 90
       50
176
     1
 90
       50
176
     1
 90
       50
176
     1
290
     0
176
     1
 90
       50
176
     1
 62
   256
176
     0
 40
1.0
176
     0
 90
        2
176
     1
  1
strokes_ogs.tif
176
     1
290
     0
176
     1
 40
1.0
176
     1
 40
1.0
176
     1
  0
VISUALSTYLE
  5
30
102
{ACAD_REACTORS
330
29
102
}
330
29
100
AcDbVisualStyle
  2
Wireframe
 70
     5
177
     3
291
     0
 70
    58
 90
        0
176
     1
 90
        2
176
     1
 90
        0
176
     1
 90
        0
176
     1
 40
0.6
176
     1
 40
30.0
176
     1
 62
     7
420
 16777215
176
     1
 90
        1
176
     1
 90
        4
176
     1
 62
     7
176
     1
 62
   257
176
     1
 90
        1
176
     1
 90
        1
176
     1
 40
1.0
176
     1
 90
        0
176
     1
 62
   257
176
     1
 40
1.0
176
     1
 90
        1
176
     1
 90
        6
176
     1
 90
        2
176
     1
 62
     7
176
     1
 90
        3
176
     1
 90
        0
176
     1
 90
        0
176
     1
290
     0
176
     1
 90
        1
176
     1
 40
0.0
176
     1
 90
        0
176
     1
290
     0
176
     1
290
     1
176
     1
290
     1
176
     1
290
     0
176
     1
290
     0
176
     1
290
     0
176
     1
290
     0
176
     1
290
     0
176
     1
290
     0
176
     1
 90
       50
176
     1
 40
0.0
176
     1
 40
1.0
176
     1
 90
        0
176
     1
 62
    18
420
        0
176
     1
 90
       50
176
     1
 90
        3
176
     1
 62
     5
420
      255
176
     1
290
     0
176
     1
 90
       50
176
     1
 90
       50
176
     1
 90
       50
176
     1
290
     0
176
     1
 90
       50
176
     1
 62
   256
176
     0
 40
1.0
176
     0
 90
        2
176
     1
  1
strokes_ogs.tif
176
     1
290
     0
176
     1
 40
1.0
176
     1
 40
1.0
176
     1
  0
VISUALSTYLE
  5
3C
102
{ACAD_REACTORS
330
29
102
}
330
29
100
AcDbVisualStyle
  2
X-Ray
 70
    25
177
     3
291
     0
 70
    58
 90
        2
176
     1
 90
        2
176
     1
 90
        1
176
     1
 90
        1
176
     1
 40
0.5
176
     1
 40
30.0
176
     1
 62
     7
420
 16777215
176
     1
 90
        1
176
     1
 90
        0
176
     1
 62
     7
176
     1
 62
   257
176
     1
 90
        1
176
     1
 90
        1
176
     1
 40
1.0
176
     1
 90
        8
176
     1
 62
     7
176
     1
 40
1.0
176
     1
 90
        1
176
     1
 90
        6
176
     1
 90
        2
176
     1
 62
     7
176
     1
 90
        3
176
     1
 90
        0
176
     1
 90
        0
176
     1
290
     0
176
     1
 90
       13
176
     1
 40
0.0
176
     1
 90
        0
176
     1
290
     0
176
     1
290
     1
176
     1
290
     1
176
     1
290
     0
176
     1
290
     0
176
     1
290
     0
176
     1
290
     0
176
     1
290
     0
176
     1
290
     0
176
     1
 90
       50
176
     1
 40
0.0
176
     1
 40
1.0
176
     1
 90
        0
176
     1
 62
    18
420
        0
176
     1
 90
       50
176
     1
 90
        3
176
     1
 62
     5
420
      255
176
     1
290
     0
176
     1
 90
       50
176
     1
 90
       50
176
     1
 90
       50
176
     1
290
     0
176
     1
 90
       50
176
     1
 62
   256
176
     0
 40
1.0
176
     0
 90
        2
176
     1
  1
strokes_ogs.tif
176
     1
290
     0
176
     1
 40
1.0
176
     1
 40
1.0
176
     1
  0
DICTIONARYVAR
  5
361
102
{ACAD_REACTORS
330
35C
102
}
330
35C
100
DictionaryVariables
280
     0
  1
1:1
  0
DICTIONARYVAR
  5
35E
102
{ACAD_REACTORS
330
35C
102
}
330
35C
100
DictionaryVariables
280
     0
  1
STANDARD
  0
DICTIONARYVAR
  5
35D
102
{ACAD_REACTORS
330
35C
102
}
330
35C
100
DictionaryVariables
280
     0
  1
STANDARD
  0
DICTIONARYVAR
  5
35F
102
{ACAD_REACTORS
330
35C
102
}
330
35C
100
DictionaryVariables
280
     0
  1
Imperial24
  0
DICTIONARYVAR
  5
360
102
{ACAD_REACTORS
330
35C
102
}
330
35C
100
DictionaryVariables
280
     0
  1
Imperial24
  0
DICTIONARY
  5
1A
330
19
100
AcDbDictionary
280
     1
281
     1
  3
BUMPTILE
360
1C
  3
DIFFUSETILE
360
1B
  3
OPACITYTILE
360
1F
  3
REFLECTIONTILE
360
1E
  3
REFRACTIONTILE
360
20
  3
SPECULARTILE
360
1D
  0
DICTIONARY
  5
12
330
11
100
AcDbDictionary
280
     1
281
     1
  3
BUMPTILE
360
14
  3
DIFFUSETILE
360
13
  3
OPACITYTILE
360
17
  3
REFLECTIONTILE
360
16
  3
REFRACTIONTILE
360
18
  3
SPECULARTILE
360
15
  0
DICTIONARY
  5
22
330
21
100
AcDbDictionary
280
     1
281
     1
  3
BUMPTILE
360
24
  3
DIFFUSETILE
360
23
  3
OPACITYTILE
360
27
  3
REFLECTIONTILE
360
26
  3
REFRACTIONTILE
360
28
  3
SPECULARTILE
360
25
  0
DICTIONARY
  5
362
330
65
100
AcDbDictionary
280
     1
281
     1
  3
ACAD_ROUNDTRIP_2008_TABLESTYLE_CELLSTYLEMAP
360
363
  0
XRECORD
  5
1C
102
{ACAD_REACTORS
330
1A
102
}
330
1A
100
AcDbXrecord
280
     1
270
     1
271
     1
  0
XRECORD
  5
1B
102
{ACAD_REACTORS
330
1A
102
}
330
1A
100
AcDbXrecord
280
     1
270
     1
271
     1
  0
XRECORD
  5
1F
102
{ACAD_REACTORS
330
1A
102
}
330
1A
100
AcDbXrecord
280
     1
270
     1
271
     1
  0
XRECORD
  5
1E
102
{ACAD_REACTORS
330
1A
102
}
330
1A
100
AcDbXrecord
280
     1
270
     1
271
     1
  0
XRECORD
  5
20
102
{ACAD_REACTORS
330
1A
102
}
330
1A
100
AcDbXrecord
280
     1
270
     1
271
     1
  0
XRECORD
  5
1D
102
{ACAD_REACTORS
330
1A
102
}
330
1A
100
AcDbXrecord
280
     1
270
     1
271
     1
  0
XRECORD
  5
14
102
{ACAD_REACTORS
330
12
102
}
330
12
100
AcDbXrecord
280
     1
270
     1
271
     1
  0
XRECORD
  5
13
102
{ACAD_REACTORS
330
12
102
}
330
12
100
AcDbXrecord
280
     1
270
     1
271
     1
  0
XRECORD
  5
17
102
{ACAD_REACTORS
330
12
102
}
330
12
100
AcDbXrecord
280
     1
270
     1
271
     1
  0
XRECORD
  5
16
102
{ACAD_REACTORS
330
12
102
}
330
12
100
AcDbXrecord
280
     1
270
     1
271
     1
  0
XRECORD
  5
18
102
{ACAD_REACTORS
330
12
102
}
330
12
100
AcDbXrecord
280
     1
270
     1
271
     1
  0
XRECORD
  5
15
102
{ACAD_REACTORS
330
12
102
}
330
12
100
AcDbXrecord
280
     1
270
     1
271
     1
  0
XRECORD
  5
24
102
{ACAD_REACTORS
330
22
102
}
330
22
100
AcDbXrecord
280
     1
270
     1
271
     1
  0
XRECORD
  5
23
102
{ACAD_REACTORS
330
22
102
}
330
22
100
AcDbXrecord
280
     1
270
     1
271
     1
  0
XRECORD
  5
27
102
{ACAD_REACTORS
330
22
102
}
330
22
100
AcDbXrecord
280
     1
270
     1
271
     1
  0
XRECORD
  5
26
102
{ACAD_REACTORS
330
22
102
}
330
22
100
AcDbXrecord
280
     1
270
     1
271
     1
  0
XRECORD
  5
28
102
{ACAD_REACTORS
330
22
102
}
330
22
100
AcDbXrecord
280
     1
270
     1
271
     1
  0
XRECORD
  5
25
102
{ACAD_REACTORS
330
22
102
}
330
22
100
AcDbXrecord
280
     1
270
     1
271
     1
  0
CELLSTYLEMAP
  5
363
102
{ACAD_REACTORS
330
362
102
}
330
362
100
AcDbCellStyleMap
 90
        3
300
CELLSTYLE
  1
TABLEFORMAT_BEGIN
 90
        5
170
     1
 91
        0
 92
    32768
 62
   257
 93
        1
300
CONTENTFORMAT
  1
CONTENTFORMAT_BEGIN
 90
        0
 91
        0
 92
      512
 93
        0
300

 40
0.0
140
1.0
 94
        5
 62
     0
340
55
144
0.25
309
CONTENTFORMAT_END
171
     0
 94
        0
309
TABLEFORMAT_END
  1
CELLSTYLE_BEGIN
 90
        1
 91
        1
300
_TITLE
309
CELLSTYLE_END
300
CELLSTYLE
  1
TABLEFORMAT_BEGIN
 90
        5
170
     1
 91
        0
 92
        0
 62
   257
 93
        1
300
CONTENTFORMAT
  1
CONTENTFORMAT_BEGIN
 90
        0
 91
        0
 92
      512
 93
        0
300

 40
0.0
140
1.0
 94
        5
 62
     0
340
55
144
0.18
309
CONTENTFORMAT_END
171
     0
 94
        0
309
TABLEFORMAT_END
  1
CELLSTYLE_BEGIN
 90
        2
 91
        1
300
_HEADER
309
CELLSTYLE_END
300
CELLSTYLE
  1
TABLEFORMAT_BEGIN
 90
        5
170
     1
 91
        0
 92
        0
 62
   257
 93
        1
300
CONTENTFORMAT
  1
CONTENTFORMAT_BEGIN
 90
        0
 91
        0
 92
      512
 93
        0
300

 40
0.0
140
1.0
 94
        2
 62
     0
340
55
144
0.18
309
CONTENTFORMAT_END
171
     0
 94
        0
309
TABLEFORMAT_END
  1
CELLSTYLE_BEGIN
 90
        3
 91
        2
300
_DATA
309
CELLSTYLE_END
  0
ENDSEC
  0
EOF
