  0
SECTION
  2
HEADER
  9
$ACADVER
  1
AC1032
  9
$ACADMAINTVER
 90
      251
  9
$DWGCODEPAGE
  3
ANSI_1252
  9
$REQUIREDVERSIONS
160
                 0
  9
$INSBASE
 10
0.0
 20
0.0
 30
0.0
  9
$EXTMIN
 10
1.000000000000000E+20
 20
1.000000000000000E+20
 30
1.000000000000000E+20
  9
$EXTMAX
 10
-1.000000000000000E+20
 20
-1.000000000000000E+20
 30
-1.000000000000000E+20
  9
$LIMMIN
 10
0.0
 20
0.0
  9
$LIMMAX
 10
12.0
 20
9.0
  9
$ORTHOMODE
 70
     0
  9
$REGENMODE
 70
     1
  9
$FILLMODE
 70
     1
  9
$QTEXTMODE
 70
     0
  9
$MIRRTEXT
 70
     0
  9
$LTSCALE
 40
1.0
  9
$ATTMODE
 70
     1
  9
$TEXTSIZE
 40
0.2
  9
$TRACEWID
 40
0.05
  9
$TEXTSTYLE
  7
Standard
  9
$CLAYER
  8
0
  9
$CELTYPE
  6
ByLayer
  9
$CECOLOR
 62
   256
  9
$CELTSCALE
 40
1.0
  9
$DISPSILH
 70
     0
  9
$DIMSCALE
 40
1.0
  9
$DIMASZ
 40
0.18
  9
$DIMEXO
 40
0.0625
  9
$DIMDLI
 40
0.38
  9
$DIMRND
 40
0.0
  9
$DIMDLE
 40
0.0
  9
$DIMEXE
 40
0.18
  9
$DIMTP
 40
0.0
  9
$DIMTM
 40
0.0
  9
$DIMTXT
 40
0.18
  9
$DIMCEN
 40
0.09
  9
$DIMTSZ
 40
0.0
  9
$DIMTOL
 70
     0
  9
$DIMLIM
 70
     0
  9
$DIMTIH
 70
     1
  9
$DIMTOH
 70
     1
  9
$DIMSE1
 70
     0
  9
$DIMSE2
 70
     0
  9
$DIMTAD
 70
     0
  9
$DIMZIN
 70
     0
  9
$DIMBLK
  1

  9
$DIMASO
 70
     1
  9
$DIMSHO
 70
     1
  9
$DIMPOST
  1

  9
$DIMAPOST
  1

  9
$DIMALT
 70
     0
  9
$DIMALTD
 70
     2
  9
$DIMALTF
 40
25.4
  9
$DIMLFAC
 40
1.0
  9
$DIMTOFL
 70
     0
  9
$DIMTVP
 40
0.0
  9
$DIMTIX
 70
     0
  9
$DIMSOXD
 70
     0
  9
$DIMSAH
 70
     0
  9
$DIMBLK1
  1

  9
$DIMBLK2
  1

  9
$DIMSTYLE
  2
Standard
  9
$DIMCLRD
 70
     0
  9
$DIMCLRE
 70
     0
  9
$DIMCLRT
 70
     0
  9
$DIMTFAC
 40
1.0
  9
$DIMGAP
 40
0.09
  9
$DIMJUST
 70
     0
  9
$DIMSD1
 70
     0
  9
$DIMSD2
 70
     0
  9
$DIMTOLJ
 70
     1
  9
$DIMTZIN
 70
     0
  9
$DIMALTZ
 70
     0
  9
$DIMALTTZ
 70
     0
  9
$DIMUPT
 70
     0
  9
$DIMDEC
 70
     4
  9
$DIMTDEC
 70
     4
  9
$DIMALTU
 70
     2
  9
$DIMALTTD
 70
     2
  9
$DIMTXSTY
  7
Standard
  9
$DIMAUNIT
 70
     0
  9
$DIMADEC
 70
     0
  9
$DIMALTRND
 40
0.0
  9
$DIMAZIN
 70
     0
  9
$DIMDSEP
 70
    46
  9
$DIMATFIT
 70
     3
  9
$DIMFRAC
 70
     0
  9
$DIMLDRBLK
  1

  9
$DIMLUNIT
 70
     2
  9
$DIMLWD
 70
    -2
  9
$DIMLWE
 70
    -2
  9
$DIMTMOVE
 70
     0
  9
$DIMFXL
 40
1.0
  9
$DIMFXLON
 70
     0
  9
$DIMJOGANG
 40
0.7853981633974483
  9
$DIMTFILL
 70
     0
  9
$DIMTFILLCLR
 70
     0
  9
$DIMARCSYM
 70
     0
  9
$DIMLTYPE
  6

  9
$DIMLTEX1
  6

  9
$DIMLTEX2
  6

  9
$DIMTXTDIRECTION
 70
     0
  9
$LUNITS
 70
     2
  9
$LUPREC
 70
     4
  9
$SKETCHINC
 40
0.1
  9
$FILLETRAD
 40
0.0
  9
$AUNITS
 70
     0
  9
$AUPREC
 70
     0
  9
$MENU
  1
.
  9
$ELEVATION
 40
0.0
  9
$PELEVATION
 40
0.0
  9
$THICKNESS
 40
0.0
  9
$LIMCHECK
 70
     0
  9
$CHAMFERA
 40
0.0
  9
$CHAMFERB
 40
0.0
  9
$CHAMFERC
 40
0.0
  9
$CHAMFERD
 40
0.0
  9
$SKPOLY
 70
     0
  9
$TDCREATE
 40
2460035.508900463
  9
$TDUCREATE
 40
2460035.425567130
  9
$TDUPDATE
 40
2460035.508900463
  9
$TDUUPDATE
 40
2460035.425567130
  9
$TDINDWG
 40
0.0000000000
  9
$TDUSRTIMER
 40
0.0000000000
  9
$USRTIMER
 70
     1
  9
$ANGBASE
 50
0.0
  9
$ANGDIR
 70
     0
  9
$PDMODE
 70
     0
  9
$PDSIZE
 40
0.0
  9
$PLINEWID
 40
0.0
  9
$SPLFRAME
 70
     0
  9
$SPLINETYPE
 70
     6
  9
$SPLINESEGS
 70
     8
  9
$HANDSEED
  5
1D1
  9
$SURFTAB1
 70
     6
  9
$SURFTAB2
 70
     6
  9
$SURFTYPE
 70
     6
  9
$SURFU
 70
     6
  9
$SURFV
 70
     6
  9
$UCSBASE
  2

  9
$UCSNAME
  2

  9
$UCSORG
 10
0.0
 20
0.0
 30
0.0
  9
$UCSXDIR
 10
1.0
 20
0.0
 30
0.0
  9
$UCSYDIR
 10
0.0
 20
1.0
 30
0.0
  9
$UCSORTHOREF
  2

  9
$UCSORTHOVIEW
 70
     0
  9
$UCSORGTOP
 10
0.0
 20
0.0
 30
0.0
  9
$UCSORGBOTTOM
 10
0.0
 20
0.0
 30
0.0
  9
$UCSORGLEFT
 10
0.0
 20
0.0
 30
0.0
  9
$UCSORGRIGHT
 10
0.0
 20
0.0
 30
0.0
  9
$UCSORGFRONT
 10
0.0
 20
0.0
 30
0.0
  9
$UCSORGBACK
 10
0.0
 20
0.0
 30
0.0
  9
$PUCSBASE
  2

  9
$PUCSNAME
  2

  9
$PUCSORG
 10
0.0
 20
0.0
 30
0.0
  9
$PUCSXDIR
 10
1.0
 20
0.0
 30
0.0
  9
$PUCSYDIR
 10
0.0
 20
1.0
 30
0.0
  9
$PUCSORTHOREF
  2

  9
$PUCSORTHOVIEW
 70
     0
  9
$PUCSORGTOP
 10
0.0
 20
0.0
 30
0.0
  9
$PUCSORGBOTTOM
 10
0.0
 20
0.0
 30
0.0
  9
$PUCSORGLEFT
 10
0.0
 20
0.0
 30
0.0
  9
$PUCSORGRIGHT
 10
0.0
 20
0.0
 30
0.0
  9
$PUCSORGFRONT
 10
0.0
 20
0.0
 30
0.0
  9
$PUCSORGBACK
 10
0.0
 20
0.0
 30
0.0
  9
$USERI1
 70
     0
  9
$USERI2
 70
     0
  9
$USERI3
 70
     0
  9
$USERI4
 70
     0
  9
$USERI5
 70
     0
  9
$USERR1
 40
0.0
  9
$USERR2
 40
0.0
  9
$USERR3
 40
0.0
  9
$USERR4
 40
0.0
  9
$USERR5
 40
0.0
  9
$WORLDVIEW
 70
     1
  9
$SHADEDGE
 70
     3
  9
$SHADEDIF
 70
    70
  9
$TILEMODE
 70
     1
  9
$MAXACTVP
 70
    64
  9
$PINSBASE
 10
0.0
 20
0.0
 30
0.0
  9
$PLIMCHECK
 70
     0
  9
$PEXTMIN
 10
1.000000000000000E+20
 20
1.000000000000000E+20
 30
1.000000000000000E+20
  9
$PEXTMAX
 10
-1.000000000000000E+20
 20
-1.000000000000000E+20
 30
-1.000000000000000E+20
  9
$PLIMMIN
 10
0.0
 20
0.0
  9
$PLIMMAX
 10
12.0
 20
9.0
  9
$UNITMODE
 70
     0
  9
$VISRETAIN
 70
     1
  9
$PLINEGEN
 70
     0
  9
$PSLTSCALE
 70
     1
  9
$TREEDEPTH
 70
  3020
  9
$CMLSTYLE
  2
Standard
  9
$CMLJUST
 70
     0
  9
$CMLSCALE
 40
1.0
  9
$PROXYGRAPHICS
 70
     1
  9
$MEASUREMENT
 70
     0
  9
$CELWEIGHT
370
    -1
  9
$ENDCAPS
280
     0
  9
$JOINSTYLE
280
     0
  9
$LWDISPLAY
290
     1
  9
$INSUNITS
 70
     4
  9
$HYPERLINKBASE
  1

  9
$STYLESHEET
  1

  9
$XEDIT
290
     1
  9
$CEPSNTYPE
380
     0
  9
$PSTYLEMODE
290
     1
  9
$FINGERPRINTGUID
  2
{0654FC5B-D9D2-EA41-8C6D-A467FD868B3C}
  9
$VERSIONGUID
  2
{FA7FA44C-4C18-7641-BDD7-2DB377EDC5E8}
  9
$EXTNAMES
290
     1
  9
$PSVPSCALE
 40
0.0
  9
$OLESTARTUP
290
     0
  9
$SORTENTS
280
   127
  9
$INDEXCTL
280
     0
  9
$HIDETEXT
280
     1
  9
$XCLIPFRAME
280
     2
  9
$HALOGAP
280
     0
  9
$OBSCOLOR
 70
   257
  9
$OBSLTYPE
280
     0
  9
$INTERSECTIONDISPLAY
280
     0
  9
$INTERSECTIONCOLOR
 70
   257
  9
$DIMASSOC
280
     2
  9
$PROJECTNAME
  1

  9
$CAMERADISPLAY
290
     0
  9
$LENSLENGTH
 40
50.0
  9
$CAMERAHEIGHT
 40
0.0
  9
$STEPSPERSEC
 40
2.0
  9
$STEPSIZE
 40
6.0
  9
$3DDWFPREC
 40
2.0
  9
$PSOLWIDTH
 40
0.25
  9
$PSOLHEIGHT
 40
4.0
  9
$LOFTANG1
 40
1.570796326794896
  9
$LOFTANG2
 40
1.570796326794896
  9
$LOFTMAG1
 40
0.0
  9
$LOFTMAG2
 40
0.0
  9
$LOFTPARAM
 70
     7
  9
$LOFTNORMALS
280
     1
  9
$LATITUDE
 40
37.795
  9
$LONGITUDE
 40
-122.394
  9
$NORTHDIRECTION
 40
0.0
  9
$TIMEZONE
 70
 -8000
  9
$LIGHTGLYPHDISPLAY
280
     1
  9
$TILEMODELIGHTSYNCH
280
     1
  9
$CMATERIAL
347
11
  9
$SOLIDHIST
280
     0
  9
$SHOWHIST
280
     1
  9
$DWFFRAME
280
     2
  9
$DGNFRAME
280
     0
  9
$REALWORLDSCALE
290
     1
  9
$INTERFERECOLOR
 62
     1
  9
$INTERFEREOBJVS
345
33
  9
$INTERFEREVPVS
346
30
  9
$CSHADOW
280
     0
  9
$SHADOWPLANELOCATION
 40
0.0
  0
ENDSEC
  0
SECTION
  2
CLASSES
  0
CLASS
  1
ACDBDICTIONARYWDFLT
  2
AcDbDictionaryWithDefault
  3
ObjectDBX Classes
 90
        0
 91
        1
280
     0
281
     0
  0
CLASS
  1
MATERIAL
  2
AcDbMaterial
  3
ObjectDBX Classes
 90
     1153
 91
        3
280
     0
281
     0
  0
CLASS
  1
VISUALSTYLE
  2
AcDbVisualStyle
  3
ObjectDBX Classes
 90
     4095
 91
       24
280
     0
281
     0
  0
CLASS
  1
SCALE
  2
AcDbScale
  3
ObjectDBX Classes
 90
     1153
 91
       17
280
     0
281
     0
  0
CLASS
  1
TABLESTYLE
  2
AcDbTableStyle
  3
ObjectDBX Classes
 90
     4095
 91
        1
280
     0
281
     0
  0
CLASS
  1
MLEADERSTYLE
  2
AcDbMLeaderStyle
  3
ACDB_MLEADERSTYLE_CLASS
 90
     4095
 91
        1
280
     0
281
     0
  0
CLASS
  1
ACDBSECTIONVIEWSTYLE
  2
AcDbSectionViewStyle
  3
ObjectDBX Classes
 90
     1025
 91
        1
280
     0
281
     0
  0
CLASS
  1
ACDBDETAILVIEWSTYLE
  2
AcDbDetailViewStyle
  3
ObjectDBX Classes
 90
     1025
 91
        1
280
     0
281
     0
  0
CLASS
  1
DICTIONARYVAR
  2
AcDbDictionaryVar
  3
ObjectDBX Classes
 90
        0
 91
        5
280
     0
281
     0
  0
CLASS
  1
CELLSTYLEMAP
  2
AcDbCellStyleMap
  3
ObjectDBX Classes
 90
     1152
 91
        1
280
     0
281
     0
  0
ENDSEC
  0
SECTION
  2
TABLES
  0
TABLE
  2
VPORT
  5
8
330
0
100
AcDbSymbolTable
 70
     1
  0
VPORT
  5
57
330
8
100
AcDbSymbolTableRecord
100
AcDbViewportTableRecord
  2
*Active
 70
     0
 10
0.0
 20
0.0
 11
1.0
 21
1.0
 12
0.0
 22
0.0
 13
0.0
 23
0.0
 14
1.0
 24
1.0
 15
0.0
 25
0.0
 16
0.0
 26
0.0
 36
1.0
 17
104.9999999737499
 27
31.49999999212523
 37
0.0
 40
302.9399999242649
 41
0.7070707070707066
 42
50.0
 43
0.0
 44
0.0
 50
0.0
 51
0.0
 71
     0
 72
   100
 73
     1
 74
     1
 75
     0
 76
     0
 77
     0
 78
     0
281
     0
 65
     1
110
0.0
120
0.0
130
0.0
111
1.0
121
0.0
131
0.0
112
0.0
122
1.0
132
0.0
 79
     0
146
0.0
 60
     3
 61
     5
292
     1
282
     1
141
0.0
142
0.0
 63
   250
421
  3355443
  0
ENDTAB
  0
TABLE
  2
LTYPE
  5
5
330
0
100
AcDbSymbolTable
 70
     1
  0
LTYPE
  5
5B
330
5
100
AcDbSymbolTableRecord
100
AcDbLinetypeTableRecord
  2
ByBlock
 70
     0
  3

 72
    65
 73
     0
 40
0.0
  0
LTYPE
  5
5C
330
5
100
AcDbSymbolTableRecord
100
AcDbLinetypeTableRecord
  2
ByLayer
 70
     0
  3

 72
    65
 73
     0
 40
0.0
  0
LTYPE
  5
5D
330
5
100
AcDbSymbolTableRecord
100
AcDbLinetypeTableRecord
  2
Continuous
 70
     0
  3
Solid line
 72
    65
 73
     0
 40
0.0
  0
ENDTAB
  0
TABLE
  2
LAYER
  5
2
330
0
100
AcDbSymbolTable
 70
     2
  0
LAYER
  5
54
330
2
100
AcDbSymbolTableRecord
100
AcDbLayerTableRecord
  2
0
 70
     0
 62
     7
  6
Continuous
370
     0
390
F
347
21
348
0
  0
LAYER
  5
1A0
330
2
100
AcDbSymbolTableRecord
100
AcDbLayerTableRecord
  2
CAPA_BASE
 70
     0
 62
     7
  6
Continuous
370
     0
390
F
347
21
348
0
  0
ENDTAB
  0
TABLE
  2
STYLE
  5
3
330
0
100
AcDbSymbolTable
 70
     2
  0
STYLE
  5
55
330
3
100
AcDbSymbolTableRecord
100
AcDbTextStyleTableRecord
  2
Standard
 70
     0
 40
0.0
 41
1.0
 50
0.0
 71
     0
 42
0.2
  3
txt
  4

  0
STYLE
  5
5A
330
3
100
AcDbSymbolTableRecord
100
AcDbTextStyleTableRecord
  2
Annotative
 70
     0
 40
0.0
 41
1.0
 50
0.0
 71
     0
 42
0.2
  3
txt
  4

1001
AcadAnnotative
1000
AnnotativeData
1002
{
1070
     1
1070
     1
1002
}
  0
ENDTAB
  0
TABLE
  2
VIEW
  5
6
330
0
100
AcDbSymbolTable
 70
     0
  0
ENDTAB
  0
TABLE
  2
UCS
  5
7
330
0
100
AcDbSymbolTable
 70
     0
  0
ENDTAB
  0
TABLE
  2
APPID
  5
9
330
0
100
AcDbSymbolTable
 70
     2
  0
APPID
  5
56
330
9
100
AcDbSymbolTableRecord
100
AcDbRegAppTableRecord
  2
ACAD
 70
     0
  0
APPID
  5
5E
330
9
100
AcDbSymbolTableRecord
100
AcDbRegAppTableRecord
  2
AcadAnnotative
 70
     0
  0
ENDTAB
  0
TABLE
  2
DIMSTYLE
  5
A
330
0
100
AcDbSymbolTable
 70
     2
100
AcDbDimStyleTable
 71
     0
  0
DIMSTYLE
105
58
330
A
100
AcDbSymbolTableRecord
100
AcDbDimStyleTableRecord
  2
Standard
 70
     0
340
55
  0
DIMSTYLE
105
59
330
A
100
AcDbSymbolTableRecord
100
AcDbDimStyleTableRecord
  2
Annotative
 70
     0
340
55
1001
AcadAnnotative
1000
AnnotativeData
1002
{
1070
     1
1070
     1
1002
}
  0
ENDTAB
  0
TABLE
  2
BLOCK_RECORD
  5
1
330
0
100
AcDbSymbolTable
 70
     4
  0
BLOCK_RECORD
  5
70
330
1
100
AcDbSymbolTableRecord
100
AcDbBlockTableRecord
  2
*Model_Space
340
73
 70
     0
280
     1
281
     0
  0
BLOCK_RECORD
  5
6C
330
1
100
AcDbSymbolTableRecord
100
AcDbBlockTableRecord
  2
*Paper_Space
340
6F
 70
     0
280
     1
281
     0
  0
BLOCK_RECORD
  5
74
330
1
100
AcDbSymbolTableRecord
100
AcDbBlockTableRecord
  2
*Paper_Space0
340
77
 70
     0
280
     1
281
     0
  0
BLOCK_RECORD
  5
1A1
330
1
100
AcDbSymbolTableRecord
100
AcDbBlockTableRecord
  2
Block_0
340
0
102
{BLKREFS
331
1A2
102
}
 70
     0
280
     1
281
     0
  0
BLOCK_RECORD
  5
1AF
330
1
100
AcDbSymbolTableRecord
100
AcDbBlockTableRecord
  2
Block_1
340
0
102
{BLKREFS
331
1B0
102
}
 70
     0
280
     1
281
     0
  0
BLOCK_RECORD
  5
1BB
330
1
100
AcDbSymbolTableRecord
100
AcDbBlockTableRecord
  2
Block_2
340
0
102
{BLKREFS
331
1BC
102
}
 70
     0
280
     1
281
     0
  0
ENDTAB
  0
ENDSEC
  0
SECTION
  2
BLOCKS
  0
BLOCK
  5
71
330
70
100
AcDbEntity
  8
0
100
AcDbBlockBegin
  2
*Model_Space
 70
     0
 10
0.0
 20
0.0
 30
0.0
  3
*Model_Space
  1

  0
ENDBLK
  5
72
330
70
100
AcDbEntity
  8
0
100
AcDbBlockEnd
  0
BLOCK
  5
6D
330
6C
100
AcDbEntity
 67
     1
  8
0
100
AcDbBlockBegin
  2
*Paper_Space
 70
     0
 10
0.0
 20
0.0
 30
0.0
  3
*Paper_Space
  1

  0
ENDBLK
  5
6E
330
6C
100
AcDbEntity
 67
     1
  8
0
100
AcDbBlockEnd
  0
BLOCK
  5
75
330
74
100
AcDbEntity
 67
     1
  8
0
100
AcDbBlockBegin
  2
*Paper_Space0
 70
     0
 10
0.0
 20
0.0
 30
0.0
  3
*Paper_Space0
  1

  0
ENDBLK
  5
76
330
74
100
AcDbEntity
 67
     1
  8
0
100
AcDbBlockEnd
  0
BLOCK
  5
1A3
330
1A1
100
AcDbEntity
  8
0
100
AcDbBlockBegin
  2
Block_0
 70
     0
 10
0.0
 20
0.0
 30
0.0
  3
Block_0
  1

  0
LWPOLYLINE
  5
1A5
330
1A1
100
AcDbEntity
  8
CAPA_BASE
100
AcDbPolyline
 90
        4
 70
     1
 43
0.0
 10
57.32754724907178
 20
27.85421102143879
 10
54.82754724907169
 20
28.16421102143851
 10
54.82754724907169
 20
27.54421102143842
 10
54.82754724907169
 20
27.54421102143842
  0
HATCH
  5
1A6
330
1A1
100
AcDbEntity
  8
CAPA_BASE
 62
    18
420
        0
440
 33554687
100
AcDbHatch
 10
0.0
 20
0.0
 30
0.0
210
0.0
220
0.0
230
1.0
  2
SOLID
 70
     1
 71
     1
 91
        1
 92
        1
 93
        3
 72
     1
 10
57.32754724907178
 20
27.85421102143879
 11
54.82754724907169
 21
28.16421102143851
 72
     1
 10
54.82754724907169
 20
28.16421102143851
 11
54.82754724907169
 21
27.54421102143842
 72
     1
 10
54.82754724907169
 20
27.54421102143842
 11
57.32754724907178
 21
27.85421102143879
 97
        1
330
1A5
 75
     2
 76
     1
 98
        1
 10
0.0
 20
0.0
450
        0
451
        0
460
0.0
461
0.0
452
        0
462
0.0
453
        0
470

  0
LWPOLYLINE
  5
1A7
330
1A1
100
AcDbEntity
  8
CAPA_BASE
100
AcDbPolyline
 90
        4
 70
     1
 43
0.0
 10
26.32754724907165
 20
27.85421102143879
 10
28.82754724907174
 20
27.54421102143842
 10
28.82754724907174
 20
28.16421102143851
 10
28.82754724907174
 20
28.16421102143851
  0
HATCH
  5
1A8
330
1A1
100
AcDbEntity
  8
CAPA_BASE
 62
    18
420
        0
440
 33554687
100
AcDbHatch
 10
0.0
 20
0.0
 30
0.0
210
0.0
220
0.0
230
1.0
  2
SOLID
 70
     1
 71
     1
 91
        1
 92
        1
 93
        3
 72
     1
 10
26.32754724907165
 20
27.85421102143879
 11
28.82754724907174
 21
27.54421102143842
 72
     1
 10
28.82754724907174
 20
27.54421102143842
 11
28.82754724907174
 21
28.16421102143851
 72
     1
 10
28.82754724907174
 20
28.16421102143851
 11
26.32754724907165
 21
27.85421102143879
 97
        1
330
1A7
 75
     2
 76
     1
 98
        1
 10
0.0
 20
0.0
450
        0
451
        0
460
0.0
461
0.0
452
        0
462
0.0
453
        0
470

  0
LINE
  5
1A9
330
1A1
100
AcDbEntity
  8
CAPA_BASE
 62
    18
420
        0
370
    25
100
AcDbLine
 10
57.32754724907178
 20
37.3542110214388
 30
0.0
 11
57.32754724907178
 21
26.85421102143875
 31
0.0
  0
LINE
  5
1AA
330
1A1
100
AcDbEntity
  8
CAPA_BASE
 62
    18
420
        0
370
    25
100
AcDbLine
 10
26.32754724907165
 20
37.3542110214388
 30
0.0
 11
26.32754724907165
 21
26.85421102143875
 31
0.0
  0
LINE
  5
1AB
330
1A1
100
AcDbEntity
  8
CAPA_BASE
 62
    18
420
        0
370
    25
100
AcDbLine
 10
57.32754724907178
 20
27.85421102143879
 30
0.0
 11
26.32754724907165
 21
27.85421102143879
 31
0.0
  0
MTEXT
  5
1AC
330
1A1
100
AcDbEntity
  8
CAPA_BASE
100
AcDbMText
 10
38.37749166588849
 20
28.64796334716066
 30
0.0
 40
0.2
 41
0.0
 46
0.0
 71
     7
 72
     1
  1
\C18;\c0;\FArial Bold|b1|i0|c1;\H2.997200;\W0.700000;Ø
 73
     1
 44
1.0
  0
MTEXT
  5
1AD
330
1A1
100
AcDbEntity
  8
CAPA_BASE
100
AcDbMText
 10
41.7498256578975
 20
28.64796334716066
 30
0.0
 40
0.2
 41
0.0
 46
0.0
 71
     7
 72
     1
  1
\C18;\c0;\FArial Bold|b1|i0|c1;\H2.997200;\W0.700000;62
 73
     1
 44
1.0
  0
ENDBLK
  5
1A4
330
1A1
100
AcDbEntity
  8
0
100
AcDbBlockEnd
  0
BLOCK
  5
1B1
330
1AF
100
AcDbEntity
  8
0
100
AcDbBlockBegin
  2
Block_1
 70
     0
 10
0.0
 20
0.0
 30
0.0
  3
Block_1
  1

  0
LWPOLYLINE
  5
1B3
330
1AF
100
AcDbEntity
  8
CAPA_BASE
100
AcDbPolyline
 90
        4
 70
     1
 43
0.0
 10
88.36573842007153
 20
127.3535828767386
 10
88.05573842007181
 20
124.8535828767385
 10
88.67573842007187
 20
124.8535828767385
 10
88.67573842007187
 20
124.8535828767385
  0
HATCH
  5
1B4
330
1AF
100
AcDbEntity
  8
CAPA_BASE
 62
    18
420
        0
440
 33554687
100
AcDbHatch
 10
0.0
 20
0.0
 30
0.0
210
0.0
220
0.0
230
1.0
  2
SOLID
 70
     1
 71
     1
 91
        1
 92
        1
 93
        3
 72
     1
 10
88.36573842007153
 20
127.3535828767386
 11
88.05573842007181
 21
124.8535828767385
 72
     1
 10
88.05573842007181
 20
124.8535828767385
 11
88.67573842007187
 21
124.8535828767385
 72
     1
 10
88.67573842007187
 20
124.8535828767385
 11
88.36573842007153
 21
127.3535828767386
 97
        1
330
1B3
 75
     2
 76
     1
 98
        1
 10
0.0
 20
0.0
450
        0
451
        0
460
0.0
461
0.0
452
        0
462
0.0
453
        0
470

  0
LWPOLYLINE
  5
1B5
330
1AF
100
AcDbEntity
  8
CAPA_BASE
100
AcDbPolyline
 90
        4
 70
     1
 43
0.0
 10
88.36573842007153
 20
37.8542110214385
 10
88.67573842007187
 20
40.35421102143827
 10
88.05573842007181
 20
40.35421102143827
 10
88.05573842007181
 20
40.35421102143827
  0
HATCH
  5
1B6
330
1AF
100
AcDbEntity
  8
CAPA_BASE
 62
    18
420
        0
440
 33554687
100
AcDbHatch
 10
0.0
 20
0.0
 30
0.0
210
0.0
220
0.0
230
1.0
  2
SOLID
 70
     1
 71
     1
 91
        1
 92
        1
 93
        3
 72
     1
 10
88.36573842007153
 20
37.8542110214385
 11
88.67573842007187
 21
40.35421102143827
 72
     1
 10
88.67573842007187
 20
40.35421102143827
 11
88.05573842007181
 21
40.35421102143827
 72
     1
 10
88.05573842007181
 20
40.35421102143827
 11
88.36573842007153
 21
37.8542110214385
 97
        1
330
1B5
 75
     2
 76
     1
 98
        1
 10
0.0
 20
0.0
450
        0
451
        0
460
0.0
461
0.0
452
        0
462
0.0
453
        0
470

  0
LINE
  5
1B7
330
1AF
100
AcDbEntity
  8
CAPA_BASE
 62
    18
420
        0
370
    25
100
AcDbLine
 10
117.3007384200723
 20
127.3535828767386
 30
0.0
 11
87.36573842007212
 21
127.3535828767386
 31
0.0
  0
LINE
  5
1B8
330
1AF
100
AcDbEntity
  8
CAPA_BASE
 62
    18
420
        0
370
    25
100
AcDbLine
 10
106.9507384200721
 20
37.8542110214385
 30
0.0
 11
87.36573842007212
 21
37.8542110214385
 31
0.0
  0
LINE
  5
1B9
330
1AF
100
AcDbEntity
  8
CAPA_BASE
 62
    18
420
        0
370
    25
100
AcDbLine
 10
88.36573842007153
 20
127.3535828767386
 30
0.0
 11
88.36573842007153
 21
37.8542110214385
 31
0.0
  0
MTEXT
  5
1BA
330
1AF
100
AcDbEntity
  8
CAPA_BASE
100
AcDbMText
 10
87.57198564671389
 20
79.95825464580841
 30
0.0
 40
0.2
 41
0.0
 46
0.0
 71
     7
 72
     1
  1
\C18;\c0;\FArial Bold|b1|i0|c1;\H2.997200;\W0.700000;179
 11
0.0000000000000003
 21
1.0
 31
0.0
 73
     1
 44
1.0
  0
ENDBLK
  5
1B2
330
1AF
100
AcDbEntity
  8
0
100
AcDbBlockEnd
  0
BLOCK
  5
1BD
330
1BB
100
AcDbEntity
  8
0
100
AcDbBlockBegin
  2
Block_2
 70
     0
 10
0.0
 20
0.0
 30
0.0
  3
Block_2
  1

  0
LWPOLYLINE
  5
1BF
330
1BB
100
AcDbEntity
  8
CAPA_BASE
100
AcDbPolyline
 90
        4
 70
     1
 43
0.0
 10
67.32754724907149
 20
5.049837000238277
 10
67.01754724907177
 20
2.54983700023851
 10
67.63754724907186
 20
2.54983700023851
 10
67.63754724907186
 20
2.54983700023851
  0
HATCH
  5
1C0
330
1BB
100
AcDbEntity
  8
CAPA_BASE
 62
    18
420
        0
440
 33554687
100
AcDbHatch
 10
0.0
 20
0.0
 30
0.0
210
0.0
220
0.0
230
1.0
  2
SOLID
 70
     1
 71
     1
 91
        1
 92
        1
 93
        3
 72
     1
 10
67.32754724907149
 20
5.049837000238277
 11
67.01754724907177
 21
2.54983700023851
 72
     1
 10
67.01754724907177
 20
2.54983700023851
 11
67.63754724907186
 21
2.54983700023851
 72
     1
 10
67.63754724907186
 20
2.54983700023851
 11
67.32754724907149
 21
5.049837000238277
 97
        1
330
1BF
 75
     2
 76
     1
 98
        1
 10
0.0
 20
0.0
450
        0
451
        0
460
0.0
461
0.0
452
        0
462
0.0
453
        0
470

  0
LWPOLYLINE
  5
1C1
330
1BB
100
AcDbEntity
  8
CAPA_BASE
100
AcDbPolyline
 90
        4
 70
     1
 43
0.0
 10
67.32754724907149
 20
-45.14217930276169
 10
67.63754724907186
 20
-42.64217930276128
 10
67.01754724907177
 20
-42.64217930276128
 10
67.01754724907177
 20
-42.64217930276128
  0
HATCH
  5
1C2
330
1BB
100
AcDbEntity
  8
CAPA_BASE
 62
    18
420
        0
440
 33554687
100
AcDbHatch
 10
0.0
 20
0.0
 30
0.0
210
0.0
220
0.0
230
1.0
  2
SOLID
 70
     1
 71
     1
 91
        1
 92
        1
 93
        3
 72
     1
 10
67.32754724907149
 20
-45.14217930276169
 11
67.63754724907186
 21
-42.64217930276128
 72
     1
 10
67.63754724907186
 20
-42.64217930276128
 11
67.01754724907177
 21
-42.64217930276128
 72
     1
 10
67.01754724907177
 20
-42.64217930276128
 11
67.32754724907149
 21
-45.14217930276169
 97
        1
330
1C1
 75
     2
 76
     1
 98
        1
 10
0.0
 20
0.0
450
        0
451
        0
460
0.0
461
0.0
452
        0
462
0.0
453
        0
470

  0
LINE
  5
1C3
330
1BB
100
AcDbEntity
  8
CAPA_BASE
 62
    18
420
        0
370
    25
100
AcDbLine
 10
55.32754724907171
 20
5.049837000238277
 30
0.0
 11
68.32754724907217
 21
5.049837000238277
 31
0.0
  0
LINE
  5
1C4
330
1BB
100
AcDbEntity
  8
CAPA_BASE
 62
    18
420
        0
370
    25
100
AcDbLine
 10
44.20436512677162
 20
-45.14217930276169
 30
0.0
 11
68.32754724907217
 21
-45.14217930276169
 31
0.0
  0
LINE
  5
1C5
330
1BB
100
AcDbEntity
  8
CAPA_BASE
 62
    18
420
        0
370
    25
100
AcDbLine
 10
67.32754724907149
 20
5.049837000238277
 30
0.0
 11
67.32754724907149
 21
-45.14217930276169
 31
0.0
  0
MTEXT
  5
1C6
330
1BB
100
AcDbEntity
  8
CAPA_BASE
100
AcDbMText
 10
66.53379951509191
 20
-22.69215494224427
 30
0.0
 40
0.2
 41
0.0
 46
0.0
 71
     7
 72
     1
  1
\C18;\c0;\FArial Bold|b1|i0|c1;\H2.997200;\W0.700000;100
 11
0.0000000000000003
 21
1.0
 31
0.0
 73
     1
 44
1.0
  0
ENDBLK
  5
1BE
330
1BB
100
AcDbEntity
  8
0
100
AcDbBlockEnd
  0
ENDSEC
  0
SECTION
  2
ENTITIES
  0
LINE
  5
78
330
70
100
AcDbEntity
  8
0
 62
    18
420
        0
370
    25
100
AcDbLine
 10
41.80315828277175
 20
125.6042102316385
 30
0.0
 11
41.70438296727186
 21
125.6042102316385
 31
0.0
  0
LINE
  5
79
330
70
100
AcDbEntity
  8
0
 62
    18
420
        0
370
    25
100
AcDbLine
 10
41.70438296727186
 20
122.6042116025386
 30
0.0
 11
41.80315828277175
 21
122.6042116025386
 31
0.0
  0
LINE
  5
7A
330
70
100
AcDbEntity
  8
0
 62
    18
420
        0
370
    25
100
AcDbLine
 10
49.57754712247183
 20
105.7542110059384
 30
0.0
 11
49.51739532567172
 21
112.6469329895386
 31
0.0
  0
LINE
  5
7B
330
70
100
AcDbEntity
  8
0
 62
    18
420
        0
370
    25
100
AcDbLine
 10
34.13769917257182
 20
112.6469329895386
 30
0.0
 11
34.07754737577171
 21
105.7542110059384
 31
0.0
  0
SPLINE
  5
7C
330
70
100
AcDbEntity
  8
0
 62
    18
420
        0
370
    25
100
AcDbSpline
210
0.0
220
0.0
230
1.0
 70
     8
 71
     3
 72
     8
 73
     4
 74
     0
 42
0.0000000001
 43
0.0000000001
 40
0.0
 40
0.0
 40
0.0
 40
0.0
 40
1.0
 40
1.0
 40
1.0
 40
1.0
 10
34.37528855274499
 20
112.8944434003851
 30
0.0
 10
34.24304343939866
 20
112.887875402501
 30
0.0
 10
34.13885458481103
 20
112.779335867818
 30
0.0
 10
34.13769912070585
 20
112.6469327957131
 30
0.0
  0
SPLINE
  5
7D
330
70
100
AcDbEntity
  8
0
 62
    18
420
        0
370
    25
100
AcDbSpline
210
0.0
220
0.0
230
1.0
 70
     8
 71
     3
 72
     8
 73
     4
 74
     0
 42
0.0000000001
 43
0.0000000001
 40
0.0
 40
0.0
 40
0.0
 40
0.0
 40
1.0
 40
1.0
 40
1.0
 40
1.0
 10
49.5173953774379
 20
112.6469327957131
 30
0.0
 10
49.5162399133324
 20
112.779335867818
 30
0.0
 10
49.41205105874477
 20
112.887875402501
 30
0.0
 10
49.27980594539845
 20
112.8944434003851
 30
0.0
  0
SPLINE
  5
7E
330
70
100
AcDbEntity
  8
0
 62
    18
420
        0
370
    25
100
AcDbSpline
210
0.0
220
0.0
230
1.0
 70
     8
 71
     3
 72
     8
 73
     4
 74
     0
 42
0.0000000001
 43
0.0000000001
 40
0.0
 40
0.0
 40
0.0
 40
0.0
 40
1.0
 40
1.0
 40
1.0
 40
1.0
 10
49.27980594528454
 20
112.8944434004297
 30
0.0
 10
48.31199095816626
 20
112.9425102561862
 30
0.0
 10
47.34352843380502
 20
112.9765072678441
 30
0.0
 10
46.37472524990854
 20
112.996423662736
 30
0.0
  0
SPLINE
  5
7F
330
70
100
AcDbEntity
  8
0
 62
    18
420
        0
370
    25
100
AcDbSpline
210
0.0
220
0.0
230
1.0
 70
     8
 71
     3
 72
     8
 73
     4
 74
     0
 42
0.0000000001
 43
0.0000000001
 40
0.0
 40
0.0
 40
0.0
 40
0.0
 40
1.0
 40
1.0
 40
1.0
 40
1.0
 10
37.28036924823489
 20
112.996423662736
 30
0.0
 10
36.31156606433873
 20
112.9765072678441
 30
0.0
 10
35.34310353997749
 20
112.9425102561862
 30
0.0
 10
34.37528855285921
 20
112.8944434004297
 30
0.0
  0
SPLINE
  5
80
330
70
100
AcDbEntity
  8
0
 62
    18
420
        0
370
    25
100
AcDbSpline
210
0.0
220
0.0
230
1.0
 70
     8
 71
     3
 72
     8
 73
     4
 74
     0
 42
0.0000000001
 43
0.0000000001
 40
0.0
 40
0.0
 40
0.0
 40
0.0
 40
1.0
 40
1.0
 40
1.0
 40
1.0
 10
45.88502098233965
 20
113.4919547733895
 30
0.0
 10
45.88738100399041
 20
113.2215230781504
 30
0.0
 10
46.10434038608287
 20
113.0019821619313
 30
0.0
 10
46.37472524989506
 20
112.9964236627335
 30
0.0
  0
SPLINE
  5
81
330
70
100
AcDbEntity
  8
0
 62
    18
420
        0
370
    25
100
AcDbSpline
210
0.0
220
0.0
230
1.0
 70
     8
 71
     3
 72
     8
 73
     4
 74
     0
 42
0.0000000001
 43
0.0000000001
 40
0.0
 40
0.0
 40
0.0
 40
0.0
 40
1.0
 40
1.0
 40
1.0
 40
1.0
 10
37.28036924824837
 20
112.9964236627335
 30
0.0
 10
37.55075411206056
 20
113.0019821619313
 30
0.0
 10
37.76771349415302
 20
113.2215230781504
 30
0.0
 10
37.77007351580378
 20
113.4919547733895
 30
0.0
  0
LINE
  5
82
330
70
100
AcDbEntity
  8
0
 62
    18
420
        0
370
    25
100
AcDbLine
 10
45.88502075217182
 20
113.4919550234384
 30
0.0
 11
45.86658755007192
 21
115.6042113865386
 31
0.0
  0
LINE
  5
83
330
70
100
AcDbEntity
  8
0
 62
    18
420
        0
370
    25
100
AcDbLine
 10
37.78850694807183
 20
115.6042113865386
 30
0.0
 11
37.77007374607171
 21
113.4919550234384
 31
0.0
  0
LINE
  5
84
330
70
100
AcDbEntity
  8
0
 62
    18
420
        0
370
    25
100
AcDbLine
 10
36.82754736087171
 20
127.3535823414384
 30
0.0
 11
36.82754736087171
 21
115.6042113865386
 31
0.0
  0
LINE
  5
85
330
70
100
AcDbEntity
  8
0
 62
    18
420
        0
370
    25
100
AcDbLine
 10
46.82754713737182
 20
115.6042113865386
 30
0.0
 11
46.82754713737182
 21
127.3535823414384
 31
0.0
  0
SPLINE
  5
86
330
70
100
AcDbEntity
  8
0
 62
    18
420
        0
370
    25
100
AcDbSpline
210
0.0
220
0.0
230
1.0
 70
     8
 71
     3
 72
     8
 73
     4
 74
     0
 42
0.0000000001
 43
0.0000000001
 40
0.0
 40
0.0
 40
0.0
 40
0.0
 40
1.0
 40
1.0
 40
1.0
 40
1.0
 10
46.8275472491006
 20
127.3535828767665
 30
0.0
 10
43.50258917800152
 20
127.687753736329
 30
0.0
 10
40.1525053201419
 20
127.687753736329
 30
0.0
 10
36.82754724904282
 20
127.3535828767665
 30
0.0
  0
LINE
  5
87
330
70
100
AcDbEntity
  8
0
 62
    18
420
        0
370
    25
100
AcDbLine
 10
26.32754750237176
 20
104.8542110214386
 30
0.0
 11
26.32754750237176
 21
38.35421036583868
 31
0.0
  0
LINE
  5
88
330
70
100
AcDbEntity
  8
0
 62
    18
420
        0
370
    25
100
AcDbLine
 10
57.32754699577167
 20
38.35421036583868
 30
0.0
 11
57.32754699577167
 21
104.8542110214386
 31
0.0
  0
SPLINE
  5
89
330
70
100
AcDbEntity
  8
0
 62
    18
420
        0
370
    25
100
AcDbSpline
210
0.0
220
0.0
230
1.0
 70
     8
 71
     3
 72
     8
 73
     4
 74
     0
 42
0.0000000001
 43
0.0000000001
 40
0.0
 40
0.0
 40
0.0
 40
0.0
 40
1.0
 40
1.0
 40
1.0
 40
1.0
 10
57.27754724907194
 20
38.25421102143852
 30
0.0
 10
57.27754724907194
 20
38.30943949642193
 30
0.0
 10
57.23277572405471
 20
38.3542110214382
 30
0.0
 10
57.17754724907162
 20
38.3542110214382
 30
0.0
  0
SPLINE
  5
8A
330
70
100
AcDbEntity
  8
0
 62
    18
420
        0
370
    25
100
AcDbSpline
210
0.0
220
0.0
230
1.0
 70
     8
 71
     3
 72
     8
 73
     4
 74
     0
 42
0.0000000001
 43
0.0000000001
 40
0.0
 40
0.0
 40
0.0
 40
0.0
 40
1.0
 40
1.0
 40
1.0
 40
1.0
 10
26.47754724907182
 20
38.3542110214382
 30
0.0
 10
26.42231877408872
 20
38.3542110214382
 30
0.0
 10
26.37754724907181
 20
38.30943949642193
 30
0.0
 10
26.37754724907181
 20
38.25421102143852
 30
0.0
  0
LINE
  5
8B
330
70
100
AcDbEntity
  8
0
 62
    18
420
        0
370
    25
100
AcDbLine
 10
26.37754741747161
 20
38.25420867303885
 30
0.0
 11
26.37754741747161
 21
37.9542110452388
 31
0.0
  0
LINE
  5
8C
330
70
100
AcDbEntity
  8
0
 62
    18
420
        0
370
    25
100
AcDbLine
 10
57.27754708067182
 20
37.9542110452388
 30
0.0
 11
57.27754708067182
 21
38.25420867303885
 31
0.0
  0
SPLINE
  5
8D
330
70
100
AcDbEntity
  8
0
 62
    18
420
        0
370
    25
100
AcDbSpline
210
0.0
220
0.0
230
1.0
 70
     8
 71
     3
 72
     8
 73
     4
 74
     0
 42
0.0000000001
 43
0.0000000001
 40
0.0
 40
0.0
 40
0.0
 40
0.0
 40
1.0
 40
1.0
 40
1.0
 40
1.0
 10
26.37754724907181
 20
37.95421102143818
 30
0.0
 10
26.37754724907181
 20
37.89898254645541
 30
0.0
 10
26.42231877408872
 20
37.8542110214385
 30
0.0
 10
26.47754724907182
 20
37.8542110214385
 30
0.0
  0
SPLINE
  5
8E
330
70
100
AcDbEntity
  8
0
 62
    18
420
        0
370
    25
100
AcDbSpline
210
0.0
220
0.0
230
1.0
 70
     8
 71
     3
 72
     8
 73
     4
 74
     0
 42
0.0000000001
 43
0.0000000001
 40
0.0
 40
0.0
 40
0.0
 40
0.0
 40
1.0
 40
1.0
 40
1.0
 40
1.0
 10
57.17754724907162
 20
37.8542110214385
 30
0.0
 10
57.23277572405471
 20
37.8542110214385
 30
0.0
 10
57.27754724907161
 20
37.89898254645541
 30
0.0
 10
57.27754724907161
 20
37.95421102143818
 30
0.0
  0
LINE
  5
8F
330
70
100
AcDbEntity
  8
0
 62
    18
420
        0
370
    25
100
AcDbLine
 10
57.32754699577167
 20
104.8542110214386
 30
0.0
 11
57.32754699577167
 21
105.2120865054384
 31
0.0
  0
LINE
  5
90
330
70
100
AcDbEntity
  8
0
 62
    18
420
        0
370
    25
100
AcDbLine
 10
26.32754750237176
 20
105.2120865054384
 30
0.0
 11
26.32754750237176
 21
104.8542110214386
 31
0.0
  0
SPLINE
  5
91
330
70
100
AcDbEntity
  8
0
 62
    18
420
        0
370
    25
100
AcDbSpline
210
0.0
220
0.0
230
1.0
 70
     8
 71
     3
 72
     8
 73
     4
 74
     0
 42
0.0000000001
 43
0.0000000001
 40
0.0
 40
0.0
 40
0.0
 40
0.0
 40
1.0
 40
1.0
 40
1.0
 40
1.0
 10
57.32754724907178
 20
105.2120865101385
 30
0.0
 10
57.32754724907178
 20
105.3470678719499
 30
0.0
 10
57.22039708385473
 20
105.4576753794691
 30
0.0
 10
57.08548375700805
 20
105.4619605020661
 30
0.0
  0
SPLINE
  5
92
330
70
100
AcDbEntity
  8
0
 62
    18
420
        0
370
    25
100
AcDbSpline
210
0.0
220
0.0
230
1.0
 70
     8
 71
     3
 72
     8
 73
     4
 74
     0
 42
0.0000000001
 43
0.0000000001
 40
0.0
 40
0.0
 40
0.0
 40
0.0
 40
1.0
 40
1.0
 40
1.0
 40
1.0
 10
26.56961074113537
 20
105.4619605020661
 30
0.0
 10
26.4346974142887
 20
105.4576753794691
 30
0.0
 10
26.32754724907165
 20
105.3470678719499
 30
0.0
 10
26.32754724907165
 20
105.2120865101385
 30
0.0
  0
SPLINE
  5
93
330
70
100
AcDbEntity
  8
0
 62
    18
420
        0
370
    25
100
AcDbSpline
210
0.0
220
0.0
230
1.0
 70
     8
 71
     3
 72
     8
 73
     4
 74
     0
 42
0.0000000001
 43
0.0000000001
 40
0.0
 40
0.0
 40
0.0
 40
0.0
 40
1.0
 40
1.0
 40
1.0
 40
1.0
 10
36.82754724882015
 20
105.6782025153835
 30
0.0
 10
33.40756307779113
 20
105.6426220810531
 30
0.0
 10
29.98805611546405
 20
105.5705373036037
 30
0.0
 10
26.56961074138628
 20
105.4619605020241
 30
0.0
  0
SPLINE
  5
94
330
70
100
AcDbEntity
  8
0
 62
    18
420
        0
370
    25
100
AcDbSpline
210
0.0
220
0.0
230
1.0
 70
     8
 71
     3
 72
     8
 73
     4
 74
     0
 42
0.0000000001
 43
0.0000000001
 40
0.0
 40
0.0
 40
0.0
 40
0.0
 40
1.0
 40
1.0
 40
1.0
 40
1.0
 10
57.08548375675715
 20
105.4619605020241
 30
0.0
 10
53.6670383826797
 20
105.5705373036037
 30
0.0
 10
50.24753142035262
 20
105.6426220810531
 30
0.0
 10
46.82754724932392
 20
105.6782025153835
 30
0.0
  0
CIRCLE
  5
95
330
70
100
AcDbEntity
  8
0
 62
    18
420
        0
370
    25
100
AcDbCircle
 10
41.70437020417187
 20
124.1042082099384
 30
0.0
 40
1.499994979169659
  0
CIRCLE
  5
96
330
70
100
AcDbEntity
  8
0
 62
    18
420
        0
370
    25
100
AcDbCircle
 10
41.70437475827177
 20
124.1042079335385
 30
0.0
 40
0.9999963384705703
  0
SPLINE
  5
97
330
70
100
AcDbEntity
  8
0
 62
    18
420
        0
370
    25
100
AcDbSpline
210
0.0
220
0.0
230
1.0
 70
     8
 71
     3
 72
    11
 73
     7
 74
     0
 42
0.0000000001
 43
0.0000000001
 40
0.0
 40
0.0
 40
0.0
 40
0.0
 40
1.0
 40
1.0
 40
1.0
 40
2.0
 40
2.0
 40
2.0
 40
2.0
 10
41.76047759551689
 20
125.1026371459002
 30
0.0
 10
41.20906201554072
 20
125.0716512563726
 30
0.0
 10
40.78717039328227
 20
124.5995215810596
 30
0.0
 10
40.81815628281018
 20
124.0481060010835
 30
0.0
 10
40.84670996688481
 20
123.5399732185638
 30
0.0
 10
41.25234481299723
 20
123.1343383724517
 30
0.0
 10
41.76047759551689
 20
123.1057846883768
 30
0.0
  0
LINE
  5
98
330
70
100
AcDbEntity
  8
0
 62
    18
420
        0
370
    25
100
AcDbLine
 10
49.57754712247183
 20
105.7542110059384
 30
0.0
 11
34.07754737577171
 21
105.7542110059384
 31
0.0
  0
LINE
  5
99
330
70
100
AcDbEntity
  8
0
 62
    18
420
        0
370
    25
100
AcDbLine
 10
36.82754736087171
 20
115.6042113865386
 30
0.0
 11
46.82754713737182
 21
115.6042113865386
 31
0.0
  0
LINE
  5
9A
330
70
100
AcDbEntity
  8
0
 62
    18
420
        0
370
    25
100
AcDbLine
 10
36.82754736087171
 20
127.3535823414384
 30
0.0
 11
46.82754713737182
 21
127.3535823414384
 31
0.0
  0
LINE
  5
9B
330
70
100
AcDbEntity
  8
0
 62
    18
420
        0
370
    25
100
AcDbLine
 10
26.32754750237176
 20
104.8542110214386
 30
0.0
 11
57.32754699577167
 21
104.8542110214386
 31
0.0
  0
LINE
  5
9C
330
70
100
AcDbEntity
  8
0
 62
    18
420
        0
370
    25
100
AcDbLine
 10
26.32754750237176
 20
38.35421036583868
 30
0.0
 11
57.32754699577167
 21
38.35421036583868
 31
0.0
  0
LINE
  5
9D
330
70
100
AcDbEntity
  8
0
 62
    18
420
        0
370
    25
100
AcDbLine
 10
41.82754724907187
 20
37.85420935253844
 30
0.0
 11
26.47754724757185
 21
37.85420935253844
 31
0.0
  0
LINE
  5
9E
330
70
100
AcDbEntity
  8
0
 62
    18
420
        0
370
    25
100
AcDbLine
 10
57.1775472505719
 20
37.85420935253844
 30
0.0
 11
41.82754724907187
 21
37.85420935253844
 31
0.0
  0
LINE
  5
9F
330
70
100
AcDbEntity
  8
0
 62
    18
420
        0
370
    25
100
AcDbLine
 10
46.82754713737182
 20
105.6782025110386
 30
0.0
 11
36.82754736087171
 21
105.6782025110386
 31
0.0
  0
LINE
  5
A0
330
70
100
AcDbEntity
  8
0
 62
     8
420
  8421504
370
    25
100
AcDbLine
 10
42.61729470607174
 20
112.6469329895386
 30
0.0
 11
34.13769917257182
 21
112.6469329895386
 31
0.0
  0
LINE
  5
A1
330
70
100
AcDbEntity
  8
0
 62
     8
420
  8421504
370
    25
100
AcDbLine
 10
49.51739532567172
 20
112.6469329895386
 30
0.0
 11
42.61729470607174
 21
112.6469329895386
 31
0.0
  0
LINE
  5
A2
330
70
100
AcDbEntity
  8
0
 62
     8
420
  8421504
370
    25
100
AcDbLine
 10
34.37528840887189
 20
112.8944436053383
 30
0.0
 11
49.27980608927186
 21
112.8944436053383
 31
0.0
  0
LINE
  5
A3
330
70
100
AcDbEntity
  8
0
 62
     8
420
  8421504
370
    25
100
AcDbLine
 10
46.37472506307177
 20
112.9964234272386
 30
0.0
 11
37.28036943517177
 21
112.9964234272386
 31
0.0
  0
LINE
  5
A4
330
70
100
AcDbEntity
  8
0
 62
     8
420
  8421504
370
    25
100
AcDbLine
 10
37.77007374607171
 20
113.4919550234384
 30
0.0
 11
45.88502075217182
 21
113.4919550234384
 31
0.0
  0
LINE
  5
A5
330
70
100
AcDbEntity
  8
0
 62
     8
420
  8421504
370
    25
100
AcDbLine
 10
57.27754708067182
 20
38.25420867303885
 30
0.0
 11
26.37754741747161
 21
38.25420867303885
 31
0.0
  0
LINE
  5
A6
330
70
100
AcDbEntity
  8
0
 62
     8
420
  8421504
370
    25
100
AcDbLine
 10
41.82754724907187
 20
37.9542110452388
 30
0.0
 11
57.27754708067182
 21
37.9542110452388
 31
0.0
  0
LINE
  5
A7
330
70
100
AcDbEntity
  8
0
 62
     8
420
  8421504
370
    25
100
AcDbLine
 10
26.37754741747161
 20
37.9542110452388
 30
0.0
 11
41.82754724907187
 21
37.9542110452388
 31
0.0
  0
LINE
  5
A8
330
70
100
AcDbEntity
  8
0
 62
     8
420
  8421504
370
    25
100
AcDbLine
 10
57.32754699577167
 20
105.2120865054384
 30
0.0
 11
26.32754750237176
 21
105.2120865054384
 31
0.0
  0
LINE
  5
A9
330
70
100
AcDbEntity
  8
0
 62
     8
420
  8421504
370
    25
100
AcDbLine
 10
26.56961034677185
 20
105.4619605268386
 30
0.0
 11
57.08548415147169
 21
105.4619605268386
 31
0.0
  0
LWPOLYLINE
  5
AA
330
70
100
AcDbEntity
  8
0
 62
    18
420
        0
370
    25
100
AcDbPolyline
 90
       16
 70
     0
 43
0.0
 10
101.3683804978718
 20
82.29034375053855
 10
101.3684885312714
 20
82.63728376123836
 10
101.3685518611721
 20
83.04337020613859
 10
101.3685853888714
 20
83.45188554023861
 10
101.3686300922716
 20
83.82011372243876
 10
101.3686915595715
 20
84.11939795713806
 10
101.3687213619717
 20
84.42464824413809
 10
101.3686822463713
 20
84.6709011087381
 10
101.3686785210722
 20
84.82402916643875
 10
101.3686915595715
 20
84.97446942723829
 10
101.3686952848718
 20
85.1270051638385
 10
101.3686245043718
 20
85.30390243623822
 10
101.3685760755718
 20
85.42958069243853
 10
101.3685388226716
 20
85.58040838333827
 10
101.3685108829722
 20
85.93952078023825
 10
101.3684903939717
 20
86.25420350233877
  0
LWPOLYLINE
  5
AB
330
70
100
AcDbEntity
  8
0
 62
    18
420
        0
370
    25
100
AcDbPolyline
 90
        3
 70
     0
 43
0.0
 10
101.107500280872
 20
72.4551564047382
 10
101.2982984740715
 20
77.34654638563852
 10
101.3687120486714
 20
81.10184762273849
  0
LWPOLYLINE
  5
AC
330
70
100
AcDbEntity
  8
0
 62
    18
420
        0
370
    25
100
AcDbPolyline
 90
        5
 70
     0
 43
0.0
 10
101.3687120486714
 20
81.1030359903386
 10
101.3686934222717
 20
81.25645089543873
 10
101.3685947020716
 20
81.52742478643865
 10
101.368466179572
 20
81.89328740933836
 10
101.3683525581718
 20
82.33455363313892
  0
SPLINE
  5
AD
330
70
100
AcDbEntity
  8
0
 62
    18
420
        0
370
    25
100
AcDbSpline
210
0.0
220
0.0
230
1.0
 70
     8
 71
     3
 72
     8
 73
     4
 74
     0
 42
0.0000000001
 43
0.0000000001
 40
0.0
 40
0.0
 40
0.0
 40
0.0
 40
1.0
 40
1.0
 40
1.0
 40
1.0
 10
100.6091866914054
 20
71.97921102166727
 30
0.0
 10
100.8759923260832
 20
71.97920294563909
 30
0.0
 10
101.0958002632455
 20
72.18868183581129
 30
0.0
 10
101.1086239595928
 20
72.45517911454678
 30
0.0
  0
LINE
  5
AE
330
70
100
AcDbEntity
  8
0
 62
    18
420
        0
370
    25
100
AcDbLine
 10
128.3006791692712
 20
122.6042116025386
 30
0.0
 11
148.5504375506723
 21
122.6042116025386
 31
0.0
  0
LINE
  5
AF
330
70
100
AcDbEntity
  8
0
 62
    18
420
        0
370
    25
100
AcDbLine
 10
148.5504375506723
 20
125.6042102316385
 30
0.0
 11
128.3006791692712
 21
125.6042102316385
 31
0.0
  0
LINE
  5
B0
330
70
100
AcDbEntity
  8
0
 62
    18
420
        0
370
    25
100
AcDbLine
 10
131.0507382933724
 20
105.7542110059384
 30
0.0
 11
130.9905864965716
 21
112.6469329895386
 31
0.0
  0
LINE
  5
B1
330
70
100
AcDbEntity
  8
0
 62
    18
420
        0
370
    25
100
AcDbLine
 10
115.610890343472
 20
112.6469329895386
 30
0.0
 11
115.5507385466713
 21
105.7542110059384
 31
0.0
  0
SPLINE
  5
B2
330
70
100
AcDbEntity
  8
0
 62
    18
420
        0
370
    25
100
AcDbSpline
210
0.0
220
0.0
230
1.0
 70
     8
 71
     3
 72
     8
 73
     4
 74
     0
 42
0.0000000001
 43
0.0000000001
 40
0.0
 40
0.0
 40
0.0
 40
0.0
 40
1.0
 40
1.0
 40
1.0
 40
1.0
 10
115.848479723745
 20
112.8944434003851
 30
0.0
 10
115.716234610399
 20
112.887875402501
 30
0.0
 10
115.6120457558107
 20
112.779335867818
 30
0.0
 10
115.6108902917062
 20
112.6469327957131
 30
0.0
  0
SPLINE
  5
B3
330
70
100
AcDbEntity
  8
0
 62
    18
420
        0
370
    25
100
AcDbSpline
210
0.0
220
0.0
230
1.0
 70
     8
 71
     3
 72
     8
 73
     4
 74
     0
 42
0.0000000001
 43
0.0000000001
 40
0.0
 40
0.0
 40
0.0
 40
0.0
 40
1.0
 40
1.0
 40
1.0
 40
1.0
 10
130.9905865484376
 20
112.6469327957131
 30
0.0
 10
130.989431084333
 20
112.779335867818
 30
0.0
 10
130.8852422297448
 20
112.887875402501
 30
0.0
 10
130.7529971163988
 20
112.8944434003851
 30
0.0
  0
SPLINE
  5
B4
330
70
100
AcDbEntity
  8
0
 62
    18
420
        0
370
    25
100
AcDbSpline
210
0.0
220
0.0
230
1.0
 70
     8
 71
     3
 72
     8
 73
     4
 74
     0
 42
0.0000000001
 43
0.0000000001
 40
0.0
 40
0.0
 40
0.0
 40
0.0
 40
1.0
 40
1.0
 40
1.0
 40
1.0
 10
130.7529971162846
 20
112.8944434004297
 30
0.0
 10
129.7851821291666
 20
112.9425102561862
 30
0.0
 10
128.8167196048044
 20
112.9765072678441
 30
0.0
 10
127.8479164209082
 20
112.996423662736
 30
0.0
  0
SPLINE
  5
B5
330
70
100
AcDbEntity
  8
0
 62
    18
420
        0
370
    25
100
AcDbSpline
210
0.0
220
0.0
230
1.0
 70
     8
 71
     3
 72
     8
 73
     4
 74
     0
 42
0.0000000001
 43
0.0000000001
 40
0.0
 40
0.0
 40
0.0
 40
0.0
 40
1.0
 40
1.0
 40
1.0
 40
1.0
 10
118.7535604192355
 20
112.996423662736
 30
0.0
 10
117.7847572353381
 20
112.9765072678441
 30
0.0
 10
116.8162947109772
 20
112.9425102561862
 30
0.0
 10
115.8484797238592
 20
112.8944434004297
 30
0.0
  0
SPLINE
  5
B6
330
70
100
AcDbEntity
  8
0
 62
    18
420
        0
370
    25
100
AcDbSpline
210
0.0
220
0.0
230
1.0
 70
     8
 71
     3
 72
     8
 73
     4
 74
     0
 42
0.0000000001
 43
0.0000000001
 40
0.0
 40
0.0
 40
0.0
 40
0.0
 40
1.0
 40
1.0
 40
1.0
 40
1.0
 10
127.358212153339
 20
113.4919547733895
 30
0.0
 10
127.3605721749911
 20
113.2215230781504
 30
0.0
 10
127.5775315570829
 20
113.0019821619313
 30
0.0
 10
127.8479164208954
 20
112.9964236627335
 30
0.0
  0
SPLINE
  5
B7
330
70
100
AcDbEntity
  8
0
 62
    18
420
        0
370
    25
100
AcDbSpline
210
0.0
220
0.0
230
1.0
 70
     8
 71
     3
 72
     8
 73
     4
 74
     0
 42
0.0000000001
 43
0.0000000001
 40
0.0
 40
0.0
 40
0.0
 40
0.0
 40
1.0
 40
1.0
 40
1.0
 40
1.0
 10
118.7535604192484
 20
112.9964236627335
 30
0.0
 10
119.0239452830609
 20
113.0019821619313
 30
0.0
 10
119.2409046651527
 20
113.2215230781504
 30
0.0
 10
119.2432646868035
 20
113.4919547733895
 30
0.0
  0
LINE
  5
B8
330
70
100
AcDbEntity
  8
0
 62
    18
420
        0
370
    25
100
AcDbLine
 10
127.3582119230717
 20
113.4919550234384
 30
0.0
 11
127.3397787210719
 21
115.6042113865386
 31
0.0
  0
LINE
  5
B9
330
70
100
AcDbEntity
  8
0
 62
    18
420
        0
370
    25
100
AcDbLine
 10
119.2616981190718
 20
115.6042113865386
 30
0.0
 11
119.2432649169719
 21
113.4919550234384
 31
0.0
  0
LINE
  5
BA
330
70
100
AcDbEntity
  8
0
 62
    18
420
        0
370
    25
100
AcDbLine
 10
118.3007385317722
 20
127.3535823414384
 30
0.0
 11
118.3007385317722
 21
115.6042113865386
 31
0.0
  0
LINE
  5
BB
330
70
100
AcDbEntity
  8
0
 62
    18
420
        0
370
    25
100
AcDbLine
 10
128.3007383082714
 20
125.6042102316385
 30
0.0
 11
128.3007383082714
 21
127.3535823414384
 31
0.0
  0
LINE
  5
BC
330
70
100
AcDbEntity
  8
0
 62
    18
420
        0
370
    25
100
AcDbLine
 10
128.3007383082714
 20
115.6042113865386
 30
0.0
 11
128.3007383082714
 21
122.6042116025386
 31
0.0
  0
SPLINE
  5
BD
330
70
100
AcDbEntity
  8
0
 62
    18
420
        0
370
    25
100
AcDbSpline
210
0.0
220
0.0
230
1.0
 70
     8
 71
     3
 72
     8
 73
     4
 74
     0
 42
0.0000000001
 43
0.0000000001
 40
0.0
 40
0.0
 40
0.0
 40
0.0
 40
1.0
 40
1.0
 40
1.0
 40
1.0
 10
128.3007384201003
 20
127.3535828767665
 30
0.0
 10
124.9757803490018
 20
127.687753736329
 30
0.0
 10
121.6256964911419
 20
127.687753736329
 30
0.0
 10
118.3007384200435
 20
127.3535828767665
 30
0.0
  0
LINE
  5
BE
330
70
100
AcDbEntity
  8
0
 62
    18
420
        0
370
    25
100
AcDbLine
 10
107.0073282082722
 20
80.49268815313837
 30
0.0
 11
107.0073282082722
 21
78.22921108103829
 31
0.0
  0
LINE
  5
BF
330
70
100
AcDbEntity
  8
0
 62
    18
420
        0
370
    25
100
AcDbLine
 10
107.0073282082722
 20
90.7292112673384
 30
0.0
 11
107.0073282082722
 21
88.4749961982388
 31
0.0
  0
LINE
  5
C0
330
70
100
AcDbEntity
  8
0
 62
    18
420
        0
370
    25
100
AcDbLine
 10
107.0073282082722
 20
78.22921108103829
 30
0.0
 11
107.7612952996714
 21
78.22921108103829
 31
0.0
  0
LINE
  5
C1
330
70
100
AcDbEntity
  8
0
 62
    18
420
        0
370
    25
100
AcDbLine
 10
107.7612952996714
 20
90.7292112673384
 30
0.0
 11
107.0073282082722
 21
90.7292112673384
 31
0.0
  0
LINE
  5
C2
330
70
100
AcDbEntity
  8
0
 62
    18
420
        0
370
    25
100
AcDbLine
 10
101.3657392670717
 20
80.47921191553861
 30
0.0
 11
107.0097179819716
 21
80.47921191553861
 31
0.0
  0
LINE
  5
C3
330
70
100
AcDbEntity
  8
0
 62
    18
420
        0
370
    25
100
AcDbLine
 10
107.0080695410723
 20
88.47921136413845
 30
0.0
 11
101.3657392670717
 21
88.47921136413845
 31
0.0
  0
LINE
  5
C4
330
70
100
AcDbEntity
  8
0
 62
    18
420
        0
370
    25
100
AcDbLine
 10
101.3657392670717
 20
87.56075594223871
 30
0.0
 11
101.3553252179715
 21
87.56066467263869
 31
0.0
  0
LINE
  5
C5
330
70
100
AcDbEntity
  8
0
 62
    18
420
        0
370
    25
100
AcDbLine
 10
107.8007386733714
 20
78.42201720573878
 30
0.0
 11
107.8007386733714
 21
38.35421036583868
 31
0.0
  0
LINE
  5
C6
330
70
100
AcDbEntity
  8
0
 62
    18
420
        0
370
    25
100
AcDbLine
 10
107.8007386733714
 20
104.8542110214386
 30
0.0
 11
107.8007386733714
 21
90.53562283163849
 31
0.0
  0
LINE
  5
C7
330
70
100
AcDbEntity
  8
0
 62
    18
420
        0
370
    25
100
AcDbLine
 10
138.8007381667723
 20
38.35421036583868
 30
0.0
 11
138.8007381667723
 21
104.8542110214386
 31
0.0
  0
SPLINE
  5
C8
330
70
100
AcDbEntity
  8
0
 62
    18
420
        0
370
    25
100
AcDbSpline
210
0.0
220
0.0
230
1.0
 70
     8
 71
     3
 72
     8
 73
     4
 74
     0
 42
0.0000000001
 43
0.0000000001
 40
0.0
 40
0.0
 40
0.0
 40
0.0
 40
1.0
 40
1.0
 40
1.0
 40
1.0
 10
138.7507384200713
 20
38.25421102143852
 30
0.0
 10
138.7507384200713
 20
38.30943949642193
 30
0.0
 10
138.705966895055
 20
38.3542110214382
 30
0.0
 10
138.6507384200723
 20
38.3542110214382
 30
0.0
  0
SPLINE
  5
C9
330
70
100
AcDbEntity
  8
0
 62
    18
420
        0
370
    25
100
AcDbSpline
210
0.0
220
0.0
230
1.0
 70
     8
 71
     3
 72
     8
 73
     4
 74
     0
 42
0.0000000001
 43
0.0000000001
 40
0.0
 40
0.0
 40
0.0
 40
0.0
 40
1.0
 40
1.0
 40
1.0
 40
1.0
 10
107.9507384200715
 20
38.3542110214382
 30
0.0
 10
107.8955099450887
 20
38.3542110214382
 30
0.0
 10
107.8507384200712
 20
38.30943949642193
 30
0.0
 10
107.8507384200712
 20
38.25421102143852
 30
0.0
  0
LINE
  5
CA
330
70
100
AcDbEntity
  8
0
 62
    18
420
        0
370
    25
100
AcDbLine
 10
107.8507385884723
 20
38.25420867303885
 30
0.0
 11
107.8507385884723
 21
37.9542110452388
 31
0.0
  0
LINE
  5
CB
330
70
100
AcDbEntity
  8
0
 62
    18
420
        0
370
    25
100
AcDbLine
 10
138.7507382516715
 20
37.9542110452388
 30
0.0
 11
138.7507382516715
 21
38.25420867303885
 31
0.0
  0
SPLINE
  5
CC
330
70
100
AcDbEntity
  8
0
 62
    18
420
        0
370
    25
100
AcDbSpline
210
0.0
220
0.0
230
1.0
 70
     8
 71
     3
 72
     8
 73
     4
 74
     0
 42
0.0000000001
 43
0.0000000001
 40
0.0
 40
0.0
 40
0.0
 40
0.0
 40
1.0
 40
1.0
 40
1.0
 40
1.0
 10
107.8507384200712
 20
37.95421102143818
 30
0.0
 10
107.8507384200712
 20
37.89898254645541
 30
0.0
 10
107.8955099450887
 20
37.8542110214385
 30
0.0
 10
107.9507384200715
 20
37.8542110214385
 30
0.0
  0
SPLINE
  5
CD
330
70
100
AcDbEntity
  8
0
 62
    18
420
        0
370
    25
100
AcDbSpline
210
0.0
220
0.0
230
1.0
 70
     8
 71
     3
 72
     8
 73
     4
 74
     0
 42
0.0000000001
 43
0.0000000001
 40
0.0
 40
0.0
 40
0.0
 40
0.0
 40
1.0
 40
1.0
 40
1.0
 40
1.0
 10
138.6507384200723
 20
37.8542110214385
 30
0.0
 10
138.705966895055
 20
37.8542110214385
 30
0.0
 10
138.7507384200713
 20
37.89898254645541
 30
0.0
 10
138.7507384200713
 20
37.95421102143818
 30
0.0
  0
SPLINE
  5
CE
330
70
100
AcDbEntity
  8
0
 62
    18
420
        0
370
    25
100
AcDbSpline
210
0.0
220
0.0
230
1.0
 70
     8
 71
     3
 72
     8
 73
     4
 74
     0
 42
0.0000000001
 43
0.0000000001
 40
0.0
 40
0.0
 40
0.0
 40
0.0
 40
1.0
 40
1.0
 40
1.0
 40
1.0
 10
138.8007384200715
 20
105.2120865101385
 30
0.0
 10
138.8007384200715
 20
105.3470678719499
 30
0.0
 10
138.6935882548544
 20
105.4576753794691
 30
0.0
 10
138.5586749280081
 20
105.4619605020661
 30
0.0
  0
SPLINE
  5
CF
330
70
100
AcDbEntity
  8
0
 62
    18
420
        0
370
    25
100
AcDbSpline
210
0.0
220
0.0
230
1.0
 70
     8
 71
     3
 72
     8
 73
     4
 74
     0
 42
0.0000000001
 43
0.0000000001
 40
0.0
 40
0.0
 40
0.0
 40
0.0
 40
1.0
 40
1.0
 40
1.0
 40
1.0
 10
108.0428019121357
 20
105.4619605020661
 30
0.0
 10
107.9078885852893
 20
105.4576753794691
 30
0.0
 10
107.8007384200723
 20
105.3470678719499
 30
0.0
 10
107.8007384200723
 20
105.2120865101385
 30
0.0
  0
LINE
  5
D0
330
70
100
AcDbEntity
  8
0
 62
    18
420
        0
370
    25
100
AcDbLine
 10
138.8007381667723
 20
104.8542110214386
 30
0.0
 11
138.8007381667723
 21
105.2120865054384
 31
0.0
  0
LINE
  5
D1
330
70
100
AcDbEntity
  8
0
 62
    18
420
        0
370
    25
100
AcDbLine
 10
107.8007386733714
 20
105.2120865054384
 30
0.0
 11
107.8007386733714
 21
104.8542110214386
 31
0.0
  0
SPLINE
  5
D2
330
70
100
AcDbEntity
  8
0
 62
    18
420
        0
370
    25
100
AcDbSpline
210
0.0
220
0.0
230
1.0
 70
     8
 71
     3
 72
     8
 73
     4
 74
     0
 42
0.0000000001
 43
0.0000000001
 40
0.0
 40
0.0
 40
0.0
 40
0.0
 40
1.0
 40
1.0
 40
1.0
 40
1.0
 10
118.3007384198202
 20
105.6782025153835
 30
0.0
 10
114.8807542487918
 20
105.6426220810531
 30
0.0
 10
111.4612472864637
 20
105.5705373036037
 30
0.0
 10
108.042801912386
 20
105.4619605020241
 30
0.0
  0
SPLINE
  5
D3
330
70
100
AcDbEntity
  8
0
 62
    18
420
        0
370
    25
100
AcDbSpline
210
0.0
220
0.0
230
1.0
 70
     8
 71
     3
 72
     8
 73
     4
 74
     0
 42
0.0000000001
 43
0.0000000001
 40
0.0
 40
0.0
 40
0.0
 40
0.0
 40
1.0
 40
1.0
 40
1.0
 40
1.0
 10
138.5586749277578
 20
105.4619605020241
 30
0.0
 10
135.14022955368
 20
105.5705373036037
 30
0.0
 10
131.720722591352
 20
105.6426220810531
 30
0.0
 10
128.3007384203236
 20
105.6782025153835
 30
0.0
  0
LWPOLYLINE
  5
D4
330
70
100
AcDbEntity
  8
0
 62
    18
420
        0
370
    25
100
AcDbPolyline
 90
        3
 70
     0
 43
0.0
 10
101.1068371792715
 20
72.47901316383835
 10
101.1068353165719
 20
72.4789833615382
 10
101.1059431095714
 20
72.45796527363836
  0
LWPOLYLINE
  5
D5
330
70
100
AcDbEntity
  8
0
 62
    18
420
        0
370
    25
100
AcDbPolyline
 90
        9
 70
     0
 43
0.0
 10
100.6063947190718
 20
72.47921060423853
 10
100.7038278241717
 20
72.47506808143842
 10
100.7975188751717
 20
72.47108202073848
 10
100.8838692416716
 20
72.46740888453853
 10
100.9595615525721
 20
72.46419023373862
 10
101.0216882188722
 20
72.46154900293851
 10
101.0678613294714
 20
72.45958577493841
 10
101.0963113714713
 20
72.45837505553876
 10
101.1059431095714
 20
72.45796527363836
  0
LWPOLYLINE
  5
D6
330
70
100
AcDbEntity
  8
0
 62
    18
420
        0
370
    25
100
AcDbPolyline
 90
        7
 70
     0
 43
0.0
 10
101.1059393842717
 20
72.46850411993847
 10
101.0707577426718
 20
72.46925662853891
 10
100.9832469482718
 20
72.47113417483816
 10
100.8532622565718
 20
72.47391696673853
 10
100.6954272945718
 20
72.47730325553837
 10
100.6218006570718
 20
72.4788790533388
 10
100.6063947190718
 20
72.47921060423853
  0
SPLINE
  5
D7
330
70
100
AcDbEntity
  8
0
 62
    18
420
        0
370
    25
100
AcDbSpline
210
0.0
220
0.0
230
1.0
 70
     8
 71
     3
 72
     8
 73
     4
 74
     0
 42
0.0000000001
 43
0.0000000001
 40
0.0
 40
0.0
 40
0.0
 40
0.0
 40
1.0
 40
1.0
 40
1.0
 40
1.0
 10
101.1059393842461
 20
72.46850411992885
 30
0.0
 10
101.1065473338438
 20
72.47197388759481
 30
0.0
 10
101.1068477651335
 20
72.47549055427271
 30
0.0
 10
101.106837179208
 20
72.47901316386016
 30
0.0
  0
LWPOLYLINE
  5
D8
330
70
100
AcDbEntity
  8
0
 62
    18
420
        0
370
    25
100
AcDbPolyline
 90
        7
 70
     0
 43
0.0
 10
101.1059431095714
 20
96.47940080263854
 10
101.1063007374716
 20
95.47940157003836
 10
101.1075654734716
 20
91.47940184573844
 10
101.1085899282714
 20
83.47940239703879
 10
101.1082416136722
 20
80.43220061463879
 10
101.1059431095714
 20
72.4790206144384
 10
101.1059393842717
 20
72.46850411993847
  0
LWPOLYLINE
  5
D9
330
70
100
AcDbEntity
  8
0
 62
    18
420
        0
370
    25
100
AcDbPolyline
 90
        4
 70
     0
 43
0.0
 10
100.6063947190718
 20
72.47921060423853
 10
100.6088105697717
 20
80.43229188423882
 10
100.6088310588716
 20
88.38537502683859
 10
100.6063947190718
 20
96.4792108128384
  0
LWPOLYLINE
  5
DA
330
70
100
AcDbEntity
  8
0
 62
    18
420
        0
370
    25
100
AcDbPolyline
 90
        9
 70
     0
 43
0.0
 10
101.1059431095714
 20
96.47940080263854
 10
101.0928207744714
 20
96.47939614603844
 10
101.062001447872
 20
96.47938497013868
 10
101.0146045793713
 20
96.47936634373863
 10
100.9523549784715
 20
96.47934306063868
 10
100.8775176216713
 20
96.4793141896386
 10
100.7928175587715
 20
96.47928159333849
 10
100.7013318796714
 20
96.47924713443856
 10
100.6063947190718
 20
96.4792108128384
  0
LINE
  5
DB
330
70
100
AcDbEntity
  8
0
 62
    18
420
        0
370
    25
100
AcDbLine
 10
98.36573877527154
 20
96.97921089473847
 30
0.0
 11
100.6063947190718
 21
96.97921089473847
 31
0.0
  0
LINE
  5
DC
330
70
100
AcDbEntity
  8
0
 62
    18
420
        0
370
    25
100
AcDbLine
 10
100.6063947190718
 20
96.4792108128384
 30
0.0
 11
100.6063947190718
 21
96.97921089473847
 31
0.0
  0
LINE
  5
DD
330
70
100
AcDbEntity
  8
0
 62
    18
420
        0
370
    25
100
AcDbLine
 10
100.6063947190718
 20
96.4792108128384
 30
0.0
 11
98.36573877527154
 21
96.4792108128384
 31
0.0
  0
LINE
  5
DE
330
70
100
AcDbEntity
  8
0
 62
    18
420
        0
370
    25
100
AcDbLine
 10
98.36573877527154
 20
96.4792108128384
 30
0.0
 11
98.36573877527154
 21
96.97921089473847
 31
0.0
  0
LINE
  5
DF
330
70
100
AcDbEntity
  8
0
 62
    18
420
        0
370
    25
100
AcDbLine
 10
98.36573877527154
 20
72.47921060423853
 30
0.0
 11
100.6063947190718
 21
72.47921060423853
 31
0.0
  0
LINE
  5
E0
330
70
100
AcDbEntity
  8
0
 62
    18
420
        0
370
    25
100
AcDbLine
 10
98.36573877527154
 20
96.4792108128384
 30
0.0
 11
98.36573877527154
 21
72.47921060423853
 31
0.0
  0
LINE
  5
E1
330
70
100
AcDbEntity
  8
0
 62
    18
420
        0
370
    25
100
AcDbLine
 10
100.6063947190718
 20
71.97920959093893
 30
0.0
 11
100.6063947190718
 21
72.47921060423853
 31
0.0
  0
LINE
  5
E2
330
70
100
AcDbEntity
  8
0
 62
    18
420
        0
370
    25
100
AcDbLine
 10
100.6063947190718
 20
71.97920959093893
 30
0.0
 11
98.36573877527154
 21
71.97920959093893
 31
0.0
  0
LINE
  5
E3
330
70
100
AcDbEntity
  8
0
 62
    18
420
        0
370
    25
100
AcDbLine
 10
98.36573877527154
 20
71.97920959093893
 30
0.0
 11
98.36573877527154
 21
72.47921060423853
 31
0.0
  0
SPLINE
  5
E4
330
70
100
AcDbEntity
  8
0
 62
    18
420
        0
370
    25
100
AcDbSpline
210
0.0
220
0.0
230
1.0
 70
     8
 71
     3
 72
     8
 73
     4
 74
     0
 42
0.0000000001
 43
0.0000000001
 40
0.0
 40
0.0
 40
0.0
 40
0.0
 40
1.0
 40
1.0
 40
1.0
 40
1.0
 10
101.1059431095246
 20
96.47940080262442
 30
0.0
 10
101.1059620108365
 20
96.75534393601083
 30
0.0
 10
100.8823378244563
 20
96.97908527383862
 30
0.0
 10
100.6063947190166
 20
96.97921089477569
 30
0.0
  0
SPLINE
  5
E5
330
70
100
AcDbEntity
  8
0
 62
    18
420
        0
370
    25
100
AcDbSpline
210
0.0
220
0.0
230
1.0
 70
     8
 71
     3
 72
     8
 73
     4
 74
     0
 42
0.0000000001
 43
0.0000000001
 40
0.0
 40
0.0
 40
0.0
 40
0.0
 40
1.0
 40
1.0
 40
1.0
 40
1.0
 10
100.6063947190705
 20
71.97920959089209
 30
0.0
 10
100.8742737038504
 20
71.97921086175715
 30
0.0
 10
101.0945600728479
 20
72.19032824894935
 30
0.0
 10
101.1059431095785
 20
72.45796527359857
 30
0.0
  0
SPLINE
  5
E6
330
70
100
AcDbEntity
  8
0
 62
    18
420
        0
370
    25
100
AcDbSpline
210
0.0
220
0.0
230
1.0
 70
     8
 71
     3
 72
     8
 73
     4
 74
     0
 42
0.0000000001
 43
0.0000000001
 40
0.0
 40
0.0
 40
0.0
 40
0.0
 40
1.0
 40
1.0
 40
1.0
 40
1.0
 10
101.1068371792073
 20
72.47901316365802
 30
0.0
 10
101.2406977582857
 20
75.5412158806645
 30
0.0
 10
101.3270088548791
 20
78.60531228054817
 30
0.0
 10
101.3657392670255
 20
81.6701946746785
 30
0.0
  0
LWPOLYLINE
  5
E7
330
70
100
AcDbEntity
  8
0
 62
    18
420
        0
370
    25
100
AcDbPolyline
 90
        3
 70
     0
 43
0.0
 10
101.1068371792715
 20
96.47941011583872
 10
101.1068353165719
 20
96.47941011583872
 10
101.1059431095714
 20
96.47940080263854
  0
SPLINE
  5
E8
330
70
100
AcDbEntity
  8
0
 62
    18
420
        0
370
    25
100
AcDbSpline
210
0.0
220
0.0
230
1.0
 70
     8
 71
     3
 72
     8
 73
     4
 74
     0
 42
0.0000000001
 43
0.0000000001
 40
0.0
 40
0.0
 40
0.0
 40
0.0
 40
1.0
 40
1.0
 40
1.0
 40
1.0
 10
101.3595254828558
 20
87.30758707618461
 30
0.0
 10
101.3236585305626
 20
90.36600247047097
 30
0.0
 10
101.2394185597421
 20
93.4236592525354
 30
0.0
 10
101.1068371792574
 20
96.47941011604245
 30
0.0
  0
SPLINE
  5
E9
330
70
100
AcDbEntity
  8
0
 62
    18
420
        0
370
    25
100
AcDbSpline
210
0.0
220
0.0
230
1.0
 70
     8
 71
     3
 72
     8
 73
     4
 74
     0
 42
0.0000000001
 43
0.0000000001
 40
0.0
 40
0.0
 40
0.0
 40
0.0
 40
1.0
 40
1.0
 40
1.0
 40
1.0
 10
101.1059393842955
 20
96.50045148674641
 30
0.0
 10
101.0945599382958
 20
96.76808925613805
 30
0.0
 10
100.8742742953686
 20
96.97920916460974
 30
0.0
 10
100.6063947190788
 20
96.97921089474329
 30
0.0
  0
LWPOLYLINE
  5
EA
330
70
100
AcDbEntity
  8
0
 62
    18
420
        0
370
    25
100
AcDbPolyline
 90
        4
 70
     0
 43
0.0
 10
101.1059393842717
 20
96.50045148673838
 10
101.1062653471722
 20
96.49276155623859
 10
101.1066453267718
 20
96.48388046423853
 10
101.1068371792715
 20
96.4794101158384
  0
LINE
  5
EB
330
70
100
AcDbEntity
  8
0
 62
    18
420
        0
370
    25
100
AcDbLine
 10
101.1059393842236
 20
96.50045148675506
 30
0.0
 11
101.1077350473832
 21
96.50245248679951
 31
0.0
  0
LINE
  5
EC
330
70
100
AcDbEntity
  8
0
 62
    18
420
        0
370
    25
100
AcDbLine
 10
100.6063947190718
 20
96.97921089473847
 30
0.0
 11
100.6091998626716
 21
96.97921089473847
 31
0.0
  0
LWPOLYLINE
  5
ED
330
70
100
AcDbEntity
  8
0
 62
    18
420
        0
370
    25
100
AcDbPolyline
 90
        3
 70
     0
 43
0.0
 10
101.1097782959716
 20
96.47941011583872
 10
101.1091245074718
 20
96.49288449083869
 10
101.1086104173714
 20
96.50347269723852
  0
LINE
  5
EE
330
70
100
AcDbEntity
  8
0
 62
    18
420
        0
370
    25
100
AcDbLine
 10
101.1097782959716
 20
96.47941011583872
 30
0.0
 11
101.1068371792715
 21
96.47941011583872
 31
0.0
  0
LWPOLYLINE
  5
EF
330
70
100
AcDbEntity
  8
0
 62
    18
420
        0
370
    25
100
AcDbPolyline
 90
       24
 70
     0
 43
0.0
 10
148.5577540208721
 20
124.1042109171386
 10
148.5574839372723
 20
124.5089059660386
 10
148.5566904504713
 20
124.8835863510384
 10
148.5554313023724
 20
125.2004651317385
 10
148.5538033504716
 20
125.4360394517385
 10
148.5519258041724
 20
125.5728376994384
 10
148.5499383617713
 20
125.6007140467385
 10
148.5479881723712
 20
125.5176028201384
 10
148.5462186594716
 20
125.3296656499385
 10
148.5447620709712
 20
125.0508425722385
 10
148.5437264402723
 20
124.7018126735384
 10
148.5431899984718
 20
124.3084611336386
 10
148.5431899984718
 20
123.8999607006386
 10
148.5437264402723
 20
123.5066091606384
 10
148.5447620709712
 20
123.1575792620384
 10
148.5462186594716
 20
122.8787561843385
 10
148.5479881723712
 20
122.6908190141385
 10
148.5499383617713
 20
122.6077077875384
 10
148.5519258041724
 20
122.6355841348386
 10
148.5538033504716
 20
122.7723823825384
 10
148.5554313023724
 20
123.0079567025384
 10
148.5566904504713
 20
123.3248354832386
 10
148.5574839372723
 20
123.6995158682386
 10
148.5577540208721
 20
124.1042109171386
  0
LWPOLYLINE
  5
F0
330
70
100
AcDbEntity
  8
0
 62
    18
420
        0
370
    25
100
AcDbPolyline
 90
       20
 70
     0
 43
0.0
 10
148.555315818372
 20
124.1042109171386
 10
148.5550513227721
 20
124.4289109448385
 10
148.5542876382713
 20
124.7184237430385
 10
148.5531067211718
 20
124.9413767794386
 10
148.5516352315714
 20
125.0736115465384
 10
148.5500352193713
 20
125.1007949898385
 10
148.5484780479719
 20
125.0199841300383
 10
148.5471350808711
 20
124.8399352619386
 10
148.5461478789716
 20
124.5801577309386
 10
148.5456263382723
 20
124.2688054184387
 10
148.5456263382723
 20
123.9396164158386
 10
148.5461478789716
 20
123.6282641033384
 10
148.5471350808711
 20
123.3684865722385
 10
148.5484780479719
 20
123.1884377042386
 10
148.5500352193713
 20
123.1076268444385
 10
148.5516352315714
 20
123.1348102877385
 10
148.5531067211718
 20
123.2670450548384
 10
148.5542876382713
 20
123.4899980912384
 10
148.5550513227721
 20
123.7795108894385
 10
148.555315818372
 20
124.1042109171386
  0
LINE
  5
F1
330
70
100
AcDbEntity
  8
0
 62
    18
420
        0
370
    25
100
AcDbLine
 10
115.5917176713717
 20
105.7542110059384
 30
0.0
 11
115.5507385466713
 21
105.7542110059384
 31
0.0
  0
LINE
  5
F2
330
70
100
AcDbEntity
  8
0
 62
    18
420
        0
370
    25
100
AcDbLine
 10
131.0507382933724
 20
105.7542110059384
 30
0.0
 11
115.5917176713717
 21
105.7542110059384
 31
0.0
  0
LINE
  5
F3
330
70
100
AcDbEntity
  8
0
 62
    18
420
        0
370
    25
100
AcDbLine
 10
118.3007976707711
 20
115.6042113865386
 30
0.0
 11
128.3007383082714
 21
115.6042113865386
 31
0.0
  0
LINE
  5
F4
330
70
100
AcDbEntity
  8
0
 62
    18
420
        0
370
    25
100
AcDbLine
 10
118.3007976707711
 20
127.3535823414384
 30
0.0
 11
128.3007383082714
 21
127.3535823414384
 31
0.0
  0
LINE
  5
F5
330
70
100
AcDbEntity
  8
0
 62
    18
420
        0
370
    25
100
AcDbLine
 10
107.569917823872
 20
85.72921137903813
 30
0.0
 11
107.569917823872
 21
83.22921190063892
 31
0.0
  0
LWPOLYLINE
  5
F6
330
70
100
AcDbEntity
  8
0
 62
    18
420
        0
370
    25
100
AcDbPolyline
 90
       11
 70
     0
 43
0.0
 10
107.569917823872
 20
83.22921190063892
 10
107.5547521670722
 20
82.41335283613862
 10
107.5093166638714
 20
81.59749563433853
 10
107.441345017172
 20
80.85063639673846
 10
107.3548847545716
 20
80.15013094643888
 10
107.2624360878721
 20
79.54340036603857
 10
107.1705704291718
 20
79.02436125673832
 10
107.0934531946713
 20
78.63228004073841
 10
107.0365829129716
 20
78.36254480873868
 10
107.0097552348712
 20
78.24014480803867
 10
107.0111484934722
 20
78.246440548639
  0
SPLINE
  5
F7
330
70
100
AcDbEntity
  8
0
 62
    18
420
        0
370
    25
100
AcDbSpline
210
0.0
220
0.0
230
1.0
 70
     8
 71
     3
 72
     8
 73
     4
 74
     0
 42
0.0000000001
 43
0.0000000001
 40
0.0
 40
0.0
 40
0.0
 40
0.0
 40
1.0
 40
1.0
 40
1.0
 40
1.0
 10
107.5699178237975
 20
85.72921137909331
 30
0.0
 10
107.5644984990964
 20
87.40546031353327
 30
0.0
 10
107.3771447746642
 20
89.07616899423079
 30
0.0
 10
107.0111484934183
 20
90.71198273100051
 30
0.0
  0
LWPOLYLINE
  5
F8
330
70
100
AcDbEntity
  8
0
 62
    18
420
        0
370
    25
100
AcDbPolyline
 90
       11
 70
     0
 43
0.0
 10
107.3657383878724
 20
84.47921070853814
 10
107.3560209681721
 20
83.82315169673884
 10
107.3268947859723
 20
83.16709454753837
 10
107.2832641859712
 20
82.56636354723882
 10
107.2277145196716
 20
82.00308661553806
 10
107.168694745472
 20
81.51870946983809
 10
107.1101313193714
 20
81.10513332883888
 10
107.0613058020724
 20
80.79493585623851
 10
107.0254666466717
 20
80.58253656723891
 10
107.0087009777719
 20
80.48693444233851
 10
107.0097198446712
 20
80.49268815313837
  0
SPLINE
  5
F9
330
70
100
AcDbEntity
  8
0
 62
    18
420
        0
370
    25
100
AcDbSpline
210
0.0
220
0.0
230
1.0
 70
     8
 71
     3
 72
     8
 73
     4
 74
     0
 42
0.0000000001
 43
0.0000000001
 40
0.0
 40
0.0
 40
0.0
 40
0.0
 40
1.0
 40
1.0
 40
1.0
 40
1.0
 10
107.3657383878287
 20
84.47921070849323
 30
0.0
 10
107.3634959768523
 20
85.8190311536819
 30
0.0
 10
107.2438162549361
 20
87.1560765277602
 30
0.0
 10
107.0080732662713
 20
88.47499619819066
 30
0.0
  0
LINE
  5
FA
330
70
100
AcDbEntity
  8
0
 62
    18
420
        0
370
    25
100
AcDbLine
 10
107.569917823872
 20
83.22921190063892
 30
0.0
 11
108.3398412649721
 21
83.22921190063892
 31
0.0
  0
SPLINE
  5
FB
330
70
100
AcDbEntity
  8
0
 62
    18
420
        0
370
    25
100
AcDbSpline
210
0.0
220
0.0
230
1.0
 70
     8
 71
     3
 72
     8
 73
     4
 74
     0
 42
0.0000000001
 43
0.0000000001
 40
0.0
 40
0.0
 40
0.0
 40
0.0
 40
1.0
 40
1.0
 40
1.0
 40
1.0
 10
107.7612952997035
 20
78.24650015335222
 30
0.0
 10
108.1397567533235
 20
79.88056240686091
 30
0.0
 10
108.3338175264547
 20
81.55190565707576
 30
0.0
 10
108.3398412649605
 20
83.2292119006678
 30
0.0
  0
LWPOLYLINE
  5
FC
330
70
100
AcDbEntity
  8
0
 62
    18
420
        0
370
    25
100
AcDbPolyline
 90
       11
 70
     0
 43
0.0
 10
108.3398412649721
 20
85.72921137903813
 10
108.3241559301714
 20
86.54424529173834
 10
108.2771697749716
 20
87.35927734173897
 10
108.2068940360715
 20
88.10534309243857
 10
108.1175205965717
 20
88.80514446293897
 10
108.0218383778716
 20
89.41211532453889
 10
107.926730785272
 20
89.93155210863822
 10
107.8467869867714
 20
90.32448455343866
 10
107.7877774570711
 20
90.59505145643869
 10
107.7598983158714
 20
90.71801956393864
 10
107.7612952996714
 20
90.71192219503856
  0
LINE
  5
FD
330
70
100
AcDbEntity
  8
0
 62
    18
420
        0
370
    25
100
AcDbLine
 10
107.569917823872
 20
85.72921137903813
 30
0.0
 11
108.3398412649721
 21
85.72921137903813
 31
0.0
  0
LINE
  5
FE
330
70
100
AcDbEntity
  8
0
 62
    18
420
        0
370
    25
100
AcDbLine
 10
108.3398412649721
 20
85.72921137903813
 30
0.0
 11
108.3398412649721
 21
83.22921190063892
 31
0.0
  0
LINE
  5
FF
330
70
100
AcDbEntity
  8
0
 62
    18
420
        0
370
    25
100
AcDbLine
 10
101.3657392670717
 20
84.47921070853814
 30
0.0
 11
101.3657392670717
 21
88.47921136413845
 31
0.0
  0
LINE
  5
100
330
70
100
AcDbEntity
  8
0
 62
    18
420
        0
370
    25
100
AcDbLine
 10
101.3657392670717
 20
81.6397311131385
 30
0.0
 11
101.3657392670717
 21
84.47921070853814
 31
0.0
  0
LINE
  5
101
330
70
100
AcDbEntity
  8
0
 62
    18
420
        0
370
    25
100
AcDbLine
 10
123.3007384200712
 20
104.8542110214386
 30
0.0
 11
138.8007381667723
 21
104.8542110214386
 31
0.0
  0
LINE
  5
102
330
70
100
AcDbEntity
  8
0
 62
    18
420
        0
370
    25
100
AcDbLine
 10
107.8007386733714
 20
104.8542110214386
 30
0.0
 11
123.3007384200712
 21
104.8542110214386
 31
0.0
  0
LINE
  5
103
330
70
100
AcDbEntity
  8
0
 62
    18
420
        0
370
    25
100
AcDbLine
 10
123.3007384200712
 20
38.35421036583868
 30
0.0
 11
138.8007381667723
 21
38.35421036583868
 31
0.0
  0
LINE
  5
104
330
70
100
AcDbEntity
  8
0
 62
    18
420
        0
370
    25
100
AcDbLine
 10
107.8007386733714
 20
38.35421036583868
 30
0.0
 11
123.3007384200712
 21
38.35421036583868
 31
0.0
  0
LINE
  5
105
330
70
100
AcDbEntity
  8
0
 62
    18
420
        0
370
    25
100
AcDbLine
 10
138.6507384215713
 20
37.85420935253844
 30
0.0
 11
107.9507384185712
 21
37.85420935253844
 31
0.0
  0
LINE
  5
106
330
70
100
AcDbEntity
  8
0
 62
    18
420
        0
370
    25
100
AcDbLine
 10
138.8007381667723
 20
104.8542110214386
 30
0.0
 11
107.8007386733714
 21
104.8542110214386
 31
0.0
  0
LINE
  5
107
330
70
100
AcDbEntity
  8
0
 62
    18
420
        0
370
    25
100
AcDbLine
 10
128.3007383082714
 20
105.6782025110386
 30
0.0
 11
118.3007385317722
 21
105.6782025110386
 31
0.0
  0
LINE
  5
108
330
70
100
AcDbEntity
  8
0
 62
     8
420
  8421504
370
    25
100
AcDbLine
 10
101.1084632684688
 20
72.45511915188356
 30
0.0
 11
101.1067957596519
 21
72.45702779583075
 31
0.0
  0
LINE
  5
109
330
70
100
AcDbEntity
  8
0
 62
     8
420
  8421504
370
    25
100
AcDbLine
 10
130.9905864965716
 20
112.6469329895386
 30
0.0
 11
115.610890343472
 21
112.6469329895386
 31
0.0
  0
LINE
  5
10A
330
70
100
AcDbEntity
  8
0
 62
     8
420
  8421504
370
    25
100
AcDbLine
 10
115.8484795798722
 20
112.8944436053383
 30
0.0
 11
130.7529972602715
 21
112.8944436053383
 31
0.0
  0
LINE
  5
10B
330
70
100
AcDbEntity
  8
0
 62
     8
420
  8421504
370
    25
100
AcDbLine
 10
118.7776040953721
 20
112.9964234272386
 30
0.0
 11
118.7535606060713
 21
112.9964234272386
 31
0.0
  0
LINE
  5
10C
330
70
100
AcDbEntity
  8
0
 62
     8
420
  8421504
370
    25
100
AcDbLine
 10
127.8479162339723
 20
112.9964234272386
 30
0.0
 11
118.7776040953721
 21
112.9964234272386
 31
0.0
  0
LINE
  5
10D
330
70
100
AcDbEntity
  8
0
 62
     8
420
  8421504
370
    25
100
AcDbLine
 10
119.2432649169719
 20
113.4919550234384
 30
0.0
 11
127.3582119230717
 21
113.4919550234384
 31
0.0
  0
LINE
  5
10E
330
70
100
AcDbEntity
  8
0
 62
     8
420
  8421504
370
    25
100
AcDbLine
 10
138.7507382516715
 20
38.25420867303885
 30
0.0
 11
107.8507385884723
 21
38.25420867303885
 31
0.0
  0
LINE
  5
10F
330
70
100
AcDbEntity
  8
0
 62
     8
420
  8421504
370
    25
100
AcDbLine
 10
107.8507385884723
 20
37.9542110452388
 30
0.0
 11
138.7507382516715
 21
37.9542110452388
 31
0.0
  0
LINE
  5
110
330
70
100
AcDbEntity
  8
0
 62
     8
420
  8421504
370
    25
100
AcDbLine
 10
138.8007381667723
 20
105.2120865054384
 30
0.0
 11
107.8007386733714
 21
105.2120865054384
 31
0.0
  0
LINE
  5
111
330
70
100
AcDbEntity
  8
0
 62
     8
420
  8421504
370
    25
100
AcDbLine
 10
108.0428015176718
 20
105.4619605268386
 30
0.0
 11
138.5586753223719
 21
105.4619605268386
 31
0.0
  0
LWPOLYLINE
  5
112
330
70
100
AcDbEntity
  8
0
 62
    18
420
        0
370
    25
100
AcDbPolyline
 90
        3
 70
     0
 43
0.0
 10
44.96370221177161
 20
2.049836153238433
 10
48.72794856937177
 20
2.110640341538367
 10
53.8515996901719
 20
2.308157095738478
  0
LWPOLYLINE
  5
113
330
70
100
AcDbEntity
  8
0
 62
    18
420
        0
370
    25
100
AcDbPolyline
 90
        3
 70
     0
 43
0.0
 10
29.80349480797185
 20
2.308157095738478
 10
34.92711752347182
 20
2.110640341538367
 10
38.69134152927178
 20
2.049836153238433
  0
SPLINE
  5
114
330
70
100
AcDbEntity
  8
0
 62
    18
420
        0
370
    25
100
AcDbSpline
210
0.0
220
0.0
230
1.0
 70
     8
 71
     3
 72
     8
 73
     4
 74
     0
 42
0.0000000001
 43
0.0000000001
 40
0.0
 40
0.0
 40
0.0
 40
0.0
 40
1.0
 40
1.0
 40
1.0
 40
1.0
 10
53.85140777834936
 20
2.306943243596202
 30
0.0
 10
54.1179757201925
 20
2.319678657398571
 30
0.0
 10
54.32755532687961
 20
2.539516740270133
 30
0.0
 10
54.32754724884259
 20
2.806388728904703
 30
0.0
  0
SPLINE
  5
115
330
70
100
AcDbEntity
  8
0
 62
    18
420
        0
370
    25
100
AcDbSpline
210
0.0
220
0.0
230
1.0
 70
     8
 71
     3
 72
     8
 73
     4
 74
     0
 42
0.0000000001
 43
0.0000000001
 40
0.0
 40
0.0
 40
0.0
 40
0.0
 40
1.0
 40
1.0
 40
1.0
 40
1.0
 10
29.32754724930084
 20
2.80638872891112
 30
0.0
 10
29.32753917326913
 20
2.539583094230766
 30
0.0
 10
29.53701806344263
 20
2.319775157064593
 30
0.0
 10
29.80351534217972
 20
2.306951460717318
 30
0.0
  0
LINE
  5
116
330
70
100
AcDbEntity
  8
0
 62
    18
420
        0
370
    25
100
AcDbLine
 10
40.30429944557165
 20
-24.64748564166128
 30
0.0
 11
40.2044007802718
 21
-45.12754566026174
 31
0.0
  0
LINE
  5
117
330
70
100
AcDbEntity
  8
0
 62
    18
420
        0
370
    25
100
AcDbLine
 10
43.2043651832719
 20
-45.14217860056134
 30
0.0
 11
43.30426384847164
 21
-24.66211904766176
 31
0.0
  0
LINE
  5
118
330
70
100
AcDbEntity
  8
0
 62
    18
420
        0
370
    25
100
AcDbLine
 10
37.82754705907171
 20
2.049836153238433
 30
0.0
 11
37.82754705907171
 21
-3.950162967561582
 31
0.0
  0
LINE
  5
119
330
70
100
AcDbEntity
  8
0
 62
    18
420
        0
370
    25
100
AcDbLine
 10
45.82754743907172
 20
-3.9480283762612
 30
0.0
 11
45.82754743907172
 21
2.049836153238433
 31
0.0
  0
LWPOLYLINE
  5
11A
330
70
100
AcDbEntity
  8
0
 62
    18
420
        0
370
    25
100
AcDbPolyline
 90
        6
 70
     0
 43
0.0
 10
41.82754724907187
 20
2.306965002838665
 10
40.82754720157168
 20
2.306989217238337
 10
36.82754736087171
 20
2.307520071138381
 10
33.32745179227173
 20
2.308443943138575
 10
29.82735715497181
 20
2.309632310738677
 10
29.81684066047188
 20
2.309636036038388
  0
LWPOLYLINE
  5
11B
330
70
100
AcDbEntity
  8
0
 62
    18
420
        0
370
    25
100
AcDbPolyline
 90
        7
 70
     0
 43
0.0
 10
29.81684066047188
 20
2.309636036038388
 10
29.81759410037175
 20
2.34481767763829
 10
29.81946885277178
 20
2.432328472038323
 10
29.82225443857168
 20
2.56231316373833
 10
29.82563793347166
 20
2.720148125738369
 10
29.82721652527173
 20
2.793774763238361
 10
29.82754714477162
 20
2.809180701238358
  0
LWPOLYLINE
  5
11C
330
70
100
AcDbEntity
  8
0
 62
    18
420
        0
370
    25
100
AcDbPolyline
 90
        4
 70
     0
 43
0.0
 10
29.82754714477162
 20
2.809180701238358
 10
35.52210598877181
 20
2.807282665838501
 10
38.67482661887163
 20
2.80661770153838
 10
41.82754724907187
 20
2.806375557638558
  0
LINE
  5
11D
330
70
100
AcDbEntity
  8
0
 62
    18
420
        0
370
    25
100
AcDbLine
 10
41.82754724907187
 20
2.306965002838665
 30
0.0
 11
41.82754724907187
 21
2.806375557638558
 31
0.0
  0
LWPOLYLINE
  5
11E
330
70
100
AcDbEntity
  8
0
 62
    18
420
        0
370
    25
100
AcDbPolyline
 90
        3
 70
     0
 43
0.0
 10
29.82734877307168
 20
2.308738241038631
 10
29.82731897077186
 20
2.308740103738218
 10
29.80630274557162
 20
2.309632310738677
  0
LWPOLYLINE
  5
11F
330
70
100
AcDbEntity
  8
0
 62
    18
420
        0
370
    25
100
AcDbPolyline
 90
        9
 70
     0
 43
0.0
 10
29.80630274557162
 20
2.309632310738677
 10
29.8067125274717
 20
2.319264048838205
 10
29.80792231547182
 20
2.347714090838764
 10
29.80988554347192
 20
2.393887201438586
 10
29.81252770557177
 20
2.456013867738699
 10
29.81574728777184
 20
2.531706178638484
 10
29.81941949267173
 20
2.618056545138439
 10
29.82340369067177
 20
2.711747596138452
 10
29.82754714477162
 20
2.809180701238358
  0
SPLINE
  5
120
330
70
100
AcDbEntity
  8
0
 62
    18
420
        0
370
    25
100
AcDbSpline
210
0.0
220
0.0
230
1.0
 70
     8
 71
     3
 72
     8
 73
     4
 74
     0
 42
0.0000000001
 43
0.0000000001
 40
0.0
 40
0.0
 40
0.0
 40
0.0
 40
1.0
 40
1.0
 40
1.0
 40
1.0
 10
29.81684066041766
 20
2.309636036043522
 30
0.0
 10
29.8203101303404
 20
2.309028206825904
 30
0.0
 10
29.8238264771294
 20
2.308727776239572
 30
0.0
 10
29.82734877302677
 20
2.308738241081625
 30
0.0
  0
LINE
  5
121
330
70
100
AcDbEntity
  8
0
 62
    18
420
        0
370
    25
100
AcDbLine
 10
53.82754735337181
 20
2.809180701238358
 30
0.0
 11
53.82754735337181
 21
5.049836645038608
 31
0.0
  0
LWPOLYLINE
  5
122
330
70
100
AcDbEntity
  8
0
 62
    18
420
        0
370
    25
100
AcDbPolyline
 90
        4
 70
     0
 43
0.0
 10
41.82754724907187
 20
2.806375557638558
 10
47.52212518517172
 20
2.807126203638235
 10
50.67483603647186
 20
2.808048212938841
 10
53.82754735337181
 20
2.809180701238358
  0
LINE
  5
123
330
70
100
AcDbEntity
  8
0
 62
    18
420
        0
370
    25
100
AcDbLine
 10
29.82754714477162
 20
5.049836645038608
 30
0.0
 11
29.82754714477162
 21
2.809180701238358
 31
0.0
  0
LINE
  5
124
330
70
100
AcDbEntity
  8
0
 62
    18
420
        0
370
    25
100
AcDbLine
 10
53.82754735337181
 20
5.049836645038608
 30
0.0
 11
29.82754714477162
 21
5.049836645038608
 31
0.0
  0
LINE
  5
125
330
70
100
AcDbEntity
  8
0
 62
    18
420
        0
370
    25
100
AcDbLine
 10
54.32754743537167
 20
5.049836645038608
 30
0.0
 11
54.32754743537167
 21
2.809180701238358
 31
0.0
  0
LINE
  5
126
330
70
100
AcDbEntity
  8
0
 62
    18
420
        0
370
    25
100
AcDbLine
 10
53.82754735337181
 20
2.809180701238358
 30
0.0
 11
54.32754743537167
 21
2.809180701238358
 31
0.0
  0
LINE
  5
127
330
70
100
AcDbEntity
  8
0
 62
    18
420
        0
370
    25
100
AcDbLine
 10
53.82754735337181
 20
5.049836645038608
 30
0.0
 11
54.32754743537167
 21
5.049836645038608
 31
0.0
  0
LWPOLYLINE
  5
128
330
70
100
AcDbEntity
  8
0
 62
    18
420
        0
370
    25
100
AcDbPolyline
 90
        5
 70
     0
 43
0.0
 10
53.82773734317161
 20
2.309632310738677
 10
52.8277371792717
 20
2.309274682838509
 10
48.82773792057192
 20
2.308006221538791
 10
45.32764281767185
 20
2.307246262338286
 10
41.82754724907187
 20
2.306965002838665
  0
LWPOLYLINE
  5
129
330
70
100
AcDbEntity
  8
0
 62
    18
420
        0
370
    25
100
AcDbPolyline
 90
        9
 70
     0
 43
0.0
 10
53.82773734317161
 20
2.309632310738677
 10
53.82773268657185
 20
2.322754645838731
 10
53.82772057937169
 20
2.353573972438788
 10
53.8277028842717
 20
2.4009708409388
 10
53.82767866987171
 20
2.46322044183868
 10
53.82765073017168
 20
2.538057798638217
 10
53.82761813387189
 20
2.622757861438509
 10
53.82758367497164
 20
2.714243540638712
 10
53.82754735337181
 20
2.809180701238358
  0
SPLINE
  5
12A
330
70
100
AcDbEntity
  8
0
 62
    18
420
        0
370
    25
100
AcDbSpline
210
0.0
220
0.0
230
1.0
 70
     8
 71
     3
 72
     8
 73
     4
 74
     0
 42
0.0000000001
 43
0.0000000001
 40
0.0
 40
0.0
 40
0.0
 40
0.0
 40
1.0
 40
1.0
 40
1.0
 40
1.0
 10
53.8277373431652
 20
2.309632310687983
 30
0.0
 10
54.10368026267941
 20
2.309613925950184
 30
0.0
 10
54.32742129791756
 20
2.533237809898908
 30
0.0
 10
54.3275474353168
 20
2.809180701196006
 30
0.0
  0
LINE
  5
12B
330
70
100
AcDbEntity
  8
0
 62
    18
420
        0
370
    25
100
AcDbLine
 10
29.32754706277177
 20
2.809180701238358
 30
0.0
 11
29.82754714477162
 21
2.809180701238358
 31
0.0
  0
LINE
  5
12C
330
70
100
AcDbEntity
  8
0
 62
    18
420
        0
370
    25
100
AcDbLine
 10
29.32754706277177
 20
2.809180701238358
 30
0.0
 11
29.32754706277177
 21
5.049836645038608
 31
0.0
  0
LINE
  5
12D
330
70
100
AcDbEntity
  8
0
 62
    18
420
        0
370
    25
100
AcDbLine
 10
29.32754706277177
 20
5.049836645038608
 30
0.0
 11
29.82754714477162
 21
5.049836645038608
 31
0.0
  0
SPLINE
  5
12E
330
70
100
AcDbEntity
  8
0
 62
    18
420
        0
370
    25
100
AcDbSpline
210
0.0
220
0.0
230
1.0
 70
     8
 71
     3
 72
     8
 73
     4
 74
     0
 42
0.0000000001
 43
0.0000000001
 40
0.0
 40
0.0
 40
0.0
 40
0.0
 40
1.0
 40
1.0
 40
1.0
 40
1.0
 10
29.32754706279294
 20
2.809180701230658
 30
0.0
 10
29.32754743713129
 20
2.541301356207963
 30
0.0
 10
29.53866532284055
 20
2.321014467042812
 30
0.0
 10
29.80630274549975
 20
2.309632310722635
 30
0.0
  0
SPLINE
  5
12F
330
70
100
AcDbEntity
  8
0
 62
    18
420
        0
370
    25
100
AcDbSpline
210
0.0
220
0.0
230
1.0
 70
     8
 71
     3
 72
     8
 73
     4
 74
     0
 42
0.0000000001
 43
0.0000000001
 40
0.0
 40
0.0
 40
0.0
 40
0.0
 40
1.0
 40
1.0
 40
1.0
 40
1.0
 10
44.6559445714685
 20
2.053509289437738
 30
0.0
 10
47.71437554819231
 20
2.089746112131557
 30
0.0
 10
50.77203261541752
 20
2.174833282521824
 30
0.0
 10
53.82774572511795
 20
2.308738241013605
 30
0.0
  0
LWPOLYLINE
  5
130
330
70
100
AcDbEntity
  8
0
 62
    18
420
        0
370
    25
100
AcDbPolyline
 90
        4
 70
     0
 43
0.0
 10
53.84878709607182
 20
2.309636036038388
 10
53.84109809687179
 20
2.309310073138597
 10
53.83221700477161
 20
2.308930093538344
 10
53.82774572507174
 20
2.308738241038631
  0
SPLINE
  5
131
330
70
100
AcDbEntity
  8
0
 62
    18
420
        0
370
    25
100
AcDbSpline
210
0.0
220
0.0
230
1.0
 70
     8
 71
     3
 72
     8
 73
     4
 74
     0
 42
0.0000000001
 43
0.0000000001
 40
0.0
 40
0.0
 40
0.0
 40
0.0
 40
1.0
 40
1.0
 40
1.0
 40
1.0
 10
29.82734877332644
 20
2.308738241077133
 30
0.0
 10
32.88309890758329
 20
2.176142873993122
 30
0.0
 10
35.94075567792901
 20
2.09190289708155
 30
0.0
 10
38.99917111401244
 20
2.056049937501159
 30
0.0
  0
LINE
  5
132
330
70
100
AcDbEntity
  8
0
 62
    18
420
        0
370
    25
100
AcDbLine
 10
41.82754724907187
 20
2.305797124338524
 30
0.0
 11
41.82754724907187
 21
2.306965002838665
 31
0.0
  0
LWPOLYLINE
  5
133
330
70
100
AcDbEntity
  8
0
 62
    18
420
        0
370
    25
100
AcDbPolyline
 90
        4
 70
     0
 43
0.0
 10
41.82754724907187
 20
2.305797124338524
 10
38.70254720247182
 20
2.30604671883841
 10
35.57754715597187
 20
2.306734034838616
 10
29.82734877307168
 20
2.308738241038631
  0
LWPOLYLINE
  5
134
330
70
100
AcDbEntity
  8
0
 62
    18
420
        0
370
    25
100
AcDbPolyline
 90
        3
 70
     0
 43
0.0
 10
53.82774572507174
 20
2.308738241038631
 10
53.82774572507174
 20
2.308740103738218
 10
53.82773734317161
 20
2.309632310738677
  0
LWPOLYLINE
  5
135
330
70
100
AcDbEntity
  8
0
 62
    18
420
        0
370
    25
100
AcDbPolyline
 90
        4
 70
     0
 43
0.0
 10
53.82774572507174
 20
2.308738241038631
 10
50.70274591137186
 20
2.307562911938426
 10
47.57774609767166
 20
2.306599924438539
 10
41.82754724907187
 20
2.305797124338524
  0
SPLINE
  5
136
330
70
100
AcDbEntity
  8
0
 62
    18
420
        0
370
    25
100
AcDbSpline
210
0.0
220
0.0
230
1.0
 70
     8
 71
     3
 72
     8
 73
     4
 74
     0
 42
0.0000000001
 43
0.0000000001
 40
0.0
 40
0.0
 40
0.0
 40
0.0
 40
1.0
 40
1.0
 40
1.0
 40
1.0
 10
53.84878709605578
 20
2.309636036053789
 30
0.0
 10
54.11642507063904
 20
2.321015354514508
 30
0.0
 10
54.32754532075033
 20
2.541300925395613
 30
0.0
 10
54.32754743537616
 20
2.809180701271085
 30
0.0
  0
LWPOLYLINE
  5
137
330
70
100
AcDbEntity
  8
0
 62
    18
420
        0
370
    25
100
AcDbPolyline
 90
       13
 70
     0
 43
0.0
 10
43.2043651832719
 20
-45.14217860056134
 10
43.14874170967184
 20
-45.14190851706159
 10
42.98599681507177
 20
-45.14111503016176
 10
42.72820049817169
 20
-45.1398558820616
 10
42.39447234587177
 20
-45.13822793016148
 10
42.00956336147164
 20
-45.13635038386158
 10
41.60202057547169
 20
-45.13436294156128
 10
41.2020695527716
 20
-45.13241275206173
 10
40.83937278637177
 20
-45.13064323916148
 10
40.54082988447164
 20
-45.12918665066176
 10
40.32858240107191
 20
-45.12815101996157
 10
40.21837178307165
 20
-45.1276145781617
 10
40.2044007802718
 20
-45.12754566026174
  0
SPLINE
  5
138
330
70
100
AcDbEntity
  8
0
 62
    18
420
        0
370
    25
100
AcDbSpline
210
0.0
220
0.0
230
1.0
 70
     8
 71
     3
 72
    11
 73
     7
 74
     0
 42
0.0000000001
 43
0.0000000001
 40
0.0
 40
0.0
 40
0.0
 40
0.0
 40
1.0
 40
1.0
 40
1.0
 40
2.0
 40
2.0
 40
2.0
 40
2.0
 10
43.29044133241835
 20
-27.4958423978776
 30
0.0
 10
47.49370349984914
 20
-26.68790830502775
 30
0.0
 10
50.24616074003788
 20
-22.62553108384607
 30
0.0
 10
49.43822664718804
 20
-18.42226891641495
 30
0.0
 10
48.67956954191458
 20
-14.47536936499217
 30
0.0
 10
45.02952167409016
 20
-11.76337523757927
 30
0.0
 10
41.031622201334
 20
-12.17614209445941
 30
0.0
  0
SPLINE
  5
139
330
70
100
AcDbEntity
  8
0
 62
    18
420
        0
370
    25
100
AcDbSpline
210
0.0
220
0.0
230
1.0
 70
     8
 71
     3
 72
    11
 73
     7
 74
     0
 42
0.0000000001
 43
0.0000000001
 40
0.0
 40
0.0
 40
0.0
 40
0.0
 40
1.0
 40
1.0
 40
1.0
 40
2.0
 40
2.0
 40
2.0
 40
2.0
 10
41.031622201334
 20
-12.17614209445941
 30
0.0
 10
36.77404751920879
 20
-12.61571936033376
 30
0.0
 10
33.67894907789582
 20
-16.42351336537441
 30
0.0
 10
34.11852634376985
 20
-20.68108804749963
 30
0.0
 10
34.46675426556011
 20
-24.05388845944816
 30
0.0
 10
36.96710464358376
 20
-26.8087201045388
 30
0.0
 10
40.29047702192591
 20
-27.4812090183703
 30
0.0
  0
CIRCLE
  5
13A
330
70
100
AcDbEntity
  8
0
 62
    18
420
        0
370
    25
100
AcDbCircle
 10
41.82754724907179
 20
-19.88516299976159
 30
0.0
 40
5.000000000000055
  0
LINE
  5
13B
330
70
100
AcDbEntity
  8
0
 62
    18
420
        0
370
    25
100
AcDbLine
 10
46.82754713737182
 20
-4.154342403561194
 30
0.0
 11
46.82754713737182
 21
-4.92426584466131
 31
0.0
  0
SPLINE
  5
13C
330
70
100
AcDbEntity
  8
0
 62
    18
420
        0
370
    25
100
AcDbSpline
210
0.0
220
0.0
230
1.0
 70
     8
 71
     3
 72
     8
 73
     4
 74
     0
 42
0.0000000001
 43
0.0000000001
 40
0.0
 40
0.0
 40
0.0
 40
0.0
 40
1.0
 40
1.0
 40
1.0
 40
1.0
 10
46.82754713731053
 20
-4.92426584466131
 30
0.0
 10
43.53945667980796
 20
-4.147582294241211
 30
0.0
 10
40.11563781833547
 20
-4.147582294241211
 30
0.0
 10
36.82754736083321
 20
-4.92426584466131
 30
0.0
  0
LINE
  5
13D
330
70
100
AcDbEntity
  8
0
 62
    18
420
        0
370
    25
100
AcDbLine
 10
36.82754736087171
 20
-4.154342403561194
 30
0.0
 11
36.82754736087171
 21
-4.92426584466131
 31
0.0
  0
SPLINE
  5
13E
330
70
100
AcDbEntity
  8
0
 62
    18
420
        0
370
    25
100
AcDbSpline
210
0.0
220
0.0
230
1.0
 70
     8
 71
     3
 72
     8
 73
     4
 74
     0
 42
0.0000000001
 43
0.0000000001
 40
0.0
 40
0.0
 40
0.0
 40
0.0
 40
1.0
 40
1.0
 40
1.0
 40
1.0
 10
46.82754713732337
 20
-4.154342403565687
 30
0.0
 10
43.53641487372463
 20
-3.40422246388841
 30
0.0
 10
40.11867962441879
 20
-3.40422246388841
 30
0.0
 10
36.82754736082006
 20
-4.154342403565687
 30
0.0
  0
LINE
  5
13F
330
70
100
AcDbEntity
  8
0
 62
    18
420
        0
370
    25
100
AcDbLine
 10
37.82754705907171
 20
2.049836153238433
 30
0.0
 11
44.66147127247173
 21
2.049836153238433
 31
0.0
  0
SPLINE
  5
140
330
70
100
AcDbEntity
  8
0
 62
    18
420
        0
370
    25
100
AcDbSpline
210
0.0
220
0.0
230
1.0
 70
     8
 71
     3
 72
     8
 73
     4
 74
     0
 42
0.0000000001
 43
0.0000000001
 40
0.0
 40
0.0
 40
0.0
 40
0.0
 40
1.0
 40
1.0
 40
1.0
 40
1.0
 10
26.32754724907165
 20
-19.88516299976175
 30
0.0
 10
26.32754724907165
 20
-27.83564423351943
 30
0.0
 10
32.34299672799572
 20
-34.49692036366148
 30
0.0
 10
40.25231416587685
 20
-35.30491140022506
 30
0.0
  0
SPLINE
  5
141
330
70
100
AcDbEntity
  8
0
 62
    18
420
        0
370
    25
100
AcDbSpline
210
0.0
220
0.0
230
1.0
 70
     8
 71
     3
 72
    11
 73
     7
 74
     0
 42
0.0000000001
 43
0.0000000001
 40
0.0
 40
0.0
 40
0.0
 40
0.0
 40
1.0
 40
1.0
 40
1.0
 40
2.0
 40
2.0
 40
2.0
 40
2.0
 10
57.32754724907178
 20
-19.88516299976175
 30
0.0
 10
57.32754724907178
 20
-11.32474937738419
 30
0.0
 10
50.38796087144912
 20
-4.385162999761526
 30
0.0
 10
41.82754724907187
 20
-4.385162999761526
 30
0.0
 10
33.26713362669431
 20
-4.385162999761526
 30
0.0
 10
26.32754724907165
 20
-11.32474937738419
 30
0.0
 10
26.32754724907165
 20
-19.88516299976175
 30
0.0
  0
SPLINE
  5
142
330
70
100
AcDbEntity
  8
0
 62
    18
420
        0
370
    25
100
AcDbSpline
210
0.0
220
0.0
230
1.0
 70
     8
 71
     3
 72
     8
 73
     4
 74
     0
 42
0.0000000001
 43
0.0000000001
 40
0.0
 40
0.0
 40
0.0
 40
0.0
 40
1.0
 40
1.0
 40
1.0
 40
1.0
 10
43.25227847638757
 20
-35.31954477973299
 30
0.0
 10
51.22677473366286
 20
-34.58342758360433
 30
0.0
 10
57.32754724907178
 20
-27.89356228324723
 30
0.0
 10
57.32754724907178
 20
-19.88516299976175
 30
0.0
  0
SPLINE
  5
143
330
70
100
AcDbEntity
  8
0
 62
    18
420
        0
370
    25
100
AcDbSpline
210
0.0
220
0.0
230
1.0
 70
     8
 71
     3
 72
    14
 73
    10
 74
     0
 42
0.0000000001
 43
0.0000000001
 40
0.0
 40
0.0
 40
0.0
 40
0.0
 40
1.0
 40
1.0
 40
1.0
 40
2.0
 40
2.0
 40
2.0
 40
3.0
 40
3.0
 40
3.0
 40
3.0
 10
57.32754724907178
 20
-19.88516299976175
 30
0.0
 10
57.32754724907178
 20
-11.32474937738419
 30
0.0
 10
50.38796087144912
 20
-4.385162999761526
 30
0.0
 10
41.82754724907187
 20
-4.385162999761526
 30
0.0
 10
33.26713362669431
 20
-4.385162999761526
 30
0.0
 10
26.32754724907165
 20
-11.32474937738419
 30
0.0
 10
26.32754724907165
 20
-19.88516299976175
 30
0.0
 10
26.32754724907165
 20
-27.83564423351943
 30
0.0
 10
32.34299672799572
 20
-34.49692036366148
 30
0.0
 10
40.25231416587685
 20
-35.30491140022506
 30
0.0
  0
LWPOLYLINE
  5
144
330
70
100
AcDbEntity
  8
0
 62
     8
420
  8421504
370
    25
100
AcDbPolyline
 90
        5
 70
     0
 43
0.0
 10
53.85163973707176
 20
2.307112151838745
 10
53.85178409207187
 20
2.306985491938626
 10
53.85138269207192
 20
2.307333806638607
 10
53.84879175267192
 20
2.309632310738677
 10
53.84878709607182
 20
2.309636036038388
  0
LINE
  5
145
330
70
100
AcDbEntity
  8
0
 62
     8
420
  8421504
370
    25
100
AcDbLine
 10
29.80345476109059
 20
2.307112151863771
 30
0.0
 11
29.8053630955964
 21
2.308781383681713
 31
0.0
  0
SPLINE
  5
146
330
70
100
AcDbEntity
  8
0
 62
     8
420
  8421504
370
    25
100
AcDbSpline
210
0.0
220
0.0
230
1.0
 70
     8
 71
     3
 72
    11
 73
     7
 74
     0
 42
0.0000000001
 43
0.0000000001
 40
0.0
 40
0.0
 40
0.0
 40
0.0
 40
1.0
 40
1.0
 40
1.0
 40
2.0
 40
2.0
 40
2.0
 40
2.0
 10
41.06220023505614
 20
-12.47230905374396
 30
0.0
 10
36.96819404794764
 20
-12.89499853791324
 30
0.0
 10
33.9920038188848
 20
-16.55650382666864
 30
0.0
 10
34.4146933030544
 20
-20.65051001377748
 30
0.0
 10
34.7473152974346
 20
-23.87215747358589
 30
0.0
 10
37.12268958755086
 20
-26.51012517385093
 30
0.0
 10
40.29195848675358
 20
-27.1774964280881
 30
0.0
  0
SPLINE
  5
147
330
70
100
AcDbEntity
  8
0
 62
     8
420
  8421504
370
    25
100
AcDbSpline
210
0.0
220
0.0
230
1.0
 70
     8
 71
     3
 72
    11
 73
     7
 74
     0
 42
0.0000000001
 43
0.0000000001
 40
0.0
 40
0.0
 40
0.0
 40
0.0
 40
1.0
 40
1.0
 40
1.0
 40
2.0
 40
2.0
 40
2.0
 40
2.0
 10
43.29192279723575
 20
-27.1921298075954
 30
0.0
 10
47.32744913272232
 20
-26.3833775243193
 30
0.0
 10
49.94326634018193
 20
-22.45631378708411
 30
0.0
 10
49.13451405690584
 20
-18.42078745159723
 30
0.0
 10
48.3795181634673
 20
-14.65349569346673
 30
0.0
 10
44.88408478845435
 20
-12.07771502124859
 30
0.0
 10
41.06220023505614
 20
-12.47230905374396
 30
0.0
  0
SPLINE
  5
148
330
70
100
AcDbEntity
  8
0
 62
     8
420
  8421504
370
    25
100
AcDbSpline
210
0.0
220
0.0
230
1.0
 70
     8
 71
     3
 72
    17
 73
    13
 74
     0
 42
0.0000000001
 43
0.0000000001
 40
0.0
 40
0.0
 40
0.0
 40
0.0
 40
1.0
 40
1.0
 40
1.0
 40
2.0
 40
2.0
 40
2.0
 40
3.0
 40
3.0
 40
3.0
 40
4.0
 40
4.0
 40
4.0
 40
4.0
 10
43.29074044141492
 20
-27.43452256988956
 30
0.0
 10
47.46013660298561
 20
-26.626423283702
 30
0.0
 10
50.18500610538691
 20
-22.59136596898907
 30
0.0
 10
49.37690681919967
 20
-18.42196980741806
 30
0.0
 10
48.56880753301211
 20
-14.2525736458477
 30
0.0
 10
44.53375021829919
 20
-11.52770414344639
 30
0.0
 10
40.3643540567285
 20
-12.33580342963395
 30
0.0
 10
36.19495789515782
 20
-13.14390271582086
 30
0.0
 10
33.47008839275652
 20
-17.17896003053379
 30
0.0
 10
34.27818767894407
 20
-21.3483561921048
 30
0.0
 10
34.87002444074602
 20
-24.40194374639736
 30
0.0
 10
37.24310752977086
 20
-26.79829140892944
 30
0.0
 10
40.29077613092216
 20
-27.41988919038162
 30
0.0
  0
SPLINE
  5
149
330
70
100
AcDbEntity
  8
0
 62
     8
420
  8421504
370
    25
100
AcDbSpline
210
0.0
220
0.0
230
1.0
 70
     8
 71
     3
 72
    14
 73
    10
 74
     0
 42
0.0000000001
 43
0.0000000001
 40
0.0
 40
0.0
 40
0.0
 40
0.0
 40
1.0
 40
1.0
 40
1.0
 40
2.0
 40
2.0
 40
2.0
 40
3.0
 40
3.0
 40
3.0
 40
3.0
 10
57.08548375700838
 20
-19.88516299976175
 30
0.0
 10
57.08548375700838
 20
-11.4584373525418
 30
0.0
 10
50.2542728962915
 20
-4.627226491824926
 30
0.0
 10
41.82754724907187
 20
-4.627226491824926
 30
0.0
 10
33.40082160185192
 20
-4.627226491824926
 30
0.0
 10
26.56961074113537
 20
-11.4584373525418
 30
0.0
 10
26.56961074113537
 20
-19.88516299976175
 30
0.0
 10
26.56961074113537
 20
-27.70247584027087
 30
0.0
 10
32.47789685898697
 20
-34.25523760324907
 30
0.0
 10
40.25350055859104
 20
-35.06169104462124
 30
0.0
  0
SPLINE
  5
14A
330
70
100
AcDbEntity
  8
0
 62
     8
420
  8421504
370
    25
100
AcDbSpline
210
0.0
220
0.0
230
1.0
 70
     8
 71
     3
 72
     8
 73
     4
 74
     0
 42
0.0000000001
 43
0.0000000001
 40
0.0
 40
0.0
 40
0.0
 40
0.0
 40
1.0
 40
1.0
 40
1.0
 40
1.0
 10
43.25346486907963
 20
-35.07632442412854
 30
0.0
 10
51.09331302928629
 20
-34.34043746212851
 30
0.0
 10
57.08548375700838
 20
-27.75947241684274
 30
0.0
 10
57.08548375700838
 20
-19.88516299976175
 30
0.0
  0
SPLINE
  5
14B
330
70
100
AcDbEntity
  8
0
 62
    18
420
        0
370
    25
100
AcDbSpline
210
0.0
220
0.0
230
1.0
 70
     8
 71
     3
 72
     8
 73
     4
 74
     0
 42
0.0000000001
 43
0.0000000001
 40
0.0
 40
0.0
 40
0.0
 40
0.0
 40
1.0
 40
1.0
 40
1.0
 40
1.0
 10
139.9216048915135
 20
-15.0225971449518
 30
0.0
 10
140.0762441018587
 20
-15.11186846089092
 30
0.0
 10
140.26675285151
 20
-15.11189986441434
 30
0.0
 10
140.4214214844762
 20
-15.0226795348803
 30
0.0
  0
LWPOLYLINE
  5
14C
330
70
100
AcDbEntity
  8
0
 62
    18
420
        0
370
    25
100
AcDbPolyline
 90
        3
 70
     0
 43
0.0
 10
140.4213919374722
 20
-15.02265327656139
 10
144.3943428803724
 20
-12.73069293856164
 10
149.2041900675712
 20
-9.953069229361481
  0
LINE
  5
14D
330
70
100
AcDbEntity
  8
0
 62
    18
420
        0
370
    25
100
AcDbLine
 10
138.3372223760712
 20
-14.1079529202613
 30
0.0
 11
139.9216053881719
 21
-15.02259776446153
 31
0.0
  0
LINE
  5
14E
330
70
100
AcDbEntity
  8
0
 62
    18
420
        0
370
    25
100
AcDbLine
 10
156.816937476672
 20
15.56937821383835
 30
0.0
 11
155.8077443599716
 21
16.1519729992384
 31
0.0
  0
LINE
  5
14F
330
70
100
AcDbEntity
  8
0
 62
    18
420
        0
370
    25
100
AcDbLine
 10
167.3865481007711
 20
19.8989350701383
 30
0.0
 11
181.7159010265721
 21
11.54567943443851
 31
0.0
  0
LINE
  5
150
330
70
100
AcDbEntity
  8
0
 62
    18
420
        0
370
    25
100
AcDbLine
 10
183.2267668051717
 20
14.13745287443876
 30
0.0
 11
168.8974145790717
 21
22.49070815373826
 31
0.0
  0
SPLINE
  5
151
330
70
100
AcDbEntity
  8
0
 62
    18
420
        0
370
    25
100
AcDbSpline
210
0.0
220
0.0
230
1.0
 70
     8
 71
     3
 72
     8
 73
     4
 74
     0
 42
0.0000000001
 43
0.0000000001
 40
0.0
 40
0.0
 40
0.0
 40
0.0
 40
1.0
 40
1.0
 40
1.0
 40
1.0
 10
171.8865983148162
 20
15.46302945754154
 30
0.0
 10
171.3591087842014
 20
16.27885059659035
 30
0.0
 10
170.5988157474775
 20
16.91749677793288
 30
0.0
 10
169.7041907468723
 20
17.29625190214783
 30
0.0
  0
SPLINE
  5
152
330
70
100
AcDbEntity
  8
0
 62
    18
420
        0
370
    25
100
AcDbSpline
210
0.0
220
0.0
230
1.0
 70
     8
 71
     3
 72
     8
 73
     4
 74
     0
 42
0.0000000001
 43
0.0000000001
 40
0.0
 40
0.0
 40
0.0
 40
0.0
 40
1.0
 40
1.0
 40
1.0
 40
1.0
 10
159.704190582126
 20
17.29818198681862
 30
0.0
 10
158.8060747061044
 20
16.91642039339129
 30
0.0
 10
158.0438179001156
 20
16.27291663455744
 30
0.0
 10
157.5168030182942
 20
15.45157057148907
 30
0.0
  0
LINE
  5
153
330
70
100
AcDbEntity
  8
0
 62
    18
420
        0
370
    25
100
AcDbLine
 10
172.4540432329713
 20
8.242951804338559
 30
0.0
 11
172.3938924361712
 21
13.87092619323873
 31
0.0
  0
LINE
  5
154
330
70
100
AcDbEntity
  8
0
 62
    18
420
        0
370
    25
100
AcDbLine
 10
157.0144889752713
 20
13.87092619323873
 30
0.0
 11
156.9543381784712
 21
8.242951804338559
 31
0.0
  0
LINE
  5
155
330
70
100
AcDbEntity
  8
0
 62
    18
420
        0
370
    25
100
AcDbLine
 10
168.7615871401724
 20
14.5479836174385
 30
0.0
 11
168.7613380456715
 21
14.57129475203833
 31
0.0
  0
LINE
  5
156
330
70
100
AcDbEntity
  8
0
 62
    18
420
        0
370
    25
100
AcDbLine
 10
160.6470433656721
 20
14.57129475203833
 30
0.0
 11
160.6467942712714
 21
14.5479836174385
 31
0.0
  0
LINE
  5
157
330
70
100
AcDbEntity
  8
0
 62
    18
420
        0
370
    25
100
AcDbLine
 10
159.704190870272
 20
25.85211627253866
 30
0.0
 11
159.704190870272
 21
16.25827537393869
 31
0.0
  0
LINE
  5
158
330
70
100
AcDbEntity
  8
0
 62
    18
420
        0
370
    25
100
AcDbLine
 10
169.7041905410717
 20
16.25827537393869
 30
0.0
 11
169.7041905410717
 21
18.54787248393832
 31
0.0
  0
LINE
  5
159
330
70
100
AcDbEntity
  8
0
 62
    18
420
        0
370
    25
100
AcDbLine
 10
169.7041905410717
 20
22.02039927933884
 30
0.0
 11
169.7041905410717
 21
25.85211627253866
 31
0.0
  0
LINE
  5
15A
330
70
100
AcDbEntity
  8
0
 62
    18
420
        0
370
    25
100
AcDbLine
 10
147.1939665550712
 20
-3.666796820761283
 30
0.0
 11
149.204190787872
 21
-4.827274568861549
 31
0.0
  0
LINE
  5
15B
330
70
100
AcDbEntity
  8
0
 62
    18
420
        0
370
    25
100
AcDbLine
 10
149.2041906232723
 20
7.480461348038739
 30
0.0
 11
149.2041906232723
 21
-46.81950317776126
 31
0.0
  0
LINE
  5
15C
330
70
100
AcDbEntity
  8
0
 62
    18
420
        0
370
    25
100
AcDbLine
 10
180.2041907881714
 20
-46.81950317776126
 30
0.0
 11
180.2041907881714
 21
7.480461348038739
 31
0.0
  0
LWPOLYLINE
  5
15D
330
70
100
AcDbEntity
  8
0
 62
    18
420
        0
370
    25
100
AcDbPolyline
 90
       12
 70
     0
 43
0.0
 10
179.3029446407716
 20
10.81710544083855
 10
178.9035393723721
 20
11.41423415033837
 10
178.3671841758713
 20
12.05970235013878
 10
177.7445937284715
 20
12.67831534243859
 10
177.0397798833719
 20
13.26595666523842
 10
176.2573741428721
 20
13.81878410443827
 10
175.6125590119721
 20
14.21430537063853
 10
175.1433596324718
 20
14.47404629763827
 10
174.2035576798713
 20
14.93444001583869
 10
173.2045011271721
 20
15.34971909793867
 10
172.1525918502714
 20
15.71737435163828
 10
171.5709258280717
 20
15.88573806413878
  0
LWPOLYLINE
  5
15E
330
70
100
AcDbEntity
  8
0
 62
    18
420
        0
370
    25
100
AcDbPolyline
 90
       12
 70
     0
 43
0.0
 10
157.8439527833716
 20
15.89177146083886
 10
156.9070411825717
 20
15.6027478224386
 10
155.8717063184718
 20
15.21931059693844
 10
154.8911834308714
 20
14.78896168893881
 10
153.9716073350721
 20
14.31418299973832
 10
153.1187788822717
 20
13.79770942823871
 10
152.3381504299719
 20
13.24252585253824
 10
151.6348499201714
 20
12.6519174326386
 10
151.0136167329716
 20
12.02948033983884
 10
150.4787284443721
 20
11.37914109183852
 10
150.033939251872
 20
10.70521315863856
 10
150.0332961831722
 20
10.7039453114384
  0
LINE
  5
15F
330
70
100
AcDbEntity
  8
0
 62
    18
420
        0
370
    25
100
AcDbLine
 10
180.2041907881714
 20
7.480461348038739
 30
0.0
 11
180.2041907881714
 21
7.772681286338381
 31
0.0
  0
LINE
  5
160
330
70
100
AcDbEntity
  8
0
 62
    18
420
        0
370
    25
100
AcDbLine
 10
149.2041906232723
 20
7.772681286338381
 30
0.0
 11
149.2041906232723
 21
7.480461348038739
 31
0.0
  0
SPLINE
  5
161
330
70
100
AcDbEntity
  8
0
 62
    18
420
        0
370
    25
100
AcDbSpline
210
0.0
220
0.0
230
1.0
 70
     8
 71
     3
 72
     8
 73
     4
 74
     0
 42
0.0000000001
 43
0.0000000001
 40
0.0
 40
0.0
 40
0.0
 40
0.0
 40
1.0
 40
1.0
 40
1.0
 40
1.0
 10
139.8180314836258
 20
4.803304248150864
 30
0.0
 10
140.0344524520747
 20
4.6917887224207
 30
0.0
 10
140.2907526614533
 20
4.688701505461446
 30
0.0
 10
140.509796927858
 20
4.794971714922304
 30
0.0
  0
SPLINE
  5
162
330
70
100
AcDbEntity
  8
0
 62
    18
420
        0
370
    25
100
AcDbSpline
210
0.0
220
0.0
230
1.0
 70
     8
 71
     3
 72
     8
 73
     4
 74
     0
 42
0.0000000001
 43
0.0000000001
 40
0.0
 40
0.0
 40
0.0
 40
0.0
 40
1.0
 40
1.0
 40
1.0
 40
1.0
 10
140.1715849320882
 20
5.415676782518414
 30
0.0
 10
139.9612348262855
 20
5.281123746653406
 30
0.0
 10
139.8293827784914
 20
5.052749301461628
 30
0.0
 10
139.8180314835436
 20
4.80330424824327
 30
0.0
  0
SPLINE
  5
163
330
70
100
AcDbEntity
  8
0
 62
    18
420
        0
370
    25
100
AcDbSpline
210
0.0
220
0.0
230
1.0
 70
     8
 71
     3
 72
     8
 73
     4
 74
     0
 42
0.0000000001
 43
0.0000000001
 40
0.0
 40
0.0
 40
0.0
 40
0.0
 40
1.0
 40
1.0
 40
1.0
 40
1.0
 10
140.5097969278169
 20
4.794971714937705
 30
0.0
 10
140.4997670145362
 20
5.043223761146344
 30
0.0
 10
140.3747503709309
 20
5.272661111675674
 30
0.0
 10
140.1715849321293
 20
5.415676782440126
 30
0.0
  0
LWPOLYLINE
  5
164
330
70
100
AcDbEntity
  8
0
 62
    18
420
        0
370
    25
100
AcDbPolyline
 90
        6
 70
     0
 43
0.0
 10
149.0119865060718
 20
9.720659356938282
 10
148.3048625691716
 20
9.312442352138727
 10
145.476060186672
 20
7.67934174513872
 10
143.0004655990716
 20
6.2501093850383
 10
140.5246846434711
 20
4.820757994838698
 10
140.5172457247713
 20
4.816463598038434
  0
SPLINE
  5
165
330
70
100
AcDbEntity
  8
0
 62
    18
420
        0
370
    25
100
AcDbSpline
210
0.0
220
0.0
230
1.0
 70
     8
 71
     3
 72
     8
 73
     4
 74
     0
 42
0.0000000001
 43
0.0000000001
 40
0.0
 40
0.0
 40
0.0
 40
0.0
 40
1.0
 40
1.0
 40
1.0
 40
1.0
 10
140.5172457247149
 20
4.816463598017258
 30
0.0
 10
140.5042485276435
 20
5.059916929145762
 30
0.0
 10
140.3758247892758
 20
5.28254326940059
 30
0.0
 10
140.1715849320972
 20
5.415676782494671
 30
0.0
  0
LWPOLYLINE
  5
166
330
70
100
AcDbEntity
  8
0
 62
    18
420
        0
370
    25
100
AcDbPolyline
 90
        4
 70
     0
 43
0.0
 10
140.1715849321716
 20
5.415676782438201
 10
144.1995882202716
 20
7.739444013438665
 10
146.4293685578717
 20
9.026125920738691
 10
148.6588499161719
 20
10.31298042503878
  0
SPLINE
  5
167
330
70
100
AcDbEntity
  8
0
 62
    18
420
        0
370
    25
100
AcDbSpline
210
0.0
220
0.0
230
1.0
 70
     8
 71
     3
 72
     8
 73
     4
 74
     0
 42
0.0000000001
 43
0.0000000001
 40
0.0
 40
0.0
 40
0.0
 40
0.0
 40
1.0
 40
1.0
 40
1.0
 40
1.0
 10
149.0119865060089
 20
9.720659356847161
 30
0.0
 10
148.9936628885583
 20
9.962549607316759
 30
0.0
 10
148.8629270166885
 20
10.18183476067214
 30
0.0
 10
148.6588499161373
 20
10.31298042495215
 30
0.0
  0
LWPOLYLINE
  5
168
330
70
100
AcDbEntity
  8
0
 62
    18
420
        0
370
    25
100
AcDbPolyline
 90
        3
 70
     0
 43
0.0
 10
140.5253109193717
 20
4.803205430538289
 10
140.5252885288712
 20
4.803194025438377
 10
140.509796927772
 20
4.794971714938347
  0
SPLINE
  5
169
330
70
100
AcDbEntity
  8
0
 62
    18
420
        0
370
    25
100
AcDbSpline
210
0.0
220
0.0
230
1.0
 70
     8
 71
     3
 72
     8
 73
     4
 74
     0
 42
0.0000000001
 43
0.0000000001
 40
0.0
 40
0.0
 40
0.0
 40
0.0
 40
1.0
 40
1.0
 40
1.0
 40
1.0
 10
140.5172457247547
 20
4.816463598026241
 30
0.0
 10
140.5173248493238
 20
4.810906889169654
 30
0.0
 10
140.520412814361
 20
4.805830662289397
 30
0.0
 10
140.5253109193434
 20
4.803205430567807
 30
0.0
  0
LWPOLYLINE
  5
16A
330
70
100
AcDbEntity
  8
0
 62
    18
420
        0
370
    25
100
AcDbPolyline
 90
        7
 70
     0
 43
0.0
 10
140.509796927772
 20
4.794971714938347
 10
140.5097692689712
 20
3.978123592338656
 10
140.5096592919717
 20
0.710864540738399
 10
140.5095526077712
 20
-5.822359464861611
 10
140.5095901448716
 20
-8.310218045761262
 10
140.509796927772
 20
-14.80231820946143
 10
140.5097975863721
 20
-14.81090193496145
  0
SPLINE
  5
16B
330
70
100
AcDbEntity
  8
0
 62
    18
420
        0
370
    25
100
AcDbSpline
210
0.0
220
0.0
230
1.0
 70
     8
 71
     3
 72
     8
 73
     4
 74
     0
 42
0.0000000001
 43
0.0000000001
 40
0.0
 40
0.0
 40
0.0
 40
0.0
 40
1.0
 40
1.0
 40
1.0
 40
1.0
 10
139.8180314835911
 20
-14.79367540735558
 30
0.0
 10
140.0315406166485
 20
-14.91361589469446
 30
0.0
 10
140.2905832202431
 20
-14.92006663653307
 30
0.0
 10
140.5097975863682
 20
-14.81090193488316
 30
0.0
  0
LWPOLYLINE
  5
16C
330
70
100
AcDbEntity
  8
0
 62
    18
420
        0
370
    25
100
AcDbPolyline
 90
        4
 70
     0
 43
0.0
 10
139.8180314835719
 20
-14.79367540736135
 10
139.8197397480718
 20
-8.300646122161785
 10
139.8197542359716
 20
-1.806637519561643
 10
139.8180314835719
 20
4.803304248238777
  0
LWPOLYLINE
  5
16D
330
70
100
AcDbEntity
  8
0
 62
    18
420
        0
370
    25
100
AcDbPolyline
 90
        5
 70
     0
 43
0.0
 10
147.1891939184718
 20
-3.674079850761325
 10
146.2198025732713
 20
-5.321054116661448
 10
145.1282499047719
 20
-7.161488517561301
 10
144.0250735963723
 20
-9.008837981261617
 10
140.5253109193717
 20
-14.79409818226134
  0
SPLINE
  5
16E
330
70
100
AcDbEntity
  8
0
 62
    18
420
        0
370
    25
100
AcDbSpline
210
0.0
220
0.0
230
1.0
 70
     8
 71
     3
 72
     8
 73
     4
 74
     0
 42
0.0000000001
 43
0.0000000001
 40
0.0
 40
0.0
 40
0.0
 40
0.0
 40
1.0
 40
1.0
 40
1.0
 40
1.0
 10
140.5097975863336
 20
-14.81090193497107
 30
0.0
 10
140.516275357841
 20
-14.80666577019868
 30
0.0
 10
140.5216047320507
 20
-14.8008930915446
 30
0.0
 10
140.5253109193088
 20
-14.79409818229663
 30
0.0
  0
LWPOLYLINE
  5
16F
330
70
100
AcDbEntity
  8
0
 62
    18
420
        0
370
    25
100
AcDbPolyline
 90
        7
 70
     0
 43
0.0
 10
140.5253109193717
 20
4.803205430538289
 10
140.527661923272
 20
4.801847041238722
 10
140.8154662880715
 20
4.63565005473829
 10
141.3900951035713
 20
4.303819489038725
 10
142.5354245166717
 20
3.642427575438699
 10
144.8102641157718
 20
2.328776322038684
 10
147.2194570019721
 20
0.9375333722382579
  0
SPLINE
  5
170
330
70
100
AcDbEntity
  8
0
 62
    18
420
        0
370
    25
100
AcDbSpline
210
0.0
220
0.0
230
1.0
 70
     8
 71
     3
 72
     8
 73
     4
 74
     0
 42
0.0000000001
 43
0.0000000001
 40
0.0
 40
0.0
 40
0.0
 40
0.0
 40
1.0
 40
1.0
 40
1.0
 40
1.0
 10
138.5872019199887
 20
6.330321626617888
 30
0.0
 10
138.3768518141847
 20
6.195768590753523
 30
0.0
 10
138.2449997663906
 20
5.967394145561745
 30
0.0
 10
138.2336484714429
 20
5.717949092343387
 30
0.0
  0
LINE
  5
171
330
70
100
AcDbEntity
  8
0
 62
    18
420
        0
370
    25
100
AcDbLine
 10
138.587201919972
 20
6.330321626638423
 30
0.0
 11
140.1715849321716
 21
5.415676782438201
 31
0.0
  0
LINE
  5
172
330
70
100
AcDbEntity
  8
0
 62
    18
420
        0
370
    25
100
AcDbLine
 10
139.8180314835719
 20
4.803304248238777
 30
0.0
 11
138.2336484714724
 21
5.717949092338253
 31
0.0
  0
LWPOLYLINE
  5
173
330
70
100
AcDbEntity
  8
0
 62
    18
420
        0
370
    25
100
AcDbPolyline
 90
        3
 70
     0
 43
0.0
 10
149.0128123208721
 20
9.700534544438298
 10
149.0123500226714
 20
9.711803800638241
 10
149.0119865060718
 20
9.720659356938282
  0
LWPOLYLINE
  5
174
330
70
100
AcDbEntity
  8
0
 62
    18
420
        0
370
    25
100
AcDbPolyline
 90
        4
 70
     0
 43
0.0
 10
149.0128123208721
 20
9.700534544438298
 10
146.8029271067712
 20
8.424998736138826
 10
144.5927323768723
 20
7.149641607638725
 10
140.5253109193717
 20
4.803205430538289
  0
LINE
  5
175
330
70
100
AcDbEntity
  8
0
 62
    18
420
        0
370
    25
100
AcDbLine
 10
138.2336484714724
 20
5.717949092338253
 30
0.0
 11
138.2336484714724
 21
-13.87903056326124
 31
0.0
  0
LINE
  5
176
330
70
100
AcDbEntity
  8
0
 62
    18
420
        0
370
    25
100
AcDbLine
 10
138.2336484714724
 20
-13.87903056326124
 30
0.0
 11
139.8180314835719
 21
-14.79367540736135
 31
0.0
  0
LINE
  5
177
330
70
100
AcDbEntity
  8
0
 62
    18
420
        0
370
    25
100
AcDbLine
 10
155.5577648159719
 20
16.12721905363861
 30
0.0
 11
138.587201919972
 21
6.330321626638423
 31
0.0
  0
LINE
  5
178
330
70
100
AcDbEntity
  8
0
 62
    18
420
        0
370
    25
100
AcDbLine
 10
149.799696452072
 20
10.15491930053863
 30
0.0
 11
149.0128123208721
 21
9.700534544438298
 31
0.0
  0
LWPOLYLINE
  5
179
330
70
100
AcDbEntity
  8
0
 62
    18
420
        0
370
    25
100
AcDbPolyline
 90
        3
 70
     0
 43
0.0
 10
140.5253109193717
 20
-14.79409818226134
 10
140.5253096022715
 20
-14.7941217567613
 10
140.5246846434724
 20
-14.8109162591612
  0
SPLINE
  5
17A
330
70
100
AcDbEntity
  8
0
 62
    18
420
        0
370
    25
100
AcDbSpline
210
0.0
220
0.0
230
1.0
 70
     8
 71
     3
 72
     8
 73
     4
 74
     0
 42
0.0000000001
 43
0.0000000001
 40
0.0
 40
0.0
 40
0.0
 40
0.0
 40
1.0
 40
1.0
 40
1.0
 40
1.0
 10
139.8180314835924
 20
-14.79367540735879
 30
0.0
 10
140.0355181932921
 20
-14.91852605336442
 30
0.0
 10
140.3013681385228
 20
-14.92501223324361
 30
0.0
 10
140.524684643516
 20
-14.8109162591612
 30
0.0
  0
SPLINE
  5
17B
330
70
100
AcDbEntity
  8
0
 62
    18
420
        0
370
    25
100
AcDbSpline
210
0.0
220
0.0
230
1.0
 70
     8
 71
     3
 72
     8
 73
     4
 74
     0
 42
0.0000000001
 43
0.0000000001
 40
0.0
 40
0.0
 40
0.0
 40
0.0
 40
1.0
 40
1.0
 40
1.0
 40
1.0
 10
138.2336484714313
 20
-13.87903056322338
 30
0.0
 10
138.2244341198156
 20
-13.968421124587
 30
0.0
 10
138.2639959558569
 20
-14.05586196010494
 30
0.0
 10
138.3372223760134
 20
-14.1079529202382
 30
0.0
  0
SPLINE
  5
17C
330
70
100
AcDbEntity
  8
0
 62
    18
420
        0
370
    25
100
AcDbSpline
210
0.0
220
0.0
230
1.0
 70
     8
 71
     3
 72
     8
 73
     4
 74
     0
 42
0.0000000001
 43
0.0000000001
 40
0.0
 40
0.0
 40
0.0
 40
0.0
 40
1.0
 40
1.0
 40
1.0
 40
1.0
 10
155.8077443599472
 20
16.15197299916012
 30
0.0
 10
155.7259686039253
 20
16.18890812260589
 30
0.0
 10
155.6307085160139
 20
16.17947509863487
 30
0.0
 10
155.5577648159834
 20
16.12721905359819
 30
0.0
  0
LWPOLYLINE
  5
17D
330
70
100
AcDbEntity
  8
0
 62
    18
420
        0
370
    25
100
AcDbPolyline
 90
       24
 70
     0
 43
0.0
 10
183.5371550072721
 20
13.45087834813838
 10
183.4976322939722
 20
13.75873289363853
 10
183.3819931954723
 20
13.99856549793852
 10
183.1988133194716
 20
14.15259044203867
 10
182.9616807440719
 20
14.20938183973832
 10
182.6881813653723
 20
14.16472820533829
 10
182.3985997637716
 20
14.02194104443855
 10
182.114412691272
 20
13.79161178163856
 10
181.8566961136721
 20
13.49082144333869
 10
181.6445644396716
 20
13.14187918303827
 10
181.4937505033719
 20
12.77066449123866
 10
181.4154405063721
 20
12.40470746193883
 10
181.4154405063721
 20
12.07115018673827
 10
181.4937505033719
 20
11.7947320444382
 10
181.6445644396716
 20
11.59595242263852
 10
181.8566961136721
 20
11.48955383843825
 10
182.114412691272
 20
11.48342743763847
 10
182.3985997637716
 20
11.57802928363876
 10
182.6881813653723
 20
11.76634079503839
 10
182.9616807440719
 20
12.03439713383858
 10
183.1988133194716
 20
12.36231782913839
 10
183.3819931954723
 20
12.72578179873833
 10
183.4976322939722
 20
13.09783284603879
 10
183.5371550072721
 20
13.45087834813838
  0
LWPOLYLINE
  5
17E
330
70
100
AcDbEntity
  8
0
 62
    18
420
        0
370
    25
100
AcDbPolyline
 90
       20
 70
     0
 43
0.0
 10
183.1818817285714
 20
13.24777401823877
 10
183.1433821465714
 20
13.49089544323835
 10
183.0320562675717
 20
13.66365087473882
 10
182.8599674335712
 20
13.74732046913829
 10
182.6457631656719
 20
13.73283939753842
 10
182.4126576722718
 20
13.62177311433848
 10
182.1859101276717
 20
13.42616046543874
 10
181.9900939761723
 20
13.16719736763842
 10
181.8464261944717
 20
12.87294672623871
 10
181.7704774087723
 20
12.57529634543885
 10
181.7704774087723
 20
12.30650009003878
 10
181.8464261944717
 20
12.09568673063858
 10
181.9900939761723
 20
11.96569945993858
 10
182.1859101276717
 20
11.93062805983819
 10
182.4126576722718
 20
11.99426997873854
 10
182.6457631656719
 20
12.14972904363839
 10
182.8599674335712
 20
12.38016028333874
 10
183.0320562675717
 20
12.66059119573874
 10
183.1433821465714
 20
12.96063379473858
 10
183.1818817285714
 20
13.24777401823877
  0
SPLINE
  5
17F
330
70
100
AcDbEntity
  8
0
 62
    18
420
        0
370
    25
100
AcDbSpline
210
0.0
220
0.0
230
1.0
 70
     8
 71
     3
 72
     8
 73
     4
 74
     0
 42
0.0000000001
 43
0.0000000001
 40
0.0
 40
0.0
 40
0.0
 40
0.0
 40
1.0
 40
1.0
 40
1.0
 40
1.0
 10
157.4832724015194
 20
15.37003464177657
 30
0.0
 10
156.8953593680731
 20
14.48721607281548
 30
0.0
 10
156.8675881014821
 20
13.34497979265947
 30
0.0
 10
157.4119037929204
 20
12.43463327146364
 30
0.0
  0
SPLINE
  5
180
330
70
100
AcDbEntity
  8
0
 62
    18
420
        0
370
    25
100
AcDbSpline
210
0.0
220
0.0
230
1.0
 70
     8
 71
     3
 72
     8
 73
     4
 74
     0
 42
0.0000000001
 43
0.0000000001
 40
0.0
 40
0.0
 40
0.0
 40
0.0
 40
1.0
 40
1.0
 40
1.0
 40
1.0
 10
171.9778566139783
 20
12.40291191566405
 30
0.0
 10
172.5417734064086
 20
13.3219585565314
 30
0.0
 10
172.5184320836056
 20
14.48534240129716
 30
0.0
 10
171.9181057183162
 20
15.38103047870506
 30
0.0
  0
LWPOLYLINE
  5
181
330
70
100
AcDbEntity
  8
0
 62
    18
420
        0
370
    25
100
AcDbPolyline
 90
       29
 70
     0
 43
0.0
 10
172.4540432329713
 20
8.242951804338559
 10
172.4505891669724
 20
8.078966005038692
 10
172.3682763718719
 20
7.551017565738451
 10
172.1783765018719
 20
7.032394688138422
 10
171.8835556745722
 20
6.530377810938569
 10
171.4879518542718
 20
6.052014329238239
 10
170.9971193700723
 20
5.604019274538688
 10
170.4179479968717
 20
5.192681460838783
 10
169.7585677135715
 20
4.823775427438745
 10
169.0282351864719
 20
4.502479560238519
 10
168.2372023071719
 20
4.233304382238447
 10
167.3965741939713
 20
4.020028066738672
 10
166.5181505650711
 20
3.865645162738673
 10
165.6142629957718
 20
3.772322447038626
 10
164.6975999922715
 20
3.741369794338457
 10
163.7810291849719
 20
3.773222308638481
 10
162.8774178750713
 20
3.867432530338455
 10
161.9994504528717
 20
4.022677754138773
 10
161.1594519082719
 20
4.236779037738822
 10
160.3692134805712
 20
4.50673075983845
 10
159.6398285990724
 20
4.82874324683834
 10
158.9815360048716
 20
5.198296079438239
 10
158.4035774031716
 20
5.610202021138211
 10
157.9140653829722
 20
6.058678323038271
 10
157.5198716710716
 20
6.537429482838807
 10
157.2265302639716
 20
7.039735098838334
 10
157.0381590404717
 20
7.558543784438573
 10
156.9574017274722
 20
8.086572439438251
 10
156.9543381784712
 20
8.242951804338559
  0
LWPOLYLINE
  5
182
330
70
100
AcDbEntity
  8
0
 62
    18
420
        0
370
    25
100
AcDbPolyline
 90
       43
 70
     0
 43
0.0
 10
161.1859442997715
 20
27.90306804063823
 10
160.6957322776716
 20
27.57744966243857
 10
160.2950623567713
 20
27.21329033223873
 10
159.992885422672
 20
26.81872451063823
 10
159.7959508156715
 20
26.40256638323877
 10
159.7086584362715
 20
25.97411195363835
 10
159.7329580700713
 20
25.54293246803838
 10
159.8683067470712
 20
25.11865952443883
 10
160.1116810073716
 20
24.71077098993827
 10
160.4576442365724
 20
24.3283780104388
 10
160.8984685177712
 20
23.98002293863859
 10
161.4243062439724
 20
23.67348731263831
 10
162.0234111832715
 20
23.41561861763857
 10
162.682400208772
 20
23.21217729113861
 10
163.3865529574715
 20
23.06770783353822
 10
164.1201394353718
 20
22.98543750503867
 10
164.8667725030723
 20
22.96720399823858
 10
165.6097738624717
 20
23.01341466493884
 10
166.3325460516723
 20
23.12303724943868
 10
167.0189433703714
 20
23.29362298413883
 10
167.6536330913714
 20
23.52136114323884
 10
168.2224371115721
 20
23.80116450443845
 10
168.7126491336721
 20
24.12678288273886
 10
169.1133190545711
 20
24.49094221283859
 10
169.4154959886717
 20
24.88550803453855
 10
169.6124305956722
 20
25.30166616183855
 10
169.6997229751723
 20
25.73012059143833
 10
169.6754233413711
 20
26.1613000771384
 10
169.5400746642712
 20
26.5855730207386
 10
169.2967004040722
 20
26.99346155523851
 10
168.9507371748714
 20
27.37585453473862
 10
168.5099128935712
 20
27.72420960653883
 10
167.9840751673713
 20
28.03074523253847
 10
167.3849702281723
 20
28.28861392743875
 10
166.7259812025717
 20
28.49205525403882
 10
166.0218284538722
 20
28.63652471163856
 10
165.2882419759719
 20
28.71879504013875
 10
164.5416089082713
 20
28.73702854693884
 10
163.798607548872
 20
28.69081788023858
 10
163.0758353596714
 20
28.58119529563863
 10
162.3894380409723
 20
28.41060956103859
 10
161.7547483199722
 20
28.18287140193858
 10
161.1859442997715
 20
27.90306804063823
  0
LWPOLYLINE
  5
183
330
70
100
AcDbEntity
  8
0
 62
    18
420
        0
370
    25
100
AcDbPolyline
 90
       23
 70
     0
 43
0.0
 10
159.704190870272
 20
16.25827537393869
 10
159.7329580700713
 20
15.94909156933831
 10
159.8683067470712
 20
15.52481862573875
 10
160.1116810073716
 20
15.1169300912382
 10
160.4576442365724
 20
14.73453711173873
 10
160.8984685177712
 20
14.38618203993852
 10
161.4243062439724
 20
14.07964641393824
 10
162.0234111832715
 20
13.82177771893849
 10
162.682400208772
 20
13.61833639243854
 10
163.3865529574715
 20
13.47386693483879
 10
164.1201394353718
 20
13.3915966063386
 10
164.8667725030723
 20
13.37336309953851
 10
165.6097738624717
 20
13.41957376623877
 10
166.3325460516723
 20
13.52919635083872
 10
167.0189433703714
 20
13.69978208543876
 10
167.6536330913714
 20
13.92752024453877
 10
168.2224371115721
 20
14.20732360573838
 10
168.7126491336721
 20
14.53294198403878
 10
169.1133190545711
 20
14.89710131423862
 10
169.4154959886717
 20
15.29166713583848
 10
169.6124305956722
 20
15.70782526323858
 10
169.6997229751723
 20
16.13627969283837
 10
169.7041905410717
 20
16.25827537393869
  0
SPLINE
  5
184
330
70
100
AcDbEntity
  8
0
 62
    18
420
        0
370
    25
100
AcDbSpline
210
0.0
220
0.0
230
1.0
 70
     8
 71
     3
 72
     8
 73
     4
 74
     0
 42
0.0000000001
 43
0.0000000001
 40
0.0
 40
0.0
 40
0.0
 40
0.0
 40
1.0
 40
1.0
 40
1.0
 40
1.0
 10
149.204191304305
 20
3.069535068995742
 30
0.0
 10
147.5074447393384
 20
2.002262136165149
 30
0.0
 10
146.4455362767576
 20
0.1674779915430287
 30
0.0
 10
146.3653768001797
 20
-1.835418630150025
 30
0.0
  0
SPLINE
  5
185
330
70
100
AcDbEntity
  8
0
 62
    18
420
        0
370
    25
100
AcDbSpline
210
0.0
220
0.0
230
1.0
 70
     8
 71
     3
 72
     8
 73
     4
 74
     0
 42
0.0000000001
 43
0.0000000001
 40
0.0
 40
0.0
 40
0.0
 40
0.0
 40
1.0
 40
1.0
 40
1.0
 40
1.0
 10
146.3653768001835
 20
-1.835418630217404
 30
0.0
 10
146.2980802563647
 20
-2.549485279990391
 30
0.0
 10
146.6131873006948
 20
-3.245945941311892
 30
0.0
 10
147.193966555116
 20
-3.666796820795294
 30
0.0
  0
LWPOLYLINE
  5
186
330
70
100
AcDbEntity
  8
0
 62
    18
420
        0
370
    25
100
AcDbPolyline
 90
       30
 70
     0
 43
0.0
 10
153.7440357763716
 20
1.15329858483827
 10
154.6995965344716
 20
0.6460453458383602
 10
155.7253327831712
 20
0.1867309298387475
 10
156.8140486065712
 20
-0.221423485761167
 10
157.9581088396722
 20
-0.5755544631614193
 10
159.1494876359721
 20
-0.8731782590611897
 10
160.3798282302724
 20
-1.112207837061604
 10
161.6405020430711
 20
-1.290965698461769
 10
162.9226644925722
 20
-1.408197853861586
 10
164.2173234825715
 20
-1.46308294656148
 10
165.5153976843717
 20
-1.455235484561746
 10
166.8077820616713
 20
-1.384710212361214
 10
168.0854110907718
 20
-1.252002110861629
 10
169.339323297872
 20
-1.058042595561377
 10
170.5607231626722
 20
-0.8041911532617442
 10
171.7410433502717
 20
-0.4922290688613808
 10
172.8720054624714
 20
-0.1243441236615414
 10
173.9456765072711
 20
0.2968829957387183
 10
174.9545245466721
 20
0.7684978958386802
 10
175.891474116672
 20
1.287192304838311
 10
176.7499529636718
 20
1.849328010838477
 10
177.5239396653719
 20
2.450962072638798
 10
178.2080047486714
 20
3.08787435743825
 10
178.7973507167714
 20
3.755597491738694
 10
179.2878425688721
 20
4.449448165538418
 10
179.6760407268719
 20
5.164559066838409
 10
179.9592227678718
 20
5.895914237138609
 10
180.135401204472
 20
6.638383667238232
 10
180.2033412656718
 20
7.386760173438747
 10
180.2041907881714
 20
7.480461348038739
  0
LWPOLYLINE
  5
187
330
70
100
AcDbEntity
  8
0
 62
    18
420
        0
370
    25
100
AcDbPolyline
 90
       11
 70
     0
 43
0.0
 10
149.2041906232723
 20
7.480461348038739
 10
149.2118389591715
 20
7.199398882738337
 10
149.3069130297713
 20
6.452008156438727
 10
149.5099870825712
 20
5.711831529438601
 10
149.8196383322722
 20
4.984060028338296
 10
150.2336945696713
 20
4.273799521538597
 10
150.7492499671714
 20
3.586031182038253
 10
151.3626892800724
 20
2.925579267538468
 10
152.0697100724713
 20
2.297077000738359
 10
152.8653521871719
 20
1.704932068538823
 10
153.7440357763716
 20
1.15329858483827
  0
LWPOLYLINE
  5
188
330
70
100
AcDbEntity
  8
0
 62
    18
420
        0
370
    25
100
AcDbPolyline
 90
       30
 70
     0
 43
0.0
 10
153.7440357763716
 20
-53.14666594096173
 10
154.6995965344716
 20
-53.65391917986153
 10
155.7253327831712
 20
-54.11323359586179
 10
156.8140486065712
 20
-54.52138801156117
 10
157.9581088396722
 20
-54.87551898896142
 10
159.1494876359721
 20
-55.17314278486119
 10
160.3798282302724
 20
-55.4121723628616
 10
161.6405020430711
 20
-55.59093022426177
 10
162.9226644925722
 20
-55.70816237966159
 10
164.2173234825715
 20
-55.76304747236147
 10
165.5153976843717
 20
-55.75520001036174
 10
166.8077820616713
 20
-55.68467473816121
 10
168.0854110907718
 20
-55.55196663656152
 10
169.339323297872
 20
-55.35800712136137
 10
170.5607231626722
 20
-55.10415567906175
 10
171.7410433502717
 20
-54.79219359466139
 10
172.8720054624714
 20
-54.42430864946154
 10
173.9456765072711
 20
-54.00308153006128
 10
174.9545245466721
 20
-53.53146662996132
 10
175.891474116672
 20
-53.01277222096168
 10
176.7499529636718
 20
-52.45063651486141
 10
177.5239396653719
 20
-51.84900245316121
 10
178.2080047486714
 20
-51.21209016836175
 10
178.7973507167714
 20
-50.5443670340613
 10
179.2878425688721
 20
-49.85051636026158
 10
179.6760407268719
 20
-49.13540545896159
 10
179.9592227678718
 20
-48.40405028866139
 10
180.135401204472
 20
-47.66158085846166
 10
180.2033412656718
 20
-46.91320435226178
 10
180.2041907881714
 20
-46.81950317776126
  0
LWPOLYLINE
  5
189
330
70
100
AcDbEntity
  8
0
 62
    18
420
        0
370
    25
100
AcDbPolyline
 90
       11
 70
     0
 43
0.0
 10
149.2041906232723
 20
-46.81950317776126
 10
149.2118389591715
 20
-47.10056564306166
 10
149.3069130297713
 20
-47.84795636936126
 10
149.5099870825712
 20
-48.58813299626129
 10
149.8196383322722
 20
-49.3159044974617
 10
150.2336945696713
 20
-50.0261650041613
 10
150.7492499671714
 20
-50.71393334376175
 10
151.3626892800724
 20
-51.37438525816143
 10
152.0697100724713
 20
-52.00288752496153
 10
152.8653521871719
 20
-52.59503245716171
 10
153.7440357763716
 20
-53.14666594096173
  0
LWPOLYLINE
  5
18A
330
70
100
AcDbEntity
  8
0
 62
    18
420
        0
370
    25
100
AcDbPolyline
 90
       10
 70
     0
 43
0.0
 10
175.6289903559713
 20
-53.45287154276119
 10
176.5048392403716
 20
-52.90301744306129
 10
177.2979151717717
 20
-52.31278276836119
 10
178.0026547659717
 20
-51.68630756606139
 10
178.6141153172723
 20
-51.02798640746148
 10
179.1280082191715
 20
-50.34243692816118
 10
179.5407279404716
 20
-49.63446713356166
 10
179.8493808366718
 20
-48.90904356026123
 10
180.0518002962717
 20
-48.17125439876141
 10
180.1160669962712
 20
-47.77230246476118
  0
LWPOLYLINE
  5
18B
330
70
100
AcDbEntity
  8
0
 62
    18
420
        0
370
    25
100
AcDbPolyline
 90
       29
 70
     0
 43
0.0
 10
149.2923144151713
 20
-47.77230246476118
 10
149.3227582691719
 20
-47.9854799360615
 10
149.4983683818722
 20
-48.72555467756167
 10
149.780636692372
 20
-49.45455070516167
 10
150.1675826279716
 20
-50.16735492706128
 10
150.6564926561719
 20
-50.85896716196126
 10
151.2439370770719
 20
-51.52453644506154
 10
151.9257957069712
 20
-52.15939410296172
 10
152.6972857017716
 20
-52.75908730356121
 10
153.5529951015724
 20
-53.31940982616155
 10
154.4869223432719
 20
-53.83643095406123
 10
155.4925160614719
 20
-54.30652453406167
 10
156.5627239853718
 20
-54.72639264196136
 10
157.6900377609719
 20
-55.09309069756146
 10
158.8665502442711
 20
-55.40404685306145
 10
160.084010366572
 20
-55.6570792197617
 10
161.3338771347717
 20
-55.85041335596148
 10
162.6073849922722
 20
-55.98269338646169
 10
163.8956001242721
 20
-56.05299093706126
 10
165.1894866415712
 20
-56.06081292766145
 10
166.4799698008716
 20
-56.00610537416141
 10
167.7579965908717
 20
-55.88925110746125
 10
169.0146032327722
 20
-55.71106958326178
 10
170.2409757671721
 20
-55.47281155956117
 10
171.4285109684722
 20
-55.17614750196119
 10
172.5688802242714
 20
-54.82315883926137
 10
173.654084688372
 20
-54.41632133136169
 10
174.6765119154719
 20
-53.9584883413615
 10
175.6289903559713
 20
-53.45287154276119
  0
LWPOLYLINE
  5
18C
330
70
100
AcDbEntity
  8
0
 62
    18
420
        0
370
    25
100
AcDbPolyline
 90
       20
 70
     0
 43
0.0
 10
175.5582797979712
 20
-53.49370666996165
 10
174.6119664864719
 20
-53.99605106326173
 10
173.5961569731718
 20
-54.45092063076117
 10
172.5179767093722
 20
-54.85512498866125
 10
171.3849880911717
 20
-55.20582902176127
 10
170.2051390921718
 20
-55.50057265236175
 10
168.9867039947714
 20
-55.73728832776125
 10
167.7382303773723
 20
-55.91431641726148
 10
166.4684755650718
 20
-56.03041452656164
 10
165.1863460428721
 20
-56.08476814206125
 10
163.9008335774711
 20
-56.07699633386152
 10
162.620956936072
 20
-56.00715422656144
 10
161.3556914215712
 20
-55.87573033806126
 10
160.1139142140723
 20
-55.68364772036158
 10
158.9043348939718
 20
-55.43225274436138
 10
157.7354361729723
 20
-55.12330977726168
 10
156.6154193998721
 20
-54.75898493076148
 10
155.552139034872
 20
-54.3418340853617
 10
154.5530533415721
 20
-53.87478354956116
 10
153.8251435174716
 20
-53.4792652128614
  0
SPLINE
  5
18D
330
70
100
AcDbEntity
  8
0
 62
    18
420
        0
370
    25
100
AcDbSpline
210
0.0
220
0.0
230
1.0
 70
     8
 71
     3
 72
     8
 73
     4
 74
     0
 42
0.0000000001
 43
0.0000000001
 40
0.0
 40
0.0
 40
0.0
 40
0.0
 40
1.0
 40
1.0
 40
1.0
 40
1.0
 10
179.2940009478849
 20
4.751561448772696
 30
0.0
 10
180.4778228264672
 20
6.567068656298753
 30
0.0
 10
180.4916586671656
 20
8.906847672198125
 30
0.0
 10
179.3293901419312
 20
10.73622804162261
 30
0.0
  0
SPLINE
  5
18E
330
70
100
AcDbEntity
  8
0
 62
    18
420
        0
370
    25
100
AcDbSpline
210
0.0
220
0.0
230
1.0
 70
     8
 71
     3
 72
     8
 73
     4
 74
     0
 42
0.0000000001
 43
0.0000000001
 40
0.0
 40
0.0
 40
0.0
 40
0.0
 40
1.0
 40
1.0
 40
1.0
 40
1.0
 10
150.0122737961224
 20
10.62413026750651
 30
0.0
 10
148.9251044718299
 20
8.827334722221186
 30
0.0
 10
148.9531948795813
 20
6.568930110792049
 30
0.0
 10
150.0847186310853
 20
4.799731034650736
 30
0.0
  0
LWPOLYLINE
  5
18F
330
70
100
AcDbEntity
  8
0
 62
    18
420
        0
370
    25
100
AcDbPolyline
 90
       39
 70
     0
 43
0.0
 10
180.2041907881714
 20
7.480461348038739
 10
180.1829487764721
 20
7.012161527238363
 10
180.0607821847716
 20
6.266083906938581
 10
179.8309001021722
 20
5.528524367838284
 10
179.4949159624716
 20
4.804656258638564
 10
179.0551847210718
 20
4.099557125138366
 10
178.5147919881711
 20
3.41817278453858
 10
177.8775275228713
 20
2.765282254338461
 10
177.1478616896715
 20
2.145465153338447
 10
176.3309122028721
 20
1.56306957683868
 10
175.4324097783723
 20
1.022180103238232
 10
174.4586566664723
 20
0.5265908138387827
 10
173.4164829822721
 20
0.0797778016383177
 10
172.3131990019715
 20
-0.3151245652613613
 10
171.1565432818713
 20
-0.6553467508616539
 10
169.9546284320719
 20
-0.9385016699613302
 10
168.7158857976718
 20
-1.162603696461522
 10
167.4490042149718
 20
-1.326081208961189
 10
166.162870083572
 20
-1.427786855561685
 10
164.8665034876717
 20
-1.467007818061713
 10
163.5689989267713
 20
-1.443468093361687
 10
162.2794568275712
 20
-1.357333815561559
 10
161.0069222988721
 20
-1.209209074261645
 10
159.7603215821716
 20
-1.000131922661352
 10
158.5483988313719
 20
-0.731569815761776
 10
157.3796535512713
 20
-0.4054063038614777
 10
156.2622856087721
 20
-0.0239290580616198
 10
155.2041315189716
 20
0.4101863828387488
 10
154.2126128724713
 20
0.8938942182388164
 10
153.2946855457722
 20
1.423802384538279
 10
152.4567882109724
 20
1.996193915438719
 10
151.7047967311718
 20
2.607053269038544
 10
151.0439871593711
 20
3.252096052038358
 10
150.4789941670713
 20
3.926798340838704
 10
150.0137805459722
 20
4.626426452838448
 10
149.6516090546716
 20
5.346073728438264
 10
149.3950216751717
 20
6.080692275138766
 10
149.245816563072
 20
6.82512908323836
 10
149.2041906232723
 20
7.480461348038739
  0
LINE
  5
190
330
70
100
AcDbEntity
  8
0
 62
     8
420
  8421504
370
    25
100
AcDbLine
 10
156.6385325010719
 20
15.5033051494384
 30
0.0
 11
155.5577648159719
 21
16.12721905363861
 31
0.0
  0
LINE
  5
191
330
70
100
AcDbEntity
  8
0
 62
     8
420
  8421504
370
    25
100
AcDbLine
 10
148.6588499161719
 20
10.31298042503878
 30
0.0
 11
150.4624240347713
 21
11.35443532363836
 31
0.0
  0
LINE
  5
192
330
70
100
AcDbEntity
  8
0
 62
     8
420
  8421504
370
    25
100
AcDbLine
 10
149.8172264953722
 20
10.1855023284382
 30
0.0
 11
149.0119865060718
 21
9.720659356938282
 31
0.0
  0
LWPOLYLINE
  5
193
330
70
100
AcDbEntity
  8
0
 62
     8
420
  8421504
370
    25
100
AcDbPolyline
 90
        4
 70
     0
 43
0.0
 10
140.5246846434724
 20
-14.8109162591612
 10
141.2320444216719
 20
-14.40318055776152
 10
144.0613653256717
 20
-12.77203985256147
 10
149.2041910348722
 20
-9.80478311596142
  0
SPLINE
  5
194
330
70
100
AcDbEntity
  8
0
 62
     8
420
  8421504
370
    25
100
AcDbSpline
210
0.0
220
0.0
230
1.0
 70
     8
 71
     3
 72
     8
 73
     4
 74
     0
 42
0.0000000001
 43
0.0000000001
 40
0.0
 40
0.0
 40
0.0
 40
0.0
 40
1.0
 40
1.0
 40
1.0
 40
1.0
 10
140.4214222305206
 20
-15.02267988995292
 30
0.0
 10
140.4901888755097
 20
-14.97473431730288
 30
0.0
 10
140.5292537929761
 20
-14.89462260467533
 30
0.0
 10
140.5246846435507
 20
-14.81091625919713
 30
0.0
  0
SPLINE
  5
195
330
70
100
AcDbEntity
  8
0
 62
     8
420
  8421504
370
    25
100
AcDbSpline
210
0.0
220
0.0
230
1.0
 70
     8
 71
     3
 72
     8
 73
     4
 74
     0
 42
0.0000000001
 43
0.0000000001
 40
0.0
 40
0.0
 40
0.0
 40
0.0
 40
1.0
 40
1.0
 40
1.0
 40
1.0
 10
139.818031483595
 20
-14.7936754073851
 30
0.0
 10
139.8088171320063
 20
-14.88306596874423
 30
0.0
 10
139.8483789680424
 20
-14.97050680424869
 30
0.0
 10
139.9216053881771
 20
-15.02259776440056
 30
0.0
  0
LWPOLYLINE
  5
196
330
70
100
AcDbEntity
  8
0
 62
     8
420
  8421504
370
    25
100
AcDbPolyline
 90
       20
 70
     0
 43
0.0
 10
170.6714184852717
 20
11.04348582853869
 10
170.055868171872
 20
10.65571076643847
 10
169.3651918316715
 20
10.31268589593841
 10
168.6090852718712
 20
10.01922647843874
 10
167.7981627020721
 20
9.779451910538254
 10
166.9438075579722
 20
9.596728119238388
 10
166.058013005072
 20
9.473620346938757
 10
165.1532136808715
 20
9.411856464538615
 10
164.2421110978715
 20
9.412303734138832
 10
163.3374951782716
 20
9.474955882938784
 10
162.4520646358714
 20
9.59893319833873
 10
161.5982490042713
 20
9.782495548738433
 10
160.7880340405719
 20
10.02306600183821
 10
160.0327933844719
 20
10.31726755803885
 10
159.3431287744712
 20
10.66097015223836
 10
158.7287216531722
 20
11.04934894743849
 10
158.1981972920717
 20
11.4769521297382
 10
157.7590025174719
 20
11.93777681713835
 10
157.4173030346722
 20
12.42535418563838
 10
157.4119037929718
 20
12.43463327143862
  0
SPLINE
  5
197
330
70
100
AcDbEntity
  8
0
 62
     8
420
  8421504
370
    25
100
AcDbSpline
210
0.0
220
0.0
230
1.0
 70
     8
 71
     3
 72
     8
 73
     4
 74
     0
 42
0.0000000001
 43
0.0000000001
 40
0.0
 40
0.0
 40
0.0
 40
0.0
 40
1.0
 40
1.0
 40
1.0
 40
1.0
 10
170.6714184852499
 20
11.04348582849313
 30
0.0
 10
171.1966215445014
 20
11.40093358582055
 30
0.0
 10
171.641561297497
 20
11.8639196960351
 30
0.0
 10
171.977856613936
 20
12.40291191565186
 30
0.0
  0
LWPOLYLINE
  5
198
330
70
100
AcDbEntity
  8
0
 62
     8
420
  8421504
370
    25
100
AcDbPolyline
 90
       40
 70
     0
 43
0.0
 10
158.9213292111713
 20
16.75917874073839
 10
158.3969105454719
 20
16.33699734803869
 10
157.9644660990719
 20
15.88140279703836
 10
157.6303021764721
 20
15.3990385999383
 10
157.3992913484723
 20
14.89693903583869
 10
157.2748020703723
 20
14.38242541203849
 10
157.2586506077714
 20
13.8630007565387
 10
157.3510717318715
 20
13.34623937953869
 10
157.5507177312714
 20
12.83967681393852
 10
157.8546775099721
 20
12.3506999459383
 10
158.258518651872
 20
11.8864390950383
 10
158.7563521227712
 20
11.4536641323384
 10
159.3409184263724
 20
11.05868608203842
 10
160.0036933728714
 20
10.70726450833848
 10
160.7350122349724
 20
10.40452405663879
 10
161.524210656272
 20
10.15487919153867
 10
162.3597804890715
 20
9.961970465238657
 10
163.229536684372
 20
9.828610752938638
 10
164.1207969920715
 20
9.756744622338654
 10
165.0205643776716
 20
9.747420581438214
 10
165.9157183297721
 20
9.800774160738548
 10
166.7932055082723
 20
9.916027342938351
 10
167.6402300642712
 20
10.09149958813825
 10
168.4444405838713
 20
10.3246321170383
 10
169.1941100356724
 20
10.61202526243848
 10
169.8783062207718
 20
10.94948820643862
 10
170.4870522001724
 20
11.33210003883867
 10
171.0114708658718
 20
11.75428143163848
 10
171.4439153122717
 20
12.2098759826388
 10
171.7780792348715
 20
12.69224017963876
 10
172.0090900628714
 20
13.19433974373837
 10
172.1335793409713
 20
13.70885336763868
 10
172.1497308035723
 20
14.22827802303836
 10
172.0573096795723
 20
14.74503940003837
 10
171.8576636801724
 20
15.25160196573865
 10
171.5537039013715
 20
15.74057883373822
 10
171.1498627594717
 20
16.20483968463823
 10
170.6520292885712
 20
16.63761464723866
 10
170.0674629849713
 20
17.03259269753863
 10
169.7041908086718
 20
17.23570437543834
  0
LWPOLYLINE
  5
199
330
70
100
AcDbEntity
  8
0
 62
     8
420
  8421504
370
    25
100
AcDbPolyline
 90
        3
 70
     0
 43
0.0
 10
159.704190602772
 20
17.23570437543834
 10
159.5300751905718
 20
17.14179057323855
 10
158.9213292111713
 20
16.75917874073839
  0
LWPOLYLINE
  5
19A
330
70
100
AcDbEntity
  8
0
 62
     8
420
  8421504
370
    25
100
AcDbPolyline
 90
       26
 70
     0
 43
0.0
 10
169.0738139573715
 20
14.85528844583845
 10
169.0985836272718
 20
14.80365541933854
 10
169.2273249626717
 20
14.39850073233831
 10
169.2446917691714
 20
13.9867078080387
 10
169.1502564867717
 20
13.57841624613873
 10
168.9463441890722
 20
13.18367987093829
 10
168.6379761956718
 20
12.81221805203833
 10
168.232745133872
 20
12.47317763563879
 10
167.7406294138717
 20
12.17490685043838
 10
167.1737463165717
 20
11.92475022943861
 10
166.5460548245722
 20
11.72886717453852
 10
165.8730105659714
 20
11.59208104063871
 10
165.1711860189719
 20
11.51776024973835
 10
164.4578624617714
 20
11.50773460573843
 10
163.7506040993719
 20
11.56225093383849
 10
163.0668265530711
 20
11.67996699763853
 10
162.4233660893718
 20
11.85798405103865
 10
161.8360672273712
 20
12.09191896363829
 10
161.3193910900716
 20
12.37601132163871
 10
160.8860601603713
 20
12.70326596793857
 10
160.5467439913715
 20
13.06562455323833
 10
160.3097977840719
 20
13.45416473343869
 10
160.181056448672
 20
13.85931942043828
 10
160.1636896421723
 20
14.27111234473853
 10
160.2581249246721
 20
14.6794039066385
 10
160.3345674540723
 20
14.85528844583845
  0
LWPOLYLINE
  5
19B
330
70
100
AcDbEntity
  8
0
 62
     8
420
  8421504
370
    25
100
AcDbPolyline
 90
       21
 70
     0
 43
0.0
 10
160.6467942712714
 20
14.5479836174385
 10
160.6888393746717
 20
14.19689523283882
 10
160.8395843283721
 20
13.81995407623832
 10
161.0957457119721
 20
13.46247746323876
 10
161.4503359976714
 20
13.13421638913869
 10
161.8936833635712
 20
12.84412524203871
 10
162.4136936757714
 20
12.60011647223848
 10
162.996182672772
 20
12.40884620583875
 10
163.6252618414711
 20
12.27553197123863
 10
164.2837714465721
 20
12.20380992503877
 10
164.9537489457723
 20
12.19563684773863
 10
165.6169190703721
 20
12.25123532883882
 10
166.2551925082714
 20
12.36908882393864
 10
166.851158371672
 20
12.54598283233877
 10
167.388560674572
 20
12.77709196763882
 10
167.8527407306719
 20
13.05611198343878
 10
168.2310361902723
 20
13.37543234653844
 10
168.5131285046717
 20
13.7263427167383
 10
168.691322910672
 20
14.09927099253873
 10
168.7607588557714
 20
14.48404487953861
 10
168.7615871401724
 20
14.5479836174385
  0
LWPOLYLINE
  5
19C
330
70
100
AcDbEntity
  8
0
 62
     8
420
  8421504
370
    25
100
AcDbPolyline
 90
       31
 70
     0
 43
0.0
 10
179.1799123923721
 20
-50.01829697736165
 10
178.8834995336717
 20
-50.44335820276162
 10
178.3203290633722
 20
-51.11588383016134
 10
177.6616510354721
 20
-51.75884603976122
 10
176.9120859629719
 20
-52.36773516416133
 10
176.0768910065713
 20
-52.93827999716172
 10
175.1619247429719
 20
-53.46647877816135
 10
174.1736050176718
 20
-53.94862656356171
 10
173.1188638346713
 20
-54.38134126936141
 10
172.0050999416713
 20
-54.76158800106151
 10
170.8401251581714
 20
-55.0866993934615
 10
169.6321118568714
 20
-55.35439528386131
 10
168.3895328714721
 20
-55.56279763426172
 10
167.1211037091716
 20
-55.71044488246157
 10
165.8357209770717
 20
-55.79630163646116
 10
164.5424014665723
 20
-55.8197649470614
 10
163.2502172868714
 20
-55.78067058106164
 10
161.9682313273724
 20
-55.67929302086176
 10
160.7054363425714
 20
-55.51634299376122
 10
159.4706894269713
 20
-55.2929638598613
 10
158.2726520871723
 20
-55.01072210826122
 10
157.1197273510723
 20
-54.67159766256153
 10
156.0200024744715
 20
-54.27796905406137
 10
154.9811908246718
 20
-53.83259736006163
 10
154.0105785790722
 20
-53.33860683846152
 10
153.1149746764723
 20
-52.79946211786164
 10
152.3006604789713
 20
-52.21894522096132
 10
151.5733487778713
 20
-51.60112733716176
 10
150.9381402883722
 20
-50.95034294686156
 10
150.3994900642715
 20
-50.2711567470612
 10
150.2284690189715
 20
-50.01829697736165
  0
LWPOLYLINE
  5
19D
330
70
100
AcDbEntity
  8
0
 62
     8
420
  8421504
370
    25
100
AcDbPolyline
 90
       31
 70
     0
 43
0.0
 10
179.2940009478721
 20
4.751561448738686
 10
179.0551847210718
 20
4.39177706343865
 10
178.5147919881711
 20
3.710392722838222
 10
177.8775275228713
 20
3.057502192638745
 10
177.1478616896715
 20
2.437685091638731
 10
176.3309122028721
 20
1.855289515138322
 10
175.4324097783723
 20
1.314400041538516
 10
174.4586566664723
 20
0.818810752138425
 10
173.4164829822721
 20
0.3719977398384965
 10
172.3131990019715
 20
-0.0229046269617191
 10
171.1565432818713
 20
-0.3631268125613699
 10
169.9546284320719
 20
-0.6462817316616882
 10
168.7158857976718
 20
-0.8703837581612392
 10
167.4490042149718
 20
-1.033861270661547
 10
166.162870083572
 20
-1.135566917261401
 10
164.8665034876717
 20
-1.174787879761429
 10
163.5689989267713
 20
-1.151248155061403
 10
162.2794568275712
 20
-1.065113877261275
 10
161.0069222988721
 20
-0.9169891359613615
 10
159.7603215821716
 20
-0.7079119843617108
 10
158.5483988313719
 20
-0.4393498774614921
 10
157.3796535512713
 20
-0.1131863655611938
 10
156.2622856087721
 20
0.2682908802386641
 10
155.2041315189716
 20
0.702406321138391
 10
154.2126128724713
 20
1.186114156538458
 10
153.2946855457722
 20
1.716022322838563
 10
152.4567882109724
 20
2.288413853738362
 10
151.7047967311718
 20
2.899273207238723
 10
151.0439871593711
 20
3.544315990338642
 10
150.4789941670713
 20
4.219018279138346
 10
150.0847186310712
 20
4.799731034638544
  0
SPLINE
  5
19E
330
70
100
AcDbEntity
  8
0
 62
     8
420
  8421504
370
    25
100
AcDbSpline
210
0.0
220
0.0
230
1.0
 70
     8
 71
     3
 72
     8
 73
     4
 74
     0
 42
0.0000000001
 43
0.0000000001
 40
0.0
 40
0.0
 40
0.0
 40
0.0
 40
1.0
 40
1.0
 40
1.0
 40
1.0
 10
175.4931813562464
 20
14.20506535097464
 30
0.0
 10
174.2779824521313
 20
14.8922116991771
 30
0.0
 10
172.986406546142
 20
15.43450643568483
 30
0.0
 10
171.644906388865
 20
15.82084282852566
 30
0.0
  0
LWPOLYLINE
  5
19F
330
70
100
AcDbEntity
  8
0
 62
     8
420
  8421504
370
    25
100
AcDbPolyline
 90
       62
 70
     0
 43
0.0
 10
157.7320716690713
 20
15.8115560442383
 10
157.5473792398718
 20
15.75585909923838
 10
156.4303733321724
 20
15.37745581023835
 10
155.3729802727721
 20
14.94572997323874
 10
154.3828192158713
 20
14.4637920176387
 10
153.4670237624722
 20
13.93511455553848
 10
152.6321922814715
 20
13.36350674433882
 10
151.8843401655721
 20
12.75308672433874
 10
151.2288554199713
 20
12.10825293953837
 10
150.6704603851711
 20
11.43365139573859
 10
150.2131782740724
 20
10.73414265703856
 10
149.8603044434721
 20
10.0147662522384
 10
149.6143815336713
 20
9.280705794638409
 10
149.4771810293719
 20
8.537250204438258
 10
149.4496914059716
 20
7.78975569183822
 10
149.5321108853714
 20
7.043608120338761
 10
149.7238454602718
 20
6.304183849138343
 10
150.0235138337719
 20
5.576810385638339
 10
150.4289569675711
 20
4.86672817843839
 10
150.9372528996716
 20
4.179053170538477
 10
151.5447401226715
 20
3.518740493238701
 10
152.2470417851723
 20
2.890547684438668
 10
153.0390977133717
 20
2.299000996738297
 10
153.9152000551717
 20
1.748361894238564
 10
154.869038307672
 20
1.242598777838645
 10
155.893738254272
 20
0.7853546231386201
 10
156.981918022472
 20
0.3799245032384588
 10
158.1257370636716
 20
0.0292295941387985
 10
159.3169541872713
 20
-0.264203401561426
 10
160.5469859241722
 20
-0.4982607406616052
 10
161.8069702409723
 20
-0.6712556103616388
 10
163.0878294307722
 20
-0.7819416244613729
 10
164.3803349802722
 20
-0.8295213771613106
 10
165.6751737529724
 20
-0.8136519553613153
 10
166.963016148772
 20
-0.7344477901613067
 10
168.2345839341715
 20
-0.592479516161647
 10
169.4807154379715
 20
-0.3887697898615111
 10
170.692431405772
 20
-0.1247864461613002
 10
171.861002171572
 20
0.1975681459382471
 10
172.9780080791713
 20
0.5759714350383855
 10
174.0354011385716
 20
1.007697272038634
 10
175.0255621954724
 20
1.489635227638679
 10
175.9413576489716
 20
2.018312689638792
 10
176.7761891298722
 20
2.589920500838454
 10
177.5240412457716
 20
3.20034052083853
 10
178.1795259913723
 20
3.845174305638255
 10
178.7379210262714
 20
4.519775849438683
 10
179.1952031372713
 20
5.219284588238811
 10
179.5480769679716
 20
5.938660992938229
 10
179.7939998776711
 20
6.672721450538862
 10
179.9312003819718
 20
7.416177040738372
 10
179.9586900053721
 20
8.16367155333841
 10
179.8762705259723
 20
8.909819124938616
 10
179.6845359510719
 20
9.649243396138391
 10
179.3848675775718
 20
10.37661685963839
 10
178.9794244438713
 20
11.08669906683834
 10
178.4711285116721
 20
11.77437407473826
 10
177.8636412886721
 20
12.43468675203867
 10
177.1613396262715
 20
13.0628795607386
 10
176.369283698072
 20
13.65442624843833
 10
175.4931813562721
 20
14.20506535093871
 10
175.4931813562721
 20
14.20506535093871
  0
INSERT
  5
1A2
330
70
100
AcDbEntity
  8
CAPA_BASE
100
AcDbBlockReference
  2
Block_0
 10
0.0
 20
0.0
 30
0.0
  0
LINE
  5
1AE
330
70
100
AcDbEntity
  8
CAPA_BASE
 62
    18
420
        0
370
    25
100
AcDbLine
 10
128.3007384200721
 20
126.3850195420384
 30
0.0
 11
128.3007384200721
 21
121.5898506316386
 31
0.0
  0
INSERT
  5
1B0
330
70
100
AcDbEntity
  8
CAPA_BASE
100
AcDbBlockReference
  2
Block_1
 10
0.0
 20
0.0
 30
0.0
  0
INSERT
  5
1BC
330
70
100
AcDbEntity
  8
CAPA_BASE
100
AcDbBlockReference
  2
Block_2
 10
0.0
 20
0.0
 30
0.0
  0
SPLINE
  5
1C7
330
70
100
AcDbEntity
  8
CAPA_BASE
 62
    18
420
        0
370
    25
100
AcDbSpline
210
0.0
220
0.0
230
1.0
 70
     8
 71
     3
 72
    11
 73
     7
 74
     0
 42
0.0000000001
 43
0.0000000001
 40
0.0
 40
0.0
 40
0.0
 40
0.0
 40
1.0
 40
1.0
 40
1.0
 40
2.0
 40
2.0
 40
2.0
 40
2.0
 10
168.9275423847936
 20
22.47314479037199
 30
0.0
 10
167.9975000712342
 20
22.52266840530537
 30
0.0
 10
167.2034049873709
 20
21.80886696582075
 30
0.0
 10
167.1538813724376
 20
20.87882465226071
 30
0.0
 10
167.1351499990293
 20
20.52705368632361
 30
0.0
 10
167.2270484501471
 20
20.17824801823345
 30
0.0
 10
167.4166761265637
 20
19.88137258785368
 30
0.0
  0
ENDSEC
  0
SECTION
  2
OBJECTS
  0
DICTIONARY
  5
C
330
0
100
AcDbDictionary
281
     1
  3
ACAD_COLOR
350
63
  3
ACAD_DETAILVIEWSTYLE
350
6A
  3
ACAD_GROUP
350
D
  3
ACAD_LAYOUT
350
62
  3
ACAD_MATERIAL
350
10
  3
ACAD_MLEADERSTYLE
350
66
  3
ACAD_MLINESTYLE
350
5F
  3
ACAD_PLOTSETTINGS
350
61
  3
ACAD_PLOTSTYLENAME
350
E
  3
ACAD_SCALELIST
350
42
  3
ACAD_SECTIONVIEWSTYLE
350
68
  3
ACAD_TABLESTYLE
350
64
  3
ACAD_VISUALSTYLE
350
29
  3
ACDB_RECOMPOSE_DATA
350
1D0
  3
AcDbVariableDictionary
350
1C8
  0
DICTIONARY
  5
63
102
{ACAD_REACTORS
330
C
102
}
330
C
100
AcDbDictionary
281
     1
  0
DICTIONARY
  5
6A
102
{ACAD_REACTORS
330
C
102
}
330
C
100
AcDbDictionary
281
     1
  3
Imperial24
350
6B
  0
DICTIONARY
  5
D
102
{ACAD_REACTORS
330
C
102
}
330
C
100
AcDbDictionary
281
     1
  0
DICTIONARY
  5
62
102
{ACAD_REACTORS
330
C
102
}
330
C
100
AcDbDictionary
281
     1
  3
Layout1
350
6F
  3
Layout2
350
77
  3
Model
350
73
  0
DICTIONARY
  5
10
102
{ACAD_REACTORS
330
C
102
}
330
C
100
AcDbDictionary
281
     1
  3
ByBlock
350
19
  3
ByLayer
350
11
  3
Global
350
21
  0
DICTIONARY
  5
66
102
{ACAD_REACTORS
330
C
102
}
330
C
100
AcDbDictionary
281
     1
  3
Standard
350
67
  0
DICTIONARY
  5
5F
102
{ACAD_REACTORS
330
C
102
}
330
C
100
AcDbDictionary
281
     1
  3
Standard
350
60
  0
DICTIONARY
  5
61
102
{ACAD_REACTORS
330
C
102
}
330
C
100
AcDbDictionary
281
     1
  0
ACDBDICTIONARYWDFLT
  5
E
102
{ACAD_REACTORS
330
C
102
}
330
C
100
AcDbDictionary
281
     1
  3
Normal
350
F
100
AcDbDictionaryWithDefault
340
F
  0
DICTIONARY
  5
42
102
{ACAD_REACTORS
330
C
102
}
330
C
100
AcDbDictionary
281
     1
  3
A0
350
43
  3
A1
350
44
  3
A2
350
45
  3
A3
350
46
  3
A4
350
47
  3
A5
350
48
  3
A6
350
49
  3
A7
350
4A
  3
A8
350
4B
  3
A9
350
4C
  3
B0
350
4D
  3
B1
350
4E
  3
B2
350
4F
  3
B3
350
50
  3
B4
350
51
  3
B5
350
52
  3
B6
350
53
  0
DICTIONARY
  5
68
102
{ACAD_REACTORS
330
C
102
}
330
C
100
AcDbDictionary
281
     1
  3
Imperial24
350
69
  0
DICTIONARY
  5
64
102
{ACAD_REACTORS
330
C
102
}
330
C
100
AcDbDictionary
281
     1
  3
Standard
350
65
  0
DICTIONARY
  5
29
102
{ACAD_REACTORS
330
C
102
}
330
C
100
AcDbDictionary
281
     1
  3
2dWireframe
350
2F
  3
Basic
350
2E
  3
Brighten
350
35
  3
ColorChange
350
39
  3
Conceptual
350
32
  3
Dim
350
34
  3
EdgeColorOff
350
41
  3
Facepattern
350
38
  3
Flat
350
2A
  3
FlatWithEdges
350
2B
  3
Gouraud
350
2C
  3
GouraudWithEdges
350
2D
  3
Hidden
350
31
  3
JitterOff
350
3F
  3
Linepattern
350
37
  3
OverhangOff
350
40
  3
Realistic
350
33
  3
Shaded
350
3E
  3
Shaded with edges
350
3D
  3
Shades of Gray
350
3A
  3
Sketchy
350
3B
  3
Thicken
350
36
  3
Wireframe
350
30
  3
X-Ray
350
3C
  0
XRECORD
  5
1D0
102
{ACAD_REACTORS
330
C
102
}
330
C
100
AcDbXrecord
280
     1
 90
        1
330
65
  0
DICTIONARY
  5
1C8
102
{ACAD_REACTORS
330
C
102
}
330
C
100
AcDbDictionary
281
     1
  3
CANNOSCALE
350
1CD
  3
CMLEADERSTYLE
350
1CA
  3
CTABLESTYLE
350
1C9
  3
CVIEWDETAILSTYLE
350
1CB
  3
CVIEWSECTIONSTYLE
350
1CC
  0
ACDBDETAILVIEWSTYLE
  5
6B
102
{ACAD_REACTORS
330
6A
102
}
330
6A
100
AcDbModelDocViewStyle
 70
     0
  3
Imperial24
290
     1
300
Imperial24
 90
        0
100
AcDbDetailViewStyle
 70
     0
 71
     0
 90
        3
 71
     1
340
55
 62
   256
 40
0.24
340
0
 62
   256
 40
0.24
300

 40
0.36
280
     3
 71
     2
340
5D
 90
       25
 62
   256
 71
     3
340
55
 62
   256
 40
0.24
 90
        1
 40
0.75
 90
        1
300
%<\AcVar ViewType \f "%tc1">% %<\AcVar ViewDetailId>%\PSCALE %<\AcVar ViewScale \f "%sn">%
 71
     4
340
5D
 90
       25
 62
   256
340
5D
 90
       25
 62
   256
280
     0
  0
LAYOUT
  5
6F
102
{ACAD_REACTORS
330
62
102
}
330
62
100
AcDbPlotSettings
  1

  2

  4

  6

 40
0.0
 41
0.0
 42
0.0
 43
0.0
 44
0.0
 45
0.0
 46
0.0
 47
0.0
 48
0.0
 49
0.0
140
0.0
141
0.0
142
1.0
143
1.0
 70
   688
 72
     0
 73
     0
 74
     5
  7

 75
    16
147
1.0
 76
     0
 77
     2
 78
   300
148
0.0
149
0.0
100
AcDbLayout
  1
Layout1
 70
     1
 71
     1
 10
0.0
 20
0.0
 11
12.0
 21
9.0
 12
0.0
 22
0.0
 32
0.0
 14
0.0
 24
0.0
 34
0.0
 15
0.0
 25
0.0
 35
0.0
146
0.0
 13
0.0
 23
0.0
 33
0.0
 16
1.0
 26
0.0
 36
0.0
 17
0.0
 27
1.0
 37
0.0
 76
     0
330
6C
  0
LAYOUT
  5
77
102
{ACAD_REACTORS
330
62
102
}
330
62
100
AcDbPlotSettings
  1

  2

  4

  6

 40
0.0
 41
0.0
 42
0.0
 43
0.0
 44
0.0
 45
0.0
 46
0.0
 47
0.0
 48
0.0
 49
0.0
140
0.0
141
0.0
142
1.0
143
1.0
 70
   688
 72
     0
 73
     0
 74
     5
  7

 75
    16
147
1.0
 76
     0
 77
     2
 78
   300
148
0.0
149
0.0
100
AcDbLayout
  1
Layout2
 70
     1
 71
     2
 10
0.0
 20
0.0
 11
12.0
 21
9.0
 12
0.0
 22
0.0
 32
0.0
 14
0.0
 24
0.0
 34
0.0
 15
0.0
 25
0.0
 35
0.0
146
0.0
 13
0.0
 23
0.0
 33
0.0
 16
1.0
 26
0.0
 36
0.0
 17
0.0
 27
1.0
 37
0.0
 76
     0
330
74
  0
LAYOUT
  5
73
102
{ACAD_REACTORS
330
62
102
}
330
62
100
AcDbPlotSettings
  1

  2

  4

  6

 40
0.0
 41
0.0
 42
0.0
 43
0.0
 44
0.0
 45
0.0
 46
0.0
 47
0.0
 48
0.0
 49
0.0
140
0.0
141
0.0
142
1.0
143
1.0
 70
  1712
 72
     0
 73
     0
 74
     0
  7

 75
     0
147
1.0
 76
     0
 77
     2
 78
   300
148
0.0
149
0.0
100
AcDbLayout
  1
Model
 70
     1
 71
     0
 10
0.0
 20
0.0
 11
12.0
 21
9.0
 12
0.0
 22
0.0
 32
0.0
 14
0.0
 24
0.0
 34
0.0
 15
0.0
 25
0.0
 35
0.0
146
0.0
 13
0.0
 23
0.0
 33
0.0
 16
1.0
 26
0.0
 36
0.0
 17
0.0
 27
1.0
 37
0.0
 76
     0
330
70
  0
MATERIAL
  5
19
102
{ACAD_XDICTIONARY
360
1A
102
}
102
{ACAD_REACTORS
330
10
102
}
330
10
100
AcDbMaterial
  1
ByBlock
 72
     0
 43
0.0208333333333333
 43
0.0
 43
0.0
 43
0.0
 43
0.0
 43
0.0208333333333333
 43
0.0
 43
0.0
 43
0.0
 43
0.0
 43
1.0
 43
0.0
 43
0.0
 43
0.0
 43
0.0
 43
1.0
 77
     0
 47
0.0208333333333333
 47
0.0
 47
0.0
 47
0.0
 47
0.0
 47
0.0208333333333333
 47
0.0
 47
0.0
 47
0.0
 47
0.0
 47
1.0
 47
0.0
 47
0.0
 47
0.0
 47
0.0
 47
1.0
171
     0
 49
0.0208333333333333
 49
0.0
 49
0.0
 49
0.0
 49
0.0
 49
0.0208333333333333
 49
0.0
 49
0.0
 49
0.0
 49
0.0
 49
1.0
 49
0.0
 49
0.0
 49
0.0
 49
0.0
 49
1.0
175
     0
142
0.0208333333333333
142
0.0
142
0.0
142
0.0
142
0.0
142
0.0208333333333333
142
0.0
142
0.0
142
0.0
142
0.0
142
1.0
142
0.0
142
0.0
142
0.0
142
0.0
142
1.0
179
     0
144
0.0208333333333333
144
0.0
144
0.0
144
0.0
144
0.0
144
0.0208333333333333
144
0.0
144
0.0
144
0.0
144
0.0
144
1.0
144
0.0
144
0.0
144
0.0
144
0.0
144
1.0
147
0.0208333333333333
147
0.0
147
0.0
147
0.0
147
0.0
147
0.0208333333333333
147
0.0
147
0.0
147
0.0
147
0.0
147
1.0
147
0.0
147
0.0
147
0.0
147
0.0
147
1.0
  0
MATERIAL
  5
11
102
{ACAD_XDICTIONARY
360
12
102
}
102
{ACAD_REACTORS
330
10
102
}
330
10
100
AcDbMaterial
  1
ByLayer
 72
     0
 43
0.0208333333333333
 43
0.0
 43
0.0
 43
0.0
 43
0.0
 43
0.0208333333333333
 43
0.0
 43
0.0
 43
0.0
 43
0.0
 43
1.0
 43
0.0
 43
0.0
 43
0.0
 43
0.0
 43
1.0
 77
     0
 47
0.0208333333333333
 47
0.0
 47
0.0
 47
0.0
 47
0.0
 47
0.0208333333333333
 47
0.0
 47
0.0
 47
0.0
 47
0.0
 47
1.0
 47
0.0
 47
0.0
 47
0.0
 47
0.0
 47
1.0
171
     0
 49
0.0208333333333333
 49
0.0
 49
0.0
 49
0.0
 49
0.0
 49
0.0208333333333333
 49
0.0
 49
0.0
 49
0.0
 49
0.0
 49
1.0
 49
0.0
 49
0.0
 49
0.0
 49
0.0
 49
1.0
175
     0
142
0.0208333333333333
142
0.0
142
0.0
142
0.0
142
0.0
142
0.0208333333333333
142
0.0
142
0.0
142
0.0
142
0.0
142
1.0
142
0.0
142
0.0
142
0.0
142
0.0
142
1.0
179
     0
144
0.0208333333333333
144
0.0
144
0.0
144
0.0
144
0.0
144
0.0208333333333333
144
0.0
144
0.0
144
0.0
144
0.0
144
1.0
144
0.0
144
0.0
144
0.0
144
0.0
144
1.0
147
0.0208333333333333
147
0.0
147
0.0
147
0.0
147
0.0
147
0.0208333333333333
147
0.0
147
0.0
147
0.0
147
0.0
147
1.0
147
0.0
147
0.0
147
0.0
147
0.0
147
1.0
  0
MATERIAL
  5
21
102
{ACAD_XDICTIONARY
360
22
102
}
102
{ACAD_REACTORS
330
10
102
}
330
10
100
AcDbMaterial
  1
Global
 72
     0
 43
0.0208333333333333
 43
0.0
 43
0.0
 43
0.0
 43
0.0
 43
0.0208333333333333
 43
0.0
 43
0.0
 43
0.0
 43
0.0
 43
1.0
 43
0.0
 43
0.0
 43
0.0
 43
0.0
 43
1.0
 77
     0
 47
0.0208333333333333
 47
0.0
 47
0.0
 47
0.0
 47
0.0
 47
0.0208333333333333
 47
0.0
 47
0.0
 47
0.0
 47
0.0
 47
1.0
 47
0.0
 47
0.0
 47
0.0
 47
0.0
 47
1.0
171
     0
 49
0.0208333333333333
 49
0.0
 49
0.0
 49
0.0
 49
0.0
 49
0.0208333333333333
 49
0.0
 49
0.0
 49
0.0
 49
0.0
 49
1.0
 49
0.0
 49
0.0
 49
0.0
 49
0.0
 49
1.0
175
     0
142
0.0208333333333333
142
0.0
142
0.0
142
0.0
142
0.0
142
0.0208333333333333
142
0.0
142
0.0
142
0.0
142
0.0
142
1.0
142
0.0
142
0.0
142
0.0
142
0.0
142
1.0
179
     0
144
0.0208333333333333
144
0.0
144
0.0
144
0.0
144
0.0
144
0.0208333333333333
144
0.0
144
0.0
144
0.0
144
0.0
144
1.0
144
0.0
144
0.0
144
0.0
144
0.0
144
1.0
147
0.0208333333333333
147
0.0
147
0.0
147
0.0
147
0.0
147
0.0208333333333333
147
0.0
147
0.0
147
0.0
147
0.0
147
1.0
147
0.0
147
0.0
147
0.0
147
0.0
147
1.0
  0
MLEADERSTYLE
  5
67
102
{ACAD_REACTORS
330
66
102
}
330
66
100
AcDbMLeaderStyle
179
     2
170
     2
171
     1
172
     0
 90
        2
 40
0.0
 41
0.0
173
     1
 91
-1056964608
340
5B
 92
       -2
290
     1
 42
0.09
291
     1
 43
0.36
  3
Standard
 44
0.18
300

342
55
174
     1
178
     6
175
     1
176
     0
 93
-1056964608
 45
0.18
292
     0
297
     0
 46
0.18
 94
-1056964608
 47
1.0
 49
1.0
140
1.0
293
     1
141
0.0
294
     1
177
     0
142
1.0
295
     1
296
     0
143
0.125
271
     0
272
     9
273
     9
298
     1
  0
MLINESTYLE
  5
60
102
{ACAD_REACTORS
330
5F
102
}
330
5F
100
AcDbMlineStyle
  2
STANDARD
 70
     0
  3

 62
   256
 51
90.0
 52
90.0
 71
     2
 49
0.5
 62
   256
  6
BYLAYER
 49
-0.5
 62
   256
  6
BYLAYER
  0
ACDBPLACEHOLDER
  5
F
102
{ACAD_REACTORS
330
E
102
}
330
E
  0
SCALE
  5
43
102
{ACAD_REACTORS
330
42
102
}
330
42
100
AcDbScale
 70
     0
300
1:1
140
1.0
141
1.0
290
     1
  0
SCALE
  5
44
102
{ACAD_REACTORS
330
42
102
}
330
42
100
AcDbScale
 70
     0
300
1/128" = 1'-0"
140
0.0078125
141
12.0
290
     0
  0
SCALE
  5
45
102
{ACAD_REACTORS
330
42
102
}
330
42
100
AcDbScale
 70
     0
300
1/64" = 1'-0"
140
0.015625
141
12.0
290
     0
  0
SCALE
  5
46
102
{ACAD_REACTORS
330
42
102
}
330
42
100
AcDbScale
 70
     0
300
1/32" = 1'-0"
140
0.03125
141
12.0
290
     0
  0
SCALE
  5
47
102
{ACAD_REACTORS
330
42
102
}
330
42
100
AcDbScale
 70
     0
300
1/16" = 1'-0"
140
0.0625
141
12.0
290
     0
  0
SCALE
  5
48
102
{ACAD_REACTORS
330
42
102
}
330
42
100
AcDbScale
 70
     0
300
3/32" = 1'-0"
140
0.09375
141
12.0
290
     0
  0
SCALE
  5
49
102
{ACAD_REACTORS
330
42
102
}
330
42
100
AcDbScale
 70
     0
300
1/8" = 1'-0"
140
0.125
141
12.0
290
     0
  0
SCALE
  5
4A
102
{ACAD_REACTORS
330
42
102
}
330
42
100
AcDbScale
 70
     0
300
3/16" = 1'-0"
140
0.1875
141
12.0
290
     0
  0
SCALE
  5
4B
102
{ACAD_REACTORS
330
42
102
}
330
42
100
AcDbScale
 70
     0
300
1/4" = 1'-0"
140
0.25
141
12.0
290
     0
  0
SCALE
  5
4C
102
{ACAD_REACTORS
330
42
102
}
330
42
100
AcDbScale
 70
     0
300
3/8" = 1'-0"
140
0.375
141
12.0
290
     0
  0
SCALE
  5
4D
102
{ACAD_REACTORS
330
42
102
}
330
42
100
AcDbScale
 70
     0
300
1/2" = 1'-0"
140
0.5
141
12.0
290
     0
  0
SCALE
  5
4E
102
{ACAD_REACTORS
330
42
102
}
330
42
100
AcDbScale
 70
     0
300
3/4" = 1'-0"
140
0.75
141
12.0
290
     0
  0
SCALE
  5
4F
102
{ACAD_REACTORS
330
42
102
}
330
42
100
AcDbScale
 70
     0
300
1" = 1'-0"
140
1.0
141
12.0
290
     0
  0
SCALE
  5
50
102
{ACAD_REACTORS
330
42
102
}
330
42
100
AcDbScale
 70
     0
300
1-1/2" = 1'-0"
140
1.5
141
12.0
290
     0
  0
SCALE
  5
51
102
{ACAD_REACTORS
330
42
102
}
330
42
100
AcDbScale
 70
     0
300
3" = 1'-0"
140
3.0
141
12.0
290
     0
  0
SCALE
  5
52
102
{ACAD_REACTORS
330
42
102
}
330
42
100
AcDbScale
 70
     0
300
6" = 1'-0"
140
6.0
141
12.0
290
     0
  0
SCALE
  5
53
102
{ACAD_REACTORS
330
42
102
}
330
42
100
AcDbScale
 70
     0
300
1'-0" = 1'-0"
140
12.0
141
12.0
290
     0
  0
ACDBSECTIONVIEWSTYLE
  5
69
102
{ACAD_REACTORS
330
68
102
}
330
68
100
AcDbModelDocViewStyle
 70
     0
  3
Imperial24
290
     1
300
Imperial24
 90
        0
100
AcDbSectionViewStyle
 70
     0
 71
     0
 90
       78
 71
     1
340
55
 62
   256
 40
0.24
340
0
340
0
 62
   256
 40
0.24
300
I, O, Q, S, X, Z
 40
0.48
 90
        3
 40
0.18
 90
        1
 71
     2
340
5D
 90
       25
 62
   256
340
5D
 90
       50
 62
   256
 40
0.24
 40
0.0
 40
0.24
 71
     3
340
55
 62
   256
 40
0.24
 90
        1
 40
0.75
 90
        1
300
%<\AcVar ViewType \f "%tc1">% %<\AcVar ViewSectionStartId>%-%<\AcVar ViewSectionEndId>%\PSCALE %<\AcVar ViewScale \f "%sn">%
 71
     4
 62
   256
 62
   257
300
ANSI31
 40
1.0
 90
        0
290
     0
290
     0
 90
        6
 40
0.0
 40
1.570796326794896
 40
0.2617993877991494
 40
1.308996938995747
 40
-0.2617993877991494
 40
1.832595714594046
  0
TABLESTYLE
  5
65
102
{ACAD_XDICTIONARY
360
1CE
102
}
102
{ACAD_REACTORS
330
64
102
}
330
64
100
AcDbTableStyle
280
     0
  3
Standard
 70
     0
 71
     0
 40
0.06
 41
0.06
280
     0
281
     0
  7
Standard
140
0.18
170
     2
 62
     0
 63
     7
283
     0
 90
      512
 91
        0
  1

274
    -2
284
     1
 64
     0
275
    -2
285
     1
 65
     0
276
    -2
286
     1
 66
     0
277
    -2
287
     1
 67
     0
278
    -2
288
     1
 68
     0
279
    -2
289
     1
 69
     0
  7
Standard
140
0.25
170
     5
 62
     0
 63
     7
283
     0
 90
      512
 91
        0
  1

274
    -2
284
     1
 64
     0
275
    -2
285
     1
 65
     0
276
    -2
286
     1
 66
     0
277
    -2
287
     1
 67
     0
278
    -2
288
     1
 68
     0
279
    -2
289
     1
 69
     0
  7
Standard
140
0.18
170
     5
 62
     0
 63
     7
283
     0
 90
      512
 91
        0
  1

274
    -2
284
     1
 64
     0
275
    -2
285
     1
 65
     0
276
    -2
286
     1
 66
     0
277
    -2
287
     1
 67
     0
278
    -2
288
     1
 68
     0
279
    -2
289
     1
 69
     0
  0
VISUALSTYLE
  5
2F
102
{ACAD_REACTORS
330
29
102
}
330
29
100
AcDbVisualStyle
  2
2dWireframe
 70
     4
177
     3
291
     0
 70
    58
 90
        0
176
     1
 90
        2
176
     1
 90
        0
176
     1
 90
        0
176
     1
 40
0.6
176
     1
 40
30.0
176
     1
 62
     7
420
 16777215
176
     1
 90
        1
176
     1
 90
        4
176
     1
 62
     7
176
     1
 62
   257
176
     1
 90
        1
176
     1
 90
        1
176
     1
 40
1.0
176
     1
 90
        0
176
     1
 62
   257
176
     1
 40
1.0
176
     1
 90
        1
176
     1
 90
        6
176
     1
 90
        2
176
     1
 62
     7
176
     1
 90
        5
176
     1
 90
        0
176
     1
 90
        0
176
     1
290
     0
176
     1
 90
        1
176
     1
 40
0.0
176
     1
 90
        0
176
     1
290
     1
176
     1
290
     1
176
     1
290
     0
176
     1
290
     0
176
     1
290
     0
176
     1
290
     0
176
     1
290
     0
176
     1
290
     0
176
     1
290
     0
176
     1
 90
       50
176
     1
 40
0.0
176
     1
 40
1.0
176
     1
 90
        0
176
     1
 62
    18
420
        0
176
     1
 90
       50
176
     1
 90
        3
176
     1
 62
     5
420
      255
176
     1
290
     0
176
     1
 90
       50
176
     1
 90
       50
176
     1
 90
       50
176
     1
290
     0
176
     1
 90
       50
176
     1
 62
   256
176
     0
 40
1.0
176
     0
 90
        2
176
     1
  1
strokes_ogs.tif
176
     1
290
     0
176
     1
 40
1.0
176
     1
 40
1.0
176
     1
  0
VISUALSTYLE
  5
2E
102
{ACAD_REACTORS
330
29
102
}
330
29
100
AcDbVisualStyle
  2
Basic
 70
     7
177
     3
291
     1
 70
    58
 90
        1
176
     1
 90
        0
176
     1
 90
        1
176
     1
 90
        0
176
     1
 40
0.6
176
     1
 40
30.0
176
     1
 62
     7
420
 16777215
176
     1
 90
        0
176
     1
 90
        4
176
     1
 62
     7
176
     1
 62
   257
176
     1
 90
        1
176
     1
 90
        1
176
     1
 40
1.0
176
     1
 90
        8
176
     1
 62
     7
176
     1
 40
1.0
176
     1
 90
        1
176
     1
 90
        6
176
     1
 90
        2
176
     1
 62
     7
176
     1
 90
        5
176
     1
 90
        0
176
     1
 90
        0
176
     1
290
     0
176
     1
 90
        1
176
     1
 40
0.0
176
     1
 90
        0
176
     1
290
     0
176
     1
290
     1
176
     1
290
     1
176
     1
290
     0
176
     1
290
     0
176
     1
290
     0
176
     1
290
     0
176
     1
290
     0
176
     1
290
     0
176
     1
 90
       50
176
     1
 40
0.0
176
     1
 40
1.0
176
     1
 90
        0
176
     1
 62
    18
420
        0
176
     1
 90
       50
176
     1
 90
        3
176
     1
 62
     5
420
      255
176
     1
290
     0
176
     1
 90
       50
176
     1
 90
       50
176
     1
 90
       50
176
     1
290
     0
176
     1
 90
       50
176
     1
 62
   256
176
     0
 40
1.0
176
     0
 90
        2
176
     1
  1
strokes_ogs.tif
176
     1
290
     0
176
     1
 40
1.0
176
     1
 40
1.0
176
     1
  0
VISUALSTYLE
  5
35
102
{ACAD_REACTORS
330
29
102
}
330
29
100
AcDbVisualStyle
  2
Brighten
 70
    12
177
     3
291
     1
 70
    58
 90
        2
176
     1
 90
        2
176
     1
 90
        0
176
     1
 90
        0
176
     1
 40
0.6
176
     1
 40
30.0
176
     1
 62
     7
420
 16777215
176
     1
 90
        1
176
     1
 90
        4
176
     1
 62
     7
176
     1
 62
   257
176
     1
 90
        1
176
     1
 90
        1
176
     1
 40
1.0
176
     1
 90
        8
176
     1
 62
     7
176
     1
 40
1.0
176
     1
 90
        1
176
     1
 90
        6
176
     1
 90
        2
176
     1
 62
     7
176
     1
 90
        5
176
     1
 90
        0
176
     1
 90
        0
176
     1
290
     0
176
     1
 90
        1
176
     1
 40
50.0
176
     1
 90
        0
176
     1
290
     0
176
     1
290
     1
176
     1
290
     1
176
     1
290
     0
176
     1
290
     0
176
     1
290
     0
176
     1
290
     0
176
     1
290
     0
176
     1
290
     0
176
     1
 90
       50
176
     1
 40
0.0
176
     1
 40
1.0
176
     1
 90
        0
176
     1
 62
    18
420
        0
176
     1
 90
       50
176
     1
 90
        3
176
     1
 62
     5
420
      255
176
     1
290
     0
176
     1
 90
       50
176
     1
 90
       50
176
     1
 90
       50
176
     1
290
     0
176
     1
 90
       50
176
     1
 62
   256
176
     0
 40
1.0
176
     0
 90
        2
176
     1
  1
strokes_ogs.tif
176
     1
290
     0
176
     1
 40
1.0
176
     1
 40
1.0
176
     1
  0
VISUALSTYLE
  5
39
102
{ACAD_REACTORS
330
29
102
}
330
29
100
AcDbVisualStyle
  2
ColorChange
 70
    16
177
     3
291
     1
 70
    58
 90
        2
176
     1
 90
        2
176
     1
 90
        3
176
     1
 90
        0
176
     1
 40
0.6
176
     1
 40
30.0
176
     1
 62
     8
420
  8421504
176
     1
 90
        1
176
     1
 90
        4
176
     1
 62
     7
176
     1
 62
   257
176
     1
 90
        1
176
     1
 90
        1
176
     1
 40
1.0
176
     1
 90
        8
176
     1
 62
     8
420
  8421504
176
     1
 40
1.0
176
     1
 90
        1
176
     1
 90
        6
176
     1
 90
        2
176
     1
 62
     7
176
     1
 90
        5
176
     1
 90
        0
176
     1
 90
        0
176
     1
290
     0
176
     1
 90
        1
176
     1
 40
0.0
176
     1
 90
        0
176
     1
290
     0
176
     1
290
     1
176
     1
290
     1
176
     1
290
     0
176
     1
290
     0
176
     1
290
     0
176
     1
290
     0
176
     1
290
     0
176
     1
290
     0
176
     1
 90
       50
176
     1
 40
0.0
176
     1
 40
1.0
176
     1
 90
        0
176
     1
 62
    18
420
        0
176
     1
 90
       50
176
     1
 90
        3
176
     1
 62
     5
420
      255
176
     1
290
     0
176
     1
 90
       50
176
     1
 90
       50
176
     1
 90
       50
176
     1
290
     0
176
     1
 90
       50
176
     1
 62
   256
176
     0
 40
1.0
176
     0
 90
        2
176
     1
  1
strokes_ogs.tif
176
     1
290
     0
176
     1
 40
1.0
176
     1
 40
1.0
176
     1
  0
VISUALSTYLE
  5
32
102
{ACAD_REACTORS
330
29
102
}
330
29
100
AcDbVisualStyle
  2
Conceptual
 70
     9
177
     3
291
     0
 70
    58
 90
        3
176
     1
 90
        2
176
     1
 90
        0
176
     1
 90
        0
176
     1
 40
0.6
176
     1
 40
30.0
176
     1
 62
     7
420
 16777215
176
     1
 90
        2
176
     1
 90
        2
176
     1
 62
     7
176
     1
 62
   257
176
     1
 90
        1
176
     1
 90
        1
176
     1
 40
179.0
176
     1
 90
        8
176
     1
 62
     7
176
     1
 40
1.0
176
     1
 90
        1
176
     1
 90
        6
176
     1
 90
        2
176
     1
 62
     7
176
     1
 90
        3
176
     1
 90
        0
176
     1
 90
        0
176
     1
290
     0
176
     1
 90
        1
176
     1
 40
0.0
176
     1
 90
        0
176
     1
290
     0
176
     1
290
     1
176
     1
290
     1
176
     1
290
     0
176
     1
290
     0
176
     1
290
     0
176
     1
290
     0
176
     1
290
     0
176
     1
290
     0
176
     1
 90
       50
176
     1
 40
0.0
176
     1
 40
1.0
176
     1
 90
        0
176
     1
 62
    18
420
        0
176
     1
 90
       50
176
     1
 90
        3
176
     1
 62
     5
420
      255
176
     1
290
     0
176
     1
 90
       50
176
     1
 90
       50
176
     1
 90
       50
176
     1
290
     0
176
     1
 90
       50
176
     1
 62
   256
176
     0
 40
1.0
176
     0
 90
        2
176
     1
  1
strokes_ogs.tif
176
     1
290
     0
176
     1
 40
1.0
176
     1
 40
1.0
176
     1
  0
VISUALSTYLE
  5
34
102
{ACAD_REACTORS
330
29
102
}
330
29
100
AcDbVisualStyle
  2
Dim
 70
    11
177
     3
291
     1
 70
    58
 90
        2
176
     1
 90
        2
176
     1
 90
        0
176
     1
 90
        0
176
     1
 40
0.6
176
     1
 40
30.0
176
     1
 62
     7
420
 16777215
176
     1
 90
        1
176
     1
 90
        4
176
     1
 62
     7
176
     1
 62
   257
176
     1
 90
        1
176
     1
 90
        1
176
     1
 40
1.0
176
     1
 90
        8
176
     1
 62
     7
176
     1
 40
1.0
176
     1
 90
        1
176
     1
 90
        6
176
     1
 90
        2
176
     1
 62
     7
176
     1
 90
        5
176
     1
 90
        0
176
     1
 90
        0
176
     1
290
     0
176
     1
 90
        1
176
     1
 40
-50.0
176
     1
 90
        0
176
     1
290
     0
176
     1
290
     1
176
     1
290
     1
176
     1
290
     0
176
     1
290
     0
176
     1
290
     0
176
     1
290
     0
176
     1
290
     0
176
     1
290
     0
176
     1
 90
       50
176
     1
 40
0.0
176
     1
 40
1.0
176
     1
 90
        0
176
     1
 62
    18
420
        0
176
     1
 90
       50
176
     1
 90
        3
176
     1
 62
     5
420
      255
176
     1
290
     0
176
     1
 90
       50
176
     1
 90
       50
176
     1
 90
       50
176
     1
290
     0
176
     1
 90
       50
176
     1
 62
   256
176
     0
 40
1.0
176
     0
 90
        2
176
     1
  1
strokes_ogs.tif
176
     1
290
     0
176
     1
 40
1.0
176
     1
 40
1.0
176
     1
  0
VISUALSTYLE
  5
41
102
{ACAD_REACTORS
330
29
102
}
330
29
100
AcDbVisualStyle
  2
EdgeColorOff
 70
    22
177
     3
291
     1
 70
    58
 90
        2
176
     0
 90
        2
176
     0
 90
        0
176
     0
 90
        0
176
     0
 40
0.6
176
     0
 40
30.0
176
     0
 62
     7
420
 16777215
176
     0
 90
        1
176
     0
 90
        4
176
     0
 62
     7
176
     0
 62
   257
176
     0
 90
        1
176
     0
 90
        1
176
     0
 40
1.0
176
     0
 90
        8
176
     2
 62
     7
176
     0
 40
1.0
176
     0
 90
        1
176
     0
 90
        6
176
     0
 90
        2
176
     0
 62
     7
176
     0
 90
        5
176
     0
 90
        0
176
     0
 90
        0
176
     0
290
     0
176
     0
 90
        1
176
     0
 40
0.0
176
     0
 90
        0
176
     0
290
     0
176
     0
290
     1
176
     0
290
     1
176
     0
290
     0
176
     0
290
     0
176
     0
290
     0
176
     0
290
     0
176
     0
290
     0
176
     0
290
     0
176
     0
 90
       50
176
     0
 40
0.0
176
     0
 40
1.0
176
     0
 90
        0
176
     0
 62
    18
420
        0
176
     0
 90
       50
176
     0
 90
        3
176
     0
 62
     5
420
      255
176
     0
290
     0
176
     0
 90
       50
176
     0
 90
       50
176
     0
 90
       50
176
     0
290
     0
176
     0
 90
       50
176
     0
 62
   256
176
     0
 40
1.0
176
     0
 90
        2
176
     0
  1
strokes_ogs.tif
176
     0
290
     0
176
     0
 40
1.0
176
     0
 40
1.0
176
     0
  0
VISUALSTYLE
  5
38
102
{ACAD_REACTORS
330
29
102
}
330
29
100
AcDbVisualStyle
  2
Facepattern
 70
    15
177
     3
291
     1
 70
    58
 90
        2
176
     1
 90
        2
176
     1
 90
        0
176
     1
 90
        0
176
     1
 40
0.6
176
     1
 40
30.0
176
     1
 62
     7
420
 16777215
176
     1
 90
        1
176
     1
 90
        4
176
     1
 62
     7
176
     1
 62
   257
176
     1
 90
        1
176
     1
 90
        1
176
     1
 40
1.0
176
     1
 90
        8
176
     1
 62
     7
176
     1
 40
1.0
176
     1
 90
        1
176
     1
 90
        6
176
     1
 90
        2
176
     1
 62
     7
176
     1
 90
        5
176
     1
 90
        0
176
     1
 90
        0
176
     1
290
     0
176
     1
 90
        1
176
     1
 40
0.0
176
     1
 90
        0
176
     1
290
     0
176
     1
290
     1
176
     1
290
     1
176
     1
290
     0
176
     1
290
     0
176
     1
290
     0
176
     1
290
     0
176
     1
290
     0
176
     1
290
     0
176
     1
 90
       50
176
     1
 40
0.0
176
     1
 40
1.0
176
     1
 90
        0
176
     1
 62
    18
420
        0
176
     1
 90
       50
176
     1
 90
        3
176
     1
 62
     5
420
      255
176
     1
290
     0
176
     1
 90
       50
176
     1
 90
       50
176
     1
 90
       50
176
     1
290
     0
176
     1
 90
       50
176
     1
 62
   256
176
     0
 40
1.0
176
     0
 90
        2
176
     1
  1
strokes_ogs.tif
176
     1
290
     0
176
     1
 40
1.0
176
     1
 40
1.0
176
     1
  0
VISUALSTYLE
  5
2A
102
{ACAD_REACTORS
330
29
102
}
330
29
100
AcDbVisualStyle
  2
Flat
 70
     0
177
     3
291
     1
 70
    58
 90
        2
176
     1
 90
        1
176
     1
 90
        1
176
     1
 90
        2
176
     1
 40
0.6
176
     1
 40
30.0
176
     1
 62
     7
420
 16777215
176
     1
 90
        0
176
     1
 90
        0
176
     1
 62
     7
176
     1
 62
   257
176
     1
 90
        1
176
     1
 90
        1
176
     1
 40
1.0
176
     1
 90
        8
176
     1
 62
     7
176
     1
 40
1.0
176
     1
 90
        1
176
     1
 90
        6
176
     1
 90
        2
176
     1
 62
     7
176
     1
 90
        5
176
     1
 90
        0
176
     1
 90
        0
176
     1
290
     0
176
     1
 90
       13
176
     1
 40
0.0
176
     1
 90
        0
176
     1
290
     0
176
     1
290
     1
176
     1
290
     1
176
     1
290
     0
176
     1
290
     0
176
     1
290
     0
176
     1
290
     0
176
     1
290
     0
176
     1
290
     0
176
     1
 90
       50
176
     1
 40
0.0
176
     1
 40
1.0
176
     1
 90
        0
176
     1
 62
    18
420
        0
176
     1
 90
       50
176
     1
 90
        3
176
     1
 62
     5
420
      255
176
     1
290
     0
176
     1
 90
       50
176
     1
 90
       50
176
     1
 90
       50
176
     1
290
     0
176
     1
 90
       50
176
     1
 62
   256
176
     0
 40
1.0
176
     0
 90
        2
176
     1
  1
strokes_ogs.tif
176
     1
290
     0
176
     1
 40
1.0
176
     1
 40
1.0
176
     1
  0
VISUALSTYLE
  5
2B
102
{ACAD_REACTORS
330
29
102
}
330
29
100
AcDbVisualStyle
  2
FlatWithEdges
 70
     1
177
     3
291
     1
 70
    58
 90
        2
176
     1
 90
        1
176
     1
 90
        1
176
     1
 90
        2
176
     1
 40
0.6
176
     1
 40
30.0
176
     1
 62
     7
420
 16777215
176
     1
 90
        1
176
     1
 90
        0
176
     1
 62
     7
176
     1
 62
   257
176
     1
 90
        1
176
     1
 90
        1
176
     1
 40
1.0
176
     1
 90
        0
176
     1
 62
   257
176
     1
 40
1.0
176
     1
 90
        1
176
     1
 90
        6
176
     1
 90
        2
176
     1
 62
     7
176
     1
 90
        5
176
     1
 90
        0
176
     1
 90
        0
176
     1
290
     0
176
     1
 90
       13
176
     1
 40
0.0
176
     1
 90
        0
176
     1
290
     0
176
     1
290
     1
176
     1
290
     1
176
     1
290
     0
176
     1
290
     0
176
     1
290
     0
176
     1
290
     0
176
     1
290
     0
176
     1
290
     0
176
     1
 90
       50
176
     1
 40
0.0
176
     1
 40
1.0
176
     1
 90
        0
176
     1
 62
    18
420
        0
176
     1
 90
       50
176
     1
 90
        3
176
     1
 62
     5
420
      255
176
     1
290
     0
176
     1
 90
       50
176
     1
 90
       50
176
     1
 90
       50
176
     1
290
     0
176
     1
 90
       50
176
     1
 62
   256
176
     0
 40
1.0
176
     0
 90
        2
176
     1
  1
strokes_ogs.tif
176
     1
290
     0
176
     1
 40
1.0
176
     1
 40
1.0
176
     1
  0
VISUALSTYLE
  5
2C
102
{ACAD_REACTORS
330
29
102
}
330
29
100
AcDbVisualStyle
  2
Gouraud
 70
     2
177
     3
291
     1
 70
    58
 90
        2
176
     1
 90
        2
176
     1
 90
        1
176
     1
 90
        2
176
     1
 40
0.6
176
     1
 40
30.0
176
     1
 62
     7
420
 16777215
176
     1
 90
        0
176
     1
 90
        0
176
     1
 62
     7
176
     1
 62
   257
176
     1
 90
        1
176
     1
 90
        1
176
     1
 40
1.0
176
     1
 90
        0
176
     1
 62
     7
176
     1
 40
1.0
176
     1
 90
        1
176
     1
 90
        6
176
     1
 90
        2
176
     1
 62
     7
176
     1
 90
        5
176
     1
 90
        0
176
     1
 90
        0
176
     1
290
     0
176
     1
 90
       13
176
     1
 40
0.0
176
     1
 90
        0
176
     1
290
     0
176
     1
290
     1
176
     1
290
     1
176
     1
290
     0
176
     1
290
     0
176
     1
290
     0
176
     1
290
     0
176
     1
290
     0
176
     1
290
     0
176
     1
 90
       50
176
     1
 40
0.0
176
     1
 40
1.0
176
     1
 90
        0
176
     1
 62
    18
420
        0
176
     1
 90
       50
176
     1
 90
        3
176
     1
 62
     5
420
      255
176
     1
290
     0
176
     1
 90
       50
176
     1
 90
       50
176
     1
 90
       50
176
     1
290
     0
176
     1
 90
       50
176
     1
 62
   256
176
     0
 40
1.0
176
     0
 90
        2
176
     1
  1
strokes_ogs.tif
176
     1
290
     0
176
     1
 40
1.0
176
     1
 40
1.0
176
     1
  0
VISUALSTYLE
  5
2D
102
{ACAD_REACTORS
330
29
102
}
330
29
100
AcDbVisualStyle
  2
GouraudWithEdges
 70
     3
177
     3
291
     1
 70
    58
 90
        2
176
     1
 90
        2
176
     1
 90
        1
176
     1
 90
        2
176
     1
 40
0.6
176
     1
 40
30.0
176
     1
 62
     7
420
 16777215
176
     1
 90
        1
176
     1
 90
        0
176
     1
 62
     7
176
     1
 62
   257
176
     1
 90
        1
176
     1
 90
        1
176
     1
 40
1.0
176
     1
 90
        0
176
     1
 62
   257
176
     1
 40
1.0
176
     1
 90
        1
176
     1
 90
        6
176
     1
 90
        2
176
     1
 62
     7
176
     1
 90
        5
176
     1
 90
        0
176
     1
 90
        0
176
     1
290
     0
176
     1
 90
       13
176
     1
 40
0.0
176
     1
 90
        0
176
     1
290
     0
176
     1
290
     1
176
     1
290
     1
176
     1
290
     0
176
     1
290
     0
176
     1
290
     0
176
     1
290
     0
176
     1
290
     0
176
     1
290
     0
176
     1
 90
       50
176
     1
 40
0.0
176
     1
 40
1.0
176
     1
 90
        0
176
     1
 62
    18
420
        0
176
     1
 90
       50
176
     1
 90
        3
176
     1
 62
     5
420
      255
176
     1
290
     0
176
     1
 90
       50
176
     1
 90
       50
176
     1
 90
       50
176
     1
290
     0
176
     1
 90
       50
176
     1
 62
   256
176
     0
 40
1.0
176
     0
 90
        2
176
     1
  1
strokes_ogs.tif
176
     1
290
     0
176
     1
 40
1.0
176
     1
 40
1.0
176
     1
  0
VISUALSTYLE
  5
31
102
{ACAD_REACTORS
330
29
102
}
330
29
100
AcDbVisualStyle
  2
Hidden
 70
     6
177
     3
291
     0
 70
    58
 90
        1
176
     1
 90
        2
176
     1
 90
        2
176
     1
 90
        0
176
     1
 40
0.6
176
     1
 40
30.0
176
     1
 62
     7
420
 16777215
176
     1
 90
        2
176
     1
 90
        2
176
     1
 62
     7
176
     1
 62
   257
176
     1
 90
        2
176
     1
 90
        1
176
     1
 40
40.0
176
     1
 90
        0
176
     1
 62
   257
176
     1
 40
1.0
176
     1
 90
        1
176
     1
 90
        6
176
     1
 90
        2
176
     1
 62
     7
176
     1
 90
        3
176
     1
 90
        0
176
     1
 90
        0
176
     1
290
     0
176
     1
 90
        1
176
     1
 40
0.0
176
     1
 90
        0
176
     1
290
     0
176
     1
290
     1
176
     1
290
     1
176
     1
290
     0
176
     1
290
     0
176
     1
290
     0
176
     1
290
     0
176
     1
290
     0
176
     1
290
     0
176
     1
 90
       50
176
     1
 40
0.0
176
     1
 40
1.0
176
     1
 90
        0
176
     1
 62
    18
420
        0
176
     1
 90
       50
176
     1
 90
        3
176
     1
 62
     5
420
      255
176
     1
290
     0
176
     1
 90
       50
176
     1
 90
       50
176
     1
 90
       50
176
     1
290
     0
176
     1
 90
       50
176
     1
 62
   256
176
     0
 40
1.0
176
     0
 90
        2
176
     1
  1
strokes_ogs.tif
176
     1
290
     0
176
     1
 40
1.0
176
     1
 40
1.0
176
     1
  0
VISUALSTYLE
  5
3F
102
{ACAD_REACTORS
330
29
102
}
330
29
100
AcDbVisualStyle
  2
JitterOff
 70
    20
177
     3
291
     1
 70
    58
 90
        2
176
     0
 90
        2
176
     0
 90
        0
176
     0
 90
        0
176
     0
 40
0.6
176
     0
 40
30.0
176
     0
 62
     7
420
 16777215
176
     0
 90
        1
176
     0
 90
        4
176
     0
 62
     7
176
     0
 62
   257
176
     0
 90
        1
176
     0
 90
        1
176
     0
 40
1.0
176
     0
 90
       10
176
     2
 62
     7
176
     0
 40
1.0
176
     0
 90
        1
176
     0
 90
        6
176
     0
 90
        2
176
     0
 62
     7
176
     0
 90
        5
176
     0
 90
        0
176
     0
 90
        0
176
     0
290
     0
176
     0
 90
        1
176
     0
 40
0.0
176
     0
 90
        0
176
     0
290
     0
176
     0
290
     1
176
     0
290
     1
176
     0
290
     0
176
     0
290
     0
176
     0
290
     0
176
     0
290
     0
176
     0
290
     0
176
     0
290
     0
176
     0
 90
       50
176
     0
 40
0.0
176
     0
 40
1.0
176
     0
 90
        0
176
     0
 62
    18
420
        0
176
     0
 90
       50
176
     0
 90
        3
176
     0
 62
     5
420
      255
176
     0
290
     0
176
     0
 90
       50
176
     0
 90
       50
176
     0
 90
       50
176
     0
290
     0
176
     0
 90
       50
176
     0
 62
   256
176
     0
 40
1.0
176
     0
 90
        2
176
     0
  1
strokes_ogs.tif
176
     0
290
     0
176
     0
 40
1.0
176
     0
 40
1.0
176
     0
  0
VISUALSTYLE
  5
37
102
{ACAD_REACTORS
330
29
102
}
330
29
100
AcDbVisualStyle
  2
Linepattern
 70
    14
177
     3
291
     1
 70
    58
 90
        2
176
     1
 90
        2
176
     1
 90
        0
176
     1
 90
        0
176
     1
 40
0.6
176
     1
 40
30.0
176
     1
 62
     7
420
 16777215
176
     1
 90
        1
176
     1
 90
        4
176
     1
 62
     7
176
     1
 62
   257
176
     1
 90
        7
176
     1
 90
        7
176
     1
 40
1.0
176
     1
 90
        8
176
     1
 62
     7
176
     1
 40
1.0
176
     1
 90
        1
176
     1
 90
        6
176
     1
 90
        2
176
     1
 62
     7
176
     1
 90
        5
176
     1
 90
        0
176
     1
 90
        0
176
     1
290
     0
176
     1
 90
        1
176
     1
 40
0.0
176
     1
 90
        0
176
     1
290
     0
176
     1
290
     1
176
     1
290
     1
176
     1
290
     0
176
     1
290
     0
176
     1
290
     0
176
     1
290
     0
176
     1
290
     0
176
     1
290
     0
176
     1
 90
       50
176
     1
 40
0.0
176
     1
 40
1.0
176
     1
 90
        0
176
     1
 62
    18
420
        0
176
     1
 90
       50
176
     1
 90
        3
176
     1
 62
     5
420
      255
176
     1
290
     0
176
     1
 90
       50
176
     1
 90
       50
176
     1
 90
       50
176
     1
290
     0
176
     1
 90
       50
176
     1
 62
   256
176
     0
 40
1.0
176
     0
 90
        2
176
     1
  1
strokes_ogs.tif
176
     1
290
     0
176
     1
 40
1.0
176
     1
 40
1.0
176
     1
  0
VISUALSTYLE
  5
40
102
{ACAD_REACTORS
330
29
102
}
330
29
100
AcDbVisualStyle
  2
OverhangOff
 70
    21
177
     3
291
     1
 70
    58
 90
        2
176
     0
 90
        2
176
     0
 90
        0
176
     0
 90
        0
176
     0
 40
0.6
176
     0
 40
30.0
176
     0
 62
     7
420
 16777215
176
     0
 90
        1
176
     0
 90
        4
176
     0
 62
     7
176
     0
 62
   257
176
     0
 90
        1
176
     0
 90
        1
176
     0
 40
1.0
176
     0
 90
        9
176
     2
 62
     7
176
     0
 40
1.0
176
     0
 90
        1
176
     0
 90
        6
176
     0
 90
        2
176
     0
 62
     7
176
     0
 90
        5
176
     0
 90
        0
176
     0
 90
        0
176
     0
290
     0
176
     0
 90
        1
176
     0
 40
0.0
176
     0
 90
        0
176
     0
290
     0
176
     0
290
     1
176
     0
290
     1
176
     0
290
     0
176
     0
290
     0
176
     0
290
     0
176
     0
290
     0
176
     0
290
     0
176
     0
290
     0
176
     0
 90
       50
176
     0
 40
0.0
176
     0
 40
1.0
176
     0
 90
        0
176
     0
 62
    18
420
        0
176
     0
 90
       50
176
     0
 90
        3
176
     0
 62
     5
420
      255
176
     0
290
     0
176
     0
 90
       50
176
     0
 90
       50
176
     0
 90
       50
176
     0
290
     0
176
     0
 90
       50
176
     0
 62
   256
176
     0
 40
1.0
176
     0
 90
        2
176
     0
  1
strokes_ogs.tif
176
     0
290
     0
176
     0
 40
1.0
176
     0
 40
1.0
176
     0
  0
VISUALSTYLE
  5
33
102
{ACAD_REACTORS
330
29
102
}
330
29
100
AcDbVisualStyle
  2
Realistic
 70
     8
177
     3
291
     0
 70
    58
 90
        2
176
     1
 90
        3
176
     1
 90
        0
176
     1
 90
        2
176
     1
 40
0.6
176
     1
 40
30.0
176
     1
 62
     7
420
 16777215
176
     1
 90
        0
176
     1
 90
        0
176
     1
 62
     7
176
     1
 62
   257
176
     1
 90
        1
176
     1
 90
        1
176
     1
 40
1.0
176
     1
 90
        8
176
     1
 62
   257
176
     1
 40
1.0
176
     1
 90
        1
176
     1
 90
        6
176
     1
 90
        2
176
     1
 62
     7
176
     1
 90
        3
176
     1
 90
        0
176
     1
 90
        0
176
     1
290
     0
176
     1
 90
       13
176
     1
 40
0.0
176
     1
 90
        0
176
     1
290
     0
176
     1
290
     1
176
     1
290
     1
176
     1
290
     0
176
     1
290
     0
176
     1
290
     0
176
     1
290
     0
176
     1
290
     0
176
     1
290
     0
176
     1
 90
       50
176
     1
 40
0.0
176
     1
 40
1.0
176
     1
 90
        0
176
     1
 62
    18
420
        0
176
     1
 90
       50
176
     1
 90
        3
176
     1
 62
     5
420
      255
176
     1
290
     0
176
     1
 90
       50
176
     1
 90
       50
176
     1
 90
       50
176
     1
290
     0
176
     1
 90
       50
176
     1
 62
   256
176
     0
 40
1.0
176
     0
 90
        2
176
     1
  1
strokes_ogs.tif
176
     1
290
     0
176
     1
 40
1.0
176
     1
 40
1.0
176
     1
  0
VISUALSTYLE
  5
3E
102
{ACAD_REACTORS
330
29
102
}
330
29
100
AcDbVisualStyle
  2
Shaded
 70
    27
177
     3
291
     0
 70
    58
 90
        2
176
     1
 90
        2
176
     1
 90
        1
176
     1
 90
        2
176
     1
 40
0.6
176
     1
 40
30.0
176
     1
 62
     7
420
 16777215
176
     1
 90
        0
176
     1
 90
        4
176
     1
 62
     7
176
     1
 62
   257
176
     1
 90
        1
176
     1
 90
        1
176
     1
 40
1.0
176
     1
 90
        8
176
     1
 62
   257
176
     1
 40
1.0
176
     1
 90
        1
176
     1
 90
        6
176
     1
 90
        2
176
     1
 62
     8
420
  7895160
176
     1
 90
        3
176
     1
 90
        0
176
     1
 90
        0
176
     1
290
     0
176
     1
 90
        5
176
     1
 40
0.0
176
     1
 90
        0
176
     1
290
     0
176
     1
290
     1
176
     1
290
     1
176
     1
290
     0
176
     1
290
     0
176
     1
290
     0
176
     1
290
     0
176
     1
290
     0
176
     1
290
     0
176
     1
 90
       50
176
     1
 40
0.0
176
     1
 40
1.0
176
     1
 90
        0
176
     1
 62
    18
420
        0
176
     1
 90
       50
176
     1
 90
        3
176
     1
 62
     5
420
      255
176
     1
290
     0
176
     1
 90
       50
176
     1
 90
       50
176
     1
 90
       50
176
     1
290
     0
176
     1
 90
       50
176
     1
 62
   256
176
     0
 40
1.0
176
     0
 90
        2
176
     1
  1
strokes_ogs.tif
176
     1
290
     0
176
     1
 40
1.0
176
     1
 40
1.0
176
     1
  0
VISUALSTYLE
  5
3D
102
{ACAD_REACTORS
330
29
102
}
330
29
100
AcDbVisualStyle
  2
Shaded with edges
 70
    26
177
     3
291
     0
 70
    58
 90
        2
176
     1
 90
        2
176
     1
 90
        1
176
     1
 90
        2
176
     1
 40
0.6
176
     1
 40
30.0
176
     1
 62
     7
420
 16777215
176
     1
 90
        1
176
     1
 90
        2
176
     1
 62
     7
176
     1
 62
   257
176
     1
 90
        2
176
     1
 90
        1
176
     1
 40
1.0
176
     1
 90
        8
176
     1
 62
   257
176
     1
 40
1.0
176
     1
 90
        1
176
     1
 90
        6
176
     1
 90
        2
176
     1
 62
     7
176
     1
 90
        3
176
     1
 90
        0
176
     1
 90
        0
176
     1
290
     0
176
     1
 90
        5
176
     1
 40
0.0
176
     1
 90
        0
176
     1
290
     0
176
     1
290
     1
176
     1
290
     1
176
     1
290
     0
176
     1
290
     0
176
     1
290
     0
176
     1
290
     0
176
     1
290
     0
176
     1
290
     0
176
     1
 90
       50
176
     1
 40
0.0
176
     1
 40
1.0
176
     1
 90
        0
176
     1
 62
    18
420
        0
176
     1
 90
       50
176
     1
 90
        3
176
     1
 62
     5
420
      255
176
     1
290
     0
176
     1
 90
       50
176
     1
 90
       50
176
     1
 90
       50
176
     1
290
     0
176
     1
 90
       50
176
     1
 62
   256
176
     0
 40
1.0
176
     0
 90
        2
176
     1
  1
strokes_ogs.tif
176
     1
290
     0
176
     1
 40
1.0
176
     1
 40
1.0
176
     1
  0
VISUALSTYLE
  5
3A
102
{ACAD_REACTORS
330
29
102
}
330
29
100
AcDbVisualStyle
  2
Shades of Gray
 70
    23
177
     3
291
     0
 70
    58
 90
        2
176
     1
 90
        2
176
     1
 90
        3
176
     1
 90
        0
176
     1
 40
0.6
176
     1
 40
30.0
176
     1
 62
     7
420
 16777215
176
     1
 90
        2
176
     1
 90
        2
176
     1
 62
     7
176
     1
 62
     7
176
     1
 90
        1
176
     1
 90
        1
176
     1
 40
40.0
176
     1
 90
        8
176
     1
 62
     7
176
     1
 40
1.0
176
     1
 90
        1
176
     1
 90
        6
176
     1
 90
        2
176
     1
 62
     7
176
     1
 90
        3
176
     1
 90
        0
176
     1
 90
        0
176
     1
290
     0
176
     1
 90
        1
176
     1
 40
0.0
176
     1
 90
        0
176
     1
290
     0
176
     1
290
     1
176
     1
290
     1
176
     1
290
     0
176
     1
290
     0
176
     1
290
     0
176
     1
290
     0
176
     1
290
     0
176
     1
290
     0
176
     1
 90
       50
176
     1
 40
0.0
176
     1
 40
1.0
176
     1
 90
        0
176
     1
 62
    18
420
        0
176
     1
 90
       50
176
     1
 90
        3
176
     1
 62
     5
420
      255
176
     1
290
     0
176
     1
 90
       50
176
     1
 90
       50
176
     1
 90
       50
176
     1
290
     0
176
     1
 90
       50
176
     1
 62
   256
176
     0
 40
1.0
176
     0
 90
        2
176
     1
  1
strokes_ogs.tif
176
     1
290
     0
176
     1
 40
1.0
176
     1
 40
1.0
176
     1
  0
VISUALSTYLE
  5
3B
102
{ACAD_REACTORS
330
29
102
}
330
29
100
AcDbVisualStyle
  2
Sketchy
 70
    24
177
     3
291
     0
 70
    58
 90
        1
176
     1
 90
        2
176
     1
 90
        2
176
     1
 90
        0
176
     1
 40
0.6
176
     1
 40
30.0
176
     1
 62
     7
420
 16777215
176
     1
 90
        2
176
     1
 90
        2
176
     1
 62
     7
176
     1
 62
     7
176
     1
 90
        1
176
     1
 90
        1
176
     1
 40
40.0
176
     1
 90
       11
176
     1
 62
     7
176
     1
 40
1.0
176
     1
 90
        1
176
     1
 90
        6
176
     1
 90
        2
176
     1
 62
     7
176
     1
 90
        6
176
     1
 90
        0
176
     1
 90
        0
176
     1
290
     0
176
     1
 90
        1
176
     1
 40
0.0
176
     1
 90
        0
176
     1
290
     0
176
     1
290
     1
176
     1
290
     1
176
     1
290
     0
176
     1
290
     0
176
     1
290
     0
176
     1
290
     0
176
     1
290
     0
176
     1
290
     0
176
     1
 90
       50
176
     1
 40
0.0
176
     1
 40
1.0
176
     1
 90
        0
176
     1
 62
    18
420
        0
176
     1
 90
       50
176
     1
 90
        3
176
     1
 62
     5
420
      255
176
     1
290
     0
176
     1
 90
       50
176
     1
 90
       50
176
     1
 90
       50
176
     1
290
     0
176
     1
 90
       50
176
     1
 62
   256
176
     0
 40
1.0
176
     0
 90
        2
176
     1
  1
strokes_ogs.tif
176
     1
290
     0
176
     1
 40
1.0
176
     1
 40
1.0
176
     1
  0
VISUALSTYLE
  5
36
102
{ACAD_REACTORS
330
29
102
}
330
29
100
AcDbVisualStyle
  2
Thicken
 70
    13
177
     3
291
     1
 70
    58
 90
        2
176
     1
 90
        2
176
     1
 90
        0
176
     1
 90
        0
176
     1
 40
0.6
176
     1
 40
30.0
176
     1
 62
     7
420
 16777215
176
     1
 90
        1
176
     1
 90
        4
176
     1
 62
     7
176
     1
 62
   257
176
     1
 90
        1
176
     1
 90
        1
176
     1
 40
1.0
176
     1
 90
       12
176
     1
 62
     7
176
     1
 40
1.0
176
     1
 90
        1
176
     1
 90
        6
176
     1
 90
        2
176
     1
 62
     7
176
     1
 90
        5
176
     1
 90
        0
176
     1
 90
        0
176
     1
290
     0
176
     1
 90
        1
176
     1
 40
0.0
176
     1
 90
        0
176
     1
290
     0
176
     1
290
     1
176
     1
290
     1
176
     1
290
     0
176
     1
290
     0
176
     1
290
     0
176
     1
290
     0
176
     1
290
     0
176
     1
290
     0
176
     1
 90
       50
176
     1
 40
0.0
176
     1
 40
1.0
176
     1
 90
        0
176
     1
 62
    18
420
        0
176
     1
 90
       50
176
     1
 90
        3
176
     1
 62
     5
420
      255
176
     1
290
     0
176
     1
 90
       50
176
     1
 90
       50
176
     1
 90
       50
176
     1
290
     0
176
     1
 90
       50
176
     1
 62
   256
176
     0
 40
1.0
176
     0
 90
        2
176
     1
  1
strokes_ogs.tif
176
     1
290
     0
176
     1
 40
1.0
176
     1
 40
1.0
176
     1
  0
VISUALSTYLE
  5
30
102
{ACAD_REACTORS
330
29
102
}
330
29
100
AcDbVisualStyle
  2
Wireframe
 70
     5
177
     3
291
     0
 70
    58
 90
        0
176
     1
 90
        2
176
     1
 90
        0
176
     1
 90
        0
176
     1
 40
0.6
176
     1
 40
30.0
176
     1
 62
     7
420
 16777215
176
     1
 90
        1
176
     1
 90
        4
176
     1
 62
     7
176
     1
 62
   257
176
     1
 90
        1
176
     1
 90
        1
176
     1
 40
1.0
176
     1
 90
        0
176
     1
 62
   257
176
     1
 40
1.0
176
     1
 90
        1
176
     1
 90
        6
176
     1
 90
        2
176
     1
 62
     7
176
     1
 90
        3
176
     1
 90
        0
176
     1
 90
        0
176
     1
290
     0
176
     1
 90
        1
176
     1
 40
0.0
176
     1
 90
        0
176
     1
290
     0
176
     1
290
     1
176
     1
290
     1
176
     1
290
     0
176
     1
290
     0
176
     1
290
     0
176
     1
290
     0
176
     1
290
     0
176
     1
290
     0
176
     1
 90
       50
176
     1
 40
0.0
176
     1
 40
1.0
176
     1
 90
        0
176
     1
 62
    18
420
        0
176
     1
 90
       50
176
     1
 90
        3
176
     1
 62
     5
420
      255
176
     1
290
     0
176
     1
 90
       50
176
     1
 90
       50
176
     1
 90
       50
176
     1
290
     0
176
     1
 90
       50
176
     1
 62
   256
176
     0
 40
1.0
176
     0
 90
        2
176
     1
  1
strokes_ogs.tif
176
     1
290
     0
176
     1
 40
1.0
176
     1
 40
1.0
176
     1
  0
VISUALSTYLE
  5
3C
102
{ACAD_REACTORS
330
29
102
}
330
29
100
AcDbVisualStyle
  2
X-Ray
 70
    25
177
     3
291
     0
 70
    58
 90
        2
176
     1
 90
        2
176
     1
 90
        1
176
     1
 90
        1
176
     1
 40
0.5
176
     1
 40
30.0
176
     1
 62
     7
420
 16777215
176
     1
 90
        1
176
     1
 90
        0
176
     1
 62
     7
176
     1
 62
   257
176
     1
 90
        1
176
     1
 90
        1
176
     1
 40
1.0
176
     1
 90
        8
176
     1
 62
     7
176
     1
 40
1.0
176
     1
 90
        1
176
     1
 90
        6
176
     1
 90
        2
176
     1
 62
     7
176
     1
 90
        3
176
     1
 90
        0
176
     1
 90
        0
176
     1
290
     0
176
     1
 90
       13
176
     1
 40
0.0
176
     1
 90
        0
176
     1
290
     0
176
     1
290
     1
176
     1
290
     1
176
     1
290
     0
176
     1
290
     0
176
     1
290
     0
176
     1
290
     0
176
     1
290
     0
176
     1
290
     0
176
     1
 90
       50
176
     1
 40
0.0
176
     1
 40
1.0
176
     1
 90
        0
176
     1
 62
    18
420
        0
176
     1
 90
       50
176
     1
 90
        3
176
     1
 62
     5
420
      255
176
     1
290
     0
176
     1
 90
       50
176
     1
 90
       50
176
     1
 90
       50
176
     1
290
     0
176
     1
 90
       50
176
     1
 62
   256
176
     0
 40
1.0
176
     0
 90
        2
176
     1
  1
strokes_ogs.tif
176
     1
290
     0
176
     1
 40
1.0
176
     1
 40
1.0
176
     1
  0
DICTIONARYVAR
  5
1CD
102
{ACAD_REACTORS
330
1C8
102
}
330
1C8
100
DictionaryVariables
280
     0
  1
1:1
  0
DICTIONARYVAR
  5
1CA
102
{ACAD_REACTORS
330
1C8
102
}
330
1C8
100
DictionaryVariables
280
     0
  1
STANDARD
  0
DICTIONARYVAR
  5
1C9
102
{ACAD_REACTORS
330
1C8
102
}
330
1C8
100
DictionaryVariables
280
     0
  1
STANDARD
  0
DICTIONARYVAR
  5
1CB
102
{ACAD_REACTORS
330
1C8
102
}
330
1C8
100
DictionaryVariables
280
     0
  1
Imperial24
  0
DICTIONARYVAR
  5
1CC
102
{ACAD_REACTORS
330
1C8
102
}
330
1C8
100
DictionaryVariables
280
     0
  1
Imperial24
  0
DICTIONARY
  5
1A
330
19
100
AcDbDictionary
280
     1
281
     1
  3
BUMPTILE
360
1C
  3
DIFFUSETILE
360
1B
  3
OPACITYTILE
360
1F
  3
REFLECTIONTILE
360
1E
  3
REFRACTIONTILE
360
20
  3
SPECULARTILE
360
1D
  0
DICTIONARY
  5
12
330
11
100
AcDbDictionary
280
     1
281
     1
  3
BUMPTILE
360
14
  3
DIFFUSETILE
360
13
  3
OPACITYTILE
360
17
  3
REFLECTIONTILE
360
16
  3
REFRACTIONTILE
360
18
  3
SPECULARTILE
360
15
  0
DICTIONARY
  5
22
330
21
100
AcDbDictionary
280
     1
281
     1
  3
BUMPTILE
360
24
  3
DIFFUSETILE
360
23
  3
OPACITYTILE
360
27
  3
REFLECTIONTILE
360
26
  3
REFRACTIONTILE
360
28
  3
SPECULARTILE
360
25
  0
DICTIONARY
  5
1CE
330
65
100
AcDbDictionary
280
     1
281
     1
  3
ACAD_ROUNDTRIP_2008_TABLESTYLE_CELLSTYLEMAP
360
1CF
  0
XRECORD
  5
1C
102
{ACAD_REACTORS
330
1A
102
}
330
1A
100
AcDbXrecord
280
     1
270
     1
271
     1
  0
XRECORD
  5
1B
102
{ACAD_REACTORS
330
1A
102
}
330
1A
100
AcDbXrecord
280
     1
270
     1
271
     1
  0
XRECORD
  5
1F
102
{ACAD_REACTORS
330
1A
102
}
330
1A
100
AcDbXrecord
280
     1
270
     1
271
     1
  0
XRECORD
  5
1E
102
{ACAD_REACTORS
330
1A
102
}
330
1A
100
AcDbXrecord
280
     1
270
     1
271
     1
  0
XRECORD
  5
20
102
{ACAD_REACTORS
330
1A
102
}
330
1A
100
AcDbXrecord
280
     1
270
     1
271
     1
  0
XRECORD
  5
1D
102
{ACAD_REACTORS
330
1A
102
}
330
1A
100
AcDbXrecord
280
     1
270
     1
271
     1
  0
XRECORD
  5
14
102
{ACAD_REACTORS
330
12
102
}
330
12
100
AcDbXrecord
280
     1
270
     1
271
     1
  0
XRECORD
  5
13
102
{ACAD_REACTORS
330
12
102
}
330
12
100
AcDbXrecord
280
     1
270
     1
271
     1
  0
XRECORD
  5
17
102
{ACAD_REACTORS
330
12
102
}
330
12
100
AcDbXrecord
280
     1
270
     1
271
     1
  0
XRECORD
  5
16
102
{ACAD_REACTORS
330
12
102
}
330
12
100
AcDbXrecord
280
     1
270
     1
271
     1
  0
XRECORD
  5
18
102
{ACAD_REACTORS
330
12
102
}
330
12
100
AcDbXrecord
280
     1
270
     1
271
     1
  0
XRECORD
  5
15
102
{ACAD_REACTORS
330
12
102
}
330
12
100
AcDbXrecord
280
     1
270
     1
271
     1
  0
XRECORD
  5
24
102
{ACAD_REACTORS
330
22
102
}
330
22
100
AcDbXrecord
280
     1
270
     1
271
     1
  0
XRECORD
  5
23
102
{ACAD_REACTORS
330
22
102
}
330
22
100
AcDbXrecord
280
     1
270
     1
271
     1
  0
XRECORD
  5
27
102
{ACAD_REACTORS
330
22
102
}
330
22
100
AcDbXrecord
280
     1
270
     1
271
     1
  0
XRECORD
  5
26
102
{ACAD_REACTORS
330
22
102
}
330
22
100
AcDbXrecord
280
     1
270
     1
271
     1
  0
XRECORD
  5
28
102
{ACAD_REACTORS
330
22
102
}
330
22
100
AcDbXrecord
280
     1
270
     1
271
     1
  0
XRECORD
  5
25
102
{ACAD_REACTORS
330
22
102
}
330
22
100
AcDbXrecord
280
     1
270
     1
271
     1
  0
CELLSTYLEMAP
  5
1CF
102
{ACAD_REACTORS
330
1CE
102
}
330
1CE
100
AcDbCellStyleMap
 90
        3
300
CELLSTYLE
  1
TABLEFORMAT_BEGIN
 90
        5
170
     1
 91
        0
 92
    32768
 62
   257
 93
        1
300
CONTENTFORMAT
  1
CONTENTFORMAT_BEGIN
 90
        0
 91
        0
 92
      512
 93
        0
300

 40
0.0
140
1.0
 94
        5
 62
     0
340
55
144
0.25
309
CONTENTFORMAT_END
171
     0
 94
        0
309
TABLEFORMAT_END
  1
CELLSTYLE_BEGIN
 90
        1
 91
        1
300
_TITLE
309
CELLSTYLE_END
300
CELLSTYLE
  1
TABLEFORMAT_BEGIN
 90
        5
170
     1
 91
        0
 92
        0
 62
   257
 93
        1
300
CONTENTFORMAT
  1
CONTENTFORMAT_BEGIN
 90
        0
 91
        0
 92
      512
 93
        0
300

 40
0.0
140
1.0
 94
        5
 62
     0
340
55
144
0.18
309
CONTENTFORMAT_END
171
     0
 94
        0
309
TABLEFORMAT_END
  1
CELLSTYLE_BEGIN
 90
        2
 91
        1
300
_HEADER
309
CELLSTYLE_END
300
CELLSTYLE
  1
TABLEFORMAT_BEGIN
 90
        5
170
     1
 91
        0
 92
        0
 62
   257
 93
        1
300
CONTENTFORMAT
  1
CONTENTFORMAT_BEGIN
 90
        0
 91
        0
 92
      512
 93
        0
300

 40
0.0
140
1.0
 94
        2
 62
     0
340
55
144
0.18
309
CONTENTFORMAT_END
171
     0
 94
        0
309
TABLEFORMAT_END
  1
CELLSTYLE_BEGIN
 90
        3
 91
        2
300
_DATA
309
CELLSTYLE_END
  0
ENDSEC
  0
EOF
