  0
SECTION
  2
HEADER
  9
$ACADVER
  1
AC1032
  9
$ACADMAINTVER
 90
      251
  9
$DWGCODEPAGE
  3
ANSI_1252
  9
$REQUIREDVERSIONS
160
                 0
  9
$INSBASE
 10
0.0
 20
0.0
 30
0.0
  9
$EXTMIN
 10
1.000000000000000E+20
 20
1.000000000000000E+20
 30
1.000000000000000E+20
  9
$EXTMAX
 10
-1.000000000000000E+20
 20
-1.000000000000000E+20
 30
-1.000000000000000E+20
  9
$LIMMIN
 10
0.0
 20
0.0
  9
$LIMMAX
 10
12.0
 20
9.0
  9
$ORTHOMODE
 70
     0
  9
$REGENMODE
 70
     1
  9
$FILLMODE
 70
     1
  9
$QTEXTMODE
 70
     0
  9
$MIRRTEXT
 70
     0
  9
$LTSCALE
 40
1.0
  9
$ATTMODE
 70
     1
  9
$TEXTSIZE
 40
0.2
  9
$TRACEWID
 40
0.05
  9
$TEXTSTYLE
  7
Standard
  9
$CLAYER
  8
0
  9
$CELTYPE
  6
ByLayer
  9
$CECOLOR
 62
   256
  9
$CELTSCALE
 40
1.0
  9
$DISPSILH
 70
     0
  9
$DIMSCALE
 40
1.0
  9
$DIMASZ
 40
0.18
  9
$DIMEXO
 40
0.0625
  9
$DIMDLI
 40
0.38
  9
$DIMRND
 40
0.0
  9
$DIMDLE
 40
0.0
  9
$DIMEXE
 40
0.18
  9
$DIMTP
 40
0.0
  9
$DIMTM
 40
0.0
  9
$DIMTXT
 40
0.18
  9
$DIMCEN
 40
0.09
  9
$DIMTSZ
 40
0.0
  9
$DIMTOL
 70
     0
  9
$DIMLIM
 70
     0
  9
$DIMTIH
 70
     1
  9
$DIMTOH
 70
     1
  9
$DIMSE1
 70
     0
  9
$DIMSE2
 70
     0
  9
$DIMTAD
 70
     0
  9
$DIMZIN
 70
     0
  9
$DIMBLK
  1

  9
$DIMASO
 70
     1
  9
$DIMSHO
 70
     1
  9
$DIMPOST
  1

  9
$DIMAPOST
  1

  9
$DIMALT
 70
     0
  9
$DIMALTD
 70
     2
  9
$DIMALTF
 40
25.4
  9
$DIMLFAC
 40
1.0
  9
$DIMTOFL
 70
     0
  9
$DIMTVP
 40
0.0
  9
$DIMTIX
 70
     0
  9
$DIMSOXD
 70
     0
  9
$DIMSAH
 70
     0
  9
$DIMBLK1
  1

  9
$DIMBLK2
  1

  9
$DIMSTYLE
  2
Standard
  9
$DIMCLRD
 70
     0
  9
$DIMCLRE
 70
     0
  9
$DIMCLRT
 70
     0
  9
$DIMTFAC
 40
1.0
  9
$DIMGAP
 40
0.09
  9
$DIMJUST
 70
     0
  9
$DIMSD1
 70
     0
  9
$DIMSD2
 70
     0
  9
$DIMTOLJ
 70
     1
  9
$DIMTZIN
 70
     0
  9
$DIMALTZ
 70
     0
  9
$DIMALTTZ
 70
     0
  9
$DIMUPT
 70
     0
  9
$DIMDEC
 70
     4
  9
$DIMTDEC
 70
     4
  9
$DIMALTU
 70
     2
  9
$DIMALTTD
 70
     2
  9
$DIMTXSTY
  7
Standard
  9
$DIMAUNIT
 70
     0
  9
$DIMADEC
 70
     0
  9
$DIMALTRND
 40
0.0
  9
$DIMAZIN
 70
     0
  9
$DIMDSEP
 70
    46
  9
$DIMATFIT
 70
     3
  9
$DIMFRAC
 70
     0
  9
$DIMLDRBLK
  1

  9
$DIMLUNIT
 70
     2
  9
$DIMLWD
 70
    -2
  9
$DIMLWE
 70
    -2
  9
$DIMTMOVE
 70
     0
  9
$DIMFXL
 40
1.0
  9
$DIMFXLON
 70
     0
  9
$DIMJOGANG
 40
0.7853981633974483
  9
$DIMTFILL
 70
     0
  9
$DIMTFILLCLR
 70
     0
  9
$DIMARCSYM
 70
     0
  9
$DIMLTYPE
  6

  9
$DIMLTEX1
  6

  9
$DIMLTEX2
  6

  9
$DIMTXTDIRECTION
 70
     0
  9
$LUNITS
 70
     2
  9
$LUPREC
 70
     4
  9
$SKETCHINC
 40
0.1
  9
$FILLETRAD
 40
0.0
  9
$AUNITS
 70
     0
  9
$AUPREC
 70
     0
  9
$MENU
  1
.
  9
$ELEVATION
 40
0.0
  9
$PELEVATION
 40
0.0
  9
$THICKNESS
 40
0.0
  9
$LIMCHECK
 70
     0
  9
$CHAMFERA
 40
0.0
  9
$CHAMFERB
 40
0.0
  9
$CHAMFERC
 40
0.0
  9
$CHAMFERD
 40
0.0
  9
$SKPOLY
 70
     0
  9
$TDCREATE
 40
2460035.506331019
  9
$TDUCREATE
 40
2460035.422997685
  9
$TDUPDATE
 40
2460035.506331019
  9
$TDUUPDATE
 40
2460035.422997685
  9
$TDINDWG
 40
0.0000115741
  9
$TDUSRTIMER
 40
0.0000115741
  9
$USRTIMER
 70
     1
  9
$ANGBASE
 50
0.0
  9
$ANGDIR
 70
     0
  9
$PDMODE
 70
     0
  9
$PDSIZE
 40
0.0
  9
$PLINEWID
 40
0.0
  9
$SPLFRAME
 70
     0
  9
$SPLINETYPE
 70
     6
  9
$SPLINESEGS
 70
     8
  9
$HANDSEED
  5
1F3
  9
$SURFTAB1
 70
     6
  9
$SURFTAB2
 70
     6
  9
$SURFTYPE
 70
     6
  9
$SURFU
 70
     6
  9
$SURFV
 70
     6
  9
$UCSBASE
  2

  9
$UCSNAME
  2

  9
$UCSORG
 10
0.0
 20
0.0
 30
0.0
  9
$UCSXDIR
 10
1.0
 20
0.0
 30
0.0
  9
$UCSYDIR
 10
0.0
 20
1.0
 30
0.0
  9
$UCSORTHOREF
  2

  9
$UCSORTHOVIEW
 70
     0
  9
$UCSORGTOP
 10
0.0
 20
0.0
 30
0.0
  9
$UCSORGBOTTOM
 10
0.0
 20
0.0
 30
0.0
  9
$UCSORGLEFT
 10
0.0
 20
0.0
 30
0.0
  9
$UCSORGRIGHT
 10
0.0
 20
0.0
 30
0.0
  9
$UCSORGFRONT
 10
0.0
 20
0.0
 30
0.0
  9
$UCSORGBACK
 10
0.0
 20
0.0
 30
0.0
  9
$PUCSBASE
  2

  9
$PUCSNAME
  2

  9
$PUCSORG
 10
0.0
 20
0.0
 30
0.0
  9
$PUCSXDIR
 10
1.0
 20
0.0
 30
0.0
  9
$PUCSYDIR
 10
0.0
 20
1.0
 30
0.0
  9
$PUCSORTHOREF
  2

  9
$PUCSORTHOVIEW
 70
     0
  9
$PUCSORGTOP
 10
0.0
 20
0.0
 30
0.0
  9
$PUCSORGBOTTOM
 10
0.0
 20
0.0
 30
0.0
  9
$PUCSORGLEFT
 10
0.0
 20
0.0
 30
0.0
  9
$PUCSORGRIGHT
 10
0.0
 20
0.0
 30
0.0
  9
$PUCSORGFRONT
 10
0.0
 20
0.0
 30
0.0
  9
$PUCSORGBACK
 10
0.0
 20
0.0
 30
0.0
  9
$USERI1
 70
     0
  9
$USERI2
 70
     0
  9
$USERI3
 70
     0
  9
$USERI4
 70
     0
  9
$USERI5
 70
     0
  9
$USERR1
 40
0.0
  9
$USERR2
 40
0.0
  9
$USERR3
 40
0.0
  9
$USERR4
 40
0.0
  9
$USERR5
 40
0.0
  9
$WORLDVIEW
 70
     1
  9
$SHADEDGE
 70
     3
  9
$SHADEDIF
 70
    70
  9
$TILEMODE
 70
     1
  9
$MAXACTVP
 70
    64
  9
$PINSBASE
 10
0.0
 20
0.0
 30
0.0
  9
$PLIMCHECK
 70
     0
  9
$PEXTMIN
 10
1.000000000000000E+20
 20
1.000000000000000E+20
 30
1.000000000000000E+20
  9
$PEXTMAX
 10
-1.000000000000000E+20
 20
-1.000000000000000E+20
 30
-1.000000000000000E+20
  9
$PLIMMIN
 10
0.0
 20
0.0
  9
$PLIMMAX
 10
12.0
 20
9.0
  9
$UNITMODE
 70
     0
  9
$VISRETAIN
 70
     1
  9
$PLINEGEN
 70
     0
  9
$PSLTSCALE
 70
     1
  9
$TREEDEPTH
 70
  3020
  9
$CMLSTYLE
  2
Standard
  9
$CMLJUST
 70
     0
  9
$CMLSCALE
 40
1.0
  9
$PROXYGRAPHICS
 70
     1
  9
$MEASUREMENT
 70
     0
  9
$CELWEIGHT
370
    -1
  9
$ENDCAPS
280
     0
  9
$JOINSTYLE
280
     0
  9
$LWDISPLAY
290
     1
  9
$INSUNITS
 70
     4
  9
$HYPERLINKBASE
  1

  9
$STYLESHEET
  1

  9
$XEDIT
290
     1
  9
$CEPSNTYPE
380
     0
  9
$PSTYLEMODE
290
     1
  9
$FINGERPRINTGUID
  2
{8E218236-E916-A542-9747-40B93DE18461}
  9
$VERSIONGUID
  2
{303FA56D-E0E3-CA40-B556-BCB0F5BF618C}
  9
$EXTNAMES
290
     1
  9
$PSVPSCALE
 40
0.0
  9
$OLESTARTUP
290
     0
  9
$SORTENTS
280
   127
  9
$INDEXCTL
280
     0
  9
$HIDETEXT
280
     1
  9
$XCLIPFRAME
280
     2
  9
$HALOGAP
280
     0
  9
$OBSCOLOR
 70
   257
  9
$OBSLTYPE
280
     0
  9
$INTERSECTIONDISPLAY
280
     0
  9
$INTERSECTIONCOLOR
 70
   257
  9
$DIMASSOC
280
     2
  9
$PROJECTNAME
  1

  9
$CAMERADISPLAY
290
     0
  9
$LENSLENGTH
 40
50.0
  9
$CAMERAHEIGHT
 40
0.0
  9
$STEPSPERSEC
 40
2.0
  9
$STEPSIZE
 40
6.0
  9
$3DDWFPREC
 40
2.0
  9
$PSOLWIDTH
 40
0.25
  9
$PSOLHEIGHT
 40
4.0
  9
$LOFTANG1
 40
1.570796326794896
  9
$LOFTANG2
 40
1.570796326794896
  9
$LOFTMAG1
 40
0.0
  9
$LOFTMAG2
 40
0.0
  9
$LOFTPARAM
 70
     7
  9
$LOFTNORMALS
280
     1
  9
$LATITUDE
 40
37.795
  9
$LONGITUDE
 40
-122.394
  9
$NORTHDIRECTION
 40
0.0
  9
$TIMEZONE
 70
 -8000
  9
$LIGHTGLYPHDISPLAY
280
     1
  9
$TILEMODELIGHTSYNCH
280
     1
  9
$CMATERIAL
347
11
  9
$SOLIDHIST
280
     0
  9
$SHOWHIST
280
     1
  9
$DWFFRAME
280
     2
  9
$DGNFRAME
280
     0
  9
$REALWORLDSCALE
290
     1
  9
$INTERFERECOLOR
 62
     1
  9
$INTERFEREOBJVS
345
33
  9
$INTERFEREVPVS
346
30
  9
$CSHADOW
280
     0
  9
$SHADOWPLANELOCATION
 40
0.0
  0
ENDSEC
  0
SECTION
  2
CLASSES
  0
CLASS
  1
ACDBDICTIONARYWDFLT
  2
AcDbDictionaryWithDefault
  3
ObjectDBX Classes
 90
        0
 91
        1
280
     0
281
     0
  0
CLASS
  1
MATERIAL
  2
AcDbMaterial
  3
ObjectDBX Classes
 90
     1153
 91
        3
280
     0
281
     0
  0
CLASS
  1
VISUALSTYLE
  2
AcDbVisualStyle
  3
ObjectDBX Classes
 90
     4095
 91
       24
280
     0
281
     0
  0
CLASS
  1
SCALE
  2
AcDbScale
  3
ObjectDBX Classes
 90
     1153
 91
       17
280
     0
281
     0
  0
CLASS
  1
TABLESTYLE
  2
AcDbTableStyle
  3
ObjectDBX Classes
 90
     4095
 91
        1
280
     0
281
     0
  0
CLASS
  1
MLEADERSTYLE
  2
AcDbMLeaderStyle
  3
ACDB_MLEADERSTYLE_CLASS
 90
     4095
 91
        1
280
     0
281
     0
  0
CLASS
  1
ACDBSECTIONVIEWSTYLE
  2
AcDbSectionViewStyle
  3
ObjectDBX Classes
 90
     1025
 91
        1
280
     0
281
     0
  0
CLASS
  1
ACDBDETAILVIEWSTYLE
  2
AcDbDetailViewStyle
  3
ObjectDBX Classes
 90
     1025
 91
        1
280
     0
281
     0
  0
CLASS
  1
DICTIONARYVAR
  2
AcDbDictionaryVar
  3
ObjectDBX Classes
 90
        0
 91
        5
280
     0
281
     0
  0
CLASS
  1
CELLSTYLEMAP
  2
AcDbCellStyleMap
  3
ObjectDBX Classes
 90
     1152
 91
        1
280
     0
281
     0
  0
ENDSEC
  0
SECTION
  2
TABLES
  0
TABLE
  2
VPORT
  5
8
330
0
100
AcDbSymbolTable
 70
     1
  0
VPORT
  5
57
330
8
100
AcDbSymbolTableRecord
100
AcDbViewportTableRecord
  2
*Active
 70
     0
 10
0.0
 20
0.0
 11
1.0
 21
1.0
 12
0.0
 22
0.0
 13
0.0
 23
0.0
 14
1.0
 24
1.0
 15
0.0
 25
0.0
 16
0.0
 26
0.0
 36
1.0
 17
104.9999999737499
 27
31.49999999212523
 37
0.0
 40
302.9399999242649
 41
0.7070707070707066
 42
50.0
 43
0.0
 44
0.0
 50
0.0
 51
0.0
 71
     0
 72
   100
 73
     1
 74
     1
 75
     0
 76
     0
 77
     0
 78
     0
281
     0
 65
     1
110
0.0
120
0.0
130
0.0
111
1.0
121
0.0
131
0.0
112
0.0
122
1.0
132
0.0
 79
     0
146
0.0
 60
     3
 61
     5
292
     1
282
     1
141
0.0
142
0.0
 63
   250
421
  3355443
  0
ENDTAB
  0
TABLE
  2
LTYPE
  5
5
330
0
100
AcDbSymbolTable
 70
     1
  0
LTYPE
  5
5B
330
5
100
AcDbSymbolTableRecord
100
AcDbLinetypeTableRecord
  2
ByBlock
 70
     0
  3

 72
    65
 73
     0
 40
0.0
  0
LTYPE
  5
5C
330
5
100
AcDbSymbolTableRecord
100
AcDbLinetypeTableRecord
  2
ByLayer
 70
     0
  3

 72
    65
 73
     0
 40
0.0
  0
LTYPE
  5
5D
330
5
100
AcDbSymbolTableRecord
100
AcDbLinetypeTableRecord
  2
Continuous
 70
     0
  3
Solid line
 72
    65
 73
     0
 40
0.0
  0
ENDTAB
  0
TABLE
  2
LAYER
  5
2
330
0
100
AcDbSymbolTable
 70
     2
  0
LAYER
  5
54
330
2
100
AcDbSymbolTableRecord
100
AcDbLayerTableRecord
  2
0
 70
     0
 62
     7
  6
Continuous
370
     0
390
F
347
21
348
0
  0
LAYER
  5
1C4
330
2
100
AcDbSymbolTableRecord
100
AcDbLayerTableRecord
  2
CAPA_BASE
 70
     0
 62
     7
  6
Continuous
370
     0
390
F
347
21
348
0
  0
ENDTAB
  0
TABLE
  2
STYLE
  5
3
330
0
100
AcDbSymbolTable
 70
     2
  0
STYLE
  5
55
330
3
100
AcDbSymbolTableRecord
100
AcDbTextStyleTableRecord
  2
Standard
 70
     0
 40
0.0
 41
1.0
 50
0.0
 71
     0
 42
0.2
  3
txt
  4

  0
STYLE
  5
5A
330
3
100
AcDbSymbolTableRecord
100
AcDbTextStyleTableRecord
  2
Annotative
 70
     0
 40
0.0
 41
1.0
 50
0.0
 71
     0
 42
0.2
  3
txt
  4

1001
AcadAnnotative
1000
AnnotativeData
1002
{
1070
     1
1070
     1
1002
}
  0
ENDTAB
  0
TABLE
  2
VIEW
  5
6
330
0
100
AcDbSymbolTable
 70
     0
  0
ENDTAB
  0
TABLE
  2
UCS
  5
7
330
0
100
AcDbSymbolTable
 70
     0
  0
ENDTAB
  0
TABLE
  2
APPID
  5
9
330
0
100
AcDbSymbolTable
 70
     2
  0
APPID
  5
56
330
9
100
AcDbSymbolTableRecord
100
AcDbRegAppTableRecord
  2
ACAD
 70
     0
  0
APPID
  5
5E
330
9
100
AcDbSymbolTableRecord
100
AcDbRegAppTableRecord
  2
AcadAnnotative
 70
     0
  0
ENDTAB
  0
TABLE
  2
DIMSTYLE
  5
A
330
0
100
AcDbSymbolTable
 70
     2
100
AcDbDimStyleTable
 71
     0
  0
DIMSTYLE
105
58
330
A
100
AcDbSymbolTableRecord
100
AcDbDimStyleTableRecord
  2
Standard
 70
     0
340
55
  0
DIMSTYLE
105
59
330
A
100
AcDbSymbolTableRecord
100
AcDbDimStyleTableRecord
  2
Annotative
 70
     0
340
55
1001
AcadAnnotative
1000
AnnotativeData
1002
{
1070
     1
1070
     1
1002
}
  0
ENDTAB
  0
TABLE
  2
BLOCK_RECORD
  5
1
330
0
100
AcDbSymbolTable
 70
     4
  0
BLOCK_RECORD
  5
70
330
1
100
AcDbSymbolTableRecord
100
AcDbBlockTableRecord
  2
*Model_Space
340
73
 70
     0
280
     1
281
     0
  0
BLOCK_RECORD
  5
6C
330
1
100
AcDbSymbolTableRecord
100
AcDbBlockTableRecord
  2
*Paper_Space
340
6F
 70
     0
280
     1
281
     0
  0
BLOCK_RECORD
  5
74
330
1
100
AcDbSymbolTableRecord
100
AcDbBlockTableRecord
  2
*Paper_Space0
340
77
 70
     0
280
     1
281
     0
  0
BLOCK_RECORD
  5
1C5
330
1
100
AcDbSymbolTableRecord
100
AcDbBlockTableRecord
  2
Block_0
340
0
102
{BLKREFS
331
1C6
102
}
 70
     0
280
     1
281
     0
  0
BLOCK_RECORD
  5
1D2
330
1
100
AcDbSymbolTableRecord
100
AcDbBlockTableRecord
  2
Block_1
340
0
102
{BLKREFS
331
1D3
102
}
 70
     0
280
     1
281
     0
  0
BLOCK_RECORD
  5
1DE
330
1
100
AcDbSymbolTableRecord
100
AcDbBlockTableRecord
  2
Block_2
340
0
102
{BLKREFS
331
1DF
102
}
 70
     0
280
     1
281
     0
  0
ENDTAB
  0
ENDSEC
  0
SECTION
  2
BLOCKS
  0
BLOCK
  5
71
330
70
100
AcDbEntity
  8
0
100
AcDbBlockBegin
  2
*Model_Space
 70
     0
 10
0.0
 20
0.0
 30
0.0
  3
*Model_Space
  1

  0
ENDBLK
  5
72
330
70
100
AcDbEntity
  8
0
100
AcDbBlockEnd
  0
BLOCK
  5
6D
330
6C
100
AcDbEntity
 67
     1
  8
0
100
AcDbBlockBegin
  2
*Paper_Space
 70
     0
 10
0.0
 20
0.0
 30
0.0
  3
*Paper_Space
  1

  0
ENDBLK
  5
6E
330
6C
100
AcDbEntity
 67
     1
  8
0
100
AcDbBlockEnd
  0
BLOCK
  5
75
330
74
100
AcDbEntity
 67
     1
  8
0
100
AcDbBlockBegin
  2
*Paper_Space0
 70
     0
 10
0.0
 20
0.0
 30
0.0
  3
*Paper_Space0
  1

  0
ENDBLK
  5
76
330
74
100
AcDbEntity
 67
     1
  8
0
100
AcDbBlockEnd
  0
BLOCK
  5
1C7
330
1C5
100
AcDbEntity
  8
0
100
AcDbBlockBegin
  2
Block_0
 70
     0
 10
0.0
 20
0.0
 30
0.0
  3
Block_0
  1

  0
LWPOLYLINE
  5
1C9
330
1C5
100
AcDbEntity
  8
CAPA_BASE
100
AcDbPolyline
 90
        4
 70
     1
 43
0.0
 10
66.67023416768858
 20
3.416929738845874
 10
64.17023416768849
 20
3.726929738846239
 10
64.17023416768849
 20
3.106929738846152
 10
64.17023416768849
 20
3.106929738846152
  0
HATCH
  5
1CA
330
1C5
100
AcDbEntity
  8
CAPA_BASE
 62
    18
420
        0
440
 33554687
100
AcDbHatch
 10
0.0
 20
0.0
 30
0.0
210
0.0
220
0.0
230
1.0
  2
SOLID
 70
     1
 71
     1
 91
        1
 92
        1
 93
        3
 72
     1
 10
66.67023416768858
 20
3.416929738845874
 11
64.17023416768849
 21
3.726929738846239
 72
     1
 10
64.17023416768849
 20
3.726929738846239
 11
64.17023416768849
 21
3.106929738846152
 72
     1
 10
64.17023416768849
 20
3.106929738846152
 11
66.67023416768858
 21
3.416929738845874
 97
        1
330
1C9
 75
     2
 76
     1
 98
        1
 10
0.0
 20
0.0
450
        0
451
        0
460
0.0
461
0.0
452
        0
462
0.0
453
        0
470

  0
LWPOLYLINE
  5
1CB
330
1C5
100
AcDbEntity
  8
CAPA_BASE
100
AcDbPolyline
 90
        4
 70
     1
 43
0.0
 10
41.33690083438867
 20
3.416929738845874
 10
43.83690083438877
 20
3.106929738846152
 10
43.83690083438877
 20
3.726929738846239
 10
43.83690083438877
 20
3.726929738846239
  0
HATCH
  5
1CC
330
1C5
100
AcDbEntity
  8
CAPA_BASE
 62
    18
420
        0
440
 33554687
100
AcDbHatch
 10
0.0
 20
0.0
 30
0.0
210
0.0
220
0.0
230
1.0
  2
SOLID
 70
     1
 71
     1
 91
        1
 92
        1
 93
        3
 72
     1
 10
41.33690083438867
 20
3.416929738845874
 11
43.83690083438877
 21
3.106929738846152
 72
     1
 10
43.83690083438877
 20
3.106929738846152
 11
43.83690083438877
 21
3.726929738846239
 72
     1
 10
43.83690083438877
 20
3.726929738846239
 11
41.33690083438867
 21
3.416929738845874
 97
        1
330
1CB
 75
     2
 76
     1
 98
        1
 10
0.0
 20
0.0
450
        0
451
        0
460
0.0
461
0.0
452
        0
462
0.0
453
        0
470

  0
LINE
  5
1CD
330
1C5
100
AcDbEntity
  8
CAPA_BASE
 62
    18
420
        0
370
    25
100
AcDbLine
 10
66.67023416768858
 20
43.62526307214557
 30
0.0
 11
66.67023416768858
 21
2.416929738845839
 31
0.0
  0
LINE
  5
1CE
330
1C5
100
AcDbEntity
  8
CAPA_BASE
 62
    18
420
        0
370
    25
100
AcDbLine
 10
41.33690083438867
 20
43.62526307214557
 30
0.0
 11
41.33690083438867
 21
2.416929738845839
 31
0.0
  0
LINE
  5
1CF
330
1C5
100
AcDbEntity
  8
CAPA_BASE
 62
    18
420
        0
370
    25
100
AcDbLine
 10
66.67023416768858
 20
3.416929738845874
 30
0.0
 11
41.33690083438867
 21
3.416929738845874
 31
0.0
  0
MTEXT
  5
1D0
330
1C5
100
AcDbEntity
  8
CAPA_BASE
100
AcDbMText
 10
50.55350878829207
 20
4.210682165894588
 30
0.0
 40
0.2
 41
0.0
 46
0.0
 71
     7
 72
     1
  1
\C18;\c0;\FArial Bold|b1|i0|c1;\H2.997200;\W0.700000;Ø
 73
     1
 44
1.0
  0
MTEXT
  5
1D1
330
1C5
100
AcDbEntity
  8
CAPA_BASE
100
AcDbMText
 10
53.92584816326279
 20
4.210682165894588
 30
0.0
 40
0.2
 41
0.0
 46
0.0
 71
     7
 72
     1
  1
\C18;\c0;\FArial Bold|b1|i0|c1;\H2.997200;\W0.700000;76
 73
     1
 44
1.0
  0
ENDBLK
  5
1C8
330
1C5
100
AcDbEntity
  8
0
100
AcDbBlockEnd
  0
BLOCK
  5
1D4
330
1D2
100
AcDbEntity
  8
0
100
AcDbBlockBegin
  2
Block_1
 70
     0
 10
0.0
 20
0.0
 30
0.0
  3
Block_1
  1

  0
LWPOLYLINE
  5
1D6
330
1D2
100
AcDbEntity
  8
CAPA_BASE
100
AcDbPolyline
 90
        4
 70
     1
 43
0.0
 10
96.93248196478828
 20
136.750263072146
 10
96.62248196478856
 20
134.250263072146
 10
97.24248196478866
 20
134.250263072146
 10
97.24248196478866
 20
134.250263072146
  0
HATCH
  5
1D7
330
1D2
100
AcDbEntity
  8
CAPA_BASE
 62
    18
420
        0
440
 33554687
100
AcDbHatch
 10
0.0
 20
0.0
 30
0.0
210
0.0
220
0.0
230
1.0
  2
SOLID
 70
     1
 71
     1
 91
        1
 92
        1
 93
        3
 72
     1
 10
96.93248196478828
 20
136.750263072146
 11
96.62248196478856
 21
134.250263072146
 72
     1
 10
96.62248196478856
 20
134.250263072146
 11
97.24248196478866
 21
134.250263072146
 72
     1
 10
97.24248196478866
 20
134.250263072146
 11
96.93248196478828
 21
136.750263072146
 97
        1
330
1D6
 75
     2
 76
     1
 98
        1
 10
0.0
 20
0.0
450
        0
451
        0
460
0.0
461
0.0
452
        0
462
0.0
453
        0
470

  0
LWPOLYLINE
  5
1D8
330
1D2
100
AcDbEntity
  8
CAPA_BASE
100
AcDbPolyline
 90
        4
 70
     1
 43
0.0
 10
96.93248196478828
 20
13.41692973884623
 10
97.24248196478866
 20
15.91692973884599
 10
96.62248196478856
 20
15.91692973884599
 10
96.62248196478856
 20
15.91692973884599
  0
HATCH
  5
1D9
330
1D2
100
AcDbEntity
  8
CAPA_BASE
 62
    18
420
        0
440
 33554687
100
AcDbHatch
 10
0.0
 20
0.0
 30
0.0
210
0.0
220
0.0
230
1.0
  2
SOLID
 70
     1
 71
     1
 91
        1
 92
        1
 93
        3
 72
     1
 10
96.93248196478828
 20
13.41692973884623
 11
97.24248196478866
 21
15.91692973884599
 72
     1
 10
97.24248196478866
 20
15.91692973884599
 11
96.62248196478856
 21
15.91692973884599
 72
     1
 10
96.62248196478856
 20
15.91692973884599
 11
96.93248196478828
 21
13.41692973884623
 97
        1
330
1D8
 75
     2
 76
     1
 98
        1
 10
0.0
 20
0.0
450
        0
451
        0
460
0.0
461
0.0
452
        0
462
0.0
453
        0
470

  0
LINE
  5
1DA
330
1D2
100
AcDbEntity
  8
CAPA_BASE
 62
    18
420
        0
370
    25
100
AcDbLine
 10
129.5991486314882
 20
136.750263072146
 30
0.0
 11
95.93248196478889
 21
136.750263072146
 31
0.0
  0
LINE
  5
1DB
330
1D2
100
AcDbEntity
  8
CAPA_BASE
 62
    18
420
        0
370
    25
100
AcDbLine
 10
119.7609373659886
 20
13.41692973884623
 30
0.0
 11
95.93248196478889
 21
13.41692973884623
 31
0.0
  0
LINE
  5
1DC
330
1D2
100
AcDbEntity
  8
CAPA_BASE
 62
    18
420
        0
370
    25
100
AcDbLine
 10
96.93248196478828
 20
136.750263072146
 30
0.0
 11
96.93248196478828
 21
13.41692973884623
 31
0.0
  0
MTEXT
  5
1DD
330
1D2
100
AcDbEntity
  8
CAPA_BASE
100
AcDbMText
 10
96.13873771807208
 20
72.43795571105654
 30
0.0
 40
0.2
 41
0.0
 46
0.0
 71
     7
 72
     1
  1
\C18;\c0;\FArial Bold|b1|i0|c1;\H2.997200;\W0.700000;370
 11
0.0000000000000003
 21
1.0
 31
0.0
 73
     1
 44
1.0
  0
ENDBLK
  5
1D5
330
1D2
100
AcDbEntity
  8
0
100
AcDbBlockEnd
  0
BLOCK
  5
1E0
330
1DE
100
AcDbEntity
  8
0
100
AcDbBlockBegin
  2
Block_2
 70
     0
 10
0.0
 20
0.0
 30
0.0
  3
Block_2
  1

  0
LWPOLYLINE
  5
1E2
330
1DE
100
AcDbEntity
  8
CAPA_BASE
100
AcDbPolyline
 90
        4
 70
     1
 43
0.0
 10
76.69095413228844
 20
-20.16118812685382
 10
76.38095413228871
 20
-22.66118812685423
 10
77.00095413228815
 20
-22.66118812685423
 10
77.00095413228815
 20
-22.66118812685423
  0
HATCH
  5
1E3
330
1DE
100
AcDbEntity
  8
CAPA_BASE
 62
    18
420
        0
440
 33554687
100
AcDbHatch
 10
0.0
 20
0.0
 30
0.0
210
0.0
220
0.0
230
1.0
  2
SOLID
 70
     1
 71
     1
 91
        1
 92
        1
 93
        3
 72
     1
 10
76.69095413228844
 20
-20.16118812685382
 11
76.38095413228871
 21
-22.66118812685423
 72
     1
 10
76.38095413228871
 20
-22.66118812685423
 11
77.00095413228815
 21
-22.66118812685423
 72
     1
 10
77.00095413228815
 20
-22.66118812685423
 11
76.69095413228844
 21
-20.16118812685382
 97
        1
330
1E2
 75
     2
 76
     1
 98
        1
 10
0.0
 20
0.0
450
        0
451
        0
460
0.0
461
0.0
452
        0
462
0.0
453
        0
470

  0
LWPOLYLINE
  5
1E4
330
1DE
100
AcDbEntity
  8
CAPA_BASE
100
AcDbPolyline
 90
        4
 70
     1
 43
0.0
 10
76.69095413228844
 20
-56.51523507855384
 10
77.00095413228815
 20
-54.01523507855408
 10
76.38095413228871
 20
-54.01523507855408
 10
76.38095413228871
 20
-54.01523507855408
  0
HATCH
  5
1E5
330
1DE
100
AcDbEntity
  8
CAPA_BASE
 62
    18
420
        0
440
 33554687
100
AcDbHatch
 10
0.0
 20
0.0
 30
0.0
210
0.0
220
0.0
230
1.0
  2
SOLID
 70
     1
 71
     1
 91
        1
 92
        1
 93
        3
 72
     1
 10
76.69095413228844
 20
-56.51523507855384
 11
77.00095413228815
 21
-54.01523507855408
 72
     1
 10
77.00095413228815
 20
-54.01523507855408
 11
76.38095413228871
 21
-54.01523507855408
 72
     1
 10
76.38095413228871
 20
-54.01523507855408
 11
76.69095413228844
 21
-56.51523507855384
 97
        1
330
1E4
 75
     2
 76
     1
 98
        1
 10
0.0
 20
0.0
450
        0
451
        0
460
0.0
461
0.0
452
        0
462
0.0
453
        0
470

  0
LINE
  5
1E6
330
1DE
100
AcDbEntity
  8
CAPA_BASE
 62
    18
420
        0
370
    25
100
AcDbLine
 10
63.33690083438849
 20
-20.16118812685382
 30
0.0
 11
77.69095413228846
 21
-20.16118812685382
 31
0.0
  0
LINE
  5
1E7
330
1DE
100
AcDbEntity
  8
CAPA_BASE
 62
    18
420
        0
370
    25
100
AcDbLine
 10
55.00356750108856
 20
-56.51523507855384
 30
0.0
 11
77.69095413228846
 21
-56.51523507855384
 31
0.0
  0
LINE
  5
1E8
330
1DE
100
AcDbEntity
  8
CAPA_BASE
 62
    18
420
        0
370
    25
100
AcDbLine
 10
76.69095413228844
 20
-20.16118812685382
 30
0.0
 11
76.69095413228844
 21
-56.51523507855384
 31
0.0
  0
MTEXT
  5
1E9
330
1DE
100
AcDbEntity
  8
CAPA_BASE
100
AcDbMText
 10
75.89720838556735
 20
-40.98423393072681
 30
0.0
 40
0.2
 41
0.0
 46
0.0
 71
     7
 72
     1
  1
\C18;\c0;\FArial Bold|b1|i0|c1;\H2.997200;\W0.700000;109
 11
0.0000000000000003
 21
1.0
 31
0.0
 73
     1
 44
1.0
  0
ENDBLK
  5
1E1
330
1DE
100
AcDbEntity
  8
0
100
AcDbBlockEnd
  0
ENDSEC
  0
SECTION
  2
ENTITIES
  0
LINE
  5
78
330
70
100
AcDbEntity
  8
0
 62
    18
420
        0
370
    25
100
AcDbLine
 10
55.67023416768851
 20
50.75026307214622
 30
0.0
 11
55.67023416768851
 21
140.4169297388459
 31
0.0
  0
LINE
  5
79
330
70
100
AcDbEntity
  8
0
 62
    18
420
        0
370
    25
100
AcDbLine
 10
52.33690083438875
 20
140.4169297388459
 30
0.0
 11
52.33690083438875
 21
50.75026307214622
 31
0.0
  0
SPLINE
  5
7A
330
70
100
AcDbEntity
  8
0
 62
    18
420
        0
370
    25
100
AcDbSpline
210
0.0
220
0.0
230
1.0
 70
     8
 71
     3
 72
    11
 73
     7
 74
     0
 42
0.0000000001
 43
0.0000000001
 40
0.0
 40
0.0
 40
0.0
 40
0.0
 40
1.0
 40
1.0
 40
1.0
 40
2.0
 40
2.0
 40
2.0
 40
2.0
 10
41.31618721587792
 20
42.25171749472883
 30
0.0
 10
41.31538396046549
 20
42.15967354130884
 30
0.0
 10
41.38934916038592
 20
42.08440600704749
 30
0.0
 10
41.48139311380589
 20
42.08360275163506
 30
0.0
 10
41.48187790979588
 20
42.08359852088505
 30
0.0
 10
41.4823627219384
 20
42.08359640547925
 30
0.0
 10
41.48284753638847
 20
42.08359640547925
 30
0.0
  0
SPLINE
  5
7B
330
70
100
AcDbEntity
  8
0
 62
    18
420
        0
370
    25
100
AcDbSpline
210
0.0
220
0.0
230
1.0
 70
     8
 71
     3
 72
    11
 73
     7
 74
     0
 42
0.0000000001
 43
0.0000000001
 40
0.0
 40
0.0
 40
0.0
 40
0.0
 40
1.0
 40
1.0
 40
1.0
 40
2.0
 40
2.0
 40
2.0
 40
2.0
 10
66.52428746568848
 20
42.08359640547925
 30
0.0
 10
66.61633492399352
 20
42.08359640547925
 30
0.0
 10
66.69095413235481
 20
42.15821561384055
 30
0.0
 10
66.69095413235481
 20
42.25026307214561
 30
0.0
 10
66.69095413235481
 20
42.250747886596
 30
0.0
 10
66.6909520169503
 20
42.25123269873883
 30
0.0
 10
66.69094778619902
 20
42.25171749472883
 30
0.0
  0
LINE
  5
7C
330
70
100
AcDbEntity
  8
0
 62
    18
420
        0
370
    25
100
AcDbLine
 10
66.69094778618874
 20
42.25171749474615
 30
0.0
 11
66.67023416768858
 21
44.62526307214625
 31
0.0
  0
LINE
  5
7D
330
70
100
AcDbEntity
  8
0
 62
    18
420
        0
370
    25
100
AcDbLine
 10
41.33690083438867
 20
44.62526307214625
 30
0.0
 11
41.31618721588851
 21
42.25171749474615
 31
0.0
  0
SPLINE
  5
7E
330
70
100
AcDbEntity
  8
0
 62
    18
420
        0
370
    25
100
AcDbSpline
210
0.0
220
0.0
230
1.0
 70
     8
 71
     3
 72
     8
 73
     4
 74
     0
 42
0.0000000001
 43
0.0000000001
 40
0.0
 40
0.0
 40
0.0
 40
0.0
 40
1.0
 40
1.0
 40
1.0
 40
1.0
 10
66.67023416769115
 20
44.62526307214625
 30
0.0
 10
66.67023416769115
 20
45.50364682493765
 30
0.0
 10
66.64708742787372
 20
46.38187806336523
 30
0.0
 10
66.60081804959171
 20
47.25904233635099
 30
0.0
  0
SPLINE
  5
7F
330
70
100
AcDbEntity
  8
0
 62
    18
420
        0
370
    25
100
AcDbSpline
210
0.0
220
0.0
230
1.0
 70
     8
 71
     3
 72
     8
 73
     4
 74
     0
 42
0.0000000001
 43
0.0000000001
 40
0.0
 40
0.0
 40
0.0
 40
0.0
 40
1.0
 40
1.0
 40
1.0
 40
1.0
 10
41.40631695248555
 20
47.25904233635099
 30
0.0
 10
41.36004757420322
 20
46.38187806336523
 30
0.0
 10
41.33690083438547
 20
45.50364682493765
 30
0.0
 10
41.33690083438547
 20
44.62526307214625
 30
0.0
  0
SPLINE
  5
80
330
70
100
AcDbEntity
  8
0
 62
    18
420
        0
370
    25
100
AcDbSpline
210
0.0
220
0.0
230
1.0
 70
     8
 71
     3
 72
     8
 73
     4
 74
     0
 42
0.0000000001
 43
0.0000000001
 40
0.0
 40
0.0
 40
0.0
 40
0.0
 40
1.0
 40
1.0
 40
1.0
 40
1.0
 10
66.6008180495949
 20
47.25904233635997
 30
0.0
 10
66.5961491082229
 20
47.34755505722498
 30
0.0
 10
66.52301854588387
 20
47.41692973881277
 30
0.0
 10
66.43438276998889
 20
47.41692973881277
 30
0.0
  0
SPLINE
  5
81
330
70
100
AcDbEntity
  8
0
 62
    18
420
        0
370
    25
100
AcDbSpline
210
0.0
220
0.0
230
1.0
 70
     8
 71
     3
 72
     8
 73
     4
 74
     0
 42
0.0000000001
 43
0.0000000001
 40
0.0
 40
0.0
 40
0.0
 40
0.0
 40
1.0
 40
1.0
 40
1.0
 40
1.0
 10
41.57275223208869
 20
47.41692973881277
 30
0.0
 10
41.4841164561937
 20
47.41692973881277
 30
0.0
 10
41.41098589385467
 20
47.34755505722498
 30
0.0
 10
41.40631695248234
 20
47.25904233635997
 30
0.0
  0
LINE
  5
82
330
70
100
AcDbEntity
  8
0
 62
    18
420
        0
370
    25
100
AcDbLine
 10
52.33690083438875
 20
140.6375643353458
 30
0.0
 11
52.33690083438875
 21
140.4169297388459
 31
0.0
  0
LINE
  5
83
330
70
100
AcDbEntity
  8
0
 62
    18
420
        0
370
    25
100
AcDbLine
 10
55.67023416768851
 20
140.4169297388459
 30
0.0
 11
55.67023416768851
 21
140.6375643353458
 31
0.0
  0
SPLINE
  5
84
330
70
100
AcDbEntity
  8
0
 62
    18
420
        0
370
    25
100
AcDbSpline
210
0.0
220
0.0
230
1.0
 70
     8
 71
     3
 72
     8
 73
     4
 74
     0
 42
0.0000000001
 43
0.0000000001
 40
0.0
 40
0.0
 40
0.0
 40
0.0
 40
1.0
 40
1.0
 40
1.0
 40
1.0
 10
55.67023416775525
 20
140.6375643353458
 30
0.0
 10
55.67023416775525
 20
140.7064596640694
 30
0.0
 10
55.62784355669905
 20
140.7682540675348
 30
0.0
 10
55.56356750108877
 20
140.7930563858751
 30
0.0
  0
SPLINE
  5
85
330
70
100
AcDbEntity
  8
0
 62
    18
420
        0
370
    25
100
AcDbSpline
210
0.0
220
0.0
230
1.0
 70
     8
 71
     3
 72
     8
 73
     4
 74
     0
 42
0.0000000001
 43
0.0000000001
 40
0.0
 40
0.0
 40
0.0
 40
0.0
 40
1.0
 40
1.0
 40
1.0
 40
1.0
 10
52.4435675010886
 20
140.7930563858751
 30
0.0
 10
52.37929144547799
 20
140.7682540675348
 30
0.0
 10
52.3369008344218
 20
140.7064596640694
 30
0.0
 10
52.3369008344218
 20
140.6375643353458
 30
0.0
  0
SPLINE
  5
86
330
70
100
AcDbEntity
  8
0
 62
    18
420
        0
370
    25
100
AcDbSpline
210
0.0
220
0.0
230
1.0
 70
     8
 71
     3
 72
     8
 73
     4
 74
     0
 42
0.0000000001
 43
0.0000000001
 40
0.0
 40
0.0
 40
0.0
 40
0.0
 40
1.0
 40
1.0
 40
1.0
 40
1.0
 10
55.56356750108909
 20
140.793056385905
 30
0.0
 10
54.55964164765902
 20
141.1804430786706
 30
0.0
 10
53.44749335451833
 20
141.1804430786706
 30
0.0
 10
52.44356750108828
 20
140.793056385905
 30
0.0
  0
SPLINE
  5
87
330
70
100
AcDbEntity
  8
0
 62
    18
420
        0
370
    25
100
AcDbSpline
210
0.0
220
0.0
230
1.0
 70
     8
 71
     3
 72
    11
 73
     7
 74
     0
 42
0.0000000001
 43
0.0000000001
 40
0.0
 40
0.0
 40
0.0
 40
0.0
 40
1.0
 40
1.0
 40
1.0
 40
2.0
 40
2.0
 40
2.0
 40
2.0
 10
66.44785655649918
 20
50.58214198286265
 30
0.0
 10
66.44865981191159
 20
50.67418593628326
 30
0.0
 10
66.37469461199181
 20
50.74945347054462
 30
0.0
 10
66.2826506585712
 20
50.75025672595706
 30
0.0
 10
66.28216586258185
 20
50.75026095670706
 30
0.0
 10
66.28168105043901
 20
50.75026307211286
 30
0.0
 10
66.28119623598862
 20
50.75026307211286
 30
0.0
  0
SPLINE
  5
88
330
70
100
AcDbEntity
  8
0
 62
    18
420
        0
370
    25
100
AcDbSpline
210
0.0
220
0.0
230
1.0
 70
     8
 71
     3
 72
    11
 73
     7
 74
     0
 42
0.0000000001
 43
0.0000000001
 40
0.0
 40
0.0
 40
0.0
 40
0.0
 40
1.0
 40
1.0
 40
1.0
 40
2.0
 40
2.0
 40
2.0
 40
2.0
 10
41.72593876608863
 20
50.75026307211286
 30
0.0
 10
41.63389130778358
 20
50.75026307211286
 30
0.0
 10
41.55927209942197
 20
50.67564386375092
 30
0.0
 10
41.55927209942197
 20
50.58359640544587
 30
0.0
 10
41.55927209942197
 20
50.58311159099548
 30
0.0
 10
41.55927421482744
 20
50.58262677885328
 30
0.0
 10
41.55927844557777
 20
50.58214198286265
 30
0.0
  0
LINE
  5
89
330
70
100
AcDbEntity
  8
0
 62
    18
420
        0
370
    25
100
AcDbLine
 10
41.55927844558868
 20
50.58214198284596
 30
0.0
 11
41.58545904898855
 21
47.58214198284585
 31
0.0
  0
LINE
  5
8A
330
70
100
AcDbEntity
  8
0
 62
    18
420
        0
370
    25
100
AcDbLine
 10
66.42167595308838
 20
47.58214198284585
 30
0.0
 11
66.4478565564889
 21
50.58214198284596
 31
0.0
  0
SPLINE
  5
8B
330
70
100
AcDbEntity
  8
0
 62
    18
420
        0
370
    25
100
AcDbSpline
210
0.0
220
0.0
230
1.0
 70
     8
 71
     3
 72
     8
 73
     4
 74
     0
 42
0.0000000001
 43
0.0000000001
 40
0.0
 40
0.0
 40
0.0
 40
0.0
 40
1.0
 40
1.0
 40
1.0
 40
1.0
 10
66.25501563258875
 20
47.41692973877941
 30
0.0
 10
66.3464956082543
 20
47.41692973877941
 30
0.0
 10
66.42087764984454
 20
47.49066549047411
 30
0.0
 10
66.42167595309929
 20
47.58214198286318
 30
0.0
  0
SPLINE
  5
8C
330
70
100
AcDbEntity
  8
0
 62
    18
420
        0
370
    25
100
AcDbSpline
210
0.0
220
0.0
230
1.0
 70
     8
 71
     3
 72
     8
 73
     4
 74
     0
 42
0.0000000001
 43
0.0000000001
 40
0.0
 40
0.0
 40
0.0
 40
0.0
 40
1.0
 40
1.0
 40
1.0
 40
1.0
 10
41.58545904897796
 20
47.58214198286318
 30
0.0
 10
41.58625735223303
 20
47.49066549047411
 30
0.0
 10
41.66063939382295
 20
47.41692973877941
 30
0.0
 10
41.7521193694885
 20
47.41692973877941
 30
0.0
  0
LINE
  5
8D
330
70
100
AcDbEntity
  8
0
 62
    18
420
        0
370
    25
100
AcDbLine
 10
43.38918841608856
 20
42.08359640544588
 30
0.0
 11
43.66538026308859
 21
13.9120280135458
 31
0.0
  0
LINE
  5
8E
330
70
100
AcDbEntity
  8
0
 62
    18
420
        0
370
    25
100
AcDbLine
 10
64.34175473898867
 20
13.9120280135458
 30
0.0
 11
64.61794658598869
 21
42.08359640544588
 31
0.0
  0
SPLINE
  5
8F
330
70
100
AcDbEntity
  8
0
 62
    18
420
        0
370
    25
100
AcDbSpline
210
0.0
220
0.0
230
1.0
 70
     8
 71
     3
 72
     8
 73
     4
 74
     0
 42
0.0000000001
 43
0.0000000001
 40
0.0
 40
0.0
 40
0.0
 40
0.0
 40
1.0
 40
1.0
 40
1.0
 40
1.0
 10
63.84177876648866
 20
13.41692973884623
 30
0.0
 10
64.11600880553841
 20
13.41692973884623
 30
0.0
 10
64.33906633840368
 20
13.63781115269287
 30
0.0
 10
64.34175473900118
 20
13.91202801362473
 30
0.0
  0
SPLINE
  5
90
330
70
100
AcDbEntity
  8
0
 62
    18
420
        0
370
    25
100
AcDbSpline
210
0.0
220
0.0
230
1.0
 70
     8
 71
     3
 72
     8
 73
     4
 74
     0
 42
0.0000000001
 43
0.0000000001
 40
0.0
 40
0.0
 40
0.0
 40
0.0
 40
1.0
 40
1.0
 40
1.0
 40
1.0
 10
43.66538026307607
 20
13.91202801362473
 30
0.0
 10
43.66806866367357
 20
13.63781115269287
 30
0.0
 10
43.89112619653885
 20
13.41692973884623
 30
0.0
 10
44.1653562355886
 20
13.41692973884623
 30
0.0
  0
LINE
  5
91
330
70
100
AcDbEntity
  8
0
 62
    18
420
        0
370
    25
100
AcDbLine
 10
46.00343504518849
 20
52.7587288613456
 30
0.0
 11
48.01190083438852
 21
50.75026307214622
 31
0.0
  0
LINE
  5
92
330
70
100
AcDbEntity
  8
0
 62
    18
420
        0
370
    25
100
AcDbLine
 10
59.99523416768874
 20
50.75026307214622
 30
0.0
 11
62.00369995688877
 21
52.7587288613456
 31
0.0
  0
LINE
  5
93
330
70
100
AcDbEntity
  8
0
 62
    18
420
        0
370
    25
100
AcDbLine
 10
46.00343504518849
 20
52.7587288613456
 30
0.0
 11
45.98940447838866
 21
52.75872321604579
 31
0.0
  0
SPLINE
  5
94
330
70
100
AcDbEntity
  8
0
 62
    18
420
        0
370
    25
100
AcDbSpline
210
0.0
220
0.0
230
1.0
 70
     8
 71
     3
 72
     8
 73
     4
 74
     0
 42
0.0000000001
 43
0.0000000001
 40
0.0
 40
0.0
 40
0.0
 40
0.0
 40
1.0
 40
1.0
 40
1.0
 40
1.0
 10
62.0177276989429
 20
52.76573399554768
 30
0.0
 10
62.01231960301655
 20
52.76530888273981
 30
0.0
 10
62.00728896114848
 20
52.76279669501252
 30
0.0
 10
62.00369995687914
 20
52.7587288613379
 30
0.0
  0
LINE
  5
95
330
70
100
AcDbEntity
  8
0
 62
    18
420
        0
370
    25
100
AcDbLine
 10
62.33690083438846
 20
52.75859640544586
 30
0.0
 11
62.33690083438846
 21
50.75026307214622
 31
0.0
  0
SPLINE
  5
96
330
70
100
AcDbEntity
  8
0
 62
    18
420
        0
370
    25
100
AcDbSpline
210
0.0
220
0.0
230
1.0
 70
     8
 71
     3
 72
     8
 73
     4
 74
     0
 42
0.0000000001
 43
0.0000000001
 40
0.0
 40
0.0
 40
0.0
 40
0.0
 40
1.0
 40
1.0
 40
1.0
 40
1.0
 10
62.3369008343737
 20
52.75859640544201
 30
0.0
 10
62.23073269814378
 20
52.76705520766239
 30
0.0
 10
62.12416783556876
 20
52.76943829139398
 30
0.0
 10
62.01772769897691
 20
52.76573399552715
 30
0.0
  0
SPLINE
  5
97
330
70
100
AcDbEntity
  8
0
 62
    18
420
        0
370
    25
100
AcDbSpline
210
0.0
220
0.0
230
1.0
 70
     8
 71
     3
 72
     8
 73
     4
 74
     0
 42
0.0000000001
 43
0.0000000001
 40
0.0
 40
0.0
 40
0.0
 40
0.0
 40
1.0
 40
1.0
 40
1.0
 40
1.0
 10
62.33690083432975
 20
52.7585964054773
 30
0.0
 10
62.22643091617655
 20
52.77271467531551
 30
0.0
 10
62.11496382104762
 20
52.77745260882049
 30
0.0
 10
62.00369431777653
 20
52.77275942207849
 30
0.0
  0
LINE
  5
98
330
70
100
AcDbEntity
  8
0
 62
    18
420
        0
370
    25
100
AcDbLine
 10
62.00369995688877
 20
52.7587288613456
 30
0.0
 11
62.00369431778873
 21
52.77275942204576
 31
0.0
  0
LINE
  5
99
330
70
100
AcDbEntity
  8
0
 62
    18
420
        0
370
    25
100
AcDbLine
 10
45.67023416768847
 20
50.75026307214622
 30
0.0
 11
45.67023416768847
 21
52.75859640544586
 31
0.0
  0
SPLINE
  5
9A
330
70
100
AcDbEntity
  8
0
 62
    18
420
        0
370
    25
100
AcDbSpline
210
0.0
220
0.0
230
1.0
 70
     8
 71
     3
 72
     8
 73
     4
 74
     0
 42
0.0000000001
 43
0.0000000001
 40
0.0
 40
0.0
 40
0.0
 40
0.0
 40
1.0
 40
1.0
 40
1.0
 40
1.0
 10
45.98940447844449
 20
52.75872321602719
 30
0.0
 10
45.88301435812493
 20
52.75876320315823
 30
0.0
 10
45.77662422280275
 20
52.75872093296211
 30
0.0
 10
45.67023416784698
 20
52.75859640547602
 30
0.0
  0
SPLINE
  5
9B
330
70
100
AcDbEntity
  8
0
 62
    18
420
        0
370
    25
100
AcDbSpline
210
0.0
220
0.0
230
1.0
 70
     8
 71
     3
 72
     8
 73
     4
 74
     0
 42
0.0000000001
 43
0.0000000001
 40
0.0
 40
0.0
 40
0.0
 40
0.0
 40
1.0
 40
1.0
 40
1.0
 40
1.0
 10
46.00356750105937
 20
53.09192973876381
 30
0.0
 10
45.98944922506405
 20
52.98145981904743
 30
0.0
 10
45.98471128950532
 20
52.86999272150122
 30
0.0
 10
45.98940447836107
 20
52.75872321598547
 30
0.0
  0
SPLINE
  5
9C
330
70
100
AcDbEntity
  8
0
 62
    18
420
        0
370
    25
100
AcDbSpline
210
0.0
220
0.0
230
1.0
 70
     8
 71
     3
 72
     8
 73
     4
 74
     0
 42
0.0000000001
 43
0.0000000001
 40
0.0
 40
0.0
 40
0.0
 40
0.0
 40
1.0
 40
1.0
 40
1.0
 40
1.0
 10
46.00356750104717
 20
53.09192973883952
 30
0.0
 10
45.99603524797227
 20
52.98571639262398
 30
0.0
 10
45.99365325923497
 20
52.87920048576567
 30
0.0
 10
45.99642991160437
 20
52.77275660406165
 30
0.0
  0
SPLINE
  5
9D
330
70
100
AcDbEntity
  8
0
 62
    18
420
        0
370
    25
100
AcDbSpline
210
0.0
220
0.0
230
1.0
 70
     8
 71
     3
 72
     8
 73
     4
 74
     0
 42
0.0000000001
 43
0.0000000001
 40
0.0
 40
0.0
 40
0.0
 40
0.0
 40
1.0
 40
1.0
 40
1.0
 40
1.0
 10
45.99642991156939
 20
52.77275660401481
 30
0.0
 10
45.99685502402466
 20
52.76734850795467
 30
0.0
 10
45.99936721153346
 20
52.76231786584115
 30
0.0
 10
46.00343504513747
 20
52.75872886133277
 30
0.0
  0
LINE
  5
9E
330
70
100
AcDbEntity
  8
0
 62
    18
420
        0
370
    25
100
AcDbLine
 10
46.00356750108856
 20
53.09192973884594
 30
0.0
 11
52.33690083438875
 21
53.09192973884594
 31
0.0
  0
LINE
  5
9F
330
70
100
AcDbEntity
  8
0
 62
    18
420
        0
370
    25
100
AcDbLine
 10
52.33690083438875
 20
52.7587288613456
 30
0.0
 11
46.00343504518849
 21
52.7587288613456
 31
0.0
  0
LINE
  5
A0
330
70
100
AcDbEntity
  8
0
 62
    18
420
        0
370
    25
100
AcDbLine
 10
62.00369995688877
 20
52.7587288613456
 30
0.0
 11
55.67023416768851
 21
52.7587288613456
 31
0.0
  0
LINE
  5
A1
330
70
100
AcDbEntity
  8
0
 62
    18
420
        0
370
    25
100
AcDbLine
 10
55.67023416768851
 20
53.09192973884594
 30
0.0
 11
62.00356750108849
 21
53.09192973884594
 31
0.0
  0
SPLINE
  5
A2
330
70
100
AcDbEntity
  8
0
 62
    18
420
        0
370
    25
100
AcDbSpline
210
0.0
220
0.0
230
1.0
 70
     8
 71
     3
 72
     8
 73
     4
 74
     0
 42
0.0000000001
 43
0.0000000001
 40
0.0
 40
0.0
 40
0.0
 40
0.0
 40
1.0
 40
1.0
 40
1.0
 40
1.0
 10
62.00369431784809
 20
52.77275942207143
 30
0.0
 10
62.00373430694497
 20
52.87914954448871
 30
0.0
 10
62.00369203467199
 20
52.9855396819102
 30
0.0
 10
62.00356750106731
 20
53.0919297389576
 30
0.0
  0
SPLINE
  5
A3
330
70
100
AcDbEntity
  8
0
 62
    18
420
        0
370
    25
100
AcDbSpline
210
0.0
220
0.0
230
1.0
 70
     8
 71
     3
 72
     8
 73
     4
 74
     0
 42
0.0000000001
 43
0.0000000001
 40
0.0
 40
0.0
 40
0.0
 40
0.0
 40
1.0
 40
1.0
 40
1.0
 40
1.0
 10
62.33690083442184
 20
52.75859640552479
 30
0.0
 10
62.33690083437819
 20
52.94269132210409
 30
0.0
 10
62.18766241766811
 20
53.0919297387792
 30
0.0
 10
62.00356750108849
 20
53.0919297387792
 30
0.0
  0
SPLINE
  5
A4
330
70
100
AcDbEntity
  8
0
 62
    18
420
        0
370
    25
100
AcDbSpline
210
0.0
220
0.0
230
1.0
 70
     8
 71
     3
 72
     8
 73
     4
 74
     0
 42
0.0000000001
 43
0.0000000001
 40
0.0
 40
0.0
 40
0.0
 40
0.0
 40
1.0
 40
1.0
 40
1.0
 40
1.0
 10
46.00356750108856
 20
53.0919297387792
 30
0.0
 10
45.81947258447845
 20
53.0919297387792
 30
0.0
 10
45.67023416775522
 20
52.94269132205661
 30
0.0
 10
45.67023416775522
 20
52.75859640544586
 30
0.0
  0
LINE
  5
A5
330
70
100
AcDbEntity
  8
0
 62
    18
420
        0
370
    25
100
AcDbLine
 10
54.00356750108852
 20
140.4169297388459
 30
0.0
 11
55.67023416768851
 21
140.4169297388459
 31
0.0
  0
LINE
  5
A6
330
70
100
AcDbEntity
  8
0
 62
    18
420
        0
370
    25
100
AcDbLine
 10
52.33690083438875
 20
140.4169297388459
 30
0.0
 11
54.00356750108852
 21
140.4169297388459
 31
0.0
  0
LINE
  5
A7
330
70
100
AcDbEntity
  8
0
 62
    18
420
        0
370
    25
100
AcDbLine
 10
66.52428746568848
 20
42.08359640544588
 30
0.0
 11
41.48284753638847
 21
42.08359640544588
 31
0.0
  0
LINE
  5
A8
330
70
100
AcDbEntity
  8
0
 62
    18
420
        0
370
    25
100
AcDbLine
 10
41.57275223208869
 20
47.41692973884614
 30
0.0
 11
66.43438276998889
 21
47.41692973884614
 31
0.0
  0
LINE
  5
A9
330
70
100
AcDbEntity
  8
0
 62
    18
420
        0
370
    25
100
AcDbLine
 10
52.33690083438875
 20
140.4169297388459
 30
0.0
 11
55.67023416768851
 21
140.4169297388459
 31
0.0
  0
LINE
  5
AA
330
70
100
AcDbEntity
  8
0
 62
    18
420
        0
370
    25
100
AcDbLine
 10
66.28119623598862
 20
50.75026307214622
 30
0.0
 11
41.72593876608863
 21
50.75026307214622
 31
0.0
  0
LINE
  5
AB
330
70
100
AcDbEntity
  8
0
 62
    18
420
        0
370
    25
100
AcDbLine
 10
63.84177876648866
 20
13.41692973884623
 30
0.0
 11
44.1653562355886
 21
13.41692973884623
 31
0.0
  0
LWPOLYLINE
  5
AC
330
70
100
AcDbEntity
  8
0
 62
     8
420
  8421504
370
    25
100
AcDbPolyline
 90
        3
 70
     0
 43
0.0
 10
45.98940447838866
 20
52.75872321604579
 10
45.98913988968849
 20
52.09205664454564
 10
45.98866343728856
 20
50.75026307214622
  0
LWPOLYLINE
  5
AD
330
70
100
AcDbEntity
  8
0
 62
     8
420
  8421504
370
    25
100
AcDbPolyline
 90
        3
 70
     0
 43
0.0
 10
62.01838478298856
 20
50.75026307214622
 10
62.01773051638863
 20
52.75872322354597
 10
62.01772769898846
 20
52.76573399554576
  0
LWPOLYLINE
  5
AE
330
70
100
AcDbEntity
  8
0
 62
     8
420
  8421504
370
    25
100
AcDbPolyline
 90
        5
 70
     0
 43
0.0
 10
52.33690083438875
 20
52.77459881084617
 10
50.67023419998857
 20
52.77434313444599
 10
48.33683740098864
 20
52.77364394174584
 10
46.00344068428853
 20
52.77275942204576
 10
45.99642991158865
 20
52.77275660404625
  0
LWPOLYLINE
  5
AF
330
70
100
AcDbEntity
  8
0
 62
     8
420
  8421504
370
    25
100
AcDbPolyline
 90
        5
 70
     0
 43
0.0
 10
62.00369431778873
 20
52.77275942204576
 10
61.33702774638868
 20
52.77302404864596
 10
58.67036137948873
 20
52.77397361114549
 10
56.3369645402886
 20
52.77455428294555
 10
55.67023416768851
 20
52.77461610264601
  0
LINE
  5
B0
330
70
100
AcDbEntity
  8
0
 62
     8
420
  8421504
370
    25
100
AcDbLine
 10
41.31618721588851
 20
42.25171749474615
 30
0.0
 11
66.69094778618874
 21
42.25171749474615
 31
0.0
  0
LINE
  5
B1
330
70
100
AcDbEntity
  8
0
 62
     8
420
  8421504
370
    25
100
AcDbLine
 10
41.33690083438867
 20
44.62526307214625
 30
0.0
 11
66.67023416768858
 21
44.62526307214625
 31
0.0
  0
LINE
  5
B2
330
70
100
AcDbEntity
  8
0
 62
     8
420
  8421504
370
    25
100
AcDbLine
 10
66.60081804958849
 20
47.25904233634586
 30
0.0
 11
41.40631695248877
 21
47.25904233634586
 31
0.0
  0
LINE
  5
B3
330
70
100
AcDbEntity
  8
0
 62
     8
420
  8421504
370
    25
100
AcDbLine
 10
55.67023416768851
 20
140.6375643353458
 30
0.0
 11
52.33690083438875
 21
140.6375643353458
 31
0.0
  0
LINE
  5
B4
330
70
100
AcDbEntity
  8
0
 62
     8
420
  8421504
370
    25
100
AcDbLine
 10
52.4435675010886
 20
140.793056385946
 30
0.0
 11
55.56356750108845
 21
140.793056385946
 31
0.0
  0
LINE
  5
B5
330
70
100
AcDbEntity
  8
0
 62
     8
420
  8421504
370
    25
100
AcDbLine
 10
66.4478565564889
 20
50.58214198284596
 30
0.0
 11
41.55927844558868
 21
50.58214198284596
 31
0.0
  0
LINE
  5
B6
330
70
100
AcDbEntity
  8
0
 62
     8
420
  8421504
370
    25
100
AcDbLine
 10
66.42167595308838
 20
47.58214198284585
 30
0.0
 11
41.58545904898855
 21
47.58214198284585
 31
0.0
  0
LINE
  5
B7
330
70
100
AcDbEntity
  8
0
 62
     8
420
  8421504
370
    25
100
AcDbLine
 10
64.34175473898867
 20
13.9120280135458
 30
0.0
 11
43.66538026308859
 21
13.9120280135458
 31
0.0
  0
LWPOLYLINE
  5
B8
330
70
100
AcDbEntity
  8
0
 62
    18
420
        0
370
    25
100
AcDbPolyline
 90
        5
 70
     0
 43
0.0
 10
108.9342354366882
 20
43.31270876744603
 10
108.9343272668887
 20
43.97371482114554
 10
108.9343730148883
 20
44.76031901454554
 10
108.9343270082885
 20
45.54824377024628
 10
108.934271260089
 20
45.94775867114591
  0
LWPOLYLINE
  5
B9
330
70
100
AcDbEntity
  8
0
 62
    18
420
        0
370
    25
100
AcDbPolyline
 90
        3
 70
     0
 43
0.0
 10
108.7603233039889
 20
36.7425596270458
 10
108.8875222605884
 20
40.00348651824605
 10
108.9344641218882
 20
42.50702052294577
  0
LWPOLYLINE
  5
BA
330
70
100
AcDbEntity
  8
0
 62
    18
420
        0
370
    25
100
AcDbPolyline
 90
        5
 70
     0
 43
0.0
 10
108.9344645366889
 20
42.50781324144631
 10
108.9344525209886
 20
42.61008992174546
 10
108.9343863787886
 20
42.79073833554604
 10
108.9343008512887
 20
43.03464695934608
 10
108.9342245676887
 20
43.32882446414567
  0
SPLINE
  5
BB
330
70
100
AcDbEntity
  8
0
 62
    18
420
        0
370
    25
100
AcDbSpline
210
0.0
220
0.0
230
1.0
 70
     8
 71
     3
 72
     8
 73
     4
 74
     0
 42
0.0000000001
 43
0.0000000001
 40
0.0
 40
0.0
 40
0.0
 40
0.0
 40
1.0
 40
1.0
 40
1.0
 40
1.0
 10
108.4281141456111
 20
36.42526307226532
 30
0.0
 10
108.6059845687299
 20
36.42525768824611
 30
0.0
 10
108.7525231935041
 20
36.56491028169446
 30
0.0
 10
108.7610723244025
 20
36.74257513418436
 30
0.0
  0
LINE
  5
BC
330
70
100
AcDbEntity
  8
0
 62
    18
420
        0
370
    25
100
AcDbLine
 10
108.9341800052891
 20
46.13203211424578
 30
0.0
 11
108.9341831355881
 21
46.14021866124576
 31
0.0
  0
LINE
  5
BD
330
70
100
AcDbEntity
  8
0
 62
    18
420
        0
370
    25
100
AcDbLine
 10
132.2658152980882
 20
50.75026307214622
 30
0.0
 11
132.2658152980882
 21
140.4169297388459
 31
0.0
  0
LINE
  5
BE
330
70
100
AcDbEntity
  8
0
 62
    18
420
        0
370
    25
100
AcDbLine
 10
128.9324819647881
 20
140.4169297388459
 30
0.0
 11
128.9324819647881
 21
50.75026307214622
 31
0.0
  0
SPLINE
  5
BF
330
70
100
AcDbEntity
  8
0
 62
    18
420
        0
370
    25
100
AcDbSpline
210
0.0
220
0.0
230
1.0
 70
     8
 71
     3
 72
    11
 73
     7
 74
     0
 42
0.0000000001
 43
0.0000000001
 40
0.0
 40
0.0
 40
0.0
 40
0.0
 40
1.0
 40
1.0
 40
1.0
 40
2.0
 40
2.0
 40
2.0
 40
2.0
 10
143.1198685960891
 20
42.08359640547925
 30
0.0
 10
143.2119160543942
 20
42.08359640547925
 30
0.0
 10
143.2865352627555
 20
42.15821561384055
 30
0.0
 10
143.2865352627555
 20
42.25026307214561
 30
0.0
 10
143.2865352627555
 20
42.250747886596
 30
0.0
 10
143.2865331473496
 20
42.25123269873883
 30
0.0
 10
143.2865289165996
 20
42.25171749472883
 30
0.0
  0
LINE
  5
C0
330
70
100
AcDbEntity
  8
0
 62
    18
420
        0
370
    25
100
AcDbLine
 10
143.2865289165881
 20
42.25171749474615
 30
0.0
 11
143.2658152980892
 21
44.62526307214625
 31
0.0
  0
SPLINE
  5
C1
330
70
100
AcDbEntity
  8
0
 62
    18
420
        0
370
    25
100
AcDbSpline
210
0.0
220
0.0
230
1.0
 70
     8
 71
     3
 72
     8
 73
     4
 74
     0
 42
0.0000000001
 43
0.0000000001
 40
0.0
 40
0.0
 40
0.0
 40
0.0
 40
1.0
 40
1.0
 40
1.0
 40
1.0
 10
143.2658152980918
 20
44.62526307214625
 30
0.0
 10
143.2658152980918
 20
45.50364682493765
 30
0.0
 10
143.2426685582737
 20
46.38187806336523
 30
0.0
 10
143.1963991799911
 20
47.25904233635099
 30
0.0
  0
SPLINE
  5
C2
330
70
100
AcDbEntity
  8
0
 62
    18
420
        0
370
    25
100
AcDbSpline
210
0.0
220
0.0
230
1.0
 70
     8
 71
     3
 72
     8
 73
     4
 74
     0
 42
0.0000000001
 43
0.0000000001
 40
0.0
 40
0.0
 40
0.0
 40
0.0
 40
1.0
 40
1.0
 40
1.0
 40
1.0
 10
143.1963991799949
 20
47.25904233635997
 30
0.0
 10
143.1917302386223
 20
47.34755505722498
 30
0.0
 10
143.1185996762832
 20
47.41692973881277
 30
0.0
 10
143.0299639003882
 20
47.41692973881277
 30
0.0
  0
LINE
  5
C3
330
70
100
AcDbEntity
  8
0
 62
    18
420
        0
370
    25
100
AcDbLine
 10
108.9324819647887
 20
42.08359640544588
 30
0.0
 11
118.0784286668886
 21
42.08359640544588
 31
0.0
  0
LINE
  5
C4
330
70
100
AcDbEntity
  8
0
 62
    18
420
        0
370
    25
100
AcDbLine
 10
118.1683333624881
 20
47.41692973884614
 30
0.0
 11
108.9324819647887
 21
47.41692973884614
 31
0.0
  0
LINE
  5
C5
330
70
100
AcDbEntity
  8
0
 62
    18
420
        0
370
    25
100
AcDbLine
 10
108.9324819647887
 20
46.80026307214625
 30
0.0
 11
108.9257491335886
 21
46.80026307214625
 31
0.0
  0
LINE
  5
C6
330
70
100
AcDbEntity
  8
0
 62
    18
420
        0
370
    25
100
AcDbLine
 10
128.9324819647881
 20
140.6375643353458
 30
0.0
 11
128.9324819647881
 21
140.4169297388459
 31
0.0
  0
LINE
  5
C7
330
70
100
AcDbEntity
  8
0
 62
    18
420
        0
370
    25
100
AcDbLine
 10
132.2658152980882
 20
140.4169297388459
 30
0.0
 11
132.2658152980882
 21
140.6375643353458
 31
0.0
  0
SPLINE
  5
C8
330
70
100
AcDbEntity
  8
0
 62
    18
420
        0
370
    25
100
AcDbSpline
210
0.0
220
0.0
230
1.0
 70
     8
 71
     3
 72
     8
 73
     4
 74
     0
 42
0.0000000001
 43
0.0000000001
 40
0.0
 40
0.0
 40
0.0
 40
0.0
 40
1.0
 40
1.0
 40
1.0
 40
1.0
 10
132.2658152981549
 20
140.6375643353458
 30
0.0
 10
132.2658152981549
 20
140.7064596640694
 30
0.0
 10
132.2234246870997
 20
140.7682540675348
 30
0.0
 10
132.1591486314888
 20
140.7930563858751
 30
0.0
  0
SPLINE
  5
C9
330
70
100
AcDbEntity
  8
0
 62
    18
420
        0
370
    25
100
AcDbSpline
210
0.0
220
0.0
230
1.0
 70
     8
 71
     3
 72
     8
 73
     4
 74
     0
 42
0.0000000001
 43
0.0000000001
 40
0.0
 40
0.0
 40
0.0
 40
0.0
 40
1.0
 40
1.0
 40
1.0
 40
1.0
 10
129.0391486314889
 20
140.7930563858751
 30
0.0
 10
128.974872575878
 20
140.7682540675348
 30
0.0
 10
128.9324819648215
 20
140.7064596640694
 30
0.0
 10
128.9324819648215
 20
140.6375643353458
 30
0.0
  0
SPLINE
  5
CA
330
70
100
AcDbEntity
  8
0
 62
    18
420
        0
370
    25
100
AcDbSpline
210
0.0
220
0.0
230
1.0
 70
     8
 71
     3
 72
     8
 73
     4
 74
     0
 42
0.0000000001
 43
0.0000000001
 40
0.0
 40
0.0
 40
0.0
 40
0.0
 40
1.0
 40
1.0
 40
1.0
 40
1.0
 10
132.1591486314888
 20
140.793056385905
 30
0.0
 10
131.1552227780587
 20
141.1804430786706
 30
0.0
 10
130.0430744849177
 20
141.1804430786706
 30
0.0
 10
129.0391486314876
 20
140.793056385905
 30
0.0
  0
SPLINE
  5
CB
330
70
100
AcDbEntity
  8
0
 62
    18
420
        0
370
    25
100
AcDbSpline
210
0.0
220
0.0
230
1.0
 70
     8
 71
     3
 72
    11
 73
     7
 74
     0
 42
0.0000000001
 43
0.0000000001
 40
0.0
 40
0.0
 40
0.0
 40
0.0
 40
1.0
 40
1.0
 40
1.0
 40
2.0
 40
2.0
 40
2.0
 40
2.0
 10
143.0434376868998
 20
50.58214198286265
 30
0.0
 10
143.0442409423122
 20
50.67418593628326
 30
0.0
 10
142.9702757423912
 20
50.74945347054462
 30
0.0
 10
142.8782317889718
 20
50.75025672595706
 30
0.0
 10
142.8777469929812
 20
50.75026095670706
 30
0.0
 10
142.877262180839
 20
50.75026307211286
 30
0.0
 10
142.876777366388
 20
50.75026307211286
 30
0.0
  0
SPLINE
  5
CC
330
70
100
AcDbEntity
  8
0
 62
    18
420
        0
370
    25
100
AcDbSpline
210
0.0
220
0.0
230
1.0
 70
     8
 71
     3
 72
    11
 73
     7
 74
     0
 42
0.0000000001
 43
0.0000000001
 40
0.0
 40
0.0
 40
0.0
 40
0.0
 40
1.0
 40
1.0
 40
1.0
 40
2.0
 40
2.0
 40
2.0
 40
2.0
 10
118.3215198964883
 20
50.75026307211286
 30
0.0
 10
118.2294724381833
 20
50.75026307211286
 30
0.0
 10
118.154853229822
 20
50.67564386375092
 30
0.0
 10
118.154853229822
 20
50.58359640544587
 30
0.0
 10
118.154853229822
 20
50.58311159099548
 30
0.0
 10
118.1548553452278
 20
50.58262677885328
 30
0.0
 10
118.1548595759778
 20
50.58214198286265
 30
0.0
  0
LINE
  5
CD
330
70
100
AcDbEntity
  8
0
 62
    18
420
        0
370
    25
100
AcDbLine
 10
118.154859575988
 20
50.58214198284596
 30
0.0
 11
118.1810401793885
 21
47.58214198284585
 31
0.0
  0
LINE
  5
CE
330
70
100
AcDbEntity
  8
0
 62
    18
420
        0
370
    25
100
AcDbLine
 10
143.017257083489
 20
47.58214198284585
 30
0.0
 11
143.0434376868883
 21
50.58214198284596
 31
0.0
  0
SPLINE
  5
CF
330
70
100
AcDbEntity
  8
0
 62
    18
420
        0
370
    25
100
AcDbSpline
210
0.0
220
0.0
230
1.0
 70
     8
 71
     3
 72
     8
 73
     4
 74
     0
 42
0.0000000001
 43
0.0000000001
 40
0.0
 40
0.0
 40
0.0
 40
0.0
 40
1.0
 40
1.0
 40
1.0
 40
1.0
 10
142.8505967629887
 20
47.41692973877941
 30
0.0
 10
142.9420767386537
 20
47.41692973877941
 30
0.0
 10
143.0164587802439
 20
47.49066549047411
 30
0.0
 10
143.0172570834993
 20
47.58214198286318
 30
0.0
  0
SPLINE
  5
D0
330
70
100
AcDbEntity
  8
0
 62
    18
420
        0
370
    25
100
AcDbSpline
210
0.0
220
0.0
230
1.0
 70
     8
 71
     3
 72
     8
 73
     4
 74
     0
 42
0.0000000001
 43
0.0000000001
 40
0.0
 40
0.0
 40
0.0
 40
0.0
 40
1.0
 40
1.0
 40
1.0
 40
1.0
 10
118.1810401793783
 20
47.58214198286318
 30
0.0
 10
118.1818384826324
 20
47.49066549047411
 30
0.0
 10
118.2562205242226
 20
47.41692973877941
 30
0.0
 10
118.3477004998888
 20
47.41692973877941
 30
0.0
  0
LINE
  5
D1
330
70
100
AcDbEntity
  8
0
 62
    18
420
        0
370
    25
100
AcDbLine
 10
119.9847695464889
 20
42.08359640544588
 30
0.0
 11
120.260961393488
 21
13.9120280135458
 31
0.0
  0
LINE
  5
D2
330
70
100
AcDbEntity
  8
0
 62
    18
420
        0
370
    25
100
AcDbLine
 10
140.9373358693883
 20
13.9120280135458
 30
0.0
 11
141.2135277163887
 21
42.08359640544588
 31
0.0
  0
SPLINE
  5
D3
330
70
100
AcDbEntity
  8
0
 62
    18
420
        0
370
    25
100
AcDbSpline
210
0.0
220
0.0
230
1.0
 70
     8
 71
     3
 72
     8
 73
     4
 74
     0
 42
0.0000000001
 43
0.0000000001
 40
0.0
 40
0.0
 40
0.0
 40
0.0
 40
1.0
 40
1.0
 40
1.0
 40
1.0
 10
140.4373598968883
 20
13.41692973884623
 30
0.0
 10
140.7115899359384
 20
13.41692973884623
 30
0.0
 10
140.9346474688037
 20
13.63781115269287
 30
0.0
 10
140.9373358694012
 20
13.91202801362473
 30
0.0
  0
SPLINE
  5
D4
330
70
100
AcDbEntity
  8
0
 62
    18
420
        0
370
    25
100
AcDbSpline
210
0.0
220
0.0
230
1.0
 70
     8
 71
     3
 72
     8
 73
     4
 74
     0
 42
0.0000000001
 43
0.0000000001
 40
0.0
 40
0.0
 40
0.0
 40
0.0
 40
1.0
 40
1.0
 40
1.0
 40
1.0
 10
120.2609613934764
 20
13.91202801362473
 30
0.0
 10
120.2636497940739
 20
13.63781115269287
 30
0.0
 10
120.4867073269392
 20
13.41692973884623
 30
0.0
 10
120.760937365988
 20
13.41692973884623
 30
0.0
  0
LWPOLYLINE
  5
D5
330
70
100
AcDbEntity
  8
0
 62
    18
420
        0
370
    25
100
AcDbPolyline
 90
        7
 70
     0
 43
0.0
 10
108.7592847106887
 20
52.75872321604579
 10
108.7595232272885
 20
52.09205664454564
 10
108.7603661696888
 20
49.42539027584604
 10
108.761049405889
 20
44.09205691814593
 10
108.7608178114887
 20
42.06058885744559
 10
108.7592847110885
 20
36.75846958744594
 10
108.7592821608886
 20
36.75145881614624
  0
LWPOLYLINE
  5
D6
330
70
100
AcDbEntity
  8
0
 62
    18
420
        0
370
    25
100
AcDbPolyline
 90
        7
 70
     0
 43
0.0
 10
108.7592821608886
 20
36.75145881614624
 10
108.7358285437889
 20
36.75196121284614
 10
108.6774877956882
 20
36.75321109804571
 10
108.5908306329885
 20
36.75506809484572
 10
108.4856082371883
 20
36.75732367694579
 10
108.4365236775889
 20
36.75837615004602
 10
108.4262524243886
 20
36.75859640924608
  0
LWPOLYLINE
  5
D7
330
70
100
AcDbEntity
  8
0
 62
    18
420
        0
370
    25
100
AcDbPolyline
 90
        4
 70
     0
 43
0.0
 10
108.4262524243886
 20
36.75859640544594
 10
108.4278634474884
 20
42.06065091874573
 10
108.4278769599889
 20
47.36270514184613
 10
108.4262524241884
 20
52.75859640544586
  0
LINE
  5
D8
330
70
100
AcDbEntity
  8
0
 62
    18
420
        0
370
    25
100
AcDbLine
 10
108.7592847106887
 20
52.75872321604579
 30
0.0
 11
108.4262524241884
 21
52.75859640544586
 31
0.0
  0
LWPOLYLINE
  5
D9
330
70
100
AcDbEntity
  8
0
 62
    18
420
        0
370
    25
100
AcDbPolyline
 90
        5
 70
     0
 43
0.0
 10
108.7598806993886
 20
36.75846394964566
 10
108.7598798515886
 20
36.7584439675457
 10
108.7595824537888
 20
36.75143866784623
 10
108.7594336253885
 20
36.74793602344612
 10
108.7592847106887
 20
36.74443338274605
  0
LINE
  5
DA
330
70
100
AcDbEntity
  8
0
 62
    18
420
        0
370
    25
100
AcDbLine
 10
108.4262524243886
 20
36.75859640544594
 30
0.0
 11
108.7592847106887
 21
36.74443338274605
 31
0.0
  0
SPLINE
  5
DB
330
70
100
AcDbEntity
  8
0
 62
    18
420
        0
370
    25
100
AcDbSpline
210
0.0
220
0.0
230
1.0
 70
     8
 71
     3
 72
     8
 73
     4
 74
     0
 42
0.0000000001
 43
0.0000000001
 40
0.0
 40
0.0
 40
0.0
 40
0.0
 40
1.0
 40
1.0
 40
1.0
 40
1.0
 10
108.7592821608758
 20
36.75145881622517
 30
0.0
 10
108.7596883231623
 20
36.75377158103144
 30
0.0
 10
108.7598886202809
 20
36.75611580438746
 30
0.0
 10
108.7598806994207
 20
36.75846394963668
 30
0.0
  0
LINE
  5
DC
330
70
100
AcDbEntity
  8
0
 62
    18
420
        0
370
    25
100
AcDbLine
 10
106.9324819647886
 20
53.09192973884594
 30
0.0
 11
108.4262524243886
 21
53.09192973884594
 31
0.0
  0
LINE
  5
DD
330
70
100
AcDbEntity
  8
0
 62
    18
420
        0
370
    25
100
AcDbLine
 10
108.4262524241884
 20
52.75859640544586
 30
0.0
 11
108.4262524243886
 21
53.09192973884594
 31
0.0
  0
LINE
  5
DE
330
70
100
AcDbEntity
  8
0
 62
    18
420
        0
370
    25
100
AcDbLine
 10
108.4262524241884
 20
52.75859640544586
 30
0.0
 11
106.9324819647886
 21
52.75859640544586
 31
0.0
  0
LINE
  5
DF
330
70
100
AcDbEntity
  8
0
 62
    18
420
        0
370
    25
100
AcDbLine
 10
106.9324819647886
 20
52.75859640544586
 30
0.0
 11
106.9324819647886
 21
53.09192973884594
 31
0.0
  0
LINE
  5
E0
330
70
100
AcDbEntity
  8
0
 62
    18
420
        0
370
    25
100
AcDbLine
 10
106.9324819647886
 20
36.75859640544594
 30
0.0
 11
108.4262524243886
 21
36.75859640544594
 31
0.0
  0
LINE
  5
E1
330
70
100
AcDbEntity
  8
0
 62
    18
420
        0
370
    25
100
AcDbLine
 10
106.9324819647886
 20
52.75859640544586
 30
0.0
 11
106.9324819647886
 21
36.75859640544594
 31
0.0
  0
LINE
  5
E2
330
70
100
AcDbEntity
  8
0
 62
    18
420
        0
370
    25
100
AcDbLine
 10
108.4262524241884
 20
36.42526307214596
 30
0.0
 11
108.4262524243886
 21
36.75859640544594
 31
0.0
  0
LINE
  5
E3
330
70
100
AcDbEntity
  8
0
 62
    18
420
        0
370
    25
100
AcDbLine
 10
108.4262524241884
 20
36.42526307214596
 30
0.0
 11
106.9324819647886
 21
36.42526307214596
 31
0.0
  0
LINE
  5
E4
330
70
100
AcDbEntity
  8
0
 62
    18
420
        0
370
    25
100
AcDbLine
 10
106.9324819647886
 20
36.42526307214596
 30
0.0
 11
106.9324819647886
 21
36.75859640544594
 31
0.0
  0
SPLINE
  5
E5
330
70
100
AcDbEntity
  8
0
 62
    18
420
        0
370
    25
100
AcDbSpline
210
0.0
220
0.0
230
1.0
 70
     8
 71
     3
 72
     8
 73
     4
 74
     0
 42
0.0000000001
 43
0.0000000001
 40
0.0
 40
0.0
 40
0.0
 40
0.0
 40
1.0
 40
1.0
 40
1.0
 40
1.0
 10
108.7592847106527
 20
52.75872321598419
 30
0.0
 10
108.7592978332531
 20
52.94268549781902
 30
0.0
 10
108.6102146878689
 20
53.09184664080575
 30
0.0
 10
108.4262524243334
 20
53.09192973876573
 30
0.0
  0
SPLINE
  5
E6
330
70
100
AcDbEntity
  8
0
 62
    18
420
        0
370
    25
100
AcDbSpline
210
0.0
220
0.0
230
1.0
 70
     8
 71
     3
 72
     8
 73
     4
 74
     0
 42
0.0000000001
 43
0.0000000001
 40
0.0
 40
0.0
 40
0.0
 40
0.0
 40
1.0
 40
1.0
 40
1.0
 40
1.0
 10
108.4262524241839
 20
36.42526307211388
 30
0.0
 10
108.6048387015726
 20
36.42526307821901
 30
0.0
 10
108.7516967529567
 20
36.56600838066161
 30
0.0
 10
108.7592847106342
 20
36.74443338274925
 30
0.0
  0
SPLINE
  5
E7
330
70
100
AcDbEntity
  8
0
 62
    18
420
        0
370
    25
100
AcDbSpline
210
0.0
220
0.0
230
1.0
 70
     8
 71
     3
 72
     8
 73
     4
 74
     0
 42
0.0000000001
 43
0.0000000001
 40
0.0
 40
0.0
 40
0.0
 40
0.0
 40
1.0
 40
1.0
 40
1.0
 40
1.0
 10
108.7598806993834
 20
36.7584639495154
 30
0.0
 10
108.8536895026673
 20
38.79405047083425
 30
0.0
 10
108.9105607492693
 20
40.83117137181242
 30
0.0
 10
108.9304663662303
 20
42.86882108257247
 30
0.0
  0
LINE
  5
E8
330
70
100
AcDbEntity
  8
0
 62
    18
420
        0
370
    25
100
AcDbLine
 10
108.7598806993886
 20
52.7587288613456
 30
0.0
 11
108.7592847106887
 21
52.75872321604579
 31
0.0
  0
SPLINE
  5
E9
330
70
100
AcDbEntity
  8
0
 62
    18
420
        0
370
    25
100
AcDbSpline
210
0.0
220
0.0
230
1.0
 70
     8
 71
     3
 72
     8
 73
     4
 74
     0
 42
0.0000000001
 43
0.0000000001
 40
0.0
 40
0.0
 40
0.0
 40
0.0
 40
1.0
 40
1.0
 40
1.0
 40
1.0
 10
108.9284098049145
 20
46.64000937184298
 30
0.0
 10
108.904650920551
 20
48.68034653382412
 30
0.0
 10
108.8484674577658
 20
50.72017726641963
 30
0.0
 10
108.7598806994162
 20
52.75872886139822
 30
0.0
  0
SPLINE
  5
EA
330
70
100
AcDbEntity
  8
0
 62
    18
420
        0
370
    25
100
AcDbSpline
210
0.0
220
0.0
230
1.0
 70
     8
 71
     3
 72
     8
 73
     4
 74
     0
 42
0.0000000001
 43
0.0000000001
 40
0.0
 40
0.0
 40
0.0
 40
0.0
 40
1.0
 40
1.0
 40
1.0
 40
1.0
 10
108.9341446916014
 20
46.09318078548266
 30
0.0
 10
108.9342154709118
 20
46.15356256775174
 30
0.0
 10
108.9342520459231
 20
46.21394438529825
 30
0.0
 10
108.9342544166173
 20
46.27432620900441
 30
0.0
  0
SPLINE
  5
EB
330
70
100
AcDbEntity
  8
0
 62
    18
420
        0
370
    25
100
AcDbSpline
210
0.0
220
0.0
230
1.0
 70
     8
 71
     3
 72
     8
 73
     4
 74
     0
 42
0.0000000001
 43
0.0000000001
 40
0.0
 40
0.0
 40
0.0
 40
0.0
 40
1.0
 40
1.0
 40
1.0
 40
1.0
 10
108.7592821608084
 20
52.77275660401545
 30
0.0
 10
108.7516965238676
 20
52.95118209732371
 30
0.0
 10
108.604839093876
 20
53.09192912726441
 30
0.0
 10
108.4262524243013
 20
53.09192973879076
 30
0.0
  0
LWPOLYLINE
  5
EC
330
70
100
AcDbEntity
  8
0
 62
    18
420
        0
370
    25
100
AcDbPolyline
 90
        7
 70
     0
 43
0.0
 10
108.7592821608886
 20
52.77275660404625
 10
108.7593911993885
 20
52.77019368644589
 10
108.759500392389
 20
52.7676303485455
 10
108.7596306908882
 20
52.76457587834617
 10
108.7597531594887
 20
52.76170937404553
 10
108.7598184695885
 20
52.76018251984559
 10
108.7598806993886
 20
52.7587288613456
  0
LINE
  5
ED
330
70
100
AcDbEntity
  8
0
 62
    18
420
        0
370
    25
100
AcDbLine
 10
108.7592821608385
 20
52.7727566040777
 30
0.0
 11
108.7604777683118
 21
52.774092147164
 31
0.0
  0
LINE
  5
EE
330
70
100
AcDbEntity
  8
0
 62
    18
420
        0
370
    25
100
AcDbLine
 10
108.4262524243886
 20
53.09192973884594
 30
0.0
 11
108.4281226852887
 21
53.09192973884594
 31
0.0
  0
SPLINE
  5
EF
330
70
100
AcDbEntity
  8
0
 62
    18
420
        0
370
    25
100
AcDbSpline
210
0.0
220
0.0
230
1.0
 70
     8
 71
     3
 72
     8
 73
     4
 74
     0
 42
0.0000000001
 43
0.0000000001
 40
0.0
 40
0.0
 40
0.0
 40
0.0
 40
1.0
 40
1.0
 40
1.0
 40
1.0
 10
108.7610633787226
 20
52.77477063701167
 30
0.0
 10
108.7524356892882
 20
52.95236849638238
 30
0.0
 10
108.6059299873817
 20
53.0919297387792
 30
0.0
 10
108.4281226852887
 20
53.0919297387792
 30
0.0
  0
LWPOLYLINE
  5
F0
330
70
100
AcDbEntity
  8
0
 62
    18
420
        0
370
    25
100
AcDbPolyline
 90
        3
 70
     0
 43
0.0
 10
108.7618419121887
 20
52.7587288613456
 10
108.7614061238888
 20
52.76771226494567
 10
108.7610633787887
 20
52.77477063704632
  0
LINE
  5
F1
330
70
100
AcDbEntity
  8
0
 62
    18
420
        0
370
    25
100
AcDbLine
 10
108.7618419121887
 20
52.7587288613456
 30
0.0
 11
108.7598806993886
 21
52.7587288613456
 31
0.0
  0
LINE
  5
F2
330
70
100
AcDbEntity
  8
0
 62
    18
420
        0
370
    25
100
AcDbLine
 10
128.9324819647881
 20
140.4169297388459
 30
0.0
 11
132.2658152980882
 21
140.4169297388459
 31
0.0
  0
LINE
  5
F3
330
70
100
AcDbEntity
  8
0
 62
    18
420
        0
370
    25
100
AcDbLine
 10
143.1198685771885
 20
42.08359640544588
 30
0.0
 11
118.0784286668886
 21
42.08359640544588
 31
0.0
  0
LWPOLYLINE
  5
F4
330
70
100
AcDbEntity
  8
0
 62
    18
420
        0
370
    25
100
AcDbPolyline
 90
        6
 70
     0
 43
0.0
 10
117.9807699522888
 20
42.25171749474615
 10
117.9730819786887
 20
42.15208136834574
 10
118.0066548606885
 20
42.10462822334627
 10
118.0613357911888
 20
42.08451858534603
 10
118.0773886627887
 20
42.08359965954599
 10
118.0784286668886
 20
42.08359640544588
  0
SPLINE
  5
F5
330
70
100
AcDbEntity
  8
0
 62
    18
420
        0
370
    25
100
AcDbSpline
210
0.0
220
0.0
230
1.0
 70
     8
 71
     3
 72
     8
 73
     4
 74
     0
 42
0.0000000001
 43
0.0000000001
 40
0.0
 40
0.0
 40
0.0
 40
0.0
 40
1.0
 40
1.0
 40
1.0
 40
1.0
 10
117.9807699523465
 20
42.2517174947423
 30
0.0
 10
118.140282256014
 20
43.03329395157978
 30
0.0
 10
118.2285360571228
 20
43.82773387456047
 30
0.0
 10
118.2444455472544
 20
44.62526307216293
 30
0.0
  0
LINE
  5
F6
330
70
100
AcDbEntity
  8
0
 62
    18
420
        0
370
    25
100
AcDbLine
 10
118.2444309826883
 20
44.62526307214625
 30
0.0
 11
118.2444455471889
 21
44.62526307214625
 31
0.0
  0
SPLINE
  5
F7
330
70
100
AcDbEntity
  8
0
 62
    18
420
        0
370
    25
100
AcDbSpline
210
0.0
220
0.0
230
1.0
 70
     8
 71
     3
 72
     8
 73
     4
 74
     0
 42
0.0000000001
 43
0.0000000001
 40
0.0
 40
0.0
 40
0.0
 40
0.0
 40
1.0
 40
1.0
 40
1.0
 40
1.0
 10
118.244430982696
 20
44.62526307211288
 30
0.0
 10
118.2525699804722
 20
45.50641661643642
 30
0.0
 10
118.1933861527779
 20
46.3869045594452
 30
0.0
 10
118.0673960336159
 20
47.25904233630799
 30
0.0
  0
LWPOLYLINE
  5
F8
330
70
100
AcDbEntity
  8
0
 62
    18
420
        0
370
    25
100
AcDbPolyline
 90
        5
 70
     0
 43
0.0
 10
118.1683333624881
 20
47.41692973884614
 10
118.1672933684885
 20
47.41692648474603
 10
118.1357832134882
 20
47.41339423734595
 10
118.0668430664891
 20
47.35829831664565
 10
118.067396033589
 20
47.25904233634586
  0
LINE
  5
F9
330
70
100
AcDbEntity
  8
0
 62
    18
420
        0
370
    25
100
AcDbLine
 10
118.1683333624881
 20
47.41692973884614
 30
0.0
 11
143.0299638791891
 21
47.41692973884614
 31
0.0
  0
SPLINE
  5
FA
330
70
100
AcDbEntity
  8
0
 62
    18
420
        0
370
    25
100
AcDbSpline
210
0.0
220
0.0
230
1.0
 70
     8
 71
     3
 72
     8
 73
     4
 74
     0
 42
0.0000000001
 43
0.0000000001
 40
0.0
 40
0.0
 40
0.0
 40
0.0
 40
1.0
 40
1.0
 40
1.0
 40
1.0
 10
117.9807699523067
 20
42.25171749474358
 30
0.0
 10
117.9712476271372
 20
42.33610389811302
 30
0.0
 10
117.8999378834072
 20
42.39992283960893
 30
0.0
 10
117.8150160308718
 20
42.40005963231677
 30
0.0
  0
SPLINE
  5
FB
330
70
100
AcDbEntity
  8
0
 62
    18
420
        0
370
    25
100
AcDbSpline
210
0.0
220
0.0
230
1.0
 70
     8
 71
     3
 72
     8
 73
     4
 74
     0
 42
0.0000000001
 43
0.0000000001
 40
0.0
 40
0.0
 40
0.0
 40
0.0
 40
1.0
 40
1.0
 40
1.0
 40
1.0
 10
117.8150160308847
 20
42.40005963233346
 30
0.0
 10
117.9758128382426
 20
43.13412016816169
 30
0.0
 10
118.0651828855108
 20
43.8820209103786
 30
0.0
 10
118.0818761608472
 20
44.63330102995917
 30
0.0
  0
SPLINE
  5
FC
330
70
100
AcDbEntity
  8
0
 62
    18
420
        0
370
    25
100
AcDbSpline
210
0.0
220
0.0
230
1.0
 70
     8
 71
     3
 72
     8
 73
     4
 74
     0
 42
0.0000000001
 43
0.0000000001
 40
0.0
 40
0.0
 40
0.0
 40
0.0
 40
1.0
 40
1.0
 40
1.0
 40
1.0
 10
118.244430997672
 20
44.62526458765778
 30
0.0
 10
118.1904206894002
 20
44.63074211166978
 30
0.0
 10
118.1361633731993
 20
44.63342450363811
 30
0.0
 10
118.0818761608639
 20
44.63330102991361
 30
0.0
  0
SPLINE
  5
FD
330
70
100
AcDbEntity
  8
0
 62
    18
420
        0
370
    25
100
AcDbSpline
210
0.0
220
0.0
230
1.0
 70
     8
 71
     3
 72
     8
 73
     4
 74
     0
 42
0.0000000001
 43
0.0000000001
 40
0.0
 40
0.0
 40
0.0
 40
0.0
 40
1.0
 40
1.0
 40
1.0
 40
1.0
 10
118.0818761608421
 20
44.6333010298796
 30
0.0
 10
118.0900490471013
 20
45.465642750288
 30
0.0
 10
118.0298298407033
 20
46.2972491738047
 30
0.0
 10
117.9018261150029
 20
47.11972992240016
 30
0.0
  0
SPLINE
  5
FE
330
70
100
AcDbEntity
  8
0
 62
    18
420
        0
370
    25
100
AcDbSpline
210
0.0
220
0.0
230
1.0
 70
     8
 71
     3
 72
     8
 73
     4
 74
     0
 42
0.0000000001
 43
0.0000000001
 40
0.0
 40
0.0
 40
0.0
 40
0.0
 40
1.0
 40
1.0
 40
1.0
 40
1.0
 10
117.9018261149888
 20
47.11972992240337
 30
0.0
 10
117.9838425892086
 20
47.11891865025189
 30
0.0
 10
118.0541722958835
 20
47.17809486590879
 30
0.0
 10
118.067396033562
 20
47.25904233633174
 30
0.0
  0
LINE
  5
FF
330
70
100
AcDbEntity
  8
0
 62
    18
420
        0
370
    25
100
AcDbLine
 10
108.9324819647887
 20
47.41692973884614
 30
0.0
 11
108.9324819647887
 21
43.24458729594566
 31
0.0
  0
SPLINE
  5
100
330
70
100
AcDbEntity
  8
0
 62
    18
420
        0
370
    25
100
AcDbSpline
210
0.0
220
0.0
230
1.0
 70
     8
 71
     3
 72
    11
 73
     7
 74
     0
 42
0.0000000001
 43
0.0000000001
 40
0.0
 40
0.0
 40
0.0
 40
0.0
 40
1.0
 40
1.0
 40
1.0
 40
2.0
 40
2.0
 40
2.0
 40
2.0
 10
118.1683333625086
 20
47.41692973882625
 30
0.0
 10
118.0264916478773
 20
47.42386770151809
 30
0.0
 10
117.9058818891004
 20
47.31450660279747
 30
0.0
 10
117.8989439264086
 20
47.17266488816616
 30
0.0
 10
117.8980782977276
 20
47.15496772520096
 30
0.0
 10
117.8990441591774
 20
47.13722848271987
 30
0.0
 10
117.9018261150247
 20
47.11972992244508
 30
0.0
  0
SPLINE
  5
101
330
70
100
AcDbEntity
  8
0
 62
    18
420
        0
370
    25
100
AcDbSpline
210
0.0
220
0.0
230
1.0
 70
     8
 71
     3
 72
    11
 73
     7
 74
     0
 42
0.0000000001
 43
0.0000000001
 40
0.0
 40
0.0
 40
0.0
 40
0.0
 40
1.0
 40
1.0
 40
1.0
 40
2.0
 40
2.0
 40
2.0
 40
2.0
 10
117.8150160308436
 20
42.40005963226672
 30
0.0
 10
117.7822812547976
 20
42.26165891657687
 30
0.0
 10
117.8679404235784
 20
42.12292618944823
 30
0.0
 10
118.0063411392682
 20
42.09019141340159
 30
0.0
 10
118.0299399235293
 20
42.08460978823503
 30
0.0
 10
118.0542088281076
 20
42.0823895203982
 30
0.0
 10
118.0784286668052
 20
42.08359640544331
 30
0.0
  0
LINE
  5
102
330
70
100
AcDbEntity
  8
0
 62
    18
420
        0
370
    25
100
AcDbLine
 10
142.876777366388
 20
50.75026307214622
 30
0.0
 11
118.3215619694884
 21
50.75026307214622
 31
0.0
  0
LINE
  5
103
330
70
100
AcDbEntity
  8
0
 62
    18
420
        0
370
    25
100
AcDbLine
 10
140.4373598968883
 20
13.41692973884623
 30
0.0
 11
120.7609710794887
 21
13.41692973884623
 31
0.0
  0
LINE
  5
104
330
70
100
AcDbEntity
  8
0
 62
     8
420
  8421504
370
    25
100
AcDbLine
 10
108.7609656752735
 20
36.74253456988096
 30
0.0
 11
108.7598519534861
 21
36.74380660632024
 31
0.0
  0
LINE
  5
105
330
70
100
AcDbEntity
  8
0
 62
     8
420
  8421504
370
    25
100
AcDbLine
 10
117.9807699522888
 20
42.25171749474615
 30
0.0
 11
143.2865289165881
 21
42.25171749474615
 31
0.0
  0
LINE
  5
106
330
70
100
AcDbEntity
  8
0
 62
     8
420
  8421504
370
    25
100
AcDbLine
 10
118.2444455471889
 20
44.62526307214625
 30
0.0
 11
143.2658152980892
 21
44.62526307214625
 31
0.0
  0
LINE
  5
107
330
70
100
AcDbEntity
  8
0
 62
     8
420
  8421504
370
    25
100
AcDbLine
 10
143.1963991799885
 20
47.25904233634586
 30
0.0
 11
118.067396033589
 21
47.25904233634586
 31
0.0
  0
LINE
  5
108
330
70
100
AcDbEntity
  8
0
 62
     8
420
  8421504
370
    25
100
AcDbLine
 10
130.5991486314888
 20
140.6375643353458
 30
0.0
 11
128.9324819647881
 21
140.6375643353458
 31
0.0
  0
LINE
  5
109
330
70
100
AcDbEntity
  8
0
 62
     8
420
  8421504
370
    25
100
AcDbLine
 10
132.2658152980882
 20
140.6375643353458
 30
0.0
 11
130.5991486314888
 21
140.6375643353458
 31
0.0
  0
LINE
  5
10A
330
70
100
AcDbEntity
  8
0
 62
     8
420
  8421504
370
    25
100
AcDbLine
 10
130.5991486314888
 20
140.793056385946
 30
0.0
 11
132.1591486314888
 21
140.793056385946
 31
0.0
  0
LINE
  5
10B
330
70
100
AcDbEntity
  8
0
 62
     8
420
  8421504
370
    25
100
AcDbLine
 10
129.0391486314889
 20
140.793056385946
 30
0.0
 11
130.5991486314888
 21
140.793056385946
 31
0.0
  0
LINE
  5
10C
330
70
100
AcDbEntity
  8
0
 62
     8
420
  8421504
370
    25
100
AcDbLine
 10
143.0434376868883
 20
50.58214198284596
 30
0.0
 11
118.1549022200887
 21
50.58214198284596
 31
0.0
  0
LINE
  5
10D
330
70
100
AcDbEntity
  8
0
 62
     8
420
  8421504
370
    25
100
AcDbLine
 10
143.017257083489
 20
47.58214198284585
 30
0.0
 11
118.1810827336886
 21
47.58214198284585
 31
0.0
  0
LINE
  5
10E
330
70
100
AcDbEntity
  8
0
 62
     8
420
  8421504
370
    25
100
AcDbLine
 10
140.9373358693883
 20
13.9120280135458
 30
0.0
 11
120.2609968202892
 21
13.9120280135458
 31
0.0
  0
LWPOLYLINE
  5
10F
330
70
100
AcDbEntity
  8
0
 62
    18
420
        0
370
    25
100
AcDbPolyline
 90
        3
 70
     0
 43
0.0
 10
56.09433749348873
 20
-22.16118812685389
 10
58.60383504138851
 20
-22.12065288175392
 10
62.01960247788874
 20
-21.98897515005425
  0
LWPOLYLINE
  5
110
330
70
100
AcDbEntity
  8
0
 62
    18
420
        0
370
    25
100
AcDbPolyline
 90
        3
 70
     0
 43
0.0
 10
45.98753252398863
 20
-21.98897515685434
 10
49.40328086418865
 20
-22.12065234475386
 10
51.9127637642885
 20
-22.16118812685389
  0
SPLINE
  5
111
330
70
100
AcDbEntity
  8
0
 62
    18
420
        0
370
    25
100
AcDbSpline
210
0.0
220
0.0
230
1.0
 70
     8
 71
     3
 72
     8
 73
     4
 74
     0
 42
0.0000000001
 43
0.0000000001
 40
0.0
 40
0.0
 40
0.0
 40
0.0
 40
1.0
 40
1.0
 40
1.0
 40
1.0
 10
62.01947452060728
 20
-21.9897839645491
 30
0.0
 10
62.19718648183593
 20
-21.98129368868043
 30
0.0
 10
62.33690621962722
 20
-21.83473496676627
 30
0.0
 10
62.33690083426942
 20
-21.65682030767634
 30
0.0
  0
SPLINE
  5
112
330
70
100
AcDbEntity
  8
0
 62
    18
420
        0
370
    25
100
AcDbSpline
210
0.0
220
0.0
230
1.0
 70
     8
 71
     3
 72
     8
 73
     4
 74
     0
 42
0.0000000001
 43
0.0000000001
 40
0.0
 40
0.0
 40
0.0
 40
0.0
 40
1.0
 40
1.0
 40
1.0
 40
1.0
 10
45.67023416790794
 20
-21.65682030767698
 30
0.0
 10
45.67022878388936
 20
-21.83469073079572
 30
0.0
 10
45.80988137733804
 20
-21.9812293555706
 30
0.0
 10
45.98754622982794
 20
-21.98977848646836
 30
0.0
  0
LINE
  5
113
330
70
100
AcDbEntity
  8
0
 62
    18
420
        0
370
    25
100
AcDbLine
 10
51.33690083438871
 20
-22.16118812685389
 30
0.0
 11
51.33690083438871
 21
-31.31052767835435
 31
0.0
  0
LINE
  5
114
330
70
100
AcDbEntity
  8
0
 62
    18
420
        0
370
    25
100
AcDbLine
 10
56.67023416768855
 20
-31.31052767835435
 30
0.0
 11
56.67023416768855
 21
-22.16118812685389
 31
0.0
  0
SPLINE
  5
115
330
70
100
AcDbEntity
  8
0
 62
    18
420
        0
370
    25
100
AcDbSpline
210
0.0
220
0.0
230
1.0
 70
     8
 71
     3
 72
     8
 73
     4
 74
     0
 42
0.0000000001
 43
0.0000000001
 40
0.0
 40
0.0
 40
0.0
 40
0.0
 40
1.0
 40
1.0
 40
1.0
 40
1.0
 10
56.67228567388924
 20
-31.3111384638666
 30
0.0
 10
56.67012142139609
 20
-31.38661080853979
 30
0.0
 10
56.72055660719266
 20
-31.45350307624558
 30
0.0
 10
56.79371190256151
 20
-31.47218626544904
 30
0.0
  0
SPLINE
  5
116
330
70
100
AcDbEntity
  8
0
 62
    18
420
        0
370
    25
100
AcDbSpline
210
0.0
220
0.0
230
1.0
 70
     8
 71
     3
 72
     8
 73
     4
 74
     0
 42
0.0000000001
 43
0.0000000001
 40
0.0
 40
0.0
 40
0.0
 40
0.0
 40
1.0
 40
1.0
 40
1.0
 40
1.0
 10
51.21105604014339
 20
-31.47282195244866
 30
0.0
 10
51.28574467099697
 20
-31.45453948157276
 30
0.0
 10
51.33763375371199
 20
-31.38672759554405
 30
0.0
 10
51.33575556681036
 20
-31.30985684210631
 30
0.0
  0
SPLINE
  5
117
330
70
100
AcDbEntity
  8
0
 62
    18
420
        0
370
    25
100
AcDbSpline
210
0.0
220
0.0
230
1.0
 70
     8
 71
     3
 72
    17
 73
    13
 74
     0
 42
0.0000000001
 43
0.0000000001
 40
0.0
 40
0.0
 40
0.0
 40
0.0
 40
1.0
 40
1.0
 40
1.0
 40
2.0
 40
2.0
 40
2.0
 40
3.0
 40
3.0
 40
3.0
 40
4.0
 40
4.0
 40
4.0
 40
4.0
 10
51.23571146585426
 20
-31.44606362659954
 30
0.0
 10
44.39743702881067
 20
-32.97470830458657
 30
0.0
 10
40.09313165624678
 20
-39.75743639164527
 30
0.0
 10
41.62177633423413
 20
-46.5957108286882
 30
0.0
 10
43.15042101222114
 20
-53.43398526573178
 30
0.0
 10
49.93314909927953
 20
-57.73829063829599
 30
0.0
 10
56.77142353632311
 20
-56.20964596030834
 30
0.0
 10
63.60969797336637
 20
-54.68100128232132
 30
0.0
 10
67.91400334593025
 20
-47.89827319526325
 30
0.0
 10
66.38535866794324
 20
-41.05999875821967
 30
0.0
 10
65.31514291190443
 20
-36.27247085717836
 30
0.0
 10
61.58082679847382
 20
-32.53092130514464
 30
0.0
 10
56.79537888129904
 20
-31.45144300535069
 30
0.0
  0
CIRCLE
  5
118
330
70
100
AcDbEntity
  8
0
 62
    18
420
        0
370
    25
100
AcDbCircle
 10
54.0035675010886
 20
-43.82785479345393
 30
0.0
 40
4.833333333333222
  0
CIRCLE
  5
119
330
70
100
AcDbEntity
  8
0
 62
    18
420
        0
370
    25
100
AcDbCircle
 10
54.00356750108852
 20
-43.82785479345393
 30
0.0
 40
12.4442954016064
  0
LWPOLYLINE
  5
11A
330
70
100
AcDbEntity
  8
0
 62
    18
420
        0
370
    25
100
AcDbPolyline
 90
        5
 70
     0
 43
0.0
 10
46.00343504518849
 20
-21.98858686145378
 10
46.00341506318863
 20
-21.98858601365384
 10
45.99640976338874
 20
-21.98828861575385
 10
45.99290711908873
 20
-21.98813978735423
 10
45.98940447838866
 20
-21.98799087265379
  0
LINE
  5
11B
330
70
100
AcDbEntity
  8
0
 62
    18
420
        0
370
    25
100
AcDbLine
 10
45.98940447838866
 20
-21.98799087265379
 30
0.0
 11
46.00356750108856
 21
-21.65495858635432
 31
0.0
  0
LWPOLYLINE
  5
11C
330
70
100
AcDbEntity
  8
0
 62
    18
420
        0
370
    25
100
AcDbPolyline
 90
       11
 70
     0
 43
0.0
 10
45.99642991158865
 20
-21.98798832285431
 10
45.99657844938876
 20
-21.98105386595427
 10
45.99693230818877
 20
-21.96453470555378
 10
45.99746179838851
 20
-21.93981831965436
 10
45.99818219338866
 20
-21.90619395725417
 10
45.99903316938864
 20
-21.86647975615384
 10
46.00003919008856
 20
-21.81953679445373
 10
46.00111611558854
 20
-21.76929368925394
 10
46.00229477198874
 20
-21.71431439865413
 10
46.00334724498854
 20
-21.66522983905413
 10
46.00356750108856
 20
-21.65495858635432
  0
SPLINE
  5
11D
330
70
100
AcDbEntity
  8
0
 62
    18
420
        0
370
    25
100
AcDbSpline
210
0.0
220
0.0
230
1.0
 70
     8
 71
     3
 72
     8
 73
     4
 74
     0
 42
0.0000000001
 43
0.0000000001
 40
0.0
 40
0.0
 40
0.0
 40
0.0
 40
1.0
 40
1.0
 40
1.0
 40
1.0
 10
45.99642991159218
 20
-21.98798832289603
 30
0.0
 10
45.99874248252063
 20
-21.98839597201791
 30
0.0
 10
46.0010868387414
 20
-21.98859628049516
 30
0.0
 10
46.00343504516058
 20
-21.98858686147367
 30
0.0
  0
LWPOLYLINE
  5
11E
330
70
100
AcDbEntity
  8
0
 62
    18
420
        0
370
    25
100
AcDbPolyline
 90
        6
 70
     0
 43
0.0
 10
54.00356750108852
 20
-21.98976954075381
 10
53.33690083438846
 20
-21.98975366865405
 10
50.67023419998857
 20
-21.98939883545395
 10
48.33683740098864
 20
-21.9887836135541
 10
46.00344068428853
 20
-21.98799087305421
 10
45.99642991158865
 20
-21.98798832285431
  0
LWPOLYLINE
  5
11F
330
70
100
AcDbEntity
  8
0
 62
    18
420
        0
370
    25
100
AcDbPolyline
 90
        4
 70
     0
 43
0.0
 10
46.00356750108856
 20
-21.65495858635432
 10
49.79993990648871
 20
-21.65622463975411
 10
51.9017536823886
 20
-21.65666760715435
 10
54.00356750108852
 20
-21.6568288473539
  0
LINE
  5
120
330
70
100
AcDbEntity
  8
0
 62
    18
420
        0
370
    25
100
AcDbLine
 10
54.00356750108852
 20
-21.98976954075381
 30
0.0
 11
54.00356750108852
 21
-21.6568288473539
 31
0.0
  0
LINE
  5
121
330
70
100
AcDbEntity
  8
0
 62
    18
420
        0
370
    25
100
AcDbLine
 10
62.33690083438846
 20
-20.16118812685382
 30
0.0
 11
62.33690083438846
 21
-21.65495858645378
 31
0.0
  0
LINE
  5
122
330
70
100
AcDbEntity
  8
0
 62
    18
420
        0
370
    25
100
AcDbLine
 10
62.00356750108849
 20
-21.65495858635432
 30
0.0
 11
62.33690083438846
 21
-21.65495858645378
 31
0.0
  0
LINE
  5
123
330
70
100
AcDbEntity
  8
0
 62
    18
420
        0
370
    25
100
AcDbLine
 10
62.00356750108849
 20
-21.65495858635432
 30
0.0
 11
62.00356750108849
 21
-20.16118812685382
 31
0.0
  0
LINE
  5
124
330
70
100
AcDbEntity
  8
0
 62
    18
420
        0
370
    25
100
AcDbLine
 10
62.00356750108849
 20
-20.16118812685382
 30
0.0
 11
62.33690083438846
 21
-20.16118812685382
 31
0.0
  0
LWPOLYLINE
  5
125
330
70
100
AcDbEntity
  8
0
 62
    18
420
        0
370
    25
100
AcDbPolyline
 90
        4
 70
     0
 43
0.0
 10
54.00356750108852
 20
-21.6568288473539
 10
57.79995286688866
 20
-21.65632905745431
 10
59.90176020748855
 20
-21.65571403355391
 10
62.00356750108849
 20
-21.65495858635432
  0
LINE
  5
126
330
70
100
AcDbEntity
  8
0
 62
    18
420
        0
370
    25
100
AcDbLine
 10
46.00356750108856
 20
-20.16118812685382
 30
0.0
 11
46.00356750108856
 21
-21.65495858635432
 31
0.0
  0
LINE
  5
127
330
70
100
AcDbEntity
  8
0
 62
    18
420
        0
370
    25
100
AcDbLine
 10
62.00356750108849
 20
-20.16118812685382
 30
0.0
 11
46.00356750108856
 21
-20.16118812685382
 31
0.0
  0
LINE
  5
128
330
70
100
AcDbEntity
  8
0
 62
    18
420
        0
370
    25
100
AcDbLine
 10
45.67023416768847
 20
-21.65495858625421
 30
0.0
 11
46.00356750108856
 21
-21.65495858635432
 31
0.0
  0
LINE
  5
129
330
70
100
AcDbEntity
  8
0
 62
    18
420
        0
370
    25
100
AcDbLine
 10
45.67023416768847
 20
-21.65495858625421
 30
0.0
 11
45.67023416768847
 21
-20.16118812685382
 31
0.0
  0
LINE
  5
12A
330
70
100
AcDbEntity
  8
0
 62
    18
420
        0
370
    25
100
AcDbLine
 10
45.67023416768847
 20
-20.16118812685382
 30
0.0
 11
46.00356750108856
 21
-20.16118812685382
 31
0.0
  0
LWPOLYLINE
  5
12B
330
70
100
AcDbEntity
  8
0
 62
    18
420
        0
370
    25
100
AcDbPolyline
 90
        5
 70
     0
 43
0.0
 10
62.00369431778873
 20
-21.98799087305421
 10
61.33702774638868
 20
-21.98822966485429
 10
58.67036137948873
 20
-21.98907500055395
 10
56.3369645402886
 20
-21.98958249525433
 10
54.00356750108852
 20
-21.98976954075381
  0
LINE
  5
12C
330
70
100
AcDbEntity
  8
0
 62
    18
420
        0
370
    25
100
AcDbLine
 10
62.00369431778873
 20
-21.98799087305421
 30
0.0
 11
62.00356750108849
 21
-21.65495858635432
 31
0.0
  0
SPLINE
  5
12D
330
70
100
AcDbEntity
  8
0
 62
    18
420
        0
370
    25
100
AcDbSpline
210
0.0
220
0.0
230
1.0
 70
     8
 71
     3
 72
     8
 73
     4
 74
     0
 42
0.0000000001
 43
0.0000000001
 40
0.0
 40
0.0
 40
0.0
 40
0.0
 40
1.0
 40
1.0
 40
1.0
 40
1.0
 10
62.00369431777846
 20
-21.98799087304138
 30
0.0
 10
62.18765659729483
 20
-21.98800399213418
 30
0.0
 10
62.3368177365042
 20
-21.83892084757649
 30
0.0
 10
62.33690083433135
 20
-21.65495858636074
 30
0.0
  0
SPLINE
  5
12E
330
70
100
AcDbEntity
  8
0
 62
    18
420
        0
370
    25
100
AcDbSpline
210
0.0
220
0.0
230
1.0
 70
     8
 71
     3
 72
     8
 73
     4
 74
     0
 42
0.0000000001
 43
0.0000000001
 40
0.0
 40
0.0
 40
0.0
 40
0.0
 40
1.0
 40
1.0
 40
1.0
 40
1.0
 10
45.67023416775682
 20
-21.65495858624908
 30
0.0
 10
45.67023417386194
 20
-21.83354486363786
 30
0.0
 10
45.81097947630455
 20
-21.98040291502258
 30
0.0
 10
45.98940447839187
 20
-21.98799087269935
 30
0.0
  0
SPLINE
  5
12F
330
70
100
AcDbEntity
  8
0
 62
    18
420
        0
370
    25
100
AcDbSpline
210
0.0
220
0.0
230
1.0
 70
     8
 71
     3
 72
     8
 73
     4
 74
     0
 42
0.0000000001
 43
0.0000000001
 40
0.0
 40
0.0
 40
0.0
 40
0.0
 40
1.0
 40
1.0
 40
1.0
 40
1.0
 10
55.88499472249608
 20
-22.15880791651713
 30
0.0
 10
57.92533952501186
 20
-22.13465776289893
 30
0.0
 10
59.96516825751808
 20
-22.07791016915043
 30
0.0
 10
62.00369995699689
 20
-21.98858686149228
 30
0.0
  0
LWPOLYLINE
  5
130
330
70
100
AcDbEntity
  8
0
 62
    18
420
        0
370
    25
100
AcDbPolyline
 90
        7
 70
     0
 43
0.0
 10
62.01772769898846
 20
-21.98798832295378
 10
62.01516478188862
 20
-21.98809736145433
 10
62.01260144468864
 20
-21.98820655445418
 10
62.00954697468857
 20
-21.98833685285395
 10
62.00668047058845
 20
-21.9884593214538
 10
62.00515361588863
 20
-21.98852463155426
 10
62.00369995688877
 20
-21.98858686145378
  0
SPLINE
  5
131
330
70
100
AcDbEntity
  8
0
 62
    18
420
        0
370
    25
100
AcDbSpline
210
0.0
220
0.0
230
1.0
 70
     8
 71
     3
 72
     8
 73
     4
 74
     0
 42
0.0000000001
 43
0.0000000001
 40
0.0
 40
0.0
 40
0.0
 40
0.0
 40
1.0
 40
1.0
 40
1.0
 40
1.0
 10
46.00343504528314
 20
-21.9885868614711
 30
0.0
 10
48.04198664028003
 20
-22.07717361920147
 30
0.0
 10
50.08181737285981
 20
-22.13335708198413
 30
0.0
 10
52.12215453482491
 20
-22.15711596696371
 30
0.0
  0
LINE
  5
132
330
70
100
AcDbEntity
  8
0
 62
    18
420
        0
370
    25
100
AcDbLine
 10
54.00356750108852
 20
-21.99054807425386
 30
0.0
 11
54.00356750108852
 21
-21.98976954075381
 31
0.0
  0
LWPOLYLINE
  5
133
330
70
100
AcDbEntity
  8
0
 62
    18
420
        0
370
    25
100
AcDbPolyline
 90
        5
 70
     0
 43
0.0
 10
54.00356750108852
 20
-21.99054807425386
 10
51.92023416768854
 20
-21.99038123685433
 10
49.83690088048864
 20
-21.98992302915389
 10
47.92016794858851
 20
-21.98931214085428
 10
46.00343504518849
 20
-21.98858686145378
  0
LINE
  5
134
330
70
100
AcDbEntity
  8
0
 62
    18
420
        0
370
    25
100
AcDbLine
 10
62.00369995688877
 20
-21.98858686145378
 30
0.0
 11
62.00369431778873
 21
-21.98799087305421
 31
0.0
  0
LWPOLYLINE
  5
135
330
70
100
AcDbEntity
  8
0
 62
    18
420
        0
370
    25
100
AcDbPolyline
 90
        5
 70
     0
 43
0.0
 10
62.00369995688877
 20
-21.98858686145378
 10
59.92036676728872
 20
-21.9893706839541
 10
57.8370335311886
 20
-21.99001276885422
 10
55.92030054898858
 20
-21.99040623175383
 10
54.00356750108852
 20
-21.99054807425386
  0
SPLINE
  5
136
330
70
100
AcDbEntity
  8
0
 62
    18
420
        0
370
    25
100
AcDbSpline
210
0.0
220
0.0
230
1.0
 70
     8
 71
     3
 72
     8
 73
     4
 74
     0
 42
0.0000000001
 43
0.0000000001
 40
0.0
 40
0.0
 40
0.0
 40
0.0
 40
1.0
 40
1.0
 40
1.0
 40
1.0
 10
62.01772769901285
 20
-21.98798832294736
 30
0.0
 10
62.19615323405945
 20
-21.98040277811288
 30
0.0
 10
62.33690031633456
 20
-21.8335452937976
 30
0.0
 10
62.33690083440674
 20
-21.65495858643453
 30
0.0
  0
LWPOLYLINE
  5
137
330
70
100
AcDbEntity
  8
0
 62
    18
420
        0
370
    25
100
AcDbPolyline
 90
        9
 70
     0
 43
0.0
 10
55.22697992398858
 20
-31.13053227705399
 10
55.22647188028868
 20
-31.16106491025402
 10
55.22858076218849
 20
-31.19055947345432
 10
55.2332348702887
 20
-31.21801318945421
 10
55.24027597098847
 20
-31.24249266735412
 10
55.24946467588859
 20
-31.26316563655401
 10
55.26048858088868
 20
-31.27932924275418
 10
55.27297288758878
 20
-31.29043394435401
 10
55.28649314548853
 20
-31.29610219565416
  0
SPLINE
  5
138
330
70
100
AcDbEntity
  8
0
 62
    18
420
        0
370
    25
100
AcDbSpline
210
0.0
220
0.0
230
1.0
 70
     8
 71
     3
 72
     8
 73
     4
 74
     0
 42
0.0000000001
 43
0.0000000001
 40
0.0
 40
0.0
 40
0.0
 40
0.0
 40
1.0
 40
1.0
 40
1.0
 40
1.0
 10
55.28649314549848
 20
-31.29610219558614
 30
0.0
 10
54.8565093478604
 20
-31.2852161222672
 30
0.0
 10
54.42655828736159
 20
-31.31904357890649
 30
0.0
 10
54.00356750106093
 20
-31.39703952449551
 30
0.0
  0
SPLINE
  5
139
330
70
100
AcDbEntity
  8
0
 62
    18
420
        0
370
    25
100
AcDbSpline
210
0.0
220
0.0
230
1.0
 70
     8
 71
     3
 72
     8
 73
     4
 74
     0
 42
0.0000000001
 43
0.0000000001
 40
0.0
 40
0.0
 40
0.0
 40
0.0
 40
1.0
 40
1.0
 40
1.0
 40
1.0
 10
55.22697992393051
 20
-31.13053227702961
 30
0.0
 10
54.80627272269761
 20
-31.1435076929143
 30
0.0
 10
54.39155219547603
 20
-31.23385010248569
 30
0.0
 10
54.00356750102917
 20
-31.39703952451155
 30
0.0
  0
SPLINE
  5
13A
330
70
100
AcDbEntity
  8
0
 62
    18
420
        0
370
    25
100
AcDbSpline
210
0.0
220
0.0
230
1.0
 70
     8
 71
     3
 72
     8
 73
     4
 74
     0
 42
0.0000000001
 43
0.0000000001
 40
0.0
 40
0.0
 40
0.0
 40
0.0
 40
1.0
 40
1.0
 40
1.0
 40
1.0
 10
54.00356750100542
 20
-31.39703952448011
 30
0.0
 10
53.61489474556116
 20
-31.23603594874413
 30
0.0
 10
53.20057881441112
 20
-31.14578167607828
 30
0.0
 10
52.78015507810216
 20
-31.13053227699623
 30
0.0
  0
SPLINE
  5
13B
330
70
100
AcDbEntity
  8
0
 62
    18
420
        0
370
    25
100
AcDbSpline
210
0.0
220
0.0
230
1.0
 70
     8
 71
     3
 72
     8
 73
     4
 74
     0
 42
0.0000000001
 43
0.0000000001
 40
0.0
 40
0.0
 40
0.0
 40
0.0
 40
1.0
 40
1.0
 40
1.0
 40
1.0
 10
54.00356750101536
 20
-31.39703952450064
 30
0.0
 10
53.58057671471502
 20
-31.31904357891162
 30
0.0
 10
53.15062565421653
 20
-31.28521612227233
 30
0.0
 10
52.7206418565791
 20
-31.29610219559192
 30
0.0
  0
LWPOLYLINE
  5
13C
330
70
100
AcDbEntity
  8
0
 62
    18
420
        0
370
    25
100
AcDbPolyline
 90
        9
 70
     0
 43
0.0
 10
52.78015507808868
 20
-31.13053227705399
 10
52.78066312178857
 20
-31.16106491025402
 10
52.77855423988846
 20
-31.19055947345432
 10
52.77390013178856
 20
-31.21801318945421
 10
52.76685903108846
 20
-31.24249266735412
 10
52.75767032618866
 20
-31.26316563655401
 10
52.74664642118858
 20
-31.27932924275418
 10
52.73416211458859
 20
-31.29043394435401
 10
52.72064185658873
 20
-31.29610219565416
  0
SPLINE
  5
13D
330
70
100
AcDbEntity
  8
0
 62
    18
420
        0
370
    25
100
AcDbSpline
210
0.0
220
0.0
230
1.0
 70
     8
 71
     3
 72
    17
 73
    13
 74
     0
 42
0.0000000001
 43
0.0000000001
 40
0.0
 40
0.0
 40
0.0
 40
0.0
 40
1.0
 40
1.0
 40
1.0
 40
2.0
 40
2.0
 40
2.0
 40
3.0
 40
3.0
 40
3.0
 40
4.0
 40
4.0
 40
4.0
 40
4.0
 10
52.72064185665065
 20
-31.2961021955855
 30
0.0
 10
45.7995460081952
 20
-32.00464246417516
 30
0.0
 10
40.76327463462976
 20
-38.18968458943667
 30
0.0
 10
41.47181490321975
 20
-45.11078043789213
 30
0.0
 10
42.18035517180974
 20
-52.03187628634758
 30
0.0
 10
48.36539729707126
 20
-57.06814765991269
 30
0.0
 10
55.28649314552671
 20
-56.35960739132302
 30
0.0
 10
62.20758899398216
 20
-55.65106712273271
 30
0.0
 10
67.2438603675476
 20
-49.4660249974712
 30
0.0
 10
66.53532009895728
 20
-42.54492914901574
 30
0.0
 10
65.92697515441902
 20
-36.60255176169401
 30
0.0
 10
61.22887053284845
 20
-31.90444714012375
 30
0.0
 10
55.28649314552671
 20
-31.2961021955855
 30
0.0
  0
LINE
  5
13E
330
70
100
AcDbEntity
  8
0
 62
    18
420
        0
370
    25
100
AcDbLine
 10
56.66558586678849
 20
-31.31052767835435
 30
0.0
 11
56.66766791048874
 21
-31.310582322854
 31
0.0
  0
LINE
  5
13F
330
70
100
AcDbEntity
  8
0
 62
    18
420
        0
370
    25
100
AcDbLine
 10
56.67023416768855
 20
-22.16118812685389
 30
0.0
 11
56.03623213198876
 21
-22.16118812685389
 31
0.0
  0
LINE
  5
140
330
70
100
AcDbEntity
  8
0
 62
    18
420
        0
370
    25
100
AcDbLine
 10
55.88451240788858
 20
-22.16118812685389
 30
0.0
 11
51.33690083438871
 21
-22.16118812685389
 31
0.0
  0
SPLINE
  5
141
330
70
100
AcDbEntity
  8
0
 62
    18
420
        0
370
    25
100
AcDbSpline
210
0.0
220
0.0
230
1.0
 70
     8
 71
     3
 72
     8
 73
     4
 74
     0
 42
0.0000000001
 43
0.0000000001
 40
0.0
 40
0.0
 40
0.0
 40
0.0
 40
1.0
 40
1.0
 40
1.0
 40
1.0
 10
56.7973814288296
 20
-31.47313714467713
 30
0.0
 10
56.29579226278003
 20
-31.3978524894606
 30
0.0
 10
55.7918994337994
 20
-31.33880997632254
 30
0.0
 10
55.28649314547794
 20
-31.29610219559705
 30
0.0
  0
LINE
  5
142
330
70
100
AcDbEntity
  8
0
 62
    18
420
        0
370
    25
100
AcDbLine
 10
56.79744583498852
 20
-31.47315170925413
 30
0.0
 11
56.79738142888864
 21
-31.47313714465403
 31
0.0
  0
SPLINE
  5
143
330
70
100
AcDbEntity
  8
0
 62
    18
420
        0
370
    25
100
AcDbSpline
210
0.0
220
0.0
230
1.0
 70
     8
 71
     3
 72
    17
 73
    13
 74
     0
 42
0.0000000001
 43
0.0000000001
 40
0.0
 40
0.0
 40
0.0
 40
0.0
 40
1.0
 40
1.0
 40
1.0
 40
2.0
 40
2.0
 40
2.0
 40
3.0
 40
3.0
 40
3.0
 40
4.0
 40
4.0
 40
4.0
 40
4.0
 10
51.2096891671128
 20
-31.47315170922782
 30
0.0
 10
44.38637506500728
 20
-33.0161681059657
 30
0.0
 10
40.10584802012517
 20
-39.79841902532415
 30
0.0
 10
41.64886441686273
 20
-46.62173312742998
 30
0.0
 10
43.19188081360027
 20
-53.44504722953517
 30
0.0
 10
49.97413173295905
 20
-57.72557427441793
 30
0.0
 10
56.79744583506456
 20
-56.18255787768005
 30
0.0
 10
63.62075993717008
 20
-54.63954148094282
 30
0.0
 10
67.9012869820522
 20
-47.85729056158372
 30
0.0
 10
66.35827058531496
 20
-41.03397645947789
 30
0.0
 10
65.28102908231357
 20
-36.27034779400058
 30
0.0
 10
61.56107450054189
 20
-32.55039321222922
 30
0.0
 10
56.79744583506456
 20
-31.47315170922782
 30
0.0
  0
LINE
  5
144
330
70
100
AcDbEntity
  8
0
 62
    18
420
        0
370
    25
100
AcDbLine
 10
51.20975357318862
 20
-31.47313714465403
 30
0.0
 11
51.20968916708874
 21
-31.47315170925413
 31
0.0
  0
SPLINE
  5
145
330
70
100
AcDbEntity
  8
0
 62
    18
420
        0
370
    25
100
AcDbSpline
210
0.0
220
0.0
230
1.0
 70
     8
 71
     3
 72
     8
 73
     4
 74
     0
 42
0.0000000001
 43
0.0000000001
 40
0.0
 40
0.0
 40
0.0
 40
0.0
 40
1.0
 40
1.0
 40
1.0
 40
1.0
 10
52.72064185654894
 20
-31.29610219563363
 30
0.0
 10
52.21353073003688
 20
-31.3201796682946
 30
0.0
 10
51.70869459924944
 20
-31.37933271070851
 30
0.0
 10
51.20975357319215
 20
-31.47313714471435
 30
0.0
  0
LINE
  5
146
330
70
100
AcDbEntity
  8
0
 62
    18
420
        0
370
    25
100
AcDbLine
 10
51.2551582615886
 20
-31.45440655585435
 30
0.0
 11
51.2097535069887
 21
-31.47313715965375
 31
0.0
  0
CIRCLE
  5
147
330
70
100
AcDbEntity
  8
0
 62
    18
420
        0
370
    25
100
AcDbCircle
 10
54.0035675010886
 20
-43.82785479345393
 30
0.0
 40
4.499999999999878
  0
CIRCLE
  5
148
330
70
100
AcDbEntity
  8
0
 62
    18
420
        0
370
    25
100
AcDbCircle
 10
56.28343779558853
 20
-45.64695783745398
 30
0.0
 40
0.3333333333333451
  0
CIRCLE
  5
149
330
70
100
AcDbEntity
  8
0
 62
    18
420
        0
370
    25
100
AcDbCircle
 10
54.00356750108852
 20
-43.82785479345393
 30
0.0
 40
1.559999999999926
  0
CIRCLE
  5
14A
330
70
100
AcDbEntity
  8
0
 62
    18
420
        0
370
    25
100
AcDbCircle
 10
54.00356750108852
 20
-43.82785479345393
 30
0.0
 40
1.666666666666725
  0
CIRCLE
  5
14B
330
70
100
AcDbEntity
  8
0
 62
    18
420
        0
370
    25
100
AcDbCircle
 10
54.0035675010886
 20
-43.8278547934541
 30
0.0
 40
12.27762873493968
  0
CIRCLE
  5
14C
330
70
100
AcDbEntity
  8
0
 62
    18
420
        0
370
    25
100
AcDbCircle
 10
54.0035675010886
 20
-43.82785479345393
 30
0.0
 40
9.846090695223681
  0
CIRCLE
  5
14D
330
70
100
AcDbEntity
  8
0
 62
    18
420
        0
370
    25
100
AcDbCircle
 10
54.00356750108852
 20
-43.8278547934541
 30
0.0
 40
9.487931438299577
  0
LWPOLYLINE
  5
14E
330
70
100
AcDbEntity
  8
0
 62
     8
420
  8421504
370
    25
100
AcDbPolyline
 90
        5
 70
     0
 43
0.0
 10
62.01962933538868
 20
-21.9896718361541
 10
62.01972533308851
 20
-21.98975556795423
 10
62.01945770998866
 20
-21.98952397355389
 10
62.01773051638863
 20
-21.98799087315432
 10
62.01772769898846
 20
-21.98798832295378
  0
LINE
  5
14F
330
70
100
AcDbEntity
  8
0
 62
     8
420
  8421504
370
    25
100
AcDbLine
 10
45.9875056667489
 20
-21.98967183622469
 30
0.0
 11
45.98877770230617
 21
-21.98855811519453
 31
0.0
  0
SPLINE
  5
150
330
70
100
AcDbEntity
  8
0
 62
     8
420
  8421504
370
    25
100
AcDbSpline
210
0.0
220
0.0
230
1.0
 70
     8
 71
     3
 72
     8
 73
     4
 74
     0
 42
0.0000000001
 43
0.0000000001
 40
0.0
 40
0.0
 40
0.0
 40
0.0
 40
1.0
 40
1.0
 40
1.0
 40
1.0
 10
56.66558586681127
 20
-31.31052767839733
 30
0.0
 10
56.19133136601863
 20
-31.21399749052052
 30
0.0
 10
55.71039785952055
 20
-31.15382408449114
 30
0.0
 10
55.22697992398184
 20
-31.13053227706811
 30
0.0
  0
SPLINE
  5
151
330
70
100
AcDbEntity
  8
0
 62
     8
420
  8421504
370
    25
100
AcDbSpline
210
0.0
220
0.0
230
1.0
 70
     8
 71
     3
 72
     8
 73
     4
 74
     0
 42
0.0000000001
 43
0.0000000001
 40
0.0
 40
0.0
 40
0.0
 40
0.0
 40
1.0
 40
1.0
 40
1.0
 40
1.0
 10
52.78015507809605
 20
-31.13053227708094
 30
0.0
 10
52.29673714255799
 20
-31.15382408450398
 30
0.0
 10
51.81580363606055
 20
-31.21399749053336
 30
0.0
 10
51.34154913526855
 20
-31.31052767841017
 30
0.0
  0
SPLINE
  5
152
330
70
100
AcDbEntity
  8
0
 62
     8
420
  8421504
370
    25
100
AcDbSpline
210
0.0
220
0.0
230
1.0
 70
     8
 71
     3
 72
    17
 73
    13
 74
     0
 42
0.0000000001
 43
0.0000000001
 40
0.0
 40
0.0
 40
0.0
 40
0.0
 40
1.0
 40
1.0
 40
1.0
 40
2.0
 40
2.0
 40
2.0
 40
3.0
 40
3.0
 40
3.0
 40
4.0
 40
4.0
 40
4.0
 40
4.0
 10
51.23577766588861
 20
-31.44605533104483
 30
0.0
 10
44.39749864733688
 20
-32.97466344776257
 30
0.0
 10
40.09315992196168
 20
-39.75736561010243
 30
0.0
 10
41.62176803867942
 20
-46.59564462865384
 30
0.0
 10
43.15037615539715
 20
-53.4339236472059
 30
0.0
 10
49.93307831773702
 20
-57.73826237258077
 30
0.0
 10
56.77135733628875
 20
-56.20965425586304
 30
0.0
 10
63.60963635484048
 20
-54.68104613914531
 30
0.0
 10
67.91397508021567
 20
-47.89834397680544
 30
0.0
 10
66.38536696349794
 20
-41.06006495825403
 30
0.0
 10
65.31518830279015
 20
-36.27258528862415
 30
0.0
 10
61.58096060159278
 20
-32.53104213445435
 30
0.0
 10
56.79558455600633
 20
-31.45149590789286
 30
0.0
  0
SPLINE
  5
153
330
70
100
AcDbEntity
  8
0
 62
    18
420
        0
370
    25
100
AcDbSpline
210
0.0
220
0.0
230
1.0
 70
     8
 71
     3
 72
     8
 73
     4
 74
     0
 42
0.0000000001
 43
0.0000000001
 40
0.0
 40
0.0
 40
0.0
 40
0.0
 40
1.0
 40
1.0
 40
1.0
 40
1.0
 10
184.5074725538109
 20
-31.64302136703842
 30
0.0
 10
184.608894390932
 20
-31.69679416025698
 30
0.0
 10
184.7308490047447
 20
-31.69459597418953
 30
0.0
 10
184.8302671227942
 20
-31.6372031162809
 30
0.0
  0
SPLINE
  5
154
330
70
100
AcDbEntity
  8
0
 62
    18
420
        0
370
    25
100
AcDbSpline
210
0.0
220
0.0
230
1.0
 70
     8
 71
     3
 72
     8
 73
     4
 74
     0
 42
0.0000000001
 43
0.0000000001
 40
0.0
 40
0.0
 40
0.0
 40
0.0
 40
1.0
 40
1.0
 40
1.0
 40
1.0
 10
173.1832523795823
 20
-11.46391932322719
 30
0.0
 10
173.0801450561621
 20
-11.52344191406348
 30
0.0
 10
173.0166114365539
 20
-11.63343753332246
 30
0.0
 10
173.01657218647
 20
-11.75249238380046
 30
0.0
  0
LWPOLYLINE
  5
155
330
70
100
AcDbEntity
  8
0
 62
    18
420
        0
370
    25
100
AcDbPolyline
 90
        3
 70
     0
 43
0.0
 10
175.764657260189
 20
-26.59714636325414
 10
175.8300033753888
 20
-26.63489578855383
 10
184.501115627589
 20
-31.63889766975405
  0
LINE
  5
156
330
70
100
AcDbEntity
  8
0
 62
    18
420
        0
370
    25
100
AcDbLine
 10
184.505068268089
 20
-31.64037587335394
 30
0.0
 11
184.508587206488
 21
-31.64226339695414
 31
0.0
  0
LWPOLYLINE
  5
157
330
70
100
AcDbEntity
  8
0
 62
    18
420
        0
370
    25
100
AcDbPolyline
 90
        3
 70
     0
 43
0.0
 10
173.016597265588
 20
-11.75248442785406
 10
173.0156880857891
 20
-14.81050395015437
 10
173.0166698643885
 20
-21.38988174765425
  0
LINE
  5
158
330
70
100
AcDbEntity
  8
0
 62
    18
420
        0
370
    25
100
AcDbLine
 10
184.8302671227891
 20
-31.63720311625394
 30
0.0
 11
185.886522344188
 21
-31.02743995615373
 31
0.0
  0
LINE
  5
159
330
70
100
AcDbEntity
  8
0
 62
    18
420
        0
370
    25
100
AcDbLine
 10
174.2395076009889
 20
-10.85415616315392
 30
0.0
 11
173.1832523795887
 21
-11.46391932325414
 31
0.0
  0
LINE
  5
15A
330
70
100
AcDbEntity
  8
0
 62
    18
420
        0
370
    25
100
AcDbLine
 10
164.9948211511887
 20
-31.31119019475423
 30
0.0
 11
164.9948211511887
 21
47.50730578074588
 31
0.0
  0
LINE
  5
15B
330
70
100
AcDbEntity
  8
0
 62
    18
420
        0
370
    25
100
AcDbLine
 10
161.6614878178886
 20
47.50730578074588
 30
0.0
 11
161.6614878178886
 21
-31.31119019475423
 31
0.0
  0
LWPOLYLINE
  5
15C
330
70
100
AcDbEntity
  8
0
 62
    18
420
        0
370
    25
100
AcDbPolyline
 90
        3
 70
     0
 43
0.0
 10
175.9830784688884
 20
-30.71023808305391
 10
175.971407623488
 20
-29.38457603255404
 10
175.9035945573889
 20
-28.28720162135383
  0
LWPOLYLINE
  5
15D
330
70
100
AcDbEntity
  8
0
 62
    18
420
        0
370
    25
100
AcDbPolyline
 90
        3
 70
     0
 43
0.0
 10
150.7452761525885
 20
-28.28877118435376
 10
150.6673743080882
 20
-30.04557072615405
 10
150.6732273066889
 20
-30.71039815265388
  0
LINE
  5
15E
330
70
100
AcDbEntity
  8
0
 62
    18
420
        0
370
    25
100
AcDbLine
 10
176.0152932837889
 20
-32.60340687095438
 30
0.0
 11
175.9945800595884
 21
-30.66538381515413
 31
0.0
  0
LINE
  5
15F
330
70
100
AcDbEntity
  8
0
 62
    18
420
        0
370
    25
100
AcDbLine
 10
150.6617289094888
 20
-30.66538381515413
 30
0.0
 11
150.6410156852884
 21
-32.60340687095438
 31
0.0
  0
LWPOLYLINE
  5
160
330
70
100
AcDbEntity
  8
0
 62
    18
420
        0
370
    25
100
AcDbPolyline
 90
        3
 70
     0
 43
0.0
 10
154.028373409989
 20
-37.68139734635381
 10
154.1323032968886
 20
-37.75115068405427
 10
154.3913419311883
 20
-37.90513406885431
  0
SPLINE
  5
161
330
70
100
AcDbEntity
  8
0
 62
    18
420
        0
370
    25
100
AcDbSpline
210
0.0
220
0.0
230
1.0
 70
     8
 71
     3
 72
     8
 73
     4
 74
     0
 42
0.0000000001
 43
0.0000000001
 40
0.0
 40
0.0
 40
0.0
 40
0.0
 40
1.0
 40
1.0
 40
1.0
 40
1.0
 10
170.7301053299504
 20
-38.65640648876254
 30
0.0
 10
171.4053630838169
 20
-38.39610797936133
 30
0.0
 10
172.0506465162855
 20
-38.06389381356409
 30
0.0
 10
172.6548093273556
 20
-37.66550249102863
 30
0.0
  0
LINE
  5
162
330
70
100
AcDbEntity
  8
0
 62
    18
420
        0
370
    25
100
AcDbLine
 10
154.3913419311883
 20
-37.90513406885431
 30
0.0
 11
154.7868424229879
 21
-38.12270352055391
 31
0.0
  0
LINE
  5
163
330
70
100
AcDbEntity
  8
0
 62
    18
420
        0
370
    25
100
AcDbLine
 10
177.3155444033883
 20
-19.45456553565385
 30
0.0
 11
173.4635892669882
 21
-21.67825190345392
 31
0.0
  0
LINE
  5
164
330
70
100
AcDbEntity
  8
0
 62
    18
420
        0
370
    25
100
AcDbLine
 10
175.7656147751891
 20
-26.50755692385411
 30
0.0
 11
179.9820263870886
 21
-24.0734743112543
 31
0.0
  0
LINE
  5
165
330
70
100
AcDbEntity
  8
0
 62
    18
420
        0
370
    25
100
AcDbLine
 10
165.4477144241882
 20
-31.24044058095418
 30
0.0
 11
164.9948211511887
 21
-31.12352883555387
 31
0.0
  0
LWPOLYLINE
  5
166
330
70
100
AcDbEntity
  8
0
 62
    18
420
        0
370
    25
100
AcDbPolyline
 90
        3
 70
     0
 43
0.0
 10
161.6614878178886
 20
-31.12751934415413
 10
161.4283213887887
 20
-31.17510641295401
 10
161.2154896939882
 20
-31.24093963015404
  0
LWPOLYLINE
  5
167
330
70
100
AcDbEntity
  8
0
 62
    18
420
        0
370
    25
100
AcDbPolyline
 90
       11
 70
     0
 43
0.0
 10
164.9900296158891
 20
47.67537274854595
 10
164.9555344040883
 20
47.91464013474568
 10
164.8211853111883
 20
48.15326824854608
 10
164.5987075253886
 20
48.36231356544612
 10
164.2924011683881
 20
48.53400792064636
 10
163.921884949688
 20
48.65405073334616
 10
163.5147310094879
 20
48.71374555384639
 10
163.0964110419881
 20
48.71030006894607
 10
162.6920007225888
 20
48.6438637258455
 10
162.3258076645891
 20
48.51705693704548
 10
162.1841677516886
 20
48.4441104943458
  0
SPLINE
  5
168
330
70
100
AcDbEntity
  8
0
 62
    18
420
        0
370
    25
100
AcDbSpline
210
0.0
220
0.0
230
1.0
 70
     8
 71
     3
 72
     8
 73
     4
 74
     0
 42
0.0000000001
 43
0.0000000001
 40
0.0
 40
0.0
 40
0.0
 40
0.0
 40
1.0
 40
1.0
 40
1.0
 40
1.0
 10
162.1841677516848
 20
48.44411049428355
 30
0.0
 10
161.8949276901728
 20
48.31590193252965
 30
0.0
 10
161.6998076937898
 20
48.03881556041352
 30
0.0
 10
161.6765756802933
 20
47.72328818911324
 30
0.0
  0
LINE
  5
169
330
70
100
AcDbEntity
  8
0
 62
    18
420
        0
370
    25
100
AcDbLine
 10
161.6614878178886
 20
47.68746293334623
 30
0.0
 11
161.6614878178886
 21
47.50730578074588
 31
0.0
  0
LINE
  5
16A
330
70
100
AcDbEntity
  8
0
 62
    18
420
        0
370
    25
100
AcDbLine
 10
164.9948211511887
 20
47.50730578074588
 30
0.0
 11
164.9948211511887
 21
47.68746293334623
 31
0.0
  0
LINE
  5
16B
330
70
100
AcDbEntity
  8
0
 62
    18
420
        0
370
    25
100
AcDbLine
 10
172.4760992222888
 20
-20.92364823775407
 30
0.0
 11
172.069990966488
 21
-20.67586620765428
 31
0.0
  0
SPLINE
  5
16C
330
70
100
AcDbEntity
  8
0
 62
    18
420
        0
370
    25
100
AcDbSpline
210
0.0
220
0.0
230
1.0
 70
     8
 71
     3
 72
     8
 73
     4
 74
     0
 42
0.0000000001
 43
0.0000000001
 40
0.0
 40
0.0
 40
0.0
 40
0.0
 40
1.0
 40
1.0
 40
1.0
 40
1.0
 10
156.0040808051873
 20
-19.98220617035255
 30
0.0
 10
155.2237857330966
 20
-20.2876724571065
 30
0.0
 10
154.4849980768831
 20
-20.69004457913425
 30
0.0
 10
153.8051032341213
 20
-21.17985378143533
 30
0.0
  0
LINE
  5
16D
330
70
100
AcDbEntity
  8
0
 62
    18
420
        0
370
    25
100
AcDbLine
 10
171.9997770760891
 20
-20.63746091135401
 30
0.0
 11
171.7681443636881
 21
-20.51076343175401
 31
0.0
  0
LINE
  5
16E
330
70
100
AcDbEntity
  8
0
 62
    18
420
        0
370
    25
100
AcDbLine
 10
172.069990966488
 20
-20.67586620765428
 30
0.0
 11
171.9997770760891
 21
-20.63746091135401
 31
0.0
  0
LINE
  5
16F
330
70
100
AcDbEntity
  8
0
 62
    18
420
        0
370
    25
100
AcDbLine
 10
150.8841022880892
 20
-25.8907883684541
 30
0.0
 11
150.9102823930884
 21
-28.34031755495423
 31
0.0
  0
LINE
  5
170
330
70
100
AcDbEntity
  8
0
 62
    18
420
        0
370
    25
100
AcDbLine
 10
175.7460265759888
 20
-28.34031755495423
 30
0.0
 11
175.7722066809881
 21
-25.8907883684541
 31
0.0
  0
LINE
  5
171
330
70
100
AcDbEntity
  8
0
 62
    18
420
        0
370
    25
100
AcDbLine
 10
152.7605382361888
 20
-36.70176066185398
 30
0.0
 11
152.9902155873881
 21
-55.83047608865395
 31
0.0
  0
LINE
  5
172
330
70
100
AcDbEntity
  8
0
 62
    18
420
        0
370
    25
100
AcDbLine
 10
173.6660933816892
 20
-55.83047608865395
 30
0.0
 11
173.8957707328885
 21
-36.70176066185398
 31
0.0
  0
LWPOLYLINE
  5
173
330
70
100
AcDbEntity
  8
0
 62
    18
420
        0
370
    25
100
AcDbPolyline
 90
       33
 70
     0
 43
0.0
 10
153.0033413754886
 20
-55.85601444595376
 10
153.0039047125887
 20
-56.10980721425404
 10
153.110225476588
 20
-56.73534083975436
 10
153.3190711347888
 20
-57.34784253675417
 10
153.6287116196881
 20
-57.94348189005377
 10
154.0375312299882
 20
-58.51776579475382
 10
154.5427993921881
 20
-59.06508422505401
 10
155.1398575597889
 20
-59.57917708205383
 10
155.8221571074883
 20
-60.05396242465434
 10
156.5818290902889
 20
-60.48411768905417
 10
157.4100997932882
 20
-60.86517390305376
 10
158.2978727626882
 20
-61.193569971554
 10
159.2359102412884
 20
-61.46646981595413
 10
160.2146693045883
 20
-61.68156892635414
 10
161.2243240273888
 20
-61.83706503805394
 10
162.2548105462882
 20
-61.9316572743538
 10
163.2958948168883
 20
-61.96455573265434
 10
164.3372570353884
 20
-61.93549030385397
 10
165.3685380207887
 20
-61.84471828795409
 10
166.3794836260889
 20
-61.69302311825429
 10
167.3601030181879
 20
-61.48168203335429
 10
168.3006998540882
 20
-61.21243555145425
 10
169.1919419705889
 20
-60.88744914945433
 10
170.024904670989
 20
-60.50927448625413
 10
170.7910766489892
 20
-60.08082671115424
 10
171.482321655889
 20
-59.60541018085387
 10
172.0906835109886
 20
-59.08696552675386
 10
172.6084175538879
 20
-58.53044707265436
 10
173.0284893426885
 20
-57.94202803165427
 10
173.3450786233889
 20
-57.32945311705396
 10
173.5545057334892
 20
-56.70168423525396
 10
173.6557905402889
 20
-56.06772649775379
 10
173.654824129188
 20
-55.95925141825428
  0
SPLINE
  5
174
330
70
100
AcDbEntity
  8
0
 62
    18
420
        0
370
    25
100
AcDbSpline
210
0.0
220
0.0
230
1.0
 70
     8
 71
     3
 72
     8
 73
     4
 74
     0
 42
0.0000000001
 43
0.0000000001
 40
0.0
 40
0.0
 40
0.0
 40
0.0
 40
1.0
 40
1.0
 40
1.0
 40
1.0
 10
184.8993162609442
 20
-18.41993519068282
 30
0.0
 10
184.8917488379935
 20
-18.25363848486074
 30
0.0
 10
184.8038474611185
 20
-18.10138883448878
 30
0.0
 10
184.6636140005671
 20
-18.01168690140593
 30
0.0
  0
SPLINE
  5
175
330
70
100
AcDbEntity
  8
0
 62
    18
420
        0
370
    25
100
AcDbSpline
210
0.0
220
0.0
230
1.0
 70
     8
 71
     3
 72
     8
 73
     4
 74
     0
 42
0.0000000001
 43
0.0000000001
 40
0.0
 40
0.0
 40
0.0
 40
0.0
 40
1.0
 40
1.0
 40
1.0
 40
1.0
 10
184.4282142853151
 20
-18.40829938823406
 30
0.0
 10
184.574889091772
 20
-18.48524759046252
 30
0.0
 10
184.7490215145345
 20
-18.48954850739795
 30
0.0
 10
184.8993162609725
 20
-18.41993519064945
 30
0.0
  0
SPLINE
  5
176
330
70
100
AcDbEntity
  8
0
 62
    18
420
        0
370
    25
100
AcDbSpline
210
0.0
220
0.0
230
1.0
 70
     8
 71
     3
 72
     8
 73
     4
 74
     0
 42
0.0000000001
 43
0.0000000001
 40
0.0
 40
0.0
 40
0.0
 40
0.0
 40
1.0
 40
1.0
 40
1.0
 40
1.0
 10
184.6636140006466
 20
-18.01168690140721
 30
0.0
 10
184.527081115527
 20
-18.09945665122213
 30
0.0
 10
184.4398621901981
 20
-18.24640718952344
 30
0.0
 10
184.4282142853677
 20
-18.40829938826935
 30
0.0
  0
SPLINE
  5
177
330
70
100
AcDbEntity
  8
0
 62
    18
420
        0
370
    25
100
AcDbSpline
210
0.0
220
0.0
230
1.0
 70
     8
 71
     3
 72
     8
 73
     4
 74
     0
 42
0.0000000001
 43
0.0000000001
 40
0.0
 40
0.0
 40
0.0
 40
0.0
 40
1.0
 40
1.0
 40
1.0
 40
1.0
 10
184.4381391876
 20
-18.41976337787684
 30
0.0
 10
184.5830322014915
 20
-18.49339984667263
 30
0.0
 10
184.7543684204202
 20
-18.49346367846664
 30
0.0
 10
184.8993162610341
 20
-18.41993519070207
 30
0.0
  0
SPLINE
  5
178
330
70
100
AcDbEntity
  8
0
 62
    18
420
        0
370
    25
100
AcDbSpline
210
0.0
220
0.0
230
1.0
 70
     8
 71
     3
 72
     8
 73
     4
 74
     0
 42
0.0000000001
 43
0.0000000001
 40
0.0
 40
0.0
 40
0.0
 40
0.0
 40
1.0
 40
1.0
 40
1.0
 40
1.0
 10
184.4381391875306
 20
-18.41976337785118
 30
0.0
 10
184.4348999308884
 20
-18.41797642848837
 30
0.0
 10
184.4309504274496
 20
-18.41806736206334
 30
0.0
 10
184.4277968453283
 20
-18.42000150048173
 30
0.0
  0
LWPOLYLINE
  5
179
330
70
100
AcDbEntity
  8
0
 62
    18
420
        0
370
    25
100
AcDbPolyline
 90
        5
 70
     0
 43
0.0
 10
184.4277968453886
 20
-18.42000150045413
 10
184.4277974391887
 20
-18.41998483495384
 10
184.4280057397881
 20
-18.41414217585401
 10
184.4281099818886
 20
-18.41122079805378
 10
184.4282142852881
 20
-18.40829938825395
  0
LWPOLYLINE
  5
17A
330
70
100
AcDbEntity
  8
0
 62
    18
420
        0
370
    25
100
AcDbPolyline
 90
        4
 70
     0
 43
0.0
 10
184.8993162609891
 20
-18.41993519065394
 10
184.8981770955884
 20
-22.74993671375414
 10
184.8981675408887
 20
-27.0792858896542
 10
184.899316261088
 20
-31.48458818075402
  0
SPLINE
  5
17B
330
70
100
AcDbEntity
  8
0
 62
    18
420
        0
370
    25
100
AcDbSpline
210
0.0
220
0.0
230
1.0
 70
     8
 71
     3
 72
     8
 73
     4
 74
     0
 42
0.0000000001
 43
0.0000000001
 40
0.0
 40
0.0
 40
0.0
 40
0.0
 40
1.0
 40
1.0
 40
1.0
 40
1.0
 10
184.4381393819937
 20
-31.4903502414958
 30
0.0
 10
184.5841894069272
 20
-31.56118589303377
 30
0.0
 10
184.7550816285962
 20
-31.55905072233049
 30
0.0
 10
184.8993162611008
 20
-31.48458818075402
 30
0.0
  0
LWPOLYLINE
  5
17C
330
70
100
AcDbEntity
  8
0
 62
    18
420
        0
370
    25
100
AcDbPolyline
 90
        7
 70
     0
 43
0.0
 10
184.4381393819886
 20
-31.49035024155419
 10
184.4381578176888
 20
-30.94619514755436
 10
184.4382313243882
 20
-28.76948384535382
 10
184.4383020971892
 20
-24.41519815135423
 10
184.4382766210892
 20
-22.75621778905382
 10
184.4381393764892
 20
-18.42549015045392
 10
184.4381391875884
 20
-18.41976337785375
  0
LWPOLYLINE
  5
17D
330
70
100
AcDbEntity
  8
0
 62
    18
420
        0
370
    25
100
AcDbPolyline
 90
        4
 70
     0
 43
0.0
 10
179.9756045366892
 20
-20.99101033395387
 10
181.365374597488
 20
-20.18845655755394
 10
182.9414011476879
 20
-19.27834817465382
 10
184.4277968453886
 20
-18.42000150045413
  0
LWPOLYLINE
  5
17E
330
70
100
AcDbEntity
  8
0
 62
    18
420
        0
370
    25
100
AcDbPolyline
 90
        5
 70
     0
 43
0.0
 10
184.4277968453886
 20
-31.4848708018543
 10
184.4278115742887
 20
-31.48487860595417
 10
184.4329753612891
 20
-31.48761449665375
 10
184.4355573423882
 20
-31.48898238725411
 10
184.4381393819886
 20
-31.49035024155419
  0
SPLINE
  5
17F
330
70
100
AcDbEntity
  8
0
 62
    18
420
        0
370
    25
100
AcDbSpline
210
0.0
220
0.0
230
1.0
 70
     8
 71
     3
 72
     8
 73
     4
 74
     0
 42
0.0000000001
 43
0.0000000001
 40
0.0
 40
0.0
 40
0.0
 40
0.0
 40
1.0
 40
1.0
 40
1.0
 40
1.0
 10
179.9652763834691
 20
-24.03435940483789
 30
0.0
 10
181.4265143406298
 20
-26.53350298302925
 30
0.0
 10
182.9141041098894
 20
-29.01714527097985
 30
0.0
 10
184.4277968452333
 20
-31.48487080167142
 30
0.0
  0
LWPOLYLINE
  5
180
330
70
100
AcDbEntity
  8
0
 62
    18
420
        0
370
    25
100
AcDbPolyline
 90
        5
 70
     0
 43
0.0
 10
184.4282142852881
 20
-18.40829938825395
 10
183.9566409806891
 20
-18.13604478725437
 10
182.0704253667887
 20
-17.04707047345438
 10
180.4201057856883
 20
-16.09430143875376
 10
178.7700126548888
 20
-15.14169899415406
  0
SPLINE
  5
181
330
70
100
AcDbEntity
  8
0
 62
    18
420
        0
370
    25
100
AcDbSpline
210
0.0
220
0.0
230
1.0
 70
     8
 71
     3
 72
     8
 73
     4
 74
     0
 42
0.0000000001
 43
0.0000000001
 40
0.0
 40
0.0
 40
0.0
 40
0.0
 40
1.0
 40
1.0
 40
1.0
 40
1.0
 10
179.0054372768843
 20
-14.74681790220272
 30
0.0
 10
178.869385620739
 20
-14.8342483087098
 30
0.0
 10
178.7822282476132
 20
-14.98043861949827
 30
0.0
 10
178.7700126548233
 20
-15.14169899409373
 30
0.0
  0
LWPOLYLINE
  5
182
330
70
100
AcDbEntity
  8
0
 62
    18
420
        0
370
    25
100
AcDbPolyline
 90
        4
 70
     0
 43
0.0
 10
179.0054372768881
 20
-14.74681790225406
 10
181.690240517888
 20
-16.29631379015391
 10
183.1768776286889
 20
-17.15402901605398
 10
184.6636140005889
 20
-18.01168690135395
  0
SPLINE
  5
183
330
70
100
AcDbEntity
  8
0
 62
    18
420
        0
370
    25
100
AcDbSpline
210
0.0
220
0.0
230
1.0
 70
     8
 71
     3
 72
     8
 73
     4
 74
     0
 42
0.0000000001
 43
0.0000000001
 40
0.0
 40
0.0
 40
0.0
 40
0.0
 40
1.0
 40
1.0
 40
1.0
 40
1.0
 10
185.9555714825447
 20
-17.81017203049982
 30
0.0
 10
185.9480040595695
 20
-17.64387532468416
 30
0.0
 10
185.860102682692
 20
-17.49162567432375
 30
0.0
 10
185.7198692221482
 20
-17.40192374123448
 30
0.0
  0
LINE
  5
184
330
70
100
AcDbEntity
  8
0
 62
    18
420
        0
370
    25
100
AcDbLine
 10
185.9555714824882
 20
-17.81017203045426
 30
0.0
 11
184.8993162609891
 21
-18.41993519065394
 31
0.0
  0
LINE
  5
185
330
70
100
AcDbEntity
  8
0
 62
    18
420
        0
370
    25
100
AcDbLine
 10
184.6636140005889
 20
-18.01168690135395
 30
0.0
 11
185.7198692220879
 21
-17.40192374115427
 31
0.0
  0
SPLINE
  5
186
330
70
100
AcDbEntity
  8
0
 62
    18
420
        0
370
    25
100
AcDbSpline
210
0.0
220
0.0
230
1.0
 70
     8
 71
     3
 72
     8
 73
     4
 74
     0
 42
0.0000000001
 43
0.0000000001
 40
0.0
 40
0.0
 40
0.0
 40
0.0
 40
1.0
 40
1.0
 40
1.0
 40
1.0
 10
173.1139010252985
 20
-11.88862846752665
 30
0.0
 10
174.4983843109397
 20
-14.43182099506145
 30
0.0
 10
175.9062300694916
 20
-16.9622255444547
 30
0.0
 10
177.3372596542108
 20
-19.47952102333441
 30
0.0
  0
LWPOLYLINE
  5
187
330
70
100
AcDbEntity
  8
0
 62
    18
420
        0
370
    25
100
AcDbPolyline
 90
        3
 70
     0
 43
0.0
 10
178.769462148588
 20
-15.15511555915396
 10
178.7697702973885
 20
-15.14760235295401
 10
178.7700126548888
 20
-15.14169899415406
  0
LWPOLYLINE
  5
188
330
70
100
AcDbEntity
  8
0
 62
    18
420
        0
370
    25
100
AcDbPolyline
 90
        5
 70
     0
 43
0.0
 10
184.4277968453886
 20
-18.42000150045413
 10
182.9541035732892
 20
-17.56989640215427
 10
181.4805104919889
 20
-16.71973342705379
 10
180.1248973821883
 20
-15.93747586275377
 10
178.769462148588
 20
-15.15511555915396
  0
LINE
  5
189
330
70
100
AcDbEntity
  8
0
 62
    18
420
        0
370
    25
100
AcDbLine
 10
185.9555714824882
 20
-30.8748250206538
 30
0.0
 11
185.9555714824882
 21
-17.81017203045426
 31
0.0
  0
LINE
  5
18A
330
70
100
AcDbEntity
  8
0
 62
    18
420
        0
370
    25
100
AcDbLine
 10
184.899316261088
 20
-31.48458818075402
 30
0.0
 11
185.9555714824882
 21
-30.8748250206538
 31
0.0
  0
LINE
  5
18B
330
70
100
AcDbEntity
  8
0
 62
    18
420
        0
370
    25
100
AcDbLine
 10
185.7198692220879
 20
-17.40192374115427
 30
0.0
 11
174.4061607230891
 21
-10.87065884665395
 31
0.0
  0
LWPOLYLINE
  5
18C
330
70
100
AcDbEntity
  8
0
 62
    18
420
        0
370
    25
100
AcDbPolyline
 90
        4
 70
     0
 43
0.0
 10
173.3499055015887
 20
-11.48042200685427
 10
176.0334509384886
 20
-13.03063342855389
 10
177.5193444869881
 20
-13.88878315775402
 10
179.0054372768881
 20
-14.74681790225406
  0
LINE
  5
18D
330
70
100
AcDbEntity
  8
0
 62
    18
420
        0
370
    25
100
AcDbLine
 10
174.4061607230891
 20
-10.87065884665395
 30
0.0
 11
173.3499055015887
 21
-11.48042200685427
 31
0.0
  0
LWPOLYLINE
  5
18E
330
70
100
AcDbEntity
  8
0
 62
    18
420
        0
370
    25
100
AcDbPolyline
 90
        6
 70
     0
 43
0.0
 10
178.7700126548888
 20
-15.14169899415406
 10
178.298619357389
 20
-14.86957151865409
 10
176.4132522019884
 20
-13.78121657075394
 10
174.7637265297884
 20
-12.82903431665433
 10
173.114326440389
 20
-11.87693095945419
 10
173.1093708786885
 20
-11.874070393654
  0
SPLINE
  5
18F
330
70
100
AcDbEntity
  8
0
 62
    18
420
        0
370
    25
100
AcDbSpline
210
0.0
220
0.0
230
1.0
 70
     8
 71
     3
 72
     8
 73
     4
 74
     0
 42
0.0000000001
 43
0.0000000001
 40
0.0
 40
0.0
 40
0.0
 40
0.0
 40
1.0
 40
1.0
 40
1.0
 40
1.0
 10
173.3499055016516
 20
-11.4804220067946
 30
0.0
 10
173.2103263099226
 20
-11.56455731468839
 30
0.0
 10
173.1205516352452
 20
-11.7114785996002
 30
0.0
 10
173.1093708787347
 20
-11.87407039361806
 30
0.0
  0
SPLINE
  5
190
330
70
100
AcDbEntity
  8
0
 62
    18
420
        0
370
    25
100
AcDbSpline
210
0.0
220
0.0
230
1.0
 70
     8
 71
     3
 72
     8
 73
     4
 74
     0
 42
0.0000000001
 43
0.0000000001
 40
0.0
 40
0.0
 40
0.0
 40
0.0
 40
1.0
 40
1.0
 40
1.0
 40
1.0
 10
173.1093708786923
 20
-11.87407039366876
 30
0.0
 10
173.1096482930402
 20
-11.87922403251262
 30
0.0
 10
173.111205222007
 20
-11.88422737757743
 30
0.0
 10
173.1139010254551
 20
-11.88862846787702
 30
0.0
  0
LWPOLYLINE
  5
191
330
70
100
AcDbEntity
  8
0
 62
    18
420
        0
370
    25
100
AcDbPolyline
 90
        5
 70
     0
 43
0.0
 10
178.769462148588
 20
-15.15511555915396
 10
177.2964409928889
 20
-14.30462233895419
 10
175.8236258997883
 20
-13.45401019905378
 10
174.4687230091885
 20
-12.67134267505395
 10
173.1139010254884
 20
-11.88862846785392
  0
LWPOLYLINE
  5
192
330
70
100
AcDbEntity
  8
0
 62
    18
420
        0
370
    25
100
AcDbPolyline
 90
        5
 70
     0
 43
0.0
 10
173.1139010254884
 20
-11.88862846785392
 10
173.1138874955889
 20
-11.88861997155393
 10
173.1091442926888
 20
-11.88564128295412
 10
173.1067727865889
 20
-11.88415188755379
 10
173.1044013441891
 20
-11.88266245815432
  0
SPLINE
  5
193
330
70
100
AcDbEntity
  8
0
 62
    18
420
        0
370
    25
100
AcDbSpline
210
0.0
220
0.0
230
1.0
 70
     8
 71
     3
 72
     8
 73
     4
 74
     0
 42
0.0000000001
 43
0.0000000001
 40
0.0
 40
0.0
 40
0.0
 40
0.0
 40
1.0
 40
1.0
 40
1.0
 40
1.0
 10
184.4331734533321
 20
-31.498940223847
 30
0.0
 10
184.4324982069586
 20
-31.49389650822185
 30
0.0
 10
184.4306573637756
 20
-31.48907941919793
 30
0.0
 10
184.4277968453296
 20
-31.48487080194414
 30
0.0
  0
SPLINE
  5
194
330
70
100
AcDbEntity
  8
0
 62
    18
420
        0
370
    25
100
AcDbSpline
210
0.0
220
0.0
230
1.0
 70
     8
 71
     3
 72
     8
 73
     4
 74
     0
 42
0.0000000001
 43
0.0000000001
 40
0.0
 40
0.0
 40
0.0
 40
0.0
 40
1.0
 40
1.0
 40
1.0
 40
1.0
 10
173.3499055016195
 20
-11.48042200681192
 30
0.0
 10
173.2053184601177
 20
-11.56436237348457
 30
0.0
 10
173.1129540475229
 20
-11.71569464990872
 30
0.0
 10
173.1044013442173
 20
-11.88266245816458
 30
0.0
  0
SPLINE
  5
195
330
70
100
AcDbEntity
  8
0
 62
    18
420
        0
370
    25
100
AcDbSpline
210
0.0
220
0.0
230
1.0
 70
     8
 71
     3
 72
     8
 73
     4
 74
     0
 42
0.0000000001
 43
0.0000000001
 40
0.0
 40
0.0
 40
0.0
 40
0.0
 40
1.0
 40
1.0
 40
1.0
 40
1.0
 10
184.4381393820399
 20
-31.49035024150157
 30
0.0
 10
184.4307578268579
 20
-31.55022099807319
 30
0.0
 10
184.4575338864899
 20
-31.60918168099702
 30
0.0
 10
184.5074725538738
 20
-31.64302136700698
 30
0.0
  0
LWPOLYLINE
  5
196
330
70
100
AcDbEntity
  8
0
 62
    18
420
        0
370
    25
100
AcDbPolyline
 90
        4
 70
     0
 43
0.0
 10
184.5022395275881
 20
-31.63665988185412
 10
184.4897717532887
 20
-31.6321518931543
 10
184.4494024169882
 20
-31.57850757845393
 10
184.4331734533886
 20
-31.49894022375395
  0
SPLINE
  5
197
330
70
100
AcDbEntity
  8
0
 62
    18
420
        0
370
    25
100
AcDbSpline
210
0.0
220
0.0
230
1.0
 70
     8
 71
     3
 72
     8
 73
     4
 74
     0
 42
0.0000000001
 43
0.0000000001
 40
0.0
 40
0.0
 40
0.0
 40
0.0
 40
1.0
 40
1.0
 40
1.0
 40
1.0
 10
185.8865223442471
 20
-31.02743995615693
 30
0.0
 10
185.9364859676609
 20
-30.99366752294123
 30
0.0
 10
185.9631882576124
 20
-30.93464914328716
 30
0.0
 10
185.955571482537
 20
-30.87482502066728
 30
0.0
  0
SPLINE
  5
198
330
70
100
AcDbEntity
  8
0
 62
    18
420
        0
370
    25
100
AcDbSpline
210
0.0
220
0.0
230
1.0
 70
     8
 71
     3
 72
     8
 73
     4
 74
     0
 42
0.0000000001
 43
0.0000000001
 40
0.0
 40
0.0
 40
0.0
 40
0.0
 40
1.0
 40
1.0
 40
1.0
 40
1.0
 10
174.4061607230724
 20
-10.87065884658144
 30
0.0
 10
174.3575316380245
 20
-10.83582127087154
 30
0.0
 10
174.2940247787845
 20
-10.8295325582162
 30
0.0
 10
174.2395076009658
 20
-10.8541561630827
 30
0.0
  0
LWPOLYLINE
  5
199
330
70
100
AcDbEntity
  8
0
 62
    18
420
        0
370
    25
100
AcDbPolyline
 90
       10
 70
     0
 43
0.0
 10
162.1496431825879
 20
46.82696568754568
 10
162.5113041225883
 20
46.66864098334587
 10
162.9335471170887
 20
46.57251621044578
 10
163.3850563348888
 20
46.54572050364606
 10
163.8323454026892
 20
46.5902411779461
 10
164.2422409365883
 20
46.7027763384461
 10
164.5843428600883
 20
46.87497976724594
 10
164.8332790383886
 20
47.09407992374592
 10
164.9705870140889
 20
47.34382715174635
 10
164.9948211511887
 20
47.50730578074588
  0
SPLINE
  5
19A
330
70
100
AcDbEntity
  8
0
 62
    18
420
        0
370
    25
100
AcDbSpline
210
0.0
220
0.0
230
1.0
 70
     8
 71
     3
 72
     8
 73
     4
 74
     0
 42
0.0000000001
 43
0.0000000001
 40
0.0
 40
0.0
 40
0.0
 40
0.0
 40
1.0
 40
1.0
 40
1.0
 40
1.0
 10
161.6614878178937
 20
47.50730578082417
 30
0.0
 10
161.689588131779
 20
47.20907963537829
 30
0.0
 10
161.8761266873339
 20
46.94910162950294
 30
0.0
 10
162.1496431825828
 20
46.82696568763938
 30
0.0
  0
LWPOLYLINE
  5
19B
330
70
100
AcDbEntity
  8
0
 62
    18
420
        0
370
    25
100
AcDbPolyline
 90
       38
 70
     0
 43
0.0
 10
175.7563695837883
 20
-27.37257890315402
 10
175.8567992028883
 20
-27.80197337805381
 10
175.9250100777886
 20
-28.50232538565382
 10
175.8760204446883
 20
-29.20321316905417
 10
175.710286100589
 20
-29.89811570375399
 10
175.429349029488
 20
-30.58056765165377
 10
175.0358230556881
 20
-31.2442195143539
 10
174.5333695249882
 20
-31.8828967083539
 10
173.9266632395881
 20
-32.4906570134541
 10
173.2213489642888
 20
-33.06184585825426
 10
172.4239889072888
 20
-33.59114893085419
 10
171.5420016662885
 20
-34.07364162205418
 10
170.5835932061883
 20
-34.50483484425393
 10
169.5576805107885
 20
-34.88071679755435
 10
168.473808619889
 20
-35.19779029515433
 10
167.3420618228891
 20
-35.45310530125433
 10
166.1729698347881
 20
-35.64428637805409
 10
164.977409828389
 20
-35.76955478645409
 10
163.7665052335887
 20
-35.82774503535438
 10
162.5515222455891
 20
-35.81831572585375
 10
161.3437650046884
 20
-35.74135458755403
 10
160.1544704232887
 20
-35.59757766305431
 10
158.9947036380882
 20
-35.38832264575384
 10
157.8752550605892
 20
-35.11553643355437
 10
156.8065399837881
 20
-34.78175701565413
 10
155.7985016788885
 20
-34.39008985905432
 10
154.860518883288
 20
-33.94417901495428
 10
154.0013185414881
 20
-33.44817321535401
 10
153.2288946101886
 20
-32.90668727335413
 10
152.5504336824888
 20
-32.3247591466541
 10
151.972248124589
 20
-31.70780306505401
 10
151.4997173457892
 20
-31.0615591569542
 10
151.1372377485881
 20
-30.39204004295427
 10
150.8881818247885
 20
-29.70547489505391
 10
150.7548667780888
 20
-29.00825148075396
 10
150.7385329649883
 20
-28.3068567313542
 10
150.8393323545892
 20
-27.60781638825413
 10
150.8999393852889
 20
-27.37257890315402
  0
LWPOLYLINE
  5
19C
330
70
100
AcDbEntity
  8
0
 62
    18
420
        0
370
    25
100
AcDbPolyline
 90
       24
 70
     0
 43
0.0
 10
152.1476654524889
 20
-31.56762465705415
 10
152.3651541656885
 20
-31.81380667305379
 10
152.992309332289
 20
-32.41784888905423
 10
153.7190043377882
 20
-32.98349547185383
 10
154.538240712189
 20
-33.50529893565433
 10
155.4421287611891
 20
-33.97823402785436
 10
156.4219635488892
 20
-34.39774612505417
 10
157.4683087306886
 20
-34.75979509625414
 10
158.5710874302891
 20
-35.06089421215417
 10
159.719679286189
 20
-35.29814372345418
 10
160.903022730789
 20
-35.46925878785424
 10
162.1097215198885
 20
-35.57259147365412
 10
163.3281544844879
 20
-35.60714663055423
 10
164.5465874491887
 20
-35.57259147365412
 10
165.7532862382882
 20
-35.46925878785424
 10
166.9366296828883
 20
-35.29814372345418
 10
168.0852215387881
 20
-35.06089421215417
 10
169.1880002383886
 20
-34.75979509625414
 10
170.2343454200892
 20
-34.39774612505417
 10
171.2141802078881
 20
-33.97823402785436
 10
172.1180682568882
 20
-33.50529893565433
 10
172.937304631289
 20
-32.98349547185383
 10
173.6639996367882
 20
-32.41784888905423
 10
174.0505149562881
 20
-32.06176478625426
  0
LINE
  5
19D
330
70
100
AcDbEntity
  8
0
 62
    18
420
        0
370
    25
100
AcDbLine
 10
150.6617289094888
 20
-30.66538381515413
 30
0.0
 11
150.661487819488
 21
-30.71061793885374
 31
0.0
  0
LINE
  5
19E
330
70
100
AcDbEntity
  8
0
 62
    18
420
        0
370
    25
100
AcDbLine
 10
175.9948211510883
 20
-30.71053313705383
 30
0.0
 11
175.9945800595884
 21
-30.66538381515413
 31
0.0
  0
LWPOLYLINE
  5
19F
330
70
100
AcDbEntity
  8
0
 62
    18
420
        0
370
    25
100
AcDbPolyline
 90
       10
 70
     0
 43
0.0
 10
150.6410156852884
 20
-32.60340687095438
 10
150.6653429688885
 20
-33.10418680475373
 10
150.8001366472887
 20
-33.80582243485399
 10
151.0513124476888
 20
-34.49670772665437
 10
151.4165370102887
 20
-35.1704245302541
 10
151.8924174910885
 20
-35.82071418665406
 10
152.4745330806882
 20
-36.44153566915433
 10
153.1574760722888
 20
-37.02712170305377
 10
153.9349020977891
 20
-37.57203234175423
 10
153.9892385802889
 20
-37.60636081485398
  0
LWPOLYLINE
  5
1A0
330
70
100
AcDbEntity
  8
0
 62
    18
420
        0
370
    25
100
AcDbPolyline
 90
       10
 70
     0
 43
0.0
 10
172.693712476189
 20
-37.58958367455397
 10
173.2819892495885
 20
-37.19015922315402
 10
173.993128394289
 20
-36.61586726095421
 10
174.6051926245885
 20
-36.00472035365412
 10
175.1124960183881
 20
-35.36239590165433
 10
175.5103258552889
 20
-34.69486093695415
 10
175.7949863965884
 20
-34.00831669065393
 10
175.963833217689
 20
-33.30914098555382
 10
176.0152977741883
 20
-32.60382898745382
 10
176.0152932837889
 20
-32.60340687095438
  0
SPLINE
  5
1A1
330
70
100
AcDbEntity
  8
0
 62
    18
420
        0
370
    25
100
AcDbSpline
210
0.0
220
0.0
230
1.0
 70
     8
 71
     3
 72
     8
 73
     4
 74
     0
 42
0.0000000001
 43
0.0000000001
 40
0.0
 40
0.0
 40
0.0
 40
0.0
 40
1.0
 40
1.0
 40
1.0
 40
1.0
 10
154.9417643068397
 20
-38.15300109495332
 30
0.0
 10
159.8766761418194
 20
-40.48798007399381
 30
0.0
 10
165.5593218839054
 20
-40.67014236259555
 30
0.0
 10
170.6336480992637
 20
-38.65601845585153
 30
0.0
  0
LWPOLYLINE
  5
1A2
330
70
100
AcDbEntity
  8
0
 62
    18
420
        0
370
    25
100
AcDbPolyline
 90
       12
 70
     0
 43
0.0
 10
180.5344194933884
 20
-22.85255482735438
 10
180.490334790488
 20
-22.35901956925418
 10
180.360142033388
 20
-21.83766235675388
 10
180.1499288907887
 20
-21.31286127365374
 10
179.8695246955886
 20
-20.80915543525374
 10
179.5320408362886
 20
-20.35009756685379
 10
179.1532576830889
 20
-19.95715270405396
 10
178.7508867152885
 20
-19.64869451185417
 10
178.3437423519884
 20
-19.4391461526543
 10
177.950862211288
 20
-19.33830587475428
 10
177.5906169317882
 20
-19.35088885755402
 10
177.315576433389
 20
-19.45454704515378
  0
SPLINE
  5
1A3
330
70
100
AcDbEntity
  8
0
 62
    18
420
        0
370
    25
100
AcDbSpline
210
0.0
220
0.0
230
1.0
 70
     8
 71
     3
 72
     8
 73
     4
 74
     0
 42
0.0000000001
 43
0.0000000001
 40
0.0
 40
0.0
 40
0.0
 40
0.0
 40
1.0
 40
1.0
 40
1.0
 40
1.0
 10
179.9820263870604
 20
-24.0734743112588
 30
0.0
 10
180.3745740744256
 20
-23.79731205895291
 30
0.0
 10
180.5861322670076
 20
-23.3297183899671
 30
0.0
 10
180.5344194933768
 20
-22.8525548273409
 30
0.0
  0
LWPOLYLINE
  5
1A4
330
70
100
AcDbEntity
  8
0
 62
    18
420
        0
370
    25
100
AcDbPolyline
 90
       23
 70
     0
 43
0.0
 10
162.2250679058879
 20
48.45122686574548
 10
161.9589752607887
 20
48.24602523824619
 10
161.8038053735889
 20
48.00585821284604
 10
161.7721291857886
 20
47.75018269374582
 10
161.866512913488
 20
47.49971199094567
 10
162.0793101486881
 20
47.27473775104616
 10
162.3932813247891
 20
47.09348604914598
 10
162.7829903643888
 20
46.97064082014623
 10
163.2168653587892
 20
46.91615425384613
 10
163.6597563361887
 20
46.93444052794581
 10
164.075782903789
 20
47.02401819704603
 10
164.431241063188
 20
47.17763021134622
 10
164.6973337082885
 20
47.3828318389456
 10
164.8525035954883
 20
47.62299886424567
 10
164.8841797832887
 20
47.87867438334589
 10
164.7897960554891
 20
48.12914508624612
 10
164.5769988203891
 20
48.35411932604554
 10
164.2630276442882
 20
48.53537102794636
 10
163.8733186046884
 20
48.65821625694611
 10
163.439443610288
 20
48.71270282324557
 10
162.9965526327884
 20
48.69441654924599
 10
162.5805260652882
 20
48.60483888004567
 10
162.2250679058879
 20
48.45122686574548
  0
LINE
  5
1A5
330
70
100
AcDbEntity
  8
0
 62
    18
420
        0
370
    25
100
AcDbLine
 10
161.6614878178886
 20
47.68746293334623
 30
0.0
 11
161.6622895843886
 21
47.71730324914567
 31
0.0
  0
SPLINE
  5
1A6
330
70
100
AcDbEntity
  8
0
 62
    18
420
        0
370
    25
100
AcDbSpline
210
0.0
220
0.0
230
1.0
 70
     8
 71
     3
 72
     8
 73
     4
 74
     0
 42
0.0000000001
 43
0.0000000001
 40
0.0
 40
0.0
 40
0.0
 40
0.0
 40
1.0
 40
1.0
 40
1.0
 40
1.0
 10
164.5066657864944
 20
46.82696568763938
 30
0.0
 10
164.7801822817433
 20
46.94910162950294
 30
0.0
 10
164.9667208372982
 20
47.20907963537829
 30
0.0
 10
164.9948211511822
 20
47.50730578082417
 30
0.0
  0
LWPOLYLINE
  5
1A7
330
70
100
AcDbEntity
  8
0
 62
    18
420
        0
370
    25
100
AcDbPolyline
 90
       10
 70
     0
 43
0.0
 10
161.6614878178886
 20
47.50730578074588
 10
161.6857219549883
 20
47.34382715174635
 10
161.8230299306886
 20
47.09407992374592
 10
162.0719661089889
 20
46.87497976724594
 10
162.414068032489
 20
46.7027763384461
 10
162.8239635663881
 20
46.5902411779461
 10
163.2712526341884
 20
46.54572050364606
 10
163.7227618519886
 20
46.57251621044578
 10
164.1450048464889
 20
46.66864098334587
 10
164.506665786488
 20
46.82696568754568
  0
LWPOLYLINE
  5
1A8
330
70
100
AcDbEntity
  8
0
 62
    18
420
        0
370
    25
100
AcDbPolyline
 90
       24
 70
     0
 43
0.0
 10
174.2832641606887
 20
-28.90913916905384
 10
174.1711708833883
 20
-29.03394140625419
 10
173.5544518599889
 20
-29.63147402835415
 10
172.839248002589
 20
-30.19123288235398
 10
172.0324471152888
 20
-30.70782718465416
 10
171.1418191316881
 20
-31.17628184955421
 10
170.1759412861882
 20
-31.5920854026541
 10
169.144115510488
 20
-31.95123342835381
 10
168.0562788506892
 20
-32.25026713485417
 10
166.9229077685891
 20
-32.486306664154
 10
165.7549172472881
 20
-32.65707882645393
 10
164.5635556738888
 20
-32.76093899265408
 10
163.3602965117885
 20
-32.79688693235396
 10
162.1567278043889
 20
-32.76457644735412
 10
160.9644405762891
 20
-32.66431870535394
 10
159.7949172052888
 20
-32.49707924315416
 10
158.6594208406884
 20
-32.26446866805413
 10
157.5688869332888
 20
-31.96872714735393
 10
156.5338179207888
 20
-31.61270283325387
 10
155.564182083489
 20
-31.19982443475411
 10
154.6693175446883
 20
-30.73406819645425
 10
153.8578423389882
 20
-30.21991960545375
 10
153.1375714162888
 20
-29.66233019395405
 10
152.5760427982887
 20
-29.13091410385416
  0
SPLINE
  5
1A9
330
70
100
AcDbEntity
  8
0
 62
    18
420
        0
370
    25
100
AcDbSpline
210
0.0
220
0.0
230
1.0
 70
     8
 71
     3
 72
     8
 73
     4
 74
     0
 42
0.0000000001
 43
0.0000000001
 40
0.0
 40
0.0
 40
0.0
 40
0.0
 40
1.0
 40
1.0
 40
1.0
 40
1.0
 10
161.6614878178141
 20
-18.68707130563939
 30
0.0
 10
159.7433411276799
 20
-18.82095024858112
 30
0.0
 10
157.8588895595881
 20
-19.26034446183779
 30
0.0
 10
156.0793442081761
 20
-19.98864978140043
 30
0.0
  0
SPLINE
  5
1AA
330
70
100
AcDbEntity
  8
0
 62
    18
420
        0
370
    25
100
AcDbSpline
210
0.0
220
0.0
230
1.0
 70
     8
 71
     3
 72
     8
 73
     4
 74
     0
 42
0.0000000001
 43
0.0000000001
 40
0.0
 40
0.0
 40
0.0
 40
0.0
 40
1.0
 40
1.0
 40
1.0
 40
1.0
 10
171.6140316286384
 20
-20.47893462681341
 30
0.0
 10
169.5523826720849
 20
-19.43787889467183
 30
0.0
 10
167.3000943823407
 20
-18.82816980794116
 30
0.0
 10
164.9948211512169
 20
-18.68707130565544
 30
0.0
  0
LWPOLYLINE
  5
1AB
330
70
100
AcDbEntity
  8
0
 62
    18
420
        0
370
    25
100
AcDbPolyline
 90
       49
 70
     0
 43
0.0
 10
172.514128107789
 20
-21.00005898145416
 10
172.9270195690886
 20
-21.2745020859539
 10
173.6570676714888
 20
-21.8396603882543
 10
174.287642693589
 20
-22.44340640685431
 10
174.8126718531888
 20
-23.0799257376542
 10
175.2270988324891
 20
-23.74308835145428
 10
175.5269324730882
 20
-24.42650762975433
 10
175.709285213088
 20
-25.12360187135377
 10
175.7724008959882
 20
-25.82765767765401
 10
175.7156716831889
 20
-26.53189460625395
 10
175.5396439080888
 20
-27.22953047075377
 10
175.2460128142879
 20
-27.91384665615387
 10
174.8376062298886
 20
-28.57825282375422
 10
174.318357333488
 20
-29.2163503788541
 10
173.6932667756887
 20
-29.82199409305379
 10
172.9683545204881
 20
-30.38935128655391
 10
172.1506018689881
 20
-30.91295799925398
 10
171.2478842263883
 20
-31.38777161225412
 10
170.2688952570881
 20
-31.80921941105438
 10
169.2230631597883
 20
-32.173242622854
 10
168.1204598695892
 20
-32.47633550515431
 10
166.971704058789
 20
-32.71557910785397
 10
165.7878588736886
 20
-32.88866938425383
 10
164.5803253908879
 20
-32.99393938035386
 10
163.3607328175885
 20
-33.03037528845428
 10
162.140826497188
 20
-32.9976262110543
 10
160.932354794388
 20
-32.89600753945413
 10
159.746955952289
 20
-32.72649791715422
 10
158.5960460097886
 20
-32.49072981445396
 10
157.4907088586886
 20
-32.19097380705374
 10
156.4415894999883
 20
-31.83011670915391
 10
155.458791526688
 20
-31.41163377185422
 10
154.5517798204889
 20
-30.93955521465381
 10
153.7292893999887
 20
-30.41842741205375
 10
152.9992412975885
 20
-29.85326910975399
 10
152.3686662753881
 20
-29.24952309115399
 10
151.8436371157883
 20
-28.61300376035409
 10
151.4292101365882
 20
-27.94984114655401
 10
151.129376495989
 20
-27.26642186825396
 10
150.947023755988
 20
-26.56932762665388
 10
150.8839080730891
 20
-25.86527182035429
 10
150.9406372858884
 20
-25.16103489175435
 10
151.1166650609884
 20
-24.46339902735399
 10
151.410296154788
 20
-23.77908284185378
 10
151.8187027391886
 20
-23.11467667425408
 10
152.337951635588
 20
-22.47657911925429
 10
152.9630421933886
 20
-21.87093540495386
 10
153.6879544485892
 20
-21.30357821155385
 10
153.760065753188
 20
-21.25305320305383
  0
LWPOLYLINE
  5
1AC
330
70
100
AcDbEntity
  8
0
 62
    18
420
        0
370
    25
100
AcDbPolyline
 90
       33
 70
     0
 43
0.0
 10
175.7460265759888
 20
-28.34031755495423
 10
175.689610517788
 20
-28.9800750176539
 10
175.513953074288
 20
-29.67624317845383
 10
175.2209397288889
 20
-30.35911968265376
 10
174.8133923603884
 20
-31.02212805605436
 10
174.2952358725886
 20
-31.65888316565404
 10
173.6714603958881
 20
-32.26325271165429
 10
172.9480732289881
 20
-32.82941628505387
 10
172.1320409857882
 20
-33.35192142095383
 10
171.2312225029881
 20
-33.8257361093539
 10
170.2542931547883
 20
-34.24629725585395
 10
169.2106613049891
 20
-34.60955462665378
 10
168.1103776988888
 20
-34.91200985465408
 10
166.9640386689884
 20
-35.15075013075429
 10
165.7826840867885
 20
-35.32347625545408
 10
164.5776910426886
 20
-35.42852478195436
 10
163.360664278488
 20
-35.46488403535378
 10
162.1433244272879
 20
-35.43220385615423
 10
160.9373951370884
 20
-35.33079897245418
 10
159.7544901664892
 20
-35.16164596875425
 10
158.6060015366891
 20
-34.92637388075407
 10
157.5029898212889
 20
-34.62724850745417
 10
156.456077625889
 20
-34.26715058965392
 10
155.4753472872884
 20
-33.84954806715433
 10
154.5702437747884
 20
-33.3784626804541
 10
153.749483729989
 20
-32.85843123945377
 10
153.0209715207884
 20
-32.29446193125387
 10
152.3917231179886
 20
-31.69198608845406
 10
151.8677985277884
 20
-31.05680588275392
 10
151.4542434302889
 20
-30.39503844695431
 10
151.1550405870889
 20
-29.7130569629538
 10
150.973071485289
 20
-29.01742928545388
 10
150.9102823930884
 20
-28.34031755495423
  0
LWPOLYLINE
  5
1AD
330
70
100
AcDbEntity
  8
0
 62
    18
420
        0
370
    25
100
AcDbPolyline
 90
       50
 70
     0
 43
0.0
 10
170.2721414436885
 20
-21.67946459545374
 10
170.9979019676885
 20
-22.14490985435377
 10
171.630562146988
 20
-22.65362060975406
 10
172.1624423439886
 20
-23.19942180215398
 10
172.587086253688
 20
-23.77568814445432
 10
172.8993392740886
 20
-24.375424543954
 10
173.0954110766886
 20
-24.99135101305402
 10
173.1729216152888
 20
-25.61599103885393
 10
173.130930017088
 20
-26.2417623376543
 10
172.9699460029884
 20
-26.86106889345403
 10
172.6919237009884
 20
-27.46639316375393
 10
172.3002379252881
 20
-28.05038733175392
 10
171.7996432104882
 20
-28.60596249945415
 10
171.1962160982881
 20
-29.12637473685418
 10
170.4972813764891
 20
-29.60530694445381
 10
169.7113231657891
 20
-30.0369455339543
 10
168.8478819340891
 20
-30.4160509975542
 10
167.9174386884882
 20
-30.73802150855386
 10
166.9312877493886
 20
-30.99894878115426
 10
165.901399653389
 20
-31.19566551155434
 10
164.8402758468884
 20
-31.32578382535418
 10
163.760796935389
 20
-31.38772426225417
 10
162.6760663306881
 20
-31.38073494935432
 10
161.5992511926887
 20
-31.30490072755387
 10
160.5434225987885
 20
-31.16114212145375
 10
159.5213968775887
 20
-30.95120416575396
 10
158.5455800368892
 20
-30.67763522295386
 10
157.6278171714884
 20
-30.34375604935405
 10
156.7792486790892
 20
-29.95361948585406
 10
156.0101750317888
 20
-29.51196126195434
 10
155.3299317418887
 20
-29.02414250995374
 10
154.7467760413885
 20
-28.49608468895434
 10
154.2677866505886
 20
-27.93419770545373
 10
153.8987778516889
 20
-27.345302106354
 10
153.6442289117885
 20
-26.73654628635431
 10
153.5072297101885
 20
-26.11531971645376
 10
153.4894432314891
 20
-25.4891632458538
 10
153.5910853795889
 20
-24.86567756585412
 10
153.810922356489
 20
-24.25243094785411
 10
154.1462856389882
 20
-23.65686737525434
 10
154.5931043711881
 20
-23.08621618295406
 10
155.1459547788885
 20
-22.5474043033539
 10
155.7981260071884
 20
-22.0469721829541
 10
156.5417015806881
 20
-21.59099438965401
 10
157.367655499388
 20
-21.18500587615431
 10
158.2659618013885
 20
-20.83393479315386
 10
159.2257162650889
 20
-20.54204266795395
 10
160.2352687714889
 20
-20.3128726755541
 10
161.2823647207879
 20
-20.14920662935413
 10
161.6614878178886
 20
-20.10718384185414
  0
SPLINE
  5
1AE
330
70
100
AcDbEntity
  8
0
 62
    18
420
        0
370
    25
100
AcDbSpline
210
0.0
220
0.0
230
1.0
 70
     8
 71
     3
 72
     8
 73
     4
 74
     0
 42
0.0000000001
 43
0.0000000001
 40
0.0
 40
0.0
 40
0.0
 40
0.0
 40
1.0
 40
1.0
 40
1.0
 40
1.0
 10
170.2721414437103
 20
-21.67946459542358
 30
0.0
 10
168.6403604212427
 20
-20.79686370464507
 30
0.0
 10
166.8435685730326
 20
-20.26154254074948
 30
0.0
 10
164.9948211511977
 20
-20.10718384178292
 30
0.0
  0
LWPOLYLINE
  5
1AF
330
70
100
AcDbEntity
  8
0
 62
    18
420
        0
370
    25
100
AcDbPolyline
 90
       17
 70
     0
 43
0.0
 10
171.9741030566884
 20
-33.44195196745383
 10
171.1251574082879
 20
-33.88642661725388
 10
170.1613391839886
 20
-34.30134351805421
 10
169.1317136556888
 20
-34.65972570265402
 10
168.0461966799888
 20
-34.95812175495384
 10
166.9152423787885
 20
-35.19365795755411
 10
165.749742460288
 20
-35.36406596835416
 10
164.5609213257883
 20
-35.46770466485383
 10
163.360227972688
 20
-35.503575949854
 10
162.1592257343887
 20
-35.47133436315405
 10
160.9694809189882
 20
-35.37129040895387
 10
159.8024514193889
 20
-35.20440756525398
 10
158.669376367689
 20
-34.97229300505424
 10
157.581167895888
 20
-34.67718211835425
 10
156.5483060466883
 20
-34.32191698445388
 10
155.5807378440881
 20
-33.90991900075422
 10
154.8421145422889
 20
-33.53223751205372
  0
SPLINE
  5
1B0
330
70
100
AcDbEntity
  8
0
 62
    18
420
        0
370
    25
100
AcDbSpline
210
0.0
220
0.0
230
1.0
 70
     8
 71
     3
 72
     8
 73
     4
 74
     0
 42
0.0000000001
 43
0.0000000001
 40
0.0
 40
0.0
 40
0.0
 40
0.0
 40
1.0
 40
1.0
 40
1.0
 40
1.0
 10
170.0195484820206
 20
-22.09805072132467
 30
0.0
 10
168.4650897921897
 20
-21.25761524739048
 30
0.0
 10
166.7551182972153
 20
-20.74409916937611
 30
0.0
 10
164.9948211511668
 20
-20.58909090555292
 30
0.0
  0
LWPOLYLINE
  5
1B1
330
70
100
AcDbEntity
  8
0
 62
    18
420
        0
370
    25
100
AcDbPolyline
 90
       22
 70
     0
 43
0.0
 10
161.6614878178886
 20
-20.5890909055542
 10
161.1926823319886
 20
-20.64445815815406
 10
160.1710552147887
 20
-20.81604217265391
 10
159.189130452688
 20
-21.05258090325424
 10
158.2592563192885
 20
-21.35109973835414
 10
157.393126521389
 20
-21.70784463025419
 10
156.6016331437886
 20
-22.11832930495412
 10
155.8947296747883
 20
-22.57739167965413
 10
155.2813058356882
 20
-23.07925877845423
 10
154.7690757873887
 20
-23.61761933145381
 10
154.3644811196883
 20
-24.18570314235405
 10
154.0726098453891
 20
-24.77636622765413
 10
153.8971324151885
 20
-25.38218065635402
 10
153.8402555594888
 20
-25.99552796045431
 10
153.902694537689
 20
-26.60869494175414
 10
154.083664143588
 20
-27.21397066965407
 10
154.3808885792886
 20
-27.80374345075435
 10
154.790630075089
 20
-28.37059655005397
 10
155.3077358938882
 20
-28.90740146105398
 10
155.9257031300892
 20
-29.40740755045414
 10
156.6367604869886
 20
-29.86432695155418
 10
157.0488507416885
 20
-30.08729099285373
  0
LWPOLYLINE
  5
1B2
330
70
100
AcDbEntity
  8
0
 62
    18
420
        0
370
    25
100
AcDbPolyline
 90
       16
 70
     0
 43
0.0
 10
169.6074582273888
 20
-30.08729099285437
 10
170.0546758252887
 20
-29.84404836795425
 10
170.761579294289
 20
-29.38498599335435
 10
171.3750031332889
 20
-28.88311889445415
 10
171.8872331816885
 20
-28.34475834145392
 10
172.291827849389
 20
-27.77667453055433
 10
172.5836991236881
 20
-27.18601144525425
 10
172.7591765538887
 20
-26.58019701655436
 10
172.8160534095884
 20
-25.96684971245406
 10
172.7536144313883
 20
-25.35368273115424
 10
172.572644825488
 20
-24.7484070032543
 10
172.2754203897886
 20
-24.15863422215403
 10
171.8656788939883
 20
-23.59178112285376
 10
171.348573075189
 20
-23.05497621185375
 10
170.7306058389881
 20
-22.55497012245423
 10
170.0195484820887
 20
-22.09805072135419
  0
LINE
  5
1B3
330
70
100
AcDbEntity
  8
0
 62
    18
420
        0
370
    25
100
AcDbLine
 10
173.6660933816892
 20
-55.83047608865395
 30
0.0
 11
173.6626701267888
 21
-55.94815377845421
 31
0.0
  0
LWPOLYLINE
  5
1B4
330
70
100
AcDbEntity
  8
0
 62
     8
420
  8421504
370
    25
100
AcDbPolyline
 90
        6
 70
     0
 43
0.0
 10
173.1044013441891
 20
-11.88266245815432
 10
173.1040455950881
 20
-12.42701227905423
 10
173.1027799877891
 20
-14.60441176625407
 10
173.101742972989
 20
-18.95925525985423
 10
173.1020959730886
 20
-20.61804654655426
 10
173.1025388697883
 20
-21.44980261505379
  0
LWPOLYLINE
  5
1B5
330
70
100
AcDbEntity
  8
0
 62
     8
420
  8421504
370
    25
100
AcDbPolyline
 90
        5
 70
     0
 43
0.0
 10
175.7745520565885
 20
-26.5023975411538
 10
179.2413371264883
 20
-28.50483085215416
 10
180.6779657299884
 20
-29.33377129105437
 10
184.4282142861891
 20
-31.49608174015421
 10
184.4331734533886
 20
-31.49894022375395
  0
SPLINE
  5
1B6
330
70
100
AcDbEntity
  8
0
 62
     8
420
  8421504
370
    25
100
AcDbSpline
210
0.0
220
0.0
230
1.0
 70
     8
 71
     3
 72
     8
 73
     4
 74
     0
 42
0.0000000001
 43
0.0000000001
 40
0.0
 40
0.0
 40
0.0
 40
0.0
 40
1.0
 40
1.0
 40
1.0
 40
1.0
 10
184.830267122834
 20
-31.63720311624047
 30
0.0
 10
184.8802307462144
 20
-31.60343068299845
 30
0.0
 10
184.906933036157
 20
-31.54441230336492
 30
0.0
 10
184.8993162611226
 20
-31.48458818075081
 30
0.0
  0
SPLINE
  5
1B7
330
70
100
AcDbEntity
  8
0
 62
     8
420
  8421504
370
    25
100
AcDbSpline
210
0.0
220
0.0
230
1.0
 70
     8
 71
     3
 72
     8
 73
     4
 74
     0
 42
0.0000000001
 43
0.0000000001
 40
0.0
 40
0.0
 40
0.0
 40
0.0
 40
1.0
 40
1.0
 40
1.0
 40
1.0
 10
173.0165721864918
 20
-11.75249238378634
 30
0.0
 10
173.0213330807546
 20
-11.8081636435187
 30
0.0
 10
173.0545597556822
 20
-11.85740832327173
 30
0.0
 10
173.104401344216
 20
-11.88266245811838
 30
0.0
  0
SPLINE
  5
1B8
330
70
100
AcDbEntity
  8
0
 62
     8
420
  8421504
370
    25
100
AcDbSpline
210
0.0
220
0.0
230
1.0
 70
     8
 71
     3
 72
     8
 73
     4
 74
     0
 42
0.0000000001
 43
0.0000000001
 40
0.0
 40
0.0
 40
0.0
 40
0.0
 40
1.0
 40
1.0
 40
1.0
 40
1.0
 10
173.3499055016349
 20
-11.48042200676315
 30
0.0
 10
173.30127641665
 20
-11.44558443098844
 30
0.0
 10
173.23776955741
 20
-11.43929571830936
 30
0.0
 10
173.1832523796221
 20
-11.46391932321115
 30
0.0
  0
SPLINE
  5
1B9
330
70
100
AcDbEntity
  8
0
 62
     8
420
  8421504
370
    25
100
AcDbSpline
210
0.0
220
0.0
230
1.0
 70
     8
 71
     3
 72
     8
 73
     4
 74
     0
 42
0.0000000001
 43
0.0000000001
 40
0.0
 40
0.0
 40
0.0
 40
0.0
 40
1.0
 40
1.0
 40
1.0
 40
1.0
 10
150.9080659230357
 20
-28.13293457731473
 30
0.0
 10
150.8531541365638
 20
-29.39635047145957
 30
0.0
 10
151.2985568103583
 20
-30.63047496798279
 30
0.0
 10
152.147665452485
 20
-31.56762465705993
 30
0.0
  0
SPLINE
  5
1BA
330
70
100
AcDbEntity
  8
0
 62
     8
420
  8421504
370
    25
100
AcDbSpline
210
0.0
220
0.0
230
1.0
 70
     8
 71
     3
 72
     8
 73
     4
 74
     0
 42
0.0000000001
 43
0.0000000001
 40
0.0
 40
0.0
 40
0.0
 40
0.0
 40
1.0
 40
1.0
 40
1.0
 40
1.0
 10
174.0505149563241
 20
-32.06176478627159
 30
0.0
 10
175.1794886626373
 20
-31.07485361073185
 30
0.0
 10
175.8032122060083
 20
-29.63145174083167
 30
0.0
 10
175.7482430460146
 20
-28.13293457729933
 30
0.0
  0
LWPOLYLINE
  5
1BB
330
70
100
AcDbEntity
  8
0
 62
     8
420
  8421504
370
    25
100
AcDbPolyline
 90
       35
 70
     0
 43
0.0
 10
150.661487819488
 20
-30.71061793885374
 10
150.6617934064886
 20
-30.76129255855434
 10
150.7302602280882
 20
-31.4714480753539
 10
150.9179167722889
 20
-32.17440419445428
 10
151.222987604989
 20
-32.86351018975416
 10
151.642586425688
 20
-33.53224637225417
 10
152.1727433751885
 20
-34.17428577345397
 10
152.8084425945886
 20
-34.78355400525379
 10
153.5436696808881
 20
-35.35428673045437
 10
154.371468589488
 20
-35.88108419935423
 10
155.2840074463882
 20
-36.3589623373539
 10
156.2726526456891
 20
-36.78339989985374
 10
157.3280505331885
 20
-37.150381247754
 10
158.4402159018883
 20
-37.45643434015382
 10
159.5986264629889
 20
-37.69866358345386
 10
160.7923223980884
 20
-37.87477722645399
 10
162.0100100509891
 20
-37.98310904355381
 10
163.240168777689
 20
-38.02263409835391
 10
164.4711599443891
 20
-37.99297844105418
 10
165.6913370416888
 20
-37.89442264625406
 10
166.8891558726887
 20
-37.72789915865379
 10
168.0532837742882
 20
-37.49498347055436
 10
169.1727068355888
 20
-37.19787921675391
 10
170.2368341022883
 20
-36.83939732525381
 10
171.2355977780889
 20
-36.42292942295377
 10
172.1595484768888
 20
-35.95241574715389
 10
172.999944624488
 20
-35.43230786685425
 10
173.7488351632882
 20
-34.86752656575421
 10
174.3991347776888
 20
-34.26341528665401
 10
174.944690929288
 20
-33.62568957655382
 10
175.3803420657882
 20
-32.96038301115375
 10
175.7019664558882
 20
-32.27379011115408
 10
175.9065211844887
 20
-31.57240678895435
 10
175.9920709421882
 20
-30.86286889025382
 10
175.9948211510883
 20
-30.71053313705383
  0
LWPOLYLINE
  5
1BC
330
70
100
AcDbEntity
  8
0
 62
     8
420
  8421504
370
    25
100
AcDbPolyline
 90
       19
 70
     0
 43
0.0
 10
153.9892385802889
 20
-37.60636081485398
 10
154.7995890659883
 20
-38.07120550335379
 10
155.743504253089
 20
-38.5200039949543
 10
156.7578789254889
 20
-38.91425859195406
 10
157.8332897986886
 20
-39.250306768854
 10
158.9597465770887
 20
-39.52502672295381
 10
160.1267847618881
 20
-39.73586637505389
 10
161.3235628628891
 20
-39.88086707815437
 10
162.5389631137885
 20
-39.95868181235404
 10
163.7616947532891
 20
-39.96858769835375
 10
164.9803989131883
 20
-39.91049271315386
 10
166.1837541395882
 20
-39.7849365442539
 10
167.3605815662887
 20
-39.59308557685424
 10
168.4999487636889
 20
-39.33672205805429
 10
169.5912712983887
 20
-39.01822754015418
 10
170.6244110594891
 20
-38.64056075685411
 10
171.5897704394887
 20
-38.20723013705391
 10
172.4783814936882
 20
-37.72226121285429
 10
172.693712476189
 20
-37.58958367455397
  0
LINE
  5
1BD
330
70
100
AcDbEntity
  8
0
 62
     8
420
  8421504
370
    25
100
AcDbLine
 10
161.3295756997881
 20
-31.27488682465383
 30
0.0
 11
161.6614878178886
 21
-31.18936450625425
 31
0.0
  0
LINE
  5
1BE
330
70
100
AcDbEntity
  8
0
 62
     8
420
  8421504
370
    25
100
AcDbLine
 10
164.9948211511887
 20
-31.18936450625425
 30
0.0
 11
165.3267332692891
 21
-31.27488682465383
 31
0.0
  0
LWPOLYLINE
  5
1BF
330
70
100
AcDbEntity
  8
0
 62
     8
420
  8421504
370
    25
100
AcDbPolyline
 90
       14
 70
     0
 43
0.0
 10
164.9947326227883
 20
47.6775462325462
 10
164.9860832825887
 20
47.58906987244585
 10
164.8786185567887
 20
47.33449554564546
 10
164.6561630035891
 20
47.10609919524586
 10
164.3352151336891
 20
46.92081993384629
 10
163.9395781825892
 20
46.79239907644606
 10
163.4985947327885
 20
46.73036101074577
 10
163.044970509488
 20
46.73930681614545
 10
162.6123487461888
 20
46.8185730232464
 10
162.2328150197882
 20
46.962280820146
 10
161.9345176107886
 20
47.15977205684562
 10
161.7395798731882
 20
47.39639971184583
 10
161.6624594472887
 20
47.65461419444618
 10
161.6614878178886
 20
47.68746293334623
  0
LWPOLYLINE
  5
1C0
330
70
100
AcDbEntity
  8
0
 62
     8
420
  8421504
370
    25
100
AcDbPolyline
 90
       14
 70
     0
 43
0.0
 10
171.986991424389
 20
-20.68430584015413
 10
172.7984666300891
 20
-21.19845443115398
 10
173.5187375527885
 20
-21.75604384275379
 10
174.1408675898879
 20
-22.35170418405382
 10
174.6588652888883
 20
-22.97969892055402
 10
175.0677420487881
 20
-23.63398011945395
 10
175.3635601630886
 20
-24.30824669525401
 10
175.5434707413886
 20
-24.99600509215393
 10
175.6057411465885
 20
-25.69063182095405
 10
175.5497716805886
 20
-26.38543724635387
 10
175.3761013599889
 20
-27.07373001245433
 10
175.0864027248888
 20
-27.74888148355438
 10
174.6834657314887
 20
-28.40438958185376
 10
174.2832641606887
 20
-28.90913916905384
  0
LWPOLYLINE
  5
1C1
330
70
100
AcDbEntity
  8
0
 62
     8
420
  8421504
370
    25
100
AcDbPolyline
 90
       17
 70
     0
 43
0.0
 10
152.5760427982887
 20
-29.13091410385416
 10
152.515441379188
 20
-29.06666985255391
 10
151.997443680189
 20
-28.43867511605436
 10
151.588566920189
 20
-27.78439391715378
 10
151.2927488059886
 20
-27.11012734135437
 10
151.1128382276886
 20
-26.4223689444538
 10
151.0505678224888
 20
-25.72774221565433
 10
151.1065372884887
 20
-25.03293679025387
 10
151.2802076090883
 20
-24.34464402425416
 10
151.5699062441885
 20
-23.6694925531541
 10
151.9728432375885
 20
-23.01398445475397
 10
152.4851380856889
 20
-22.38443263035418
 10
153.1018571090883
 20
-21.78690000825422
 10
153.8170609664883
 20
-21.22714115425375
 10
154.6238618537884
 20
-20.71054685195421
 10
155.514489837289
 20
-20.24209218705417
 10
156.0793442081889
 20
-19.98864978135423
  0
LINE
  5
1C2
330
70
100
AcDbEntity
  8
0
 62
     8
420
  8421504
370
    25
100
AcDbLine
 10
171.6140316285884
 20
-20.47893462675373
 30
0.0
 11
171.986991424389
 21
-20.68430584015413
 31
0.0
  0
LWPOLYLINE
  5
1C3
330
70
100
AcDbEntity
  8
0
 62
     8
420
  8421504
370
    25
100
AcDbPolyline
 90
       31
 70
     0
 43
0.0
 10
173.6626701267888
 20
-55.94815377845421
 10
173.6452151821881
 20
-56.17045759095383
 10
173.5165509781888
 20
-56.80137186265396
 10
173.2724481709891
 20
-57.42081679605419
 10
172.9156725426881
 20
-58.02177383235378
 10
172.4502665037892
 20
-58.59743388835436
 10
171.8815032907884
 20
-59.14127450555406
 10
171.2158272179885
 20
-59.64713375245375
 10
170.460780661388
 20
-60.10928004155436
 10
169.6249186001884
 20
-60.52247707095395
 10
168.7177116854889
 20
-60.88204315295388
 10
167.7494389340884
 20
-61.18390426035378
 10
166.7310712632884
 20
-61.4246401861543
 10
165.6741471855884
 20
-61.60152329605409
 10
164.5906420731884
 20
-61.71254943375423
 10
163.4928324719887
 20
-61.75646062875377
 10
162.3931570033891
 20
-61.73275934975407
 10
161.3040754297891
 20
-61.64171414165435
 10
160.2379274806885
 20
-61.48435658295372
 10
159.2067930383884
 20
-61.26246959785382
 10
158.222355267989
 20
-60.97856725445391
 10
157.2957682429884
 20
-60.63586627965419
 10
156.4375305644886
 20
-60.23824961265375
 10
155.6573664082887
 20
-59.79022240895424
 10
154.9641153461889
 20
-59.29686099595425
 10
154.365632189588
 20
-58.76375535545385
 10
153.868697991789
 20
-58.19694578755399
 10
153.4789432158885
 20
-57.60285447095373
 10
153.2007839391884
 20
-56.98821269785422
 10
153.0373718174886
 20
-56.359984604954
 10
152.9902155873881
 20
-55.83047608865395
  0
INSERT
  5
1C6
330
70
100
AcDbEntity
  8
CAPA_BASE
100
AcDbBlockReference
  2
Block_0
 10
0.0
 20
0.0
 30
0.0
  0
INSERT
  5
1D3
330
70
100
AcDbEntity
  8
CAPA_BASE
100
AcDbBlockReference
  2
Block_1
 10
0.0
 20
0.0
 30
0.0
  0
INSERT
  5
1DF
330
70
100
AcDbEntity
  8
CAPA_BASE
100
AcDbBlockReference
  2
Block_2
 10
0.0
 20
0.0
 30
0.0
  0
ENDSEC
  0
SECTION
  2
OBJECTS
  0
DICTIONARY
  5
C
330
0
100
AcDbDictionary
281
     1
  3
ACAD_COLOR
350
63
  3
ACAD_DETAILVIEWSTYLE
350
6A
  3
ACAD_GROUP
350
D
  3
ACAD_LAYOUT
350
62
  3
ACAD_MATERIAL
350
10
  3
ACAD_MLEADERSTYLE
350
66
  3
ACAD_MLINESTYLE
350
5F
  3
ACAD_PLOTSETTINGS
350
61
  3
ACAD_PLOTSTYLENAME
350
E
  3
ACAD_SCALELIST
350
42
  3
ACAD_SECTIONVIEWSTYLE
350
68
  3
ACAD_TABLESTYLE
350
64
  3
ACAD_VISUALSTYLE
350
29
  3
ACDB_RECOMPOSE_DATA
350
1F2
  3
AcDbVariableDictionary
350
1EA
  0
DICTIONARY
  5
63
102
{ACAD_REACTORS
330
C
102
}
330
C
100
AcDbDictionary
281
     1
  0
DICTIONARY
  5
6A
102
{ACAD_REACTORS
330
C
102
}
330
C
100
AcDbDictionary
281
     1
  3
Imperial24
350
6B
  0
DICTIONARY
  5
D
102
{ACAD_REACTORS
330
C
102
}
330
C
100
AcDbDictionary
281
     1
  0
DICTIONARY
  5
62
102
{ACAD_REACTORS
330
C
102
}
330
C
100
AcDbDictionary
281
     1
  3
Layout1
350
6F
  3
Layout2
350
77
  3
Model
350
73
  0
DICTIONARY
  5
10
102
{ACAD_REACTORS
330
C
102
}
330
C
100
AcDbDictionary
281
     1
  3
ByBlock
350
19
  3
ByLayer
350
11
  3
Global
350
21
  0
DICTIONARY
  5
66
102
{ACAD_REACTORS
330
C
102
}
330
C
100
AcDbDictionary
281
     1
  3
Standard
350
67
  0
DICTIONARY
  5
5F
102
{ACAD_REACTORS
330
C
102
}
330
C
100
AcDbDictionary
281
     1
  3
Standard
350
60
  0
DICTIONARY
  5
61
102
{ACAD_REACTORS
330
C
102
}
330
C
100
AcDbDictionary
281
     1
  0
ACDBDICTIONARYWDFLT
  5
E
102
{ACAD_REACTORS
330
C
102
}
330
C
100
AcDbDictionary
281
     1
  3
Normal
350
F
100
AcDbDictionaryWithDefault
340
F
  0
DICTIONARY
  5
42
102
{ACAD_REACTORS
330
C
102
}
330
C
100
AcDbDictionary
281
     1
  3
A0
350
43
  3
A1
350
44
  3
A2
350
45
  3
A3
350
46
  3
A4
350
47
  3
A5
350
48
  3
A6
350
49
  3
A7
350
4A
  3
A8
350
4B
  3
A9
350
4C
  3
B0
350
4D
  3
B1
350
4E
  3
B2
350
4F
  3
B3
350
50
  3
B4
350
51
  3
B5
350
52
  3
B6
350
53
  0
DICTIONARY
  5
68
102
{ACAD_REACTORS
330
C
102
}
330
C
100
AcDbDictionary
281
     1
  3
Imperial24
350
69
  0
DICTIONARY
  5
64
102
{ACAD_REACTORS
330
C
102
}
330
C
100
AcDbDictionary
281
     1
  3
Standard
350
65
  0
DICTIONARY
  5
29
102
{ACAD_REACTORS
330
C
102
}
330
C
100
AcDbDictionary
281
     1
  3
2dWireframe
350
2F
  3
Basic
350
2E
  3
Brighten
350
35
  3
ColorChange
350
39
  3
Conceptual
350
32
  3
Dim
350
34
  3
EdgeColorOff
350
41
  3
Facepattern
350
38
  3
Flat
350
2A
  3
FlatWithEdges
350
2B
  3
Gouraud
350
2C
  3
GouraudWithEdges
350
2D
  3
Hidden
350
31
  3
JitterOff
350
3F
  3
Linepattern
350
37
  3
OverhangOff
350
40
  3
Realistic
350
33
  3
Shaded
350
3E
  3
Shaded with edges
350
3D
  3
Shades of Gray
350
3A
  3
Sketchy
350
3B
  3
Thicken
350
36
  3
Wireframe
350
30
  3
X-Ray
350
3C
  0
XRECORD
  5
1F2
102
{ACAD_REACTORS
330
C
102
}
330
C
100
AcDbXrecord
280
     1
 90
        1
330
65
  0
DICTIONARY
  5
1EA
102
{ACAD_REACTORS
330
C
102
}
330
C
100
AcDbDictionary
281
     1
  3
CANNOSCALE
350
1EF
  3
CMLEADERSTYLE
350
1EC
  3
CTABLESTYLE
350
1EB
  3
CVIEWDETAILSTYLE
350
1ED
  3
CVIEWSECTIONSTYLE
350
1EE
  0
ACDBDETAILVIEWSTYLE
  5
6B
102
{ACAD_REACTORS
330
6A
102
}
330
6A
100
AcDbModelDocViewStyle
 70
     0
  3
Imperial24
290
     1
300
Imperial24
 90
        0
100
AcDbDetailViewStyle
 70
     0
 71
     0
 90
        3
 71
     1
340
55
 62
   256
 40
0.24
340
0
 62
   256
 40
0.24
300

 40
0.36
280
     3
 71
     2
340
5D
 90
       25
 62
   256
 71
     3
340
55
 62
   256
 40
0.24
 90
        1
 40
0.75
 90
        1
300
%<\AcVar ViewType \f "%tc1">% %<\AcVar ViewDetailId>%\PSCALE %<\AcVar ViewScale \f "%sn">%
 71
     4
340
5D
 90
       25
 62
   256
340
5D
 90
       25
 62
   256
280
     0
  0
LAYOUT
  5
6F
102
{ACAD_REACTORS
330
62
102
}
330
62
100
AcDbPlotSettings
  1

  2

  4

  6

 40
0.0
 41
0.0
 42
0.0
 43
0.0
 44
0.0
 45
0.0
 46
0.0
 47
0.0
 48
0.0
 49
0.0
140
0.0
141
0.0
142
1.0
143
1.0
 70
   688
 72
     0
 73
     0
 74
     5
  7

 75
    16
147
1.0
 76
     0
 77
     2
 78
   300
148
0.0
149
0.0
100
AcDbLayout
  1
Layout1
 70
     1
 71
     1
 10
0.0
 20
0.0
 11
12.0
 21
9.0
 12
0.0
 22
0.0
 32
0.0
 14
0.0
 24
0.0
 34
0.0
 15
0.0
 25
0.0
 35
0.0
146
0.0
 13
0.0
 23
0.0
 33
0.0
 16
1.0
 26
0.0
 36
0.0
 17
0.0
 27
1.0
 37
0.0
 76
     0
330
6C
  0
LAYOUT
  5
77
102
{ACAD_REACTORS
330
62
102
}
330
62
100
AcDbPlotSettings
  1

  2

  4

  6

 40
0.0
 41
0.0
 42
0.0
 43
0.0
 44
0.0
 45
0.0
 46
0.0
 47
0.0
 48
0.0
 49
0.0
140
0.0
141
0.0
142
1.0
143
1.0
 70
   688
 72
     0
 73
     0
 74
     5
  7

 75
    16
147
1.0
 76
     0
 77
     2
 78
   300
148
0.0
149
0.0
100
AcDbLayout
  1
Layout2
 70
     1
 71
     2
 10
0.0
 20
0.0
 11
12.0
 21
9.0
 12
0.0
 22
0.0
 32
0.0
 14
0.0
 24
0.0
 34
0.0
 15
0.0
 25
0.0
 35
0.0
146
0.0
 13
0.0
 23
0.0
 33
0.0
 16
1.0
 26
0.0
 36
0.0
 17
0.0
 27
1.0
 37
0.0
 76
     0
330
74
  0
LAYOUT
  5
73
102
{ACAD_REACTORS
330
62
102
}
330
62
100
AcDbPlotSettings
  1

  2

  4

  6

 40
0.0
 41
0.0
 42
0.0
 43
0.0
 44
0.0
 45
0.0
 46
0.0
 47
0.0
 48
0.0
 49
0.0
140
0.0
141
0.0
142
1.0
143
1.0
 70
  1712
 72
     0
 73
     0
 74
     0
  7

 75
     0
147
1.0
 76
     0
 77
     2
 78
   300
148
0.0
149
0.0
100
AcDbLayout
  1
Model
 70
     1
 71
     0
 10
0.0
 20
0.0
 11
12.0
 21
9.0
 12
0.0
 22
0.0
 32
0.0
 14
0.0
 24
0.0
 34
0.0
 15
0.0
 25
0.0
 35
0.0
146
0.0
 13
0.0
 23
0.0
 33
0.0
 16
1.0
 26
0.0
 36
0.0
 17
0.0
 27
1.0
 37
0.0
 76
     0
330
70
  0
MATERIAL
  5
19
102
{ACAD_XDICTIONARY
360
1A
102
}
102
{ACAD_REACTORS
330
10
102
}
330
10
100
AcDbMaterial
  1
ByBlock
 72
     0
 43
0.0208333333333333
 43
0.0
 43
0.0
 43
0.0
 43
0.0
 43
0.0208333333333333
 43
0.0
 43
0.0
 43
0.0
 43
0.0
 43
1.0
 43
0.0
 43
0.0
 43
0.0
 43
0.0
 43
1.0
 77
     0
 47
0.0208333333333333
 47
0.0
 47
0.0
 47
0.0
 47
0.0
 47
0.0208333333333333
 47
0.0
 47
0.0
 47
0.0
 47
0.0
 47
1.0
 47
0.0
 47
0.0
 47
0.0
 47
0.0
 47
1.0
171
     0
 49
0.0208333333333333
 49
0.0
 49
0.0
 49
0.0
 49
0.0
 49
0.0208333333333333
 49
0.0
 49
0.0
 49
0.0
 49
0.0
 49
1.0
 49
0.0
 49
0.0
 49
0.0
 49
0.0
 49
1.0
175
     0
142
0.0208333333333333
142
0.0
142
0.0
142
0.0
142
0.0
142
0.0208333333333333
142
0.0
142
0.0
142
0.0
142
0.0
142
1.0
142
0.0
142
0.0
142
0.0
142
0.0
142
1.0
179
     0
144
0.0208333333333333
144
0.0
144
0.0
144
0.0
144
0.0
144
0.0208333333333333
144
0.0
144
0.0
144
0.0
144
0.0
144
1.0
144
0.0
144
0.0
144
0.0
144
0.0
144
1.0
147
0.0208333333333333
147
0.0
147
0.0
147
0.0
147
0.0
147
0.0208333333333333
147
0.0
147
0.0
147
0.0
147
0.0
147
1.0
147
0.0
147
0.0
147
0.0
147
0.0
147
1.0
  0
MATERIAL
  5
11
102
{ACAD_XDICTIONARY
360
12
102
}
102
{ACAD_REACTORS
330
10
102
}
330
10
100
AcDbMaterial
  1
ByLayer
 72
     0
 43
0.0208333333333333
 43
0.0
 43
0.0
 43
0.0
 43
0.0
 43
0.0208333333333333
 43
0.0
 43
0.0
 43
0.0
 43
0.0
 43
1.0
 43
0.0
 43
0.0
 43
0.0
 43
0.0
 43
1.0
 77
     0
 47
0.0208333333333333
 47
0.0
 47
0.0
 47
0.0
 47
0.0
 47
0.0208333333333333
 47
0.0
 47
0.0
 47
0.0
 47
0.0
 47
1.0
 47
0.0
 47
0.0
 47
0.0
 47
0.0
 47
1.0
171
     0
 49
0.0208333333333333
 49
0.0
 49
0.0
 49
0.0
 49
0.0
 49
0.0208333333333333
 49
0.0
 49
0.0
 49
0.0
 49
0.0
 49
1.0
 49
0.0
 49
0.0
 49
0.0
 49
0.0
 49
1.0
175
     0
142
0.0208333333333333
142
0.0
142
0.0
142
0.0
142
0.0
142
0.0208333333333333
142
0.0
142
0.0
142
0.0
142
0.0
142
1.0
142
0.0
142
0.0
142
0.0
142
0.0
142
1.0
179
     0
144
0.0208333333333333
144
0.0
144
0.0
144
0.0
144
0.0
144
0.0208333333333333
144
0.0
144
0.0
144
0.0
144
0.0
144
1.0
144
0.0
144
0.0
144
0.0
144
0.0
144
1.0
147
0.0208333333333333
147
0.0
147
0.0
147
0.0
147
0.0
147
0.0208333333333333
147
0.0
147
0.0
147
0.0
147
0.0
147
1.0
147
0.0
147
0.0
147
0.0
147
0.0
147
1.0
  0
MATERIAL
  5
21
102
{ACAD_XDICTIONARY
360
22
102
}
102
{ACAD_REACTORS
330
10
102
}
330
10
100
AcDbMaterial
  1
Global
 72
     0
 43
0.0208333333333333
 43
0.0
 43
0.0
 43
0.0
 43
0.0
 43
0.0208333333333333
 43
0.0
 43
0.0
 43
0.0
 43
0.0
 43
1.0
 43
0.0
 43
0.0
 43
0.0
 43
0.0
 43
1.0
 77
     0
 47
0.0208333333333333
 47
0.0
 47
0.0
 47
0.0
 47
0.0
 47
0.0208333333333333
 47
0.0
 47
0.0
 47
0.0
 47
0.0
 47
1.0
 47
0.0
 47
0.0
 47
0.0
 47
0.0
 47
1.0
171
     0
 49
0.0208333333333333
 49
0.0
 49
0.0
 49
0.0
 49
0.0
 49
0.0208333333333333
 49
0.0
 49
0.0
 49
0.0
 49
0.0
 49
1.0
 49
0.0
 49
0.0
 49
0.0
 49
0.0
 49
1.0
175
     0
142
0.0208333333333333
142
0.0
142
0.0
142
0.0
142
0.0
142
0.0208333333333333
142
0.0
142
0.0
142
0.0
142
0.0
142
1.0
142
0.0
142
0.0
142
0.0
142
0.0
142
1.0
179
     0
144
0.0208333333333333
144
0.0
144
0.0
144
0.0
144
0.0
144
0.0208333333333333
144
0.0
144
0.0
144
0.0
144
0.0
144
1.0
144
0.0
144
0.0
144
0.0
144
0.0
144
1.0
147
0.0208333333333333
147
0.0
147
0.0
147
0.0
147
0.0
147
0.0208333333333333
147
0.0
147
0.0
147
0.0
147
0.0
147
1.0
147
0.0
147
0.0
147
0.0
147
0.0
147
1.0
  0
MLEADERSTYLE
  5
67
102
{ACAD_REACTORS
330
66
102
}
330
66
100
AcDbMLeaderStyle
179
     2
170
     2
171
     1
172
     0
 90
        2
 40
0.0
 41
0.0
173
     1
 91
-1056964608
340
5B
 92
       -2
290
     1
 42
0.09
291
     1
 43
0.36
  3
Standard
 44
0.18
300

342
55
174
     1
178
     6
175
     1
176
     0
 93
-1056964608
 45
0.18
292
     0
297
     0
 46
0.18
 94
-1056964608
 47
1.0
 49
1.0
140
1.0
293
     1
141
0.0
294
     1
177
     0
142
1.0
295
     1
296
     0
143
0.125
271
     0
272
     9
273
     9
298
     1
  0
MLINESTYLE
  5
60
102
{ACAD_REACTORS
330
5F
102
}
330
5F
100
AcDbMlineStyle
  2
STANDARD
 70
     0
  3

 62
   256
 51
90.0
 52
90.0
 71
     2
 49
0.5
 62
   256
  6
BYLAYER
 49
-0.5
 62
   256
  6
BYLAYER
  0
ACDBPLACEHOLDER
  5
F
102
{ACAD_REACTORS
330
E
102
}
330
E
  0
SCALE
  5
43
102
{ACAD_REACTORS
330
42
102
}
330
42
100
AcDbScale
 70
     0
300
1:1
140
1.0
141
1.0
290
     1
  0
SCALE
  5
44
102
{ACAD_REACTORS
330
42
102
}
330
42
100
AcDbScale
 70
     0
300
1/128" = 1'-0"
140
0.0078125
141
12.0
290
     0
  0
SCALE
  5
45
102
{ACAD_REACTORS
330
42
102
}
330
42
100
AcDbScale
 70
     0
300
1/64" = 1'-0"
140
0.015625
141
12.0
290
     0
  0
SCALE
  5
46
102
{ACAD_REACTORS
330
42
102
}
330
42
100
AcDbScale
 70
     0
300
1/32" = 1'-0"
140
0.03125
141
12.0
290
     0
  0
SCALE
  5
47
102
{ACAD_REACTORS
330
42
102
}
330
42
100
AcDbScale
 70
     0
300
1/16" = 1'-0"
140
0.0625
141
12.0
290
     0
  0
SCALE
  5
48
102
{ACAD_REACTORS
330
42
102
}
330
42
100
AcDbScale
 70
     0
300
3/32" = 1'-0"
140
0.09375
141
12.0
290
     0
  0
SCALE
  5
49
102
{ACAD_REACTORS
330
42
102
}
330
42
100
AcDbScale
 70
     0
300
1/8" = 1'-0"
140
0.125
141
12.0
290
     0
  0
SCALE
  5
4A
102
{ACAD_REACTORS
330
42
102
}
330
42
100
AcDbScale
 70
     0
300
3/16" = 1'-0"
140
0.1875
141
12.0
290
     0
  0
SCALE
  5
4B
102
{ACAD_REACTORS
330
42
102
}
330
42
100
AcDbScale
 70
     0
300
1/4" = 1'-0"
140
0.25
141
12.0
290
     0
  0
SCALE
  5
4C
102
{ACAD_REACTORS
330
42
102
}
330
42
100
AcDbScale
 70
     0
300
3/8" = 1'-0"
140
0.375
141
12.0
290
     0
  0
SCALE
  5
4D
102
{ACAD_REACTORS
330
42
102
}
330
42
100
AcDbScale
 70
     0
300
1/2" = 1'-0"
140
0.5
141
12.0
290
     0
  0
SCALE
  5
4E
102
{ACAD_REACTORS
330
42
102
}
330
42
100
AcDbScale
 70
     0
300
3/4" = 1'-0"
140
0.75
141
12.0
290
     0
  0
SCALE
  5
4F
102
{ACAD_REACTORS
330
42
102
}
330
42
100
AcDbScale
 70
     0
300
1" = 1'-0"
140
1.0
141
12.0
290
     0
  0
SCALE
  5
50
102
{ACAD_REACTORS
330
42
102
}
330
42
100
AcDbScale
 70
     0
300
1-1/2" = 1'-0"
140
1.5
141
12.0
290
     0
  0
SCALE
  5
51
102
{ACAD_REACTORS
330
42
102
}
330
42
100
AcDbScale
 70
     0
300
3" = 1'-0"
140
3.0
141
12.0
290
     0
  0
SCALE
  5
52
102
{ACAD_REACTORS
330
42
102
}
330
42
100
AcDbScale
 70
     0
300
6" = 1'-0"
140
6.0
141
12.0
290
     0
  0
SCALE
  5
53
102
{ACAD_REACTORS
330
42
102
}
330
42
100
AcDbScale
 70
     0
300
1'-0" = 1'-0"
140
12.0
141
12.0
290
     0
  0
ACDBSECTIONVIEWSTYLE
  5
69
102
{ACAD_REACTORS
330
68
102
}
330
68
100
AcDbModelDocViewStyle
 70
     0
  3
Imperial24
290
     1
300
Imperial24
 90
        0
100
AcDbSectionViewStyle
 70
     0
 71
     0
 90
       78
 71
     1
340
55
 62
   256
 40
0.24
340
0
340
0
 62
   256
 40
0.24
300
I, O, Q, S, X, Z
 40
0.48
 90
        3
 40
0.18
 90
        1
 71
     2
340
5D
 90
       25
 62
   256
340
5D
 90
       50
 62
   256
 40
0.24
 40
0.0
 40
0.24
 71
     3
340
55
 62
   256
 40
0.24
 90
        1
 40
0.75
 90
        1
300
%<\AcVar ViewType \f "%tc1">% %<\AcVar ViewSectionStartId>%-%<\AcVar ViewSectionEndId>%\PSCALE %<\AcVar ViewScale \f "%sn">%
 71
     4
 62
   256
 62
   257
300
ANSI31
 40
1.0
 90
        0
290
     0
290
     0
 90
        6
 40
0.0
 40
1.570796326794896
 40
0.2617993877991494
 40
1.308996938995747
 40
-0.2617993877991494
 40
1.832595714594046
  0
TABLESTYLE
  5
65
102
{ACAD_XDICTIONARY
360
1F0
102
}
102
{ACAD_REACTORS
330
64
102
}
330
64
100
AcDbTableStyle
280
     0
  3
Standard
 70
     0
 71
     0
 40
0.06
 41
0.06
280
     0
281
     0
  7
Standard
140
0.18
170
     2
 62
     0
 63
     7
283
     0
 90
      512
 91
        0
  1

274
    -2
284
     1
 64
     0
275
    -2
285
     1
 65
     0
276
    -2
286
     1
 66
     0
277
    -2
287
     1
 67
     0
278
    -2
288
     1
 68
     0
279
    -2
289
     1
 69
     0
  7
Standard
140
0.25
170
     5
 62
     0
 63
     7
283
     0
 90
      512
 91
        0
  1

274
    -2
284
     1
 64
     0
275
    -2
285
     1
 65
     0
276
    -2
286
     1
 66
     0
277
    -2
287
     1
 67
     0
278
    -2
288
     1
 68
     0
279
    -2
289
     1
 69
     0
  7
Standard
140
0.18
170
     5
 62
     0
 63
     7
283
     0
 90
      512
 91
        0
  1

274
    -2
284
     1
 64
     0
275
    -2
285
     1
 65
     0
276
    -2
286
     1
 66
     0
277
    -2
287
     1
 67
     0
278
    -2
288
     1
 68
     0
279
    -2
289
     1
 69
     0
  0
VISUALSTYLE
  5
2F
102
{ACAD_REACTORS
330
29
102
}
330
29
100
AcDbVisualStyle
  2
2dWireframe
 70
     4
177
     3
291
     0
 70
    58
 90
        0
176
     1
 90
        2
176
     1
 90
        0
176
     1
 90
        0
176
     1
 40
0.6
176
     1
 40
30.0
176
     1
 62
     7
420
 16777215
176
     1
 90
        1
176
     1
 90
        4
176
     1
 62
     7
176
     1
 62
   257
176
     1
 90
        1
176
     1
 90
        1
176
     1
 40
1.0
176
     1
 90
        0
176
     1
 62
   257
176
     1
 40
1.0
176
     1
 90
        1
176
     1
 90
        6
176
     1
 90
        2
176
     1
 62
     7
176
     1
 90
        5
176
     1
 90
        0
176
     1
 90
        0
176
     1
290
     0
176
     1
 90
        1
176
     1
 40
0.0
176
     1
 90
        0
176
     1
290
     1
176
     1
290
     1
176
     1
290
     0
176
     1
290
     0
176
     1
290
     0
176
     1
290
     0
176
     1
290
     0
176
     1
290
     0
176
     1
290
     0
176
     1
 90
       50
176
     1
 40
0.0
176
     1
 40
1.0
176
     1
 90
        0
176
     1
 62
    18
420
        0
176
     1
 90
       50
176
     1
 90
        3
176
     1
 62
     5
420
      255
176
     1
290
     0
176
     1
 90
       50
176
     1
 90
       50
176
     1
 90
       50
176
     1
290
     0
176
     1
 90
       50
176
     1
 62
   256
176
     0
 40
1.0
176
     0
 90
        2
176
     1
  1
strokes_ogs.tif
176
     1
290
     0
176
     1
 40
1.0
176
     1
 40
1.0
176
     1
  0
VISUALSTYLE
  5
2E
102
{ACAD_REACTORS
330
29
102
}
330
29
100
AcDbVisualStyle
  2
Basic
 70
     7
177
     3
291
     1
 70
    58
 90
        1
176
     1
 90
        0
176
     1
 90
        1
176
     1
 90
        0
176
     1
 40
0.6
176
     1
 40
30.0
176
     1
 62
     7
420
 16777215
176
     1
 90
        0
176
     1
 90
        4
176
     1
 62
     7
176
     1
 62
   257
176
     1
 90
        1
176
     1
 90
        1
176
     1
 40
1.0
176
     1
 90
        8
176
     1
 62
     7
176
     1
 40
1.0
176
     1
 90
        1
176
     1
 90
        6
176
     1
 90
        2
176
     1
 62
     7
176
     1
 90
        5
176
     1
 90
        0
176
     1
 90
        0
176
     1
290
     0
176
     1
 90
        1
176
     1
 40
0.0
176
     1
 90
        0
176
     1
290
     0
176
     1
290
     1
176
     1
290
     1
176
     1
290
     0
176
     1
290
     0
176
     1
290
     0
176
     1
290
     0
176
     1
290
     0
176
     1
290
     0
176
     1
 90
       50
176
     1
 40
0.0
176
     1
 40
1.0
176
     1
 90
        0
176
     1
 62
    18
420
        0
176
     1
 90
       50
176
     1
 90
        3
176
     1
 62
     5
420
      255
176
     1
290
     0
176
     1
 90
       50
176
     1
 90
       50
176
     1
 90
       50
176
     1
290
     0
176
     1
 90
       50
176
     1
 62
   256
176
     0
 40
1.0
176
     0
 90
        2
176
     1
  1
strokes_ogs.tif
176
     1
290
     0
176
     1
 40
1.0
176
     1
 40
1.0
176
     1
  0
VISUALSTYLE
  5
35
102
{ACAD_REACTORS
330
29
102
}
330
29
100
AcDbVisualStyle
  2
Brighten
 70
    12
177
     3
291
     1
 70
    58
 90
        2
176
     1
 90
        2
176
     1
 90
        0
176
     1
 90
        0
176
     1
 40
0.6
176
     1
 40
30.0
176
     1
 62
     7
420
 16777215
176
     1
 90
        1
176
     1
 90
        4
176
     1
 62
     7
176
     1
 62
   257
176
     1
 90
        1
176
     1
 90
        1
176
     1
 40
1.0
176
     1
 90
        8
176
     1
 62
     7
176
     1
 40
1.0
176
     1
 90
        1
176
     1
 90
        6
176
     1
 90
        2
176
     1
 62
     7
176
     1
 90
        5
176
     1
 90
        0
176
     1
 90
        0
176
     1
290
     0
176
     1
 90
        1
176
     1
 40
50.0
176
     1
 90
        0
176
     1
290
     0
176
     1
290
     1
176
     1
290
     1
176
     1
290
     0
176
     1
290
     0
176
     1
290
     0
176
     1
290
     0
176
     1
290
     0
176
     1
290
     0
176
     1
 90
       50
176
     1
 40
0.0
176
     1
 40
1.0
176
     1
 90
        0
176
     1
 62
    18
420
        0
176
     1
 90
       50
176
     1
 90
        3
176
     1
 62
     5
420
      255
176
     1
290
     0
176
     1
 90
       50
176
     1
 90
       50
176
     1
 90
       50
176
     1
290
     0
176
     1
 90
       50
176
     1
 62
   256
176
     0
 40
1.0
176
     0
 90
        2
176
     1
  1
strokes_ogs.tif
176
     1
290
     0
176
     1
 40
1.0
176
     1
 40
1.0
176
     1
  0
VISUALSTYLE
  5
39
102
{ACAD_REACTORS
330
29
102
}
330
29
100
AcDbVisualStyle
  2
ColorChange
 70
    16
177
     3
291
     1
 70
    58
 90
        2
176
     1
 90
        2
176
     1
 90
        3
176
     1
 90
        0
176
     1
 40
0.6
176
     1
 40
30.0
176
     1
 62
     8
420
  8421504
176
     1
 90
        1
176
     1
 90
        4
176
     1
 62
     7
176
     1
 62
   257
176
     1
 90
        1
176
     1
 90
        1
176
     1
 40
1.0
176
     1
 90
        8
176
     1
 62
     8
420
  8421504
176
     1
 40
1.0
176
     1
 90
        1
176
     1
 90
        6
176
     1
 90
        2
176
     1
 62
     7
176
     1
 90
        5
176
     1
 90
        0
176
     1
 90
        0
176
     1
290
     0
176
     1
 90
        1
176
     1
 40
0.0
176
     1
 90
        0
176
     1
290
     0
176
     1
290
     1
176
     1
290
     1
176
     1
290
     0
176
     1
290
     0
176
     1
290
     0
176
     1
290
     0
176
     1
290
     0
176
     1
290
     0
176
     1
 90
       50
176
     1
 40
0.0
176
     1
 40
1.0
176
     1
 90
        0
176
     1
 62
    18
420
        0
176
     1
 90
       50
176
     1
 90
        3
176
     1
 62
     5
420
      255
176
     1
290
     0
176
     1
 90
       50
176
     1
 90
       50
176
     1
 90
       50
176
     1
290
     0
176
     1
 90
       50
176
     1
 62
   256
176
     0
 40
1.0
176
     0
 90
        2
176
     1
  1
strokes_ogs.tif
176
     1
290
     0
176
     1
 40
1.0
176
     1
 40
1.0
176
     1
  0
VISUALSTYLE
  5
32
102
{ACAD_REACTORS
330
29
102
}
330
29
100
AcDbVisualStyle
  2
Conceptual
 70
     9
177
     3
291
     0
 70
    58
 90
        3
176
     1
 90
        2
176
     1
 90
        0
176
     1
 90
        0
176
     1
 40
0.6
176
     1
 40
30.0
176
     1
 62
     7
420
 16777215
176
     1
 90
        2
176
     1
 90
        2
176
     1
 62
     7
176
     1
 62
   257
176
     1
 90
        1
176
     1
 90
        1
176
     1
 40
179.0
176
     1
 90
        8
176
     1
 62
     7
176
     1
 40
1.0
176
     1
 90
        1
176
     1
 90
        6
176
     1
 90
        2
176
     1
 62
     7
176
     1
 90
        3
176
     1
 90
        0
176
     1
 90
        0
176
     1
290
     0
176
     1
 90
        1
176
     1
 40
0.0
176
     1
 90
        0
176
     1
290
     0
176
     1
290
     1
176
     1
290
     1
176
     1
290
     0
176
     1
290
     0
176
     1
290
     0
176
     1
290
     0
176
     1
290
     0
176
     1
290
     0
176
     1
 90
       50
176
     1
 40
0.0
176
     1
 40
1.0
176
     1
 90
        0
176
     1
 62
    18
420
        0
176
     1
 90
       50
176
     1
 90
        3
176
     1
 62
     5
420
      255
176
     1
290
     0
176
     1
 90
       50
176
     1
 90
       50
176
     1
 90
       50
176
     1
290
     0
176
     1
 90
       50
176
     1
 62
   256
176
     0
 40
1.0
176
     0
 90
        2
176
     1
  1
strokes_ogs.tif
176
     1
290
     0
176
     1
 40
1.0
176
     1
 40
1.0
176
     1
  0
VISUALSTYLE
  5
34
102
{ACAD_REACTORS
330
29
102
}
330
29
100
AcDbVisualStyle
  2
Dim
 70
    11
177
     3
291
     1
 70
    58
 90
        2
176
     1
 90
        2
176
     1
 90
        0
176
     1
 90
        0
176
     1
 40
0.6
176
     1
 40
30.0
176
     1
 62
     7
420
 16777215
176
     1
 90
        1
176
     1
 90
        4
176
     1
 62
     7
176
     1
 62
   257
176
     1
 90
        1
176
     1
 90
        1
176
     1
 40
1.0
176
     1
 90
        8
176
     1
 62
     7
176
     1
 40
1.0
176
     1
 90
        1
176
     1
 90
        6
176
     1
 90
        2
176
     1
 62
     7
176
     1
 90
        5
176
     1
 90
        0
176
     1
 90
        0
176
     1
290
     0
176
     1
 90
        1
176
     1
 40
-50.0
176
     1
 90
        0
176
     1
290
     0
176
     1
290
     1
176
     1
290
     1
176
     1
290
     0
176
     1
290
     0
176
     1
290
     0
176
     1
290
     0
176
     1
290
     0
176
     1
290
     0
176
     1
 90
       50
176
     1
 40
0.0
176
     1
 40
1.0
176
     1
 90
        0
176
     1
 62
    18
420
        0
176
     1
 90
       50
176
     1
 90
        3
176
     1
 62
     5
420
      255
176
     1
290
     0
176
     1
 90
       50
176
     1
 90
       50
176
     1
 90
       50
176
     1
290
     0
176
     1
 90
       50
176
     1
 62
   256
176
     0
 40
1.0
176
     0
 90
        2
176
     1
  1
strokes_ogs.tif
176
     1
290
     0
176
     1
 40
1.0
176
     1
 40
1.0
176
     1
  0
VISUALSTYLE
  5
41
102
{ACAD_REACTORS
330
29
102
}
330
29
100
AcDbVisualStyle
  2
EdgeColorOff
 70
    22
177
     3
291
     1
 70
    58
 90
        2
176
     0
 90
        2
176
     0
 90
        0
176
     0
 90
        0
176
     0
 40
0.6
176
     0
 40
30.0
176
     0
 62
     7
420
 16777215
176
     0
 90
        1
176
     0
 90
        4
176
     0
 62
     7
176
     0
 62
   257
176
     0
 90
        1
176
     0
 90
        1
176
     0
 40
1.0
176
     0
 90
        8
176
     2
 62
     7
176
     0
 40
1.0
176
     0
 90
        1
176
     0
 90
        6
176
     0
 90
        2
176
     0
 62
     7
176
     0
 90
        5
176
     0
 90
        0
176
     0
 90
        0
176
     0
290
     0
176
     0
 90
        1
176
     0
 40
0.0
176
     0
 90
        0
176
     0
290
     0
176
     0
290
     1
176
     0
290
     1
176
     0
290
     0
176
     0
290
     0
176
     0
290
     0
176
     0
290
     0
176
     0
290
     0
176
     0
290
     0
176
     0
 90
       50
176
     0
 40
0.0
176
     0
 40
1.0
176
     0
 90
        0
176
     0
 62
    18
420
        0
176
     0
 90
       50
176
     0
 90
        3
176
     0
 62
     5
420
      255
176
     0
290
     0
176
     0
 90
       50
176
     0
 90
       50
176
     0
 90
       50
176
     0
290
     0
176
     0
 90
       50
176
     0
 62
   256
176
     0
 40
1.0
176
     0
 90
        2
176
     0
  1
strokes_ogs.tif
176
     0
290
     0
176
     0
 40
1.0
176
     0
 40
1.0
176
     0
  0
VISUALSTYLE
  5
38
102
{ACAD_REACTORS
330
29
102
}
330
29
100
AcDbVisualStyle
  2
Facepattern
 70
    15
177
     3
291
     1
 70
    58
 90
        2
176
     1
 90
        2
176
     1
 90
        0
176
     1
 90
        0
176
     1
 40
0.6
176
     1
 40
30.0
176
     1
 62
     7
420
 16777215
176
     1
 90
        1
176
     1
 90
        4
176
     1
 62
     7
176
     1
 62
   257
176
     1
 90
        1
176
     1
 90
        1
176
     1
 40
1.0
176
     1
 90
        8
176
     1
 62
     7
176
     1
 40
1.0
176
     1
 90
        1
176
     1
 90
        6
176
     1
 90
        2
176
     1
 62
     7
176
     1
 90
        5
176
     1
 90
        0
176
     1
 90
        0
176
     1
290
     0
176
     1
 90
        1
176
     1
 40
0.0
176
     1
 90
        0
176
     1
290
     0
176
     1
290
     1
176
     1
290
     1
176
     1
290
     0
176
     1
290
     0
176
     1
290
     0
176
     1
290
     0
176
     1
290
     0
176
     1
290
     0
176
     1
 90
       50
176
     1
 40
0.0
176
     1
 40
1.0
176
     1
 90
        0
176
     1
 62
    18
420
        0
176
     1
 90
       50
176
     1
 90
        3
176
     1
 62
     5
420
      255
176
     1
290
     0
176
     1
 90
       50
176
     1
 90
       50
176
     1
 90
       50
176
     1
290
     0
176
     1
 90
       50
176
     1
 62
   256
176
     0
 40
1.0
176
     0
 90
        2
176
     1
  1
strokes_ogs.tif
176
     1
290
     0
176
     1
 40
1.0
176
     1
 40
1.0
176
     1
  0
VISUALSTYLE
  5
2A
102
{ACAD_REACTORS
330
29
102
}
330
29
100
AcDbVisualStyle
  2
Flat
 70
     0
177
     3
291
     1
 70
    58
 90
        2
176
     1
 90
        1
176
     1
 90
        1
176
     1
 90
        2
176
     1
 40
0.6
176
     1
 40
30.0
176
     1
 62
     7
420
 16777215
176
     1
 90
        0
176
     1
 90
        0
176
     1
 62
     7
176
     1
 62
   257
176
     1
 90
        1
176
     1
 90
        1
176
     1
 40
1.0
176
     1
 90
        8
176
     1
 62
     7
176
     1
 40
1.0
176
     1
 90
        1
176
     1
 90
        6
176
     1
 90
        2
176
     1
 62
     7
176
     1
 90
        5
176
     1
 90
        0
176
     1
 90
        0
176
     1
290
     0
176
     1
 90
       13
176
     1
 40
0.0
176
     1
 90
        0
176
     1
290
     0
176
     1
290
     1
176
     1
290
     1
176
     1
290
     0
176
     1
290
     0
176
     1
290
     0
176
     1
290
     0
176
     1
290
     0
176
     1
290
     0
176
     1
 90
       50
176
     1
 40
0.0
176
     1
 40
1.0
176
     1
 90
        0
176
     1
 62
    18
420
        0
176
     1
 90
       50
176
     1
 90
        3
176
     1
 62
     5
420
      255
176
     1
290
     0
176
     1
 90
       50
176
     1
 90
       50
176
     1
 90
       50
176
     1
290
     0
176
     1
 90
       50
176
     1
 62
   256
176
     0
 40
1.0
176
     0
 90
        2
176
     1
  1
strokes_ogs.tif
176
     1
290
     0
176
     1
 40
1.0
176
     1
 40
1.0
176
     1
  0
VISUALSTYLE
  5
2B
102
{ACAD_REACTORS
330
29
102
}
330
29
100
AcDbVisualStyle
  2
FlatWithEdges
 70
     1
177
     3
291
     1
 70
    58
 90
        2
176
     1
 90
        1
176
     1
 90
        1
176
     1
 90
        2
176
     1
 40
0.6
176
     1
 40
30.0
176
     1
 62
     7
420
 16777215
176
     1
 90
        1
176
     1
 90
        0
176
     1
 62
     7
176
     1
 62
   257
176
     1
 90
        1
176
     1
 90
        1
176
     1
 40
1.0
176
     1
 90
        0
176
     1
 62
   257
176
     1
 40
1.0
176
     1
 90
        1
176
     1
 90
        6
176
     1
 90
        2
176
     1
 62
     7
176
     1
 90
        5
176
     1
 90
        0
176
     1
 90
        0
176
     1
290
     0
176
     1
 90
       13
176
     1
 40
0.0
176
     1
 90
        0
176
     1
290
     0
176
     1
290
     1
176
     1
290
     1
176
     1
290
     0
176
     1
290
     0
176
     1
290
     0
176
     1
290
     0
176
     1
290
     0
176
     1
290
     0
176
     1
 90
       50
176
     1
 40
0.0
176
     1
 40
1.0
176
     1
 90
        0
176
     1
 62
    18
420
        0
176
     1
 90
       50
176
     1
 90
        3
176
     1
 62
     5
420
      255
176
     1
290
     0
176
     1
 90
       50
176
     1
 90
       50
176
     1
 90
       50
176
     1
290
     0
176
     1
 90
       50
176
     1
 62
   256
176
     0
 40
1.0
176
     0
 90
        2
176
     1
  1
strokes_ogs.tif
176
     1
290
     0
176
     1
 40
1.0
176
     1
 40
1.0
176
     1
  0
VISUALSTYLE
  5
2C
102
{ACAD_REACTORS
330
29
102
}
330
29
100
AcDbVisualStyle
  2
Gouraud
 70
     2
177
     3
291
     1
 70
    58
 90
        2
176
     1
 90
        2
176
     1
 90
        1
176
     1
 90
        2
176
     1
 40
0.6
176
     1
 40
30.0
176
     1
 62
     7
420
 16777215
176
     1
 90
        0
176
     1
 90
        0
176
     1
 62
     7
176
     1
 62
   257
176
     1
 90
        1
176
     1
 90
        1
176
     1
 40
1.0
176
     1
 90
        0
176
     1
 62
     7
176
     1
 40
1.0
176
     1
 90
        1
176
     1
 90
        6
176
     1
 90
        2
176
     1
 62
     7
176
     1
 90
        5
176
     1
 90
        0
176
     1
 90
        0
176
     1
290
     0
176
     1
 90
       13
176
     1
 40
0.0
176
     1
 90
        0
176
     1
290
     0
176
     1
290
     1
176
     1
290
     1
176
     1
290
     0
176
     1
290
     0
176
     1
290
     0
176
     1
290
     0
176
     1
290
     0
176
     1
290
     0
176
     1
 90
       50
176
     1
 40
0.0
176
     1
 40
1.0
176
     1
 90
        0
176
     1
 62
    18
420
        0
176
     1
 90
       50
176
     1
 90
        3
176
     1
 62
     5
420
      255
176
     1
290
     0
176
     1
 90
       50
176
     1
 90
       50
176
     1
 90
       50
176
     1
290
     0
176
     1
 90
       50
176
     1
 62
   256
176
     0
 40
1.0
176
     0
 90
        2
176
     1
  1
strokes_ogs.tif
176
     1
290
     0
176
     1
 40
1.0
176
     1
 40
1.0
176
     1
  0
VISUALSTYLE
  5
2D
102
{ACAD_REACTORS
330
29
102
}
330
29
100
AcDbVisualStyle
  2
GouraudWithEdges
 70
     3
177
     3
291
     1
 70
    58
 90
        2
176
     1
 90
        2
176
     1
 90
        1
176
     1
 90
        2
176
     1
 40
0.6
176
     1
 40
30.0
176
     1
 62
     7
420
 16777215
176
     1
 90
        1
176
     1
 90
        0
176
     1
 62
     7
176
     1
 62
   257
176
     1
 90
        1
176
     1
 90
        1
176
     1
 40
1.0
176
     1
 90
        0
176
     1
 62
   257
176
     1
 40
1.0
176
     1
 90
        1
176
     1
 90
        6
176
     1
 90
        2
176
     1
 62
     7
176
     1
 90
        5
176
     1
 90
        0
176
     1
 90
        0
176
     1
290
     0
176
     1
 90
       13
176
     1
 40
0.0
176
     1
 90
        0
176
     1
290
     0
176
     1
290
     1
176
     1
290
     1
176
     1
290
     0
176
     1
290
     0
176
     1
290
     0
176
     1
290
     0
176
     1
290
     0
176
     1
290
     0
176
     1
 90
       50
176
     1
 40
0.0
176
     1
 40
1.0
176
     1
 90
        0
176
     1
 62
    18
420
        0
176
     1
 90
       50
176
     1
 90
        3
176
     1
 62
     5
420
      255
176
     1
290
     0
176
     1
 90
       50
176
     1
 90
       50
176
     1
 90
       50
176
     1
290
     0
176
     1
 90
       50
176
     1
 62
   256
176
     0
 40
1.0
176
     0
 90
        2
176
     1
  1
strokes_ogs.tif
176
     1
290
     0
176
     1
 40
1.0
176
     1
 40
1.0
176
     1
  0
VISUALSTYLE
  5
31
102
{ACAD_REACTORS
330
29
102
}
330
29
100
AcDbVisualStyle
  2
Hidden
 70
     6
177
     3
291
     0
 70
    58
 90
        1
176
     1
 90
        2
176
     1
 90
        2
176
     1
 90
        0
176
     1
 40
0.6
176
     1
 40
30.0
176
     1
 62
     7
420
 16777215
176
     1
 90
        2
176
     1
 90
        2
176
     1
 62
     7
176
     1
 62
   257
176
     1
 90
        2
176
     1
 90
        1
176
     1
 40
40.0
176
     1
 90
        0
176
     1
 62
   257
176
     1
 40
1.0
176
     1
 90
        1
176
     1
 90
        6
176
     1
 90
        2
176
     1
 62
     7
176
     1
 90
        3
176
     1
 90
        0
176
     1
 90
        0
176
     1
290
     0
176
     1
 90
        1
176
     1
 40
0.0
176
     1
 90
        0
176
     1
290
     0
176
     1
290
     1
176
     1
290
     1
176
     1
290
     0
176
     1
290
     0
176
     1
290
     0
176
     1
290
     0
176
     1
290
     0
176
     1
290
     0
176
     1
 90
       50
176
     1
 40
0.0
176
     1
 40
1.0
176
     1
 90
        0
176
     1
 62
    18
420
        0
176
     1
 90
       50
176
     1
 90
        3
176
     1
 62
     5
420
      255
176
     1
290
     0
176
     1
 90
       50
176
     1
 90
       50
176
     1
 90
       50
176
     1
290
     0
176
     1
 90
       50
176
     1
 62
   256
176
     0
 40
1.0
176
     0
 90
        2
176
     1
  1
strokes_ogs.tif
176
     1
290
     0
176
     1
 40
1.0
176
     1
 40
1.0
176
     1
  0
VISUALSTYLE
  5
3F
102
{ACAD_REACTORS
330
29
102
}
330
29
100
AcDbVisualStyle
  2
JitterOff
 70
    20
177
     3
291
     1
 70
    58
 90
        2
176
     0
 90
        2
176
     0
 90
        0
176
     0
 90
        0
176
     0
 40
0.6
176
     0
 40
30.0
176
     0
 62
     7
420
 16777215
176
     0
 90
        1
176
     0
 90
        4
176
     0
 62
     7
176
     0
 62
   257
176
     0
 90
        1
176
     0
 90
        1
176
     0
 40
1.0
176
     0
 90
       10
176
     2
 62
     7
176
     0
 40
1.0
176
     0
 90
        1
176
     0
 90
        6
176
     0
 90
        2
176
     0
 62
     7
176
     0
 90
        5
176
     0
 90
        0
176
     0
 90
        0
176
     0
290
     0
176
     0
 90
        1
176
     0
 40
0.0
176
     0
 90
        0
176
     0
290
     0
176
     0
290
     1
176
     0
290
     1
176
     0
290
     0
176
     0
290
     0
176
     0
290
     0
176
     0
290
     0
176
     0
290
     0
176
     0
290
     0
176
     0
 90
       50
176
     0
 40
0.0
176
     0
 40
1.0
176
     0
 90
        0
176
     0
 62
    18
420
        0
176
     0
 90
       50
176
     0
 90
        3
176
     0
 62
     5
420
      255
176
     0
290
     0
176
     0
 90
       50
176
     0
 90
       50
176
     0
 90
       50
176
     0
290
     0
176
     0
 90
       50
176
     0
 62
   256
176
     0
 40
1.0
176
     0
 90
        2
176
     0
  1
strokes_ogs.tif
176
     0
290
     0
176
     0
 40
1.0
176
     0
 40
1.0
176
     0
  0
VISUALSTYLE
  5
37
102
{ACAD_REACTORS
330
29
102
}
330
29
100
AcDbVisualStyle
  2
Linepattern
 70
    14
177
     3
291
     1
 70
    58
 90
        2
176
     1
 90
        2
176
     1
 90
        0
176
     1
 90
        0
176
     1
 40
0.6
176
     1
 40
30.0
176
     1
 62
     7
420
 16777215
176
     1
 90
        1
176
     1
 90
        4
176
     1
 62
     7
176
     1
 62
   257
176
     1
 90
        7
176
     1
 90
        7
176
     1
 40
1.0
176
     1
 90
        8
176
     1
 62
     7
176
     1
 40
1.0
176
     1
 90
        1
176
     1
 90
        6
176
     1
 90
        2
176
     1
 62
     7
176
     1
 90
        5
176
     1
 90
        0
176
     1
 90
        0
176
     1
290
     0
176
     1
 90
        1
176
     1
 40
0.0
176
     1
 90
        0
176
     1
290
     0
176
     1
290
     1
176
     1
290
     1
176
     1
290
     0
176
     1
290
     0
176
     1
290
     0
176
     1
290
     0
176
     1
290
     0
176
     1
290
     0
176
     1
 90
       50
176
     1
 40
0.0
176
     1
 40
1.0
176
     1
 90
        0
176
     1
 62
    18
420
        0
176
     1
 90
       50
176
     1
 90
        3
176
     1
 62
     5
420
      255
176
     1
290
     0
176
     1
 90
       50
176
     1
 90
       50
176
     1
 90
       50
176
     1
290
     0
176
     1
 90
       50
176
     1
 62
   256
176
     0
 40
1.0
176
     0
 90
        2
176
     1
  1
strokes_ogs.tif
176
     1
290
     0
176
     1
 40
1.0
176
     1
 40
1.0
176
     1
  0
VISUALSTYLE
  5
40
102
{ACAD_REACTORS
330
29
102
}
330
29
100
AcDbVisualStyle
  2
OverhangOff
 70
    21
177
     3
291
     1
 70
    58
 90
        2
176
     0
 90
        2
176
     0
 90
        0
176
     0
 90
        0
176
     0
 40
0.6
176
     0
 40
30.0
176
     0
 62
     7
420
 16777215
176
     0
 90
        1
176
     0
 90
        4
176
     0
 62
     7
176
     0
 62
   257
176
     0
 90
        1
176
     0
 90
        1
176
     0
 40
1.0
176
     0
 90
        9
176
     2
 62
     7
176
     0
 40
1.0
176
     0
 90
        1
176
     0
 90
        6
176
     0
 90
        2
176
     0
 62
     7
176
     0
 90
        5
176
     0
 90
        0
176
     0
 90
        0
176
     0
290
     0
176
     0
 90
        1
176
     0
 40
0.0
176
     0
 90
        0
176
     0
290
     0
176
     0
290
     1
176
     0
290
     1
176
     0
290
     0
176
     0
290
     0
176
     0
290
     0
176
     0
290
     0
176
     0
290
     0
176
     0
290
     0
176
     0
 90
       50
176
     0
 40
0.0
176
     0
 40
1.0
176
     0
 90
        0
176
     0
 62
    18
420
        0
176
     0
 90
       50
176
     0
 90
        3
176
     0
 62
     5
420
      255
176
     0
290
     0
176
     0
 90
       50
176
     0
 90
       50
176
     0
 90
       50
176
     0
290
     0
176
     0
 90
       50
176
     0
 62
   256
176
     0
 40
1.0
176
     0
 90
        2
176
     0
  1
strokes_ogs.tif
176
     0
290
     0
176
     0
 40
1.0
176
     0
 40
1.0
176
     0
  0
VISUALSTYLE
  5
33
102
{ACAD_REACTORS
330
29
102
}
330
29
100
AcDbVisualStyle
  2
Realistic
 70
     8
177
     3
291
     0
 70
    58
 90
        2
176
     1
 90
        3
176
     1
 90
        0
176
     1
 90
        2
176
     1
 40
0.6
176
     1
 40
30.0
176
     1
 62
     7
420
 16777215
176
     1
 90
        0
176
     1
 90
        0
176
     1
 62
     7
176
     1
 62
   257
176
     1
 90
        1
176
     1
 90
        1
176
     1
 40
1.0
176
     1
 90
        8
176
     1
 62
   257
176
     1
 40
1.0
176
     1
 90
        1
176
     1
 90
        6
176
     1
 90
        2
176
     1
 62
     7
176
     1
 90
        3
176
     1
 90
        0
176
     1
 90
        0
176
     1
290
     0
176
     1
 90
       13
176
     1
 40
0.0
176
     1
 90
        0
176
     1
290
     0
176
     1
290
     1
176
     1
290
     1
176
     1
290
     0
176
     1
290
     0
176
     1
290
     0
176
     1
290
     0
176
     1
290
     0
176
     1
290
     0
176
     1
 90
       50
176
     1
 40
0.0
176
     1
 40
1.0
176
     1
 90
        0
176
     1
 62
    18
420
        0
176
     1
 90
       50
176
     1
 90
        3
176
     1
 62
     5
420
      255
176
     1
290
     0
176
     1
 90
       50
176
     1
 90
       50
176
     1
 90
       50
176
     1
290
     0
176
     1
 90
       50
176
     1
 62
   256
176
     0
 40
1.0
176
     0
 90
        2
176
     1
  1
strokes_ogs.tif
176
     1
290
     0
176
     1
 40
1.0
176
     1
 40
1.0
176
     1
  0
VISUALSTYLE
  5
3E
102
{ACAD_REACTORS
330
29
102
}
330
29
100
AcDbVisualStyle
  2
Shaded
 70
    27
177
     3
291
     0
 70
    58
 90
        2
176
     1
 90
        2
176
     1
 90
        1
176
     1
 90
        2
176
     1
 40
0.6
176
     1
 40
30.0
176
     1
 62
     7
420
 16777215
176
     1
 90
        0
176
     1
 90
        4
176
     1
 62
     7
176
     1
 62
   257
176
     1
 90
        1
176
     1
 90
        1
176
     1
 40
1.0
176
     1
 90
        8
176
     1
 62
   257
176
     1
 40
1.0
176
     1
 90
        1
176
     1
 90
        6
176
     1
 90
        2
176
     1
 62
     8
420
  7895160
176
     1
 90
        3
176
     1
 90
        0
176
     1
 90
        0
176
     1
290
     0
176
     1
 90
        5
176
     1
 40
0.0
176
     1
 90
        0
176
     1
290
     0
176
     1
290
     1
176
     1
290
     1
176
     1
290
     0
176
     1
290
     0
176
     1
290
     0
176
     1
290
     0
176
     1
290
     0
176
     1
290
     0
176
     1
 90
       50
176
     1
 40
0.0
176
     1
 40
1.0
176
     1
 90
        0
176
     1
 62
    18
420
        0
176
     1
 90
       50
176
     1
 90
        3
176
     1
 62
     5
420
      255
176
     1
290
     0
176
     1
 90
       50
176
     1
 90
       50
176
     1
 90
       50
176
     1
290
     0
176
     1
 90
       50
176
     1
 62
   256
176
     0
 40
1.0
176
     0
 90
        2
176
     1
  1
strokes_ogs.tif
176
     1
290
     0
176
     1
 40
1.0
176
     1
 40
1.0
176
     1
  0
VISUALSTYLE
  5
3D
102
{ACAD_REACTORS
330
29
102
}
330
29
100
AcDbVisualStyle
  2
Shaded with edges
 70
    26
177
     3
291
     0
 70
    58
 90
        2
176
     1
 90
        2
176
     1
 90
        1
176
     1
 90
        2
176
     1
 40
0.6
176
     1
 40
30.0
176
     1
 62
     7
420
 16777215
176
     1
 90
        1
176
     1
 90
        2
176
     1
 62
     7
176
     1
 62
   257
176
     1
 90
        2
176
     1
 90
        1
176
     1
 40
1.0
176
     1
 90
        8
176
     1
 62
   257
176
     1
 40
1.0
176
     1
 90
        1
176
     1
 90
        6
176
     1
 90
        2
176
     1
 62
     7
176
     1
 90
        3
176
     1
 90
        0
176
     1
 90
        0
176
     1
290
     0
176
     1
 90
        5
176
     1
 40
0.0
176
     1
 90
        0
176
     1
290
     0
176
     1
290
     1
176
     1
290
     1
176
     1
290
     0
176
     1
290
     0
176
     1
290
     0
176
     1
290
     0
176
     1
290
     0
176
     1
290
     0
176
     1
 90
       50
176
     1
 40
0.0
176
     1
 40
1.0
176
     1
 90
        0
176
     1
 62
    18
420
        0
176
     1
 90
       50
176
     1
 90
        3
176
     1
 62
     5
420
      255
176
     1
290
     0
176
     1
 90
       50
176
     1
 90
       50
176
     1
 90
       50
176
     1
290
     0
176
     1
 90
       50
176
     1
 62
   256
176
     0
 40
1.0
176
     0
 90
        2
176
     1
  1
strokes_ogs.tif
176
     1
290
     0
176
     1
 40
1.0
176
     1
 40
1.0
176
     1
  0
VISUALSTYLE
  5
3A
102
{ACAD_REACTORS
330
29
102
}
330
29
100
AcDbVisualStyle
  2
Shades of Gray
 70
    23
177
     3
291
     0
 70
    58
 90
        2
176
     1
 90
        2
176
     1
 90
        3
176
     1
 90
        0
176
     1
 40
0.6
176
     1
 40
30.0
176
     1
 62
     7
420
 16777215
176
     1
 90
        2
176
     1
 90
        2
176
     1
 62
     7
176
     1
 62
     7
176
     1
 90
        1
176
     1
 90
        1
176
     1
 40
40.0
176
     1
 90
        8
176
     1
 62
     7
176
     1
 40
1.0
176
     1
 90
        1
176
     1
 90
        6
176
     1
 90
        2
176
     1
 62
     7
176
     1
 90
        3
176
     1
 90
        0
176
     1
 90
        0
176
     1
290
     0
176
     1
 90
        1
176
     1
 40
0.0
176
     1
 90
        0
176
     1
290
     0
176
     1
290
     1
176
     1
290
     1
176
     1
290
     0
176
     1
290
     0
176
     1
290
     0
176
     1
290
     0
176
     1
290
     0
176
     1
290
     0
176
     1
 90
       50
176
     1
 40
0.0
176
     1
 40
1.0
176
     1
 90
        0
176
     1
 62
    18
420
        0
176
     1
 90
       50
176
     1
 90
        3
176
     1
 62
     5
420
      255
176
     1
290
     0
176
     1
 90
       50
176
     1
 90
       50
176
     1
 90
       50
176
     1
290
     0
176
     1
 90
       50
176
     1
 62
   256
176
     0
 40
1.0
176
     0
 90
        2
176
     1
  1
strokes_ogs.tif
176
     1
290
     0
176
     1
 40
1.0
176
     1
 40
1.0
176
     1
  0
VISUALSTYLE
  5
3B
102
{ACAD_REACTORS
330
29
102
}
330
29
100
AcDbVisualStyle
  2
Sketchy
 70
    24
177
     3
291
     0
 70
    58
 90
        1
176
     1
 90
        2
176
     1
 90
        2
176
     1
 90
        0
176
     1
 40
0.6
176
     1
 40
30.0
176
     1
 62
     7
420
 16777215
176
     1
 90
        2
176
     1
 90
        2
176
     1
 62
     7
176
     1
 62
     7
176
     1
 90
        1
176
     1
 90
        1
176
     1
 40
40.0
176
     1
 90
       11
176
     1
 62
     7
176
     1
 40
1.0
176
     1
 90
        1
176
     1
 90
        6
176
     1
 90
        2
176
     1
 62
     7
176
     1
 90
        6
176
     1
 90
        0
176
     1
 90
        0
176
     1
290
     0
176
     1
 90
        1
176
     1
 40
0.0
176
     1
 90
        0
176
     1
290
     0
176
     1
290
     1
176
     1
290
     1
176
     1
290
     0
176
     1
290
     0
176
     1
290
     0
176
     1
290
     0
176
     1
290
     0
176
     1
290
     0
176
     1
 90
       50
176
     1
 40
0.0
176
     1
 40
1.0
176
     1
 90
        0
176
     1
 62
    18
420
        0
176
     1
 90
       50
176
     1
 90
        3
176
     1
 62
     5
420
      255
176
     1
290
     0
176
     1
 90
       50
176
     1
 90
       50
176
     1
 90
       50
176
     1
290
     0
176
     1
 90
       50
176
     1
 62
   256
176
     0
 40
1.0
176
     0
 90
        2
176
     1
  1
strokes_ogs.tif
176
     1
290
     0
176
     1
 40
1.0
176
     1
 40
1.0
176
     1
  0
VISUALSTYLE
  5
36
102
{ACAD_REACTORS
330
29
102
}
330
29
100
AcDbVisualStyle
  2
Thicken
 70
    13
177
     3
291
     1
 70
    58
 90
        2
176
     1
 90
        2
176
     1
 90
        0
176
     1
 90
        0
176
     1
 40
0.6
176
     1
 40
30.0
176
     1
 62
     7
420
 16777215
176
     1
 90
        1
176
     1
 90
        4
176
     1
 62
     7
176
     1
 62
   257
176
     1
 90
        1
176
     1
 90
        1
176
     1
 40
1.0
176
     1
 90
       12
176
     1
 62
     7
176
     1
 40
1.0
176
     1
 90
        1
176
     1
 90
        6
176
     1
 90
        2
176
     1
 62
     7
176
     1
 90
        5
176
     1
 90
        0
176
     1
 90
        0
176
     1
290
     0
176
     1
 90
        1
176
     1
 40
0.0
176
     1
 90
        0
176
     1
290
     0
176
     1
290
     1
176
     1
290
     1
176
     1
290
     0
176
     1
290
     0
176
     1
290
     0
176
     1
290
     0
176
     1
290
     0
176
     1
290
     0
176
     1
 90
       50
176
     1
 40
0.0
176
     1
 40
1.0
176
     1
 90
        0
176
     1
 62
    18
420
        0
176
     1
 90
       50
176
     1
 90
        3
176
     1
 62
     5
420
      255
176
     1
290
     0
176
     1
 90
       50
176
     1
 90
       50
176
     1
 90
       50
176
     1
290
     0
176
     1
 90
       50
176
     1
 62
   256
176
     0
 40
1.0
176
     0
 90
        2
176
     1
  1
strokes_ogs.tif
176
     1
290
     0
176
     1
 40
1.0
176
     1
 40
1.0
176
     1
  0
VISUALSTYLE
  5
30
102
{ACAD_REACTORS
330
29
102
}
330
29
100
AcDbVisualStyle
  2
Wireframe
 70
     5
177
     3
291
     0
 70
    58
 90
        0
176
     1
 90
        2
176
     1
 90
        0
176
     1
 90
        0
176
     1
 40
0.6
176
     1
 40
30.0
176
     1
 62
     7
420
 16777215
176
     1
 90
        1
176
     1
 90
        4
176
     1
 62
     7
176
     1
 62
   257
176
     1
 90
        1
176
     1
 90
        1
176
     1
 40
1.0
176
     1
 90
        0
176
     1
 62
   257
176
     1
 40
1.0
176
     1
 90
        1
176
     1
 90
        6
176
     1
 90
        2
176
     1
 62
     7
176
     1
 90
        3
176
     1
 90
        0
176
     1
 90
        0
176
     1
290
     0
176
     1
 90
        1
176
     1
 40
0.0
176
     1
 90
        0
176
     1
290
     0
176
     1
290
     1
176
     1
290
     1
176
     1
290
     0
176
     1
290
     0
176
     1
290
     0
176
     1
290
     0
176
     1
290
     0
176
     1
290
     0
176
     1
 90
       50
176
     1
 40
0.0
176
     1
 40
1.0
176
     1
 90
        0
176
     1
 62
    18
420
        0
176
     1
 90
       50
176
     1
 90
        3
176
     1
 62
     5
420
      255
176
     1
290
     0
176
     1
 90
       50
176
     1
 90
       50
176
     1
 90
       50
176
     1
290
     0
176
     1
 90
       50
176
     1
 62
   256
176
     0
 40
1.0
176
     0
 90
        2
176
     1
  1
strokes_ogs.tif
176
     1
290
     0
176
     1
 40
1.0
176
     1
 40
1.0
176
     1
  0
VISUALSTYLE
  5
3C
102
{ACAD_REACTORS
330
29
102
}
330
29
100
AcDbVisualStyle
  2
X-Ray
 70
    25
177
     3
291
     0
 70
    58
 90
        2
176
     1
 90
        2
176
     1
 90
        1
176
     1
 90
        1
176
     1
 40
0.5
176
     1
 40
30.0
176
     1
 62
     7
420
 16777215
176
     1
 90
        1
176
     1
 90
        0
176
     1
 62
     7
176
     1
 62
   257
176
     1
 90
        1
176
     1
 90
        1
176
     1
 40
1.0
176
     1
 90
        8
176
     1
 62
     7
176
     1
 40
1.0
176
     1
 90
        1
176
     1
 90
        6
176
     1
 90
        2
176
     1
 62
     7
176
     1
 90
        3
176
     1
 90
        0
176
     1
 90
        0
176
     1
290
     0
176
     1
 90
       13
176
     1
 40
0.0
176
     1
 90
        0
176
     1
290
     0
176
     1
290
     1
176
     1
290
     1
176
     1
290
     0
176
     1
290
     0
176
     1
290
     0
176
     1
290
     0
176
     1
290
     0
176
     1
290
     0
176
     1
 90
       50
176
     1
 40
0.0
176
     1
 40
1.0
176
     1
 90
        0
176
     1
 62
    18
420
        0
176
     1
 90
       50
176
     1
 90
        3
176
     1
 62
     5
420
      255
176
     1
290
     0
176
     1
 90
       50
176
     1
 90
       50
176
     1
 90
       50
176
     1
290
     0
176
     1
 90
       50
176
     1
 62
   256
176
     0
 40
1.0
176
     0
 90
        2
176
     1
  1
strokes_ogs.tif
176
     1
290
     0
176
     1
 40
1.0
176
     1
 40
1.0
176
     1
  0
DICTIONARYVAR
  5
1EF
102
{ACAD_REACTORS
330
1EA
102
}
330
1EA
100
DictionaryVariables
280
     0
  1
1:1
  0
DICTIONARYVAR
  5
1EC
102
{ACAD_REACTORS
330
1EA
102
}
330
1EA
100
DictionaryVariables
280
     0
  1
STANDARD
  0
DICTIONARYVAR
  5
1EB
102
{ACAD_REACTORS
330
1EA
102
}
330
1EA
100
DictionaryVariables
280
     0
  1
STANDARD
  0
DICTIONARYVAR
  5
1ED
102
{ACAD_REACTORS
330
1EA
102
}
330
1EA
100
DictionaryVariables
280
     0
  1
Imperial24
  0
DICTIONARYVAR
  5
1EE
102
{ACAD_REACTORS
330
1EA
102
}
330
1EA
100
DictionaryVariables
280
     0
  1
Imperial24
  0
DICTIONARY
  5
1A
330
19
100
AcDbDictionary
280
     1
281
     1
  3
BUMPTILE
360
1C
  3
DIFFUSETILE
360
1B
  3
OPACITYTILE
360
1F
  3
REFLECTIONTILE
360
1E
  3
REFRACTIONTILE
360
20
  3
SPECULARTILE
360
1D
  0
DICTIONARY
  5
12
330
11
100
AcDbDictionary
280
     1
281
     1
  3
BUMPTILE
360
14
  3
DIFFUSETILE
360
13
  3
OPACITYTILE
360
17
  3
REFLECTIONTILE
360
16
  3
REFRACTIONTILE
360
18
  3
SPECULARTILE
360
15
  0
DICTIONARY
  5
22
330
21
100
AcDbDictionary
280
     1
281
     1
  3
BUMPTILE
360
24
  3
DIFFUSETILE
360
23
  3
OPACITYTILE
360
27
  3
REFLECTIONTILE
360
26
  3
REFRACTIONTILE
360
28
  3
SPECULARTILE
360
25
  0
DICTIONARY
  5
1F0
330
65
100
AcDbDictionary
280
     1
281
     1
  3
ACAD_ROUNDTRIP_2008_TABLESTYLE_CELLSTYLEMAP
360
1F1
  0
XRECORD
  5
1C
102
{ACAD_REACTORS
330
1A
102
}
330
1A
100
AcDbXrecord
280
     1
270
     1
271
     1
  0
XRECORD
  5
1B
102
{ACAD_REACTORS
330
1A
102
}
330
1A
100
AcDbXrecord
280
     1
270
     1
271
     1
  0
XRECORD
  5
1F
102
{ACAD_REACTORS
330
1A
102
}
330
1A
100
AcDbXrecord
280
     1
270
     1
271
     1
  0
XRECORD
  5
1E
102
{ACAD_REACTORS
330
1A
102
}
330
1A
100
AcDbXrecord
280
     1
270
     1
271
     1
  0
XRECORD
  5
20
102
{ACAD_REACTORS
330
1A
102
}
330
1A
100
AcDbXrecord
280
     1
270
     1
271
     1
  0
XRECORD
  5
1D
102
{ACAD_REACTORS
330
1A
102
}
330
1A
100
AcDbXrecord
280
     1
270
     1
271
     1
  0
XRECORD
  5
14
102
{ACAD_REACTORS
330
12
102
}
330
12
100
AcDbXrecord
280
     1
270
     1
271
     1
  0
XRECORD
  5
13
102
{ACAD_REACTORS
330
12
102
}
330
12
100
AcDbXrecord
280
     1
270
     1
271
     1
  0
XRECORD
  5
17
102
{ACAD_REACTORS
330
12
102
}
330
12
100
AcDbXrecord
280
     1
270
     1
271
     1
  0
XRECORD
  5
16
102
{ACAD_REACTORS
330
12
102
}
330
12
100
AcDbXrecord
280
     1
270
     1
271
     1
  0
XRECORD
  5
18
102
{ACAD_REACTORS
330
12
102
}
330
12
100
AcDbXrecord
280
     1
270
     1
271
     1
  0
XRECORD
  5
15
102
{ACAD_REACTORS
330
12
102
}
330
12
100
AcDbXrecord
280
     1
270
     1
271
     1
  0
XRECORD
  5
24
102
{ACAD_REACTORS
330
22
102
}
330
22
100
AcDbXrecord
280
     1
270
     1
271
     1
  0
XRECORD
  5
23
102
{ACAD_REACTORS
330
22
102
}
330
22
100
AcDbXrecord
280
     1
270
     1
271
     1
  0
XRECORD
  5
27
102
{ACAD_REACTORS
330
22
102
}
330
22
100
AcDbXrecord
280
     1
270
     1
271
     1
  0
XRECORD
  5
26
102
{ACAD_REACTORS
330
22
102
}
330
22
100
AcDbXrecord
280
     1
270
     1
271
     1
  0
XRECORD
  5
28
102
{ACAD_REACTORS
330
22
102
}
330
22
100
AcDbXrecord
280
     1
270
     1
271
     1
  0
XRECORD
  5
25
102
{ACAD_REACTORS
330
22
102
}
330
22
100
AcDbXrecord
280
     1
270
     1
271
     1
  0
CELLSTYLEMAP
  5
1F1
102
{ACAD_REACTORS
330
1F0
102
}
330
1F0
100
AcDbCellStyleMap
 90
        3
300
CELLSTYLE
  1
TABLEFORMAT_BEGIN
 90
        5
170
     1
 91
        0
 92
    32768
 62
   257
 93
        1
300
CONTENTFORMAT
  1
CONTENTFORMAT_BEGIN
 90
        0
 91
        0
 92
      512
 93
        0
300

 40
0.0
140
1.0
 94
        5
 62
     0
340
55
144
0.25
309
CONTENTFORMAT_END
171
     0
 94
        0
309
TABLEFORMAT_END
  1
CELLSTYLE_BEGIN
 90
        1
 91
        1
300
_TITLE
309
CELLSTYLE_END
300
CELLSTYLE
  1
TABLEFORMAT_BEGIN
 90
        5
170
     1
 91
        0
 92
        0
 62
   257
 93
        1
300
CONTENTFORMAT
  1
CONTENTFORMAT_BEGIN
 90
        0
 91
        0
 92
      512
 93
        0
300

 40
0.0
140
1.0
 94
        5
 62
     0
340
55
144
0.18
309
CONTENTFORMAT_END
171
     0
 94
        0
309
TABLEFORMAT_END
  1
CELLSTYLE_BEGIN
 90
        2
 91
        1
300
_HEADER
309
CELLSTYLE_END
300
CELLSTYLE
  1
TABLEFORMAT_BEGIN
 90
        5
170
     1
 91
        0
 92
        0
 62
   257
 93
        1
300
CONTENTFORMAT
  1
CONTENTFORMAT_BEGIN
 90
        0
 91
        0
 92
      512
 93
        0
300

 40
0.0
140
1.0
 94
        2
 62
     0
340
55
144
0.18
309
CONTENTFORMAT_END
171
     0
 94
        0
309
TABLEFORMAT_END
  1
CELLSTYLE_BEGIN
 90
        3
 91
        2
300
_DATA
309
CELLSTYLE_END
  0
ENDSEC
  0
EOF
