  0
SECTION
  2
HEADER
  9
$ACADVER
  1
AC1032
  9
$ACADMAINTVER
 90
      251
  9
$DWGCODEPAGE
  3
ANSI_1252
  9
$REQUIREDVERSIONS
160
                 0
  9
$INSBASE
 10
0.0
 20
0.0
 30
0.0
  9
$EXTMIN
 10
1.000000000000000E+20
 20
1.000000000000000E+20
 30
1.000000000000000E+20
  9
$EXTMAX
 10
-1.000000000000000E+20
 20
-1.000000000000000E+20
 30
-1.000000000000000E+20
  9
$LIMMIN
 10
0.0
 20
0.0
  9
$LIMMAX
 10
12.0
 20
9.0
  9
$ORTHOMODE
 70
     0
  9
$REGENMODE
 70
     1
  9
$FILLMODE
 70
     1
  9
$QTEXTMODE
 70
     0
  9
$MIRRTEXT
 70
     0
  9
$LTSCALE
 40
1.0
  9
$ATTMODE
 70
     1
  9
$TEXTSIZE
 40
0.2
  9
$TRACEWID
 40
0.05
  9
$TEXTSTYLE
  7
Standard
  9
$CLAYER
  8
0
  9
$CELTYPE
  6
ByLayer
  9
$CECOLOR
 62
   256
  9
$CELTSCALE
 40
1.0
  9
$DISPSILH
 70
     0
  9
$DIMSCALE
 40
1.0
  9
$DIMASZ
 40
0.18
  9
$DIMEXO
 40
0.0625
  9
$DIMDLI
 40
0.38
  9
$DIMRND
 40
0.0
  9
$DIMDLE
 40
0.0
  9
$DIMEXE
 40
0.18
  9
$DIMTP
 40
0.0
  9
$DIMTM
 40
0.0
  9
$DIMTXT
 40
0.18
  9
$DIMCEN
 40
0.09
  9
$DIMTSZ
 40
0.0
  9
$DIMTOL
 70
     0
  9
$DIMLIM
 70
     0
  9
$DIMTIH
 70
     1
  9
$DIMTOH
 70
     1
  9
$DIMSE1
 70
     0
  9
$DIMSE2
 70
     0
  9
$DIMTAD
 70
     0
  9
$DIMZIN
 70
     0
  9
$DIMBLK
  1

  9
$DIMASO
 70
     1
  9
$DIMSHO
 70
     1
  9
$DIMPOST
  1

  9
$DIMAPOST
  1

  9
$DIMALT
 70
     0
  9
$DIMALTD
 70
     2
  9
$DIMALTF
 40
25.4
  9
$DIMLFAC
 40
1.0
  9
$DIMTOFL
 70
     0
  9
$DIMTVP
 40
0.0
  9
$DIMTIX
 70
     0
  9
$DIMSOXD
 70
     0
  9
$DIMSAH
 70
     0
  9
$DIMBLK1
  1

  9
$DIMBLK2
  1

  9
$DIMSTYLE
  2
Standard
  9
$DIMCLRD
 70
     0
  9
$DIMCLRE
 70
     0
  9
$DIMCLRT
 70
     0
  9
$DIMTFAC
 40
1.0
  9
$DIMGAP
 40
0.09
  9
$DIMJUST
 70
     0
  9
$DIMSD1
 70
     0
  9
$DIMSD2
 70
     0
  9
$DIMTOLJ
 70
     1
  9
$DIMTZIN
 70
     0
  9
$DIMALTZ
 70
     0
  9
$DIMALTTZ
 70
     0
  9
$DIMUPT
 70
     0
  9
$DIMDEC
 70
     4
  9
$DIMTDEC
 70
     4
  9
$DIMALTU
 70
     2
  9
$DIMALTTD
 70
     2
  9
$DIMTXSTY
  7
Standard
  9
$DIMAUNIT
 70
     0
  9
$DIMADEC
 70
     0
  9
$DIMALTRND
 40
0.0
  9
$DIMAZIN
 70
     0
  9
$DIMDSEP
 70
    46
  9
$DIMATFIT
 70
     3
  9
$DIMFRAC
 70
     0
  9
$DIMLDRBLK
  1

  9
$DIMLUNIT
 70
     2
  9
$DIMLWD
 70
    -2
  9
$DIMLWE
 70
    -2
  9
$DIMTMOVE
 70
     0
  9
$DIMFXL
 40
1.0
  9
$DIMFXLON
 70
     0
  9
$DIMJOGANG
 40
0.7853981633974483
  9
$DIMTFILL
 70
     0
  9
$DIMTFILLCLR
 70
     0
  9
$DIMARCSYM
 70
     0
  9
$DIMLTYPE
  6

  9
$DIMLTEX1
  6

  9
$DIMLTEX2
  6

  9
$DIMTXTDIRECTION
 70
     0
  9
$LUNITS
 70
     2
  9
$LUPREC
 70
     4
  9
$SKETCHINC
 40
0.1
  9
$FILLETRAD
 40
0.0
  9
$AUNITS
 70
     0
  9
$AUPREC
 70
     0
  9
$MENU
  1
.
  9
$ELEVATION
 40
0.0
  9
$PELEVATION
 40
0.0
  9
$THICKNESS
 40
0.0
  9
$LIMCHECK
 70
     0
  9
$CHAMFERA
 40
0.0
  9
$CHAMFERB
 40
0.0
  9
$CHAMFERC
 40
0.0
  9
$CHAMFERD
 40
0.0
  9
$SKPOLY
 70
     0
  9
$TDCREATE
 40
2460040.288692130
  9
$TDUCREATE
 40
2460040.205358796
  9
$TDUPDATE
 40
2460040.288692130
  9
$TDUUPDATE
 40
2460040.205358796
  9
$TDINDWG
 40
0.0000000000
  9
$TDUSRTIMER
 40
0.0000000000
  9
$USRTIMER
 70
     1
  9
$ANGBASE
 50
0.0
  9
$ANGDIR
 70
     0
  9
$PDMODE
 70
     0
  9
$PDSIZE
 40
0.0
  9
$PLINEWID
 40
0.0
  9
$SPLFRAME
 70
     0
  9
$SPLINETYPE
 70
     6
  9
$SPLINESEGS
 70
     8
  9
$HANDSEED
  5
191
  9
$SURFTAB1
 70
     6
  9
$SURFTAB2
 70
     6
  9
$SURFTYPE
 70
     6
  9
$SURFU
 70
     6
  9
$SURFV
 70
     6
  9
$UCSBASE
  2

  9
$UCSNAME
  2

  9
$UCSORG
 10
0.0
 20
0.0
 30
0.0
  9
$UCSXDIR
 10
1.0
 20
0.0
 30
0.0
  9
$UCSYDIR
 10
0.0
 20
1.0
 30
0.0
  9
$UCSORTHOREF
  2

  9
$UCSORTHOVIEW
 70
     0
  9
$UCSORGTOP
 10
0.0
 20
0.0
 30
0.0
  9
$UCSORGBOTTOM
 10
0.0
 20
0.0
 30
0.0
  9
$UCSORGLEFT
 10
0.0
 20
0.0
 30
0.0
  9
$UCSORGRIGHT
 10
0.0
 20
0.0
 30
0.0
  9
$UCSORGFRONT
 10
0.0
 20
0.0
 30
0.0
  9
$UCSORGBACK
 10
0.0
 20
0.0
 30
0.0
  9
$PUCSBASE
  2

  9
$PUCSNAME
  2

  9
$PUCSORG
 10
0.0
 20
0.0
 30
0.0
  9
$PUCSXDIR
 10
1.0
 20
0.0
 30
0.0
  9
$PUCSYDIR
 10
0.0
 20
1.0
 30
0.0
  9
$PUCSORTHOREF
  2

  9
$PUCSORTHOVIEW
 70
     0
  9
$PUCSORGTOP
 10
0.0
 20
0.0
 30
0.0
  9
$PUCSORGBOTTOM
 10
0.0
 20
0.0
 30
0.0
  9
$PUCSORGLEFT
 10
0.0
 20
0.0
 30
0.0
  9
$PUCSORGRIGHT
 10
0.0
 20
0.0
 30
0.0
  9
$PUCSORGFRONT
 10
0.0
 20
0.0
 30
0.0
  9
$PUCSORGBACK
 10
0.0
 20
0.0
 30
0.0
  9
$USERI1
 70
     0
  9
$USERI2
 70
     0
  9
$USERI3
 70
     0
  9
$USERI4
 70
     0
  9
$USERI5
 70
     0
  9
$USERR1
 40
0.0
  9
$USERR2
 40
0.0
  9
$USERR3
 40
0.0
  9
$USERR4
 40
0.0
  9
$USERR5
 40
0.0
  9
$WORLDVIEW
 70
     1
  9
$SHADEDGE
 70
     3
  9
$SHADEDIF
 70
    70
  9
$TILEMODE
 70
     1
  9
$MAXACTVP
 70
    64
  9
$PINSBASE
 10
0.0
 20
0.0
 30
0.0
  9
$PLIMCHECK
 70
     0
  9
$PEXTMIN
 10
1.000000000000000E+20
 20
1.000000000000000E+20
 30
1.000000000000000E+20
  9
$PEXTMAX
 10
-1.000000000000000E+20
 20
-1.000000000000000E+20
 30
-1.000000000000000E+20
  9
$PLIMMIN
 10
0.0
 20
0.0
  9
$PLIMMAX
 10
12.0
 20
9.0
  9
$UNITMODE
 70
     0
  9
$VISRETAIN
 70
     1
  9
$PLINEGEN
 70
     0
  9
$PSLTSCALE
 70
     1
  9
$TREEDEPTH
 70
  3020
  9
$CMLSTYLE
  2
Standard
  9
$CMLJUST
 70
     0
  9
$CMLSCALE
 40
1.0
  9
$PROXYGRAPHICS
 70
     1
  9
$MEASUREMENT
 70
     0
  9
$CELWEIGHT
370
    -1
  9
$ENDCAPS
280
     0
  9
$JOINSTYLE
280
     0
  9
$LWDISPLAY
290
     1
  9
$INSUNITS
 70
     4
  9
$HYPERLINKBASE
  1

  9
$STYLESHEET
  1

  9
$XEDIT
290
     1
  9
$CEPSNTYPE
380
     0
  9
$PSTYLEMODE
290
     1
  9
$FINGERPRINTGUID
  2
{A9E8189A-40F4-A646-AFBF-F280B20F8437}
  9
$VERSIONGUID
  2
{7C0C34AB-AE0B-9F48-B345-050A8B8B6FE3}
  9
$EXTNAMES
290
     1
  9
$PSVPSCALE
 40
0.0
  9
$OLESTARTUP
290
     0
  9
$SORTENTS
280
   127
  9
$INDEXCTL
280
     0
  9
$HIDETEXT
280
     1
  9
$XCLIPFRAME
280
     2
  9
$HALOGAP
280
     0
  9
$OBSCOLOR
 70
   257
  9
$OBSLTYPE
280
     0
  9
$INTERSECTIONDISPLAY
280
     0
  9
$INTERSECTIONCOLOR
 70
   257
  9
$DIMASSOC
280
     2
  9
$PROJECTNAME
  1

  9
$CAMERADISPLAY
290
     0
  9
$LENSLENGTH
 40
50.0
  9
$CAMERAHEIGHT
 40
0.0
  9
$STEPSPERSEC
 40
2.0
  9
$STEPSIZE
 40
6.0
  9
$3DDWFPREC
 40
2.0
  9
$PSOLWIDTH
 40
0.25
  9
$PSOLHEIGHT
 40
4.0
  9
$LOFTANG1
 40
1.570796326794896
  9
$LOFTANG2
 40
1.570796326794896
  9
$LOFTMAG1
 40
0.0
  9
$LOFTMAG2
 40
0.0
  9
$LOFTPARAM
 70
     7
  9
$LOFTNORMALS
280
     1
  9
$LATITUDE
 40
37.795
  9
$LONGITUDE
 40
-122.394
  9
$NORTHDIRECTION
 40
0.0
  9
$TIMEZONE
 70
 -8000
  9
$LIGHTGLYPHDISPLAY
280
     1
  9
$TILEMODELIGHTSYNCH
280
     1
  9
$CMATERIAL
347
11
  9
$SOLIDHIST
280
     0
  9
$SHOWHIST
280
     1
  9
$DWFFRAME
280
     2
  9
$DGNFRAME
280
     0
  9
$REALWORLDSCALE
290
     1
  9
$INTERFERECOLOR
 62
     1
  9
$INTERFEREOBJVS
345
33
  9
$INTERFEREVPVS
346
30
  9
$CSHADOW
280
     0
  9
$SHADOWPLANELOCATION
 40
0.0
  0
ENDSEC
  0
SECTION
  2
CLASSES
  0
CLASS
  1
ACDBDICTIONARYWDFLT
  2
AcDbDictionaryWithDefault
  3
ObjectDBX Classes
 90
        0
 91
        1
280
     0
281
     0
  0
CLASS
  1
MATERIAL
  2
AcDbMaterial
  3
ObjectDBX Classes
 90
     1153
 91
        3
280
     0
281
     0
  0
CLASS
  1
VISUALSTYLE
  2
AcDbVisualStyle
  3
ObjectDBX Classes
 90
     4095
 91
       24
280
     0
281
     0
  0
CLASS
  1
SCALE
  2
AcDbScale
  3
ObjectDBX Classes
 90
     1153
 91
       17
280
     0
281
     0
  0
CLASS
  1
TABLESTYLE
  2
AcDbTableStyle
  3
ObjectDBX Classes
 90
     4095
 91
        1
280
     0
281
     0
  0
CLASS
  1
MLEADERSTYLE
  2
AcDbMLeaderStyle
  3
ACDB_MLEADERSTYLE_CLASS
 90
     4095
 91
        1
280
     0
281
     0
  0
CLASS
  1
ACDBSECTIONVIEWSTYLE
  2
AcDbSectionViewStyle
  3
ObjectDBX Classes
 90
     1025
 91
        1
280
     0
281
     0
  0
CLASS
  1
ACDBDETAILVIEWSTYLE
  2
AcDbDetailViewStyle
  3
ObjectDBX Classes
 90
     1025
 91
        1
280
     0
281
     0
  0
CLASS
  1
DICTIONARYVAR
  2
AcDbDictionaryVar
  3
ObjectDBX Classes
 90
        0
 91
        5
280
     0
281
     0
  0
CLASS
  1
CELLSTYLEMAP
  2
AcDbCellStyleMap
  3
ObjectDBX Classes
 90
     1152
 91
        1
280
     0
281
     0
  0
ENDSEC
  0
SECTION
  2
TABLES
  0
TABLE
  2
VPORT
  5
8
330
0
100
AcDbSymbolTable
 70
     1
  0
VPORT
  5
57
330
8
100
AcDbSymbolTableRecord
100
AcDbViewportTableRecord
  2
*Active
 70
     0
 10
0.0
 20
0.0
 11
1.0
 21
1.0
 12
0.0
 22
0.0
 13
0.0
 23
0.0
 14
1.0
 24
1.0
 15
0.0
 25
0.0
 16
0.0
 26
0.0
 36
1.0
 17
104.9999999737499
 27
-43.49999998912136
 37
0.0
 40
302.9399999242646
 41
0.7070707070707073
 42
50.0
 43
0.0
 44
0.0
 50
0.0
 51
0.0
 71
     0
 72
   100
 73
     1
 74
     1
 75
     0
 76
     0
 77
     0
 78
     0
281
     0
 65
     1
110
0.0
120
0.0
130
0.0
111
1.0
121
0.0
131
0.0
112
0.0
122
1.0
132
0.0
 79
     0
146
0.0
 60
     3
 61
     5
292
     1
282
     1
141
0.0
142
0.0
 63
   250
421
  3355443
  0
ENDTAB
  0
TABLE
  2
LTYPE
  5
5
330
0
100
AcDbSymbolTable
 70
     1
  0
LTYPE
  5
5B
330
5
100
AcDbSymbolTableRecord
100
AcDbLinetypeTableRecord
  2
ByBlock
 70
     0
  3

 72
    65
 73
     0
 40
0.0
  0
LTYPE
  5
5C
330
5
100
AcDbSymbolTableRecord
100
AcDbLinetypeTableRecord
  2
ByLayer
 70
     0
  3

 72
    65
 73
     0
 40
0.0
  0
LTYPE
  5
5D
330
5
100
AcDbSymbolTableRecord
100
AcDbLinetypeTableRecord
  2
Continuous
 70
     0
  3
Solid line
 72
    65
 73
     0
 40
0.0
  0
ENDTAB
  0
TABLE
  2
LAYER
  5
2
330
0
100
AcDbSymbolTable
 70
     2
  0
LAYER
  5
54
330
2
100
AcDbSymbolTableRecord
100
AcDbLayerTableRecord
  2
0
 70
     0
 62
     7
  6
Continuous
370
     0
390
F
347
21
348
0
  0
LAYER
  5
162
330
2
100
AcDbSymbolTableRecord
100
AcDbLayerTableRecord
  2
CAPA_BASE
 70
     0
 62
     7
  6
Continuous
370
     0
390
F
347
21
348
0
  0
ENDTAB
  0
TABLE
  2
STYLE
  5
3
330
0
100
AcDbSymbolTable
 70
     2
  0
STYLE
  5
55
330
3
100
AcDbSymbolTableRecord
100
AcDbTextStyleTableRecord
  2
Standard
 70
     0
 40
0.0
 41
1.0
 50
0.0
 71
     0
 42
0.2
  3
txt
  4

  0
STYLE
  5
5A
330
3
100
AcDbSymbolTableRecord
100
AcDbTextStyleTableRecord
  2
Annotative
 70
     0
 40
0.0
 41
1.0
 50
0.0
 71
     0
 42
0.2
  3
txt
  4

1001
AcadAnnotative
1000
AnnotativeData
1002
{
1070
     1
1070
     1
1002
}
  0
ENDTAB
  0
TABLE
  2
VIEW
  5
6
330
0
100
AcDbSymbolTable
 70
     0
  0
ENDTAB
  0
TABLE
  2
UCS
  5
7
330
0
100
AcDbSymbolTable
 70
     0
  0
ENDTAB
  0
TABLE
  2
APPID
  5
9
330
0
100
AcDbSymbolTable
 70
     2
  0
APPID
  5
56
330
9
100
AcDbSymbolTableRecord
100
AcDbRegAppTableRecord
  2
ACAD
 70
     0
  0
APPID
  5
5E
330
9
100
AcDbSymbolTableRecord
100
AcDbRegAppTableRecord
  2
AcadAnnotative
 70
     0
  0
ENDTAB
  0
TABLE
  2
DIMSTYLE
  5
A
330
0
100
AcDbSymbolTable
 70
     2
100
AcDbDimStyleTable
 71
     0
  0
DIMSTYLE
105
58
330
A
100
AcDbSymbolTableRecord
100
AcDbDimStyleTableRecord
  2
Standard
 70
     0
340
55
  0
DIMSTYLE
105
59
330
A
100
AcDbSymbolTableRecord
100
AcDbDimStyleTableRecord
  2
Annotative
 70
     0
340
55
1001
AcadAnnotative
1000
AnnotativeData
1002
{
1070
     1
1070
     1
1002
}
  0
ENDTAB
  0
TABLE
  2
BLOCK_RECORD
  5
1
330
0
100
AcDbSymbolTable
 70
     4
  0
BLOCK_RECORD
  5
70
330
1
100
AcDbSymbolTableRecord
100
AcDbBlockTableRecord
  2
*Model_Space
340
73
 70
     0
280
     1
281
     0
  0
BLOCK_RECORD
  5
6C
330
1
100
AcDbSymbolTableRecord
100
AcDbBlockTableRecord
  2
*Paper_Space
340
6F
 70
     0
280
     1
281
     0
  0
BLOCK_RECORD
  5
74
330
1
100
AcDbSymbolTableRecord
100
AcDbBlockTableRecord
  2
*Paper_Space0
340
77
 70
     0
280
     1
281
     0
  0
BLOCK_RECORD
  5
163
330
1
100
AcDbSymbolTableRecord
100
AcDbBlockTableRecord
  2
Block_0
340
0
102
{BLKREFS
331
164
102
}
 70
     0
280
     1
281
     0
  0
BLOCK_RECORD
  5
170
330
1
100
AcDbSymbolTableRecord
100
AcDbBlockTableRecord
  2
Block_1
340
0
102
{BLKREFS
331
171
102
}
 70
     0
280
     1
281
     0
  0
BLOCK_RECORD
  5
17C
330
1
100
AcDbSymbolTableRecord
100
AcDbBlockTableRecord
  2
Block_2
340
0
102
{BLKREFS
331
17D
102
}
 70
     0
280
     1
281
     0
  0
ENDTAB
  0
ENDSEC
  0
SECTION
  2
BLOCKS
  0
BLOCK
  5
71
330
70
100
AcDbEntity
  8
0
100
AcDbBlockBegin
  2
*Model_Space
 70
     0
 10
0.0
 20
0.0
 30
0.0
  3
*Model_Space
  1

  0
ENDBLK
  5
72
330
70
100
AcDbEntity
  8
0
100
AcDbBlockEnd
  0
BLOCK
  5
6D
330
6C
100
AcDbEntity
 67
     1
  8
0
100
AcDbBlockBegin
  2
*Paper_Space
 70
     0
 10
0.0
 20
0.0
 30
0.0
  3
*Paper_Space
  1

  0
ENDBLK
  5
6E
330
6C
100
AcDbEntity
 67
     1
  8
0
100
AcDbBlockEnd
  0
BLOCK
  5
75
330
74
100
AcDbEntity
 67
     1
  8
0
100
AcDbBlockBegin
  2
*Paper_Space0
 70
     0
 10
0.0
 20
0.0
 30
0.0
  3
*Paper_Space0
  1

  0
ENDBLK
  5
76
330
74
100
AcDbEntity
 67
     1
  8
0
100
AcDbBlockEnd
  0
BLOCK
  5
165
330
163
100
AcDbEntity
  8
0
100
AcDbBlockBegin
  2
Block_0
 70
     0
 10
0.0
 20
0.0
 30
0.0
  3
Block_0
  1

  0
LWPOLYLINE
  5
167
330
163
100
AcDbEntity
  8
CAPA_BASE
100
AcDbPolyline
 90
        4
 70
     1
 43
0.0
 10
77.53046159169994
 20
-34.89909402195811
 10
75.03046159169986
 20
-34.58909402195774
 10
75.03046159169986
 20
-35.20909402195783
 10
75.03046159169986
 20
-35.20909402195783
  0
HATCH
  5
168
330
163
100
AcDbEntity
  8
CAPA_BASE
 62
    18
420
        0
440
 33554687
100
AcDbHatch
 10
0.0
 20
0.0
 30
0.0
210
0.0
220
0.0
230
1.0
  2
SOLID
 70
     1
 71
     1
 91
        1
 92
        1
 93
        3
 72
     1
 10
77.53046159169994
 20
-34.89909402195811
 11
75.03046159169986
 21
-34.58909402195774
 72
     1
 10
75.03046159169986
 20
-34.58909402195774
 11
75.03046159169986
 21
-35.20909402195783
 72
     1
 10
75.03046159169986
 20
-35.20909402195783
 11
77.53046159169994
 21
-34.89909402195811
 97
        1
330
167
 75
     2
 76
     1
 98
        1
 10
0.0
 20
0.0
450
        0
451
        0
460
0.0
461
0.0
452
        0
462
0.0
453
        0
470

  0
LWPOLYLINE
  5
169
330
163
100
AcDbEntity
  8
CAPA_BASE
100
AcDbPolyline
 90
        4
 70
     1
 43
0.0
 10
26.28046159169991
 20
-34.89909402195811
 10
28.7804615917
 20
-35.20909402195783
 10
28.7804615917
 20
-34.58909402195774
 10
28.7804615917
 20
-34.58909402195774
  0
HATCH
  5
16A
330
163
100
AcDbEntity
  8
CAPA_BASE
 62
    18
420
        0
440
 33554687
100
AcDbHatch
 10
0.0
 20
0.0
 30
0.0
210
0.0
220
0.0
230
1.0
  2
SOLID
 70
     1
 71
     1
 91
        1
 92
        1
 93
        3
 72
     1
 10
26.28046159169991
 20
-34.89909402195811
 11
28.7804615917
 21
-35.20909402195783
 72
     1
 10
28.7804615917
 20
-35.20909402195783
 11
28.7804615917
 21
-34.58909402195774
 72
     1
 10
28.7804615917
 20
-34.58909402195774
 11
26.28046159169991
 21
-34.89909402195811
 97
        1
330
169
 75
     2
 76
     1
 98
        1
 10
0.0
 20
0.0
450
        0
451
        0
460
0.0
461
0.0
452
        0
462
0.0
453
        0
470

  0
LINE
  5
16B
330
163
100
AcDbEntity
  8
CAPA_BASE
 62
    18
420
        0
370
    25
100
AcDbLine
 10
77.53046159169994
 20
-25.89909402195779
 30
0.0
 11
77.53046159169994
 21
-35.8990940219575
 31
0.0
  0
LINE
  5
16C
330
163
100
AcDbEntity
  8
CAPA_BASE
 62
    18
420
        0
370
    25
100
AcDbLine
 10
26.28046159169991
 20
-25.89909402195779
 30
0.0
 11
26.28046159169991
 21
-35.8990940219575
 31
0.0
  0
LINE
  5
16D
330
163
100
AcDbEntity
  8
CAPA_BASE
 62
    18
420
        0
370
    25
100
AcDbLine
 10
77.53046159169994
 20
-34.89909402195811
 30
0.0
 11
26.28046159169991
 21
-34.89909402195811
 31
0.0
  0
MTEXT
  5
16E
330
163
100
AcDbEntity
  8
CAPA_BASE
100
AcDbMText
 10
47.57346351281909
 20
-34.10534717978747
 30
0.0
 40
0.2
 41
0.0
 46
0.0
 71
     7
 72
     1
  1
\C18;\c0;\FArial Bold|b1|i0|c1;\H2.997200;\W0.700000;Ø
 73
     1
 44
1.0
  0
MTEXT
  5
16F
330
163
100
AcDbEntity
  8
CAPA_BASE
100
AcDbMText
 10
50.94579750482811
 20
-34.10534717978747
 30
0.0
 40
0.2
 41
0.0
 46
0.0
 71
     7
 72
     1
  1
\C18;\c0;\FArial Bold|b1|i0|c1;\H2.997200;\W0.700000;205
 73
     1
 44
1.0
  0
ENDBLK
  5
166
330
163
100
AcDbEntity
  8
0
100
AcDbBlockEnd
  0
BLOCK
  5
172
330
170
100
AcDbEntity
  8
0
100
AcDbBlockBegin
  2
Block_1
 70
     0
 10
0.0
 20
0.0
 30
0.0
  3
Block_1
  1

  0
LWPOLYLINE
  5
174
330
170
100
AcDbEntity
  8
CAPA_BASE
100
AcDbPolyline
 90
        4
 70
     1
 43
0.0
 10
87.53046159169999
 20
-126.1712683503575
 10
87.84046159170003
 20
-123.6712683503577
 10
87.22046159169995
 20
-123.6712683503577
 10
87.22046159169995
 20
-123.6712683503577
  0
HATCH
  5
175
330
170
100
AcDbEntity
  8
CAPA_BASE
 62
    18
420
        0
440
 33554687
100
AcDbHatch
 10
0.0
 20
0.0
 30
0.0
210
0.0
220
0.0
230
1.0
  2
SOLID
 70
     1
 71
     1
 91
        1
 92
        1
 93
        3
 72
     1
 10
87.53046159169999
 20
-126.1712683503575
 11
87.84046159170003
 21
-123.6712683503577
 72
     1
 10
87.84046159170003
 20
-123.6712683503577
 11
87.22046159169995
 21
-123.6712683503577
 72
     1
 10
87.22046159169995
 20
-123.6712683503577
 11
87.53046159169999
 21
-126.1712683503575
 97
        1
330
174
 75
     2
 76
     1
 98
        1
 10
0.0
 20
0.0
450
        0
451
        0
460
0.0
461
0.0
452
        0
462
0.0
453
        0
470

  0
LWPOLYLINE
  5
176
330
170
100
AcDbEntity
  8
CAPA_BASE
100
AcDbPolyline
 90
        4
 70
     1
 43
0.0
 10
87.53046159169999
 20
-58.52956128035792
 10
87.22046159169995
 20
-61.02956128035768
 10
87.84046159170003
 20
-61.02956128035768
 10
87.84046159170003
 20
-61.02956128035768
  0
HATCH
  5
177
330
170
100
AcDbEntity
  8
CAPA_BASE
 62
    18
420
        0
440
 33554687
100
AcDbHatch
 10
0.0
 20
0.0
 30
0.0
210
0.0
220
0.0
230
1.0
  2
SOLID
 70
     1
 71
     1
 91
        1
 92
        1
 93
        3
 72
     1
 10
87.53046159169999
 20
-58.52956128035792
 11
87.22046159169995
 21
-61.02956128035768
 72
     1
 10
87.22046159169995
 20
-61.02956128035768
 11
87.84046159170003
 21
-61.02956128035768
 72
     1
 10
87.84046159170003
 20
-61.02956128035768
 11
87.53046159169999
 21
-58.52956128035792
 97
        1
330
176
 75
     2
 76
     1
 98
        1
 10
0.0
 20
0.0
450
        0
451
        0
460
0.0
461
0.0
452
        0
462
0.0
453
        0
470

  0
LINE
  5
178
330
170
100
AcDbEntity
  8
CAPA_BASE
 62
    18
420
        0
370
    25
100
AcDbLine
 10
52.90546159169997
 20
-126.1712683503575
 30
0.0
 11
88.53046159170002
 21
-126.1712683503575
 31
0.0
  0
LINE
  5
179
330
170
100
AcDbEntity
  8
CAPA_BASE
 62
    18
420
        0
370
    25
100
AcDbLine
 10
52.90546159169997
 20
-58.52956128035792
 30
0.0
 11
88.53046159170002
 21
-58.52956128035792
 31
0.0
  0
LINE
  5
17A
330
170
100
AcDbEntity
  8
CAPA_BASE
 62
    18
420
        0
370
    25
100
AcDbLine
 10
87.53046159169999
 20
-126.1712683503575
 30
0.0
 11
87.53046159169999
 21
-58.52956128035792
 31
0.0
  0
MTEXT
  5
17B
330
170
100
AcDbEntity
  8
CAPA_BASE
100
AcDbMText
 10
86.73670609742996
 20
-94.99644094847376
 30
0.0
 40
0.2
 41
0.0
 46
0.0
 71
     7
 72
     1
  1
\C18;\c0;\FArial Bold|b1|i0|c1;\H2.997200;\W0.700000;271
 11
0.0000000000000003
 21
1.0
 31
0.0
 73
     1
 44
1.0
  0
ENDBLK
  5
173
330
170
100
AcDbEntity
  8
0
100
AcDbBlockEnd
  0
BLOCK
  5
17E
330
17C
100
AcDbEntity
  8
0
100
AcDbBlockBegin
  2
Block_2
 70
     0
 10
0.0
 20
0.0
 30
0.0
  3
Block_2
  1

  0
LWPOLYLINE
  5
180
330
17C
100
AcDbEntity
  8
CAPA_BASE
100
AcDbPolyline
 90
        4
 70
     1
 43
0.0
 10
107.4665761152997
 20
45.60090597804249
 10
107.1565761153
 20
43.10090597804271
 10
107.7765761153001
 20
43.10090597804271
 10
107.7765761153001
 20
43.10090597804271
  0
HATCH
  5
181
330
17C
100
AcDbEntity
  8
CAPA_BASE
 62
    18
420
        0
440
 33554687
100
AcDbHatch
 10
0.0
 20
0.0
 30
0.0
210
0.0
220
0.0
230
1.0
  2
SOLID
 70
     1
 71
     1
 91
        1
 92
        1
 93
        3
 72
     1
 10
107.4665761152997
 20
45.60090597804249
 11
107.1565761153
 21
43.10090597804271
 72
     1
 10
107.1565761153
 20
43.10090597804271
 11
107.7765761153001
 21
43.10090597804271
 72
     1
 10
107.7765761153001
 20
43.10090597804271
 11
107.4665761152997
 21
45.60090597804249
 97
        1
330
180
 75
     2
 76
     1
 98
        1
 10
0.0
 20
0.0
450
        0
451
        0
460
0.0
461
0.0
452
        0
462
0.0
453
        0
470

  0
LWPOLYLINE
  5
182
330
17C
100
AcDbEntity
  8
CAPA_BASE
100
AcDbPolyline
 90
        4
 70
     1
 43
0.0
 10
107.4665761152997
 20
-24.89909402195776
 10
107.7765761153001
 20
-22.39909402195735
 10
107.1565761153
 20
-22.39909402195735
 10
107.1565761153
 20
-22.39909402195735
  0
HATCH
  5
183
330
17C
100
AcDbEntity
  8
CAPA_BASE
 62
    18
420
        0
440
 33554687
100
AcDbHatch
 10
0.0
 20
0.0
 30
0.0
210
0.0
220
0.0
230
1.0
  2
SOLID
 70
     1
 71
     1
 91
        1
 92
        1
 93
        3
 72
     1
 10
107.4665761152997
 20
-24.89909402195776
 11
107.7765761153001
 21
-22.39909402195735
 72
     1
 10
107.7765761153001
 20
-22.39909402195735
 11
107.1565761153
 21
-22.39909402195735
 72
     1
 10
107.1565761153
 20
-22.39909402195735
 11
107.4665761152997
 21
-24.89909402195776
 97
        1
330
182
 75
     2
 76
     1
 98
        1
 10
0.0
 20
0.0
450
        0
451
        0
460
0.0
461
0.0
452
        0
462
0.0
453
        0
470

  0
LINE
  5
184
330
17C
100
AcDbEntity
  8
CAPA_BASE
 62
    18
420
        0
370
    25
100
AcDbLine
 10
124.9665761153
 20
45.60090597804249
 30
0.0
 11
106.4665761152997
 21
45.60090597804249
 31
0.0
  0
LINE
  5
185
330
17C
100
AcDbEntity
  8
CAPA_BASE
 62
    18
420
        0
370
    25
100
AcDbLine
 10
124.4665761152997
 20
-24.89909402195776
 30
0.0
 11
106.4665761152997
 21
-24.89909402195776
 31
0.0
  0
LINE
  5
186
330
17C
100
AcDbEntity
  8
CAPA_BASE
 62
    18
420
        0
370
    25
100
AcDbLine
 10
107.4665761152997
 20
45.60090597804249
 30
0.0
 11
107.4665761152997
 21
-24.89909402195776
 31
0.0
  0
MTEXT
  5
187
330
17C
100
AcDbEntity
  8
CAPA_BASE
100
AcDbMText
 10
106.6728277151673
 20
7.70495605276062
 30
0.0
 40
0.2
 41
0.0
 46
0.0
 71
     7
 72
     1
  1
\C18;\c0;\FArial Bold|b1|i0|c1;\H2.997200;\W0.700000;282
 11
0.0000000000000003
 21
1.0
 31
0.0
 73
     1
 44
1.0
  0
ENDBLK
  5
17F
330
17C
100
AcDbEntity
  8
0
100
AcDbBlockEnd
  0
ENDSEC
  0
SECTION
  2
ENTITIES
  0
LINE
  5
78
330
70
100
AcDbEntity
  8
0
 62
    18
420
        0
370
    25
100
AcDbLine
 10
26.28046159169991
 20
45.10090597804214
 30
0.0
 11
26.28046159169991
 21
38.30801275924239
 31
0.0
  0
LINE
  5
79
330
70
100
AcDbEntity
  8
0
 62
    18
420
        0
370
    25
100
AcDbLine
 10
77.53046159169994
 20
38.30801275924239
 30
0.0
 11
77.53046159169994
 21
45.10090597804214
 31
0.0
  0
SPLINE
  5
7A
330
70
100
AcDbEntity
  8
0
 62
    18
420
        0
370
    25
100
AcDbSpline
210
0.0
220
0.0
230
1.0
 70
     8
 71
     3
 72
     8
 73
     4
 74
     0
 42
0.0000000001
 43
0.0000000001
 40
0.0
 40
0.0
 40
0.0
 40
0.0
 40
1.0
 40
1.0
 40
1.0
 40
1.0
 10
77.53046159169994
 20
35.89379919684199
 30
0.0
 10
77.53046159169994
 20
36.02640744176178
 30
0.0
 10
77.47778317151709
 20
36.15358439821155
 30
0.0
 10
77.38401498229329
 20
36.24735258743598
 30
0.0
  0
SPLINE
  5
7B
330
70
100
AcDbEntity
  8
0
 62
    18
420
        0
370
    25
100
AcDbSpline
210
0.0
220
0.0
230
1.0
 70
     8
 71
     3
 72
     8
 73
     4
 74
     0
 42
0.0000000001
 43
0.0000000001
 40
0.0
 40
0.0
 40
0.0
 40
0.0
 40
1.0
 40
1.0
 40
1.0
 40
1.0
 10
26.42690820110658
 20
36.24735258743598
 30
0.0
 10
26.33314001188278
 20
36.15358439821155
 30
0.0
 10
26.28046159169991
 20
36.02640744176178
 30
0.0
 10
26.28046159169991
 20
35.89379919684199
 30
0.0
  0
SPLINE
  5
7C
330
70
100
AcDbEntity
  8
0
 62
    18
420
        0
370
    25
100
AcDbSpline
210
0.0
220
0.0
230
1.0
 70
     8
 71
     3
 72
     8
 73
     4
 74
     0
 42
0.0000000001
 43
0.0000000001
 40
0.0
 40
0.0
 40
0.0
 40
0.0
 40
1.0
 40
1.0
 40
1.0
 40
1.0
 10
77.53046159169994
 20
45.10090597804214
 30
0.0
 10
77.53046159169994
 20
45.37704835295794
 30
0.0
 10
77.30660396661541
 20
45.60090597804184
 30
0.0
 10
77.03046159169993
 20
45.60090597804184
 30
0.0
  0
SPLINE
  5
7D
330
70
100
AcDbEntity
  8
0
 62
    18
420
        0
370
    25
100
AcDbSpline
210
0.0
220
0.0
230
1.0
 70
     8
 71
     3
 72
     8
 73
     4
 74
     0
 42
0.0000000001
 43
0.0000000001
 40
0.0
 40
0.0
 40
0.0
 40
0.0
 40
1.0
 40
1.0
 40
1.0
 40
1.0
 10
26.78046159169993
 20
45.60090597804249
 30
0.0
 10
26.50431921678445
 20
45.60090597804249
 30
0.0
 10
26.28046159169991
 20
45.37704835295794
 30
0.0
 10
26.28046159169991
 20
45.10090597804214
 30
0.0
  0
LINE
  5
7E
330
70
100
AcDbEntity
  8
0
 62
    18
420
        0
370
    25
100
AcDbLine
 10
26.28046159169991
 20
35.89379919684199
 30
0.0
 11
26.28046159169991
 21
-24.89909402195776
 31
0.0
  0
LINE
  5
7F
330
70
100
AcDbEntity
  8
0
 62
    18
420
        0
370
    25
100
AcDbLine
 10
77.53046159169994
 20
-24.89909402195776
 30
0.0
 11
77.53046159169994
 21
35.89379919684199
 31
0.0
  0
SPLINE
  5
80
330
70
100
AcDbEntity
  8
0
 62
    18
420
        0
370
    25
100
AcDbSpline
210
0.0
220
0.0
230
1.0
 70
     8
 71
     3
 72
     8
 73
     4
 74
     0
 42
0.0000000001
 43
0.0000000001
 40
0.0
 40
0.0
 40
0.0
 40
0.0
 40
1.0
 40
1.0
 40
1.0
 40
1.0
 10
77.38401498229329
 20
37.95445936864903
 30
0.0
 10
77.47778317151709
 20
38.04822755787347
 30
0.0
 10
77.53046159169994
 20
38.1754045143226
 30
0.0
 10
77.53046159169994
 20
38.30801275924239
 30
0.0
  0
SPLINE
  5
81
330
70
100
AcDbEntity
  8
0
 62
    18
420
        0
370
    25
100
AcDbSpline
210
0.0
220
0.0
230
1.0
 70
     8
 71
     3
 72
     8
 73
     4
 74
     0
 42
0.0000000001
 43
0.0000000001
 40
0.0
 40
0.0
 40
0.0
 40
0.0
 40
1.0
 40
1.0
 40
1.0
 40
1.0
 10
26.28046159169991
 20
38.30801275924239
 30
0.0
 10
26.28046159169991
 20
38.1754045143226
 30
0.0
 10
26.33314001188278
 20
38.04822755787347
 30
0.0
 10
26.42690820110658
 20
37.95445936864903
 30
0.0
  0
LINE
  5
82
330
70
100
AcDbEntity
  8
0
 62
    18
420
        0
370
    25
100
AcDbLine
 10
77.38401498230003
 20
36.2473525874424
 30
0.0
 11
76.53046159169992
 21
37.10090597804187
 31
0.0
  0
LINE
  5
83
330
70
100
AcDbEntity
  8
0
 62
    18
420
        0
370
    25
100
AcDbLine
 10
27.28046159169994
 20
37.10090597804187
 30
0.0
 11
26.42690820109983
 21
36.2473525874424
 31
0.0
  0
LINE
  5
84
330
70
100
AcDbEntity
  8
0
 62
    18
420
        0
370
    25
100
AcDbLine
 10
26.42690820109983
 20
37.95445936864262
 30
0.0
 11
27.28046159169994
 21
37.10090597804187
 31
0.0
  0
LINE
  5
85
330
70
100
AcDbEntity
  8
0
 62
    18
420
        0
370
    25
100
AcDbLine
 10
76.53046159169992
 20
37.10090597804187
 30
0.0
 11
77.38401498230003
 21
37.95445936864262
 31
0.0
  0
LINE
  5
86
330
70
100
AcDbEntity
  8
0
 62
    18
420
        0
370
    25
100
AcDbLine
 10
26.78046159169993
 20
45.60090597804249
 30
0.0
 11
77.03046159169993
 21
45.60090597804249
 31
0.0
  0
LINE
  5
87
330
70
100
AcDbEntity
  8
0
 62
    18
420
        0
370
    25
100
AcDbLine
 10
77.53046159169994
 20
-24.89909402195776
 30
0.0
 11
26.28046159169991
 21
-24.89909402195776
 31
0.0
  0
LINE
  5
88
330
70
100
AcDbEntity
  8
0
 62
    18
420
        0
370
    25
100
AcDbLine
 10
51.90546159169993
 20
37.10090597804187
 30
0.0
 11
76.53046159169992
 21
37.10090597804187
 31
0.0
  0
LINE
  5
89
330
70
100
AcDbEntity
  8
0
 62
    18
420
        0
370
    25
100
AcDbLine
 10
27.28046159169994
 20
37.10090597804187
 30
0.0
 11
51.90546159169993
 21
37.10090597804187
 31
0.0
  0
LWPOLYLINE
  5
8A
330
70
100
AcDbEntity
  8
0
 62
    18
420
        0
370
    25
100
AcDbPolyline
 90
        3
 70
     0
 43
0.0
 10
45.65097549519999
 20
-18.14150898065802
 10
45.59195287479985
 20
-17.87714836015797
 10
45.08707379789993
 20
-15.63784655995762
  0
LWPOLYLINE
  5
8B
330
70
100
AcDbEntity
  8
0
 62
    18
420
        0
370
    25
100
AcDbPolyline
 90
       10
 70
     0
 43
0.0
 10
45.08707379789993
 20
-15.63784655995762
 10
46.57828484079998
 20
-15.64227467325807
 10
48.087454834
 20
-15.64560888705725
 10
49.60949607159996
 20
-15.6478379611578
 10
51.13927745599983
 20
-15.64895438065755
 10
52.67164179630005
 20
-15.64895438205774
 10
54.20142319399978
 20
-15.64783796545783
 10
55.72346445799987
 20
-15.64560889425776
 10
57.2326344907
 20
-15.64227468325766
 10
58.7238455861998
 20
-15.63784657265813
  0
LWPOLYLINE
  5
8C
330
70
100
AcDbEntity
  8
0
 62
    18
420
        0
370
    25
100
AcDbPolyline
 90
        3
 70
     0
 43
0.0
 10
58.7238455861998
 20
-15.63784657265749
 10
58.20618340079995
 20
-17.87606702305763
 10
58.14538923290003
 20
-18.14154458135774
  0
LWPOLYLINE
  5
8D
330
70
100
AcDbEntity
  8
0
 62
    18
420
        0
370
    25
100
AcDbPolyline
 90
        9
 70
     0
 43
0.0
 10
45.65097549519999
 20
-18.14150898065802
 10
47.20003027109986
 20
-18.14481830705769
 10
48.759968354
 20
-18.14718887905755
 10
50.32718172509998
 20
-18.148615213458
 10
51.8980455382998
 20
-18.14909401135809
 10
53.46892650419998
 20
-18.14862416535724
 10
55.03619129389993
 20
-18.14720676205729
 10
56.59621494239991
 20
-18.14484507995764
 10
58.14538923290003
 20
-18.14154458135774
  0
LWPOLYLINE
  5
8E
330
70
100
AcDbEntity
  8
0
 62
    18
420
        0
370
    25
100
AcDbPolyline
 90
        3
 70
     0
 43
0.0
 10
58.72374588269988
 20
-18.13786073425753
 10
58.72383304720004
 20
-15.95190454985768
 10
58.7238455861998
 20
-15.63784657265813
  0
LWPOLYLINE
  5
8F
330
70
100
AcDbEntity
  8
0
 62
    18
420
        0
370
    25
100
AcDbPolyline
 90
        3
 70
     0
 43
0.0
 10
58.14538923290003
 20
-18.14154458135774
 10
58.17298350999981
 20
-18.14140483605722
 10
58.72374588269988
 20
-18.13786073425753
  0
LWPOLYLINE
  5
90
330
70
100
AcDbEntity
  8
0
 62
    18
420
        0
370
    25
100
AcDbPolyline
 90
        3
 70
     0
 43
0.0
 10
45.08707379789993
 20
-15.63784655995762
 10
45.08708601949995
 20
-15.95190435395787
 10
45.0871709769
 20
-18.13786071305772
  0
LWPOLYLINE
  5
91
330
70
100
AcDbEntity
  8
0
 62
    18
420
        0
370
    25
100
AcDbPolyline
 90
        3
 70
     0
 43
0.0
 10
45.0871709769
 20
-18.13786071305772
 10
45.62439134749992
 20
-18.14137210295778
 10
45.65097549519999
 20
-18.14150898065802
  0
LWPOLYLINE
  5
92
330
70
100
AcDbEntity
  8
0
 62
    18
420
        0
370
    25
100
AcDbPolyline
 90
       10
 70
     0
 43
0.0
 10
45.08694082319999
 20
-12.22731761255811
 10
46.57810005189999
 20
-12.23175329965777
 10
48.08727934729986
 20
-12.23509326035762
 10
49.60937383479977
 20
-12.23732619725794
 10
51.13923495389977
 20
-12.23844455715741
 10
52.67168787289991
 20
-12.23844455735762
 10
54.20154899329999
 20
-12.23732619765772
 10
55.72364348319985
 20
-12.23509326105771
 10
57.23282278219999
 20
-12.23175330055743
 10
58.72398201569989
 20
-12.22731761375808
  0
LWPOLYLINE
  5
93
330
70
100
AcDbEntity
  8
0
 62
    18
420
        0
370
    25
100
AcDbPolyline
 90
        3
 70
     0
 43
0.0
 10
45.08694082319999
 20
-12.22731761255811
 10
45.62298447779975
 20
-10.6395992045574
 10
45.71801528510004
 20
-10.35489288705753
  0
LWPOLYLINE
  5
94
330
70
100
AcDbEntity
  8
0
 62
    18
420
        0
370
    25
100
AcDbPolyline
 90
        5
 70
     0
 43
0.0
 10
45.71801528510004
 20
-10.35489288705753
 10
48.72702333959994
 20
-10.3602446308573
 10
51.78815199429985
 20
-10.36214377935794
 10
54.93185987239982
 20
-10.36042258595772
 10
58.0766280223
 20
-10.35493134175801
  0
LWPOLYLINE
  5
95
330
70
100
AcDbEntity
  8
0
 62
    18
420
        0
370
    25
100
AcDbPolyline
 90
        3
 70
     0
 43
0.0
 10
58.0766280223
 20
-10.35493134175801
 10
58.17417794130001
 20
-10.63986567645816
 10
58.72398201569989
 20
-12.22731761375808
  0
LWPOLYLINE
  5
96
330
70
100
AcDbEntity
  8
0
 62
    18
420
        0
370
    25
100
AcDbPolyline
 90
        9
 70
     0
 43
0.0
 10
45.71801528510004
 20
-10.01538168355802
 10
47.25098721699992
 20
-10.01855533365795
 10
48.79407699739975
 20
-10.02082855805773
 10
50.34393027349984
 20
-10.02219641535775
 10
51.89717799029987
 20
-10.02265593195804
 10
53.45044371399986
 20
-10.02220610915798
 10
55.0003509713998
 20
-10.02084792465731
 10
56.54353059019999
 20
-10.01858433095756
 10
58.0766280223
 20
-10.01542024845747
  0
LINE
  5
97
330
70
100
AcDbEntity
  8
0
 62
    18
420
        0
370
    25
100
AcDbLine
 10
58.0766280223
 20
-10.01542024845747
 30
0.0
 11
58.0766280223
 21
-10.35493134175801
 31
0.0
  0
LINE
  5
98
330
70
100
AcDbEntity
  8
0
 62
    18
420
        0
370
    25
100
AcDbLine
 10
45.71801528510004
 20
-10.01538168355802
 30
0.0
 11
45.71801528510004
 21
-10.35489288705753
 31
0.0
  0
LINE
  5
99
330
70
100
AcDbEntity
  8
0
 62
    18
420
        0
370
    25
100
AcDbLine
 10
58.72398201569989
 20
-12.22731761375808
 30
0.0
 11
58.7239956223999
 21
-11.88782526205765
 31
0.0
  0
LWPOLYLINE
  5
9A
330
70
100
AcDbEntity
  8
0
 62
    18
420
        0
370
    25
100
AcDbPolyline
 90
        3
 70
     0
 43
0.0
 10
58.7239956223999
 20
-11.88782526205765
 10
58.17417833010001
 20
-10.30035361115812
 10
58.0766280223
 20
-10.01542024845747
  0
LINE
  5
9B
330
70
100
AcDbEntity
  8
0
 62
    18
420
        0
370
    25
100
AcDbLine
 10
45.08692756099995
 20
-11.88782526185808
 30
0.0
 11
45.08694082319999
 21
-12.22731761255811
 31
0.0
  0
LWPOLYLINE
  5
9C
330
70
100
AcDbEntity
  8
0
 62
    18
420
        0
370
    25
100
AcDbPolyline
 90
        3
 70
     0
 43
0.0
 10
45.71801528510004
 20
-10.01538168355802
 10
45.62298409579984
 20
-10.30008704845759
 10
45.08692756099995
 20
-11.88782526185808
  0
LINE
  5
9D
330
70
100
AcDbEntity
  8
0
 62
     8
420
  8421504
370
    25
100
AcDbLine
 10
26.28046159169991
 20
38.30801275924239
 30
0.0
 11
77.53046159169994
 21
38.30801275924239
 31
0.0
  0
LINE
  5
9E
330
70
100
AcDbEntity
  8
0
 62
     8
420
  8421504
370
    25
100
AcDbLine
 10
77.53046159169994
 20
45.10090597804214
 30
0.0
 11
26.28046159169991
 21
45.10090597804214
 31
0.0
  0
LINE
  5
9F
330
70
100
AcDbEntity
  8
0
 62
     8
420
  8421504
370
    25
100
AcDbLine
 10
26.42690820109983
 20
36.2473525874424
 30
0.0
 11
77.38401498230003
 21
36.2473525874424
 31
0.0
  0
LINE
  5
A0
330
70
100
AcDbEntity
  8
0
 62
     8
420
  8421504
370
    25
100
AcDbLine
 10
77.53046159169994
 20
35.89379919684199
 30
0.0
 11
26.28046159169991
 21
35.89379919684199
 31
0.0
  0
LINE
  5
A1
330
70
100
AcDbEntity
  8
0
 62
     8
420
  8421504
370
    25
100
AcDbLine
 10
77.38401498230003
 20
37.95445936864262
 30
0.0
 11
26.42690820109983
 21
37.95445936864262
 31
0.0
  0
CIRCLE
  5
A2
330
70
100
AcDbEntity
  8
0
 62
    18
420
        0
370
    25
100
AcDbCircle
 10
51.90546159169993
 20
-92.54626835035754
 30
0.0
 40
25.12500000000001
  0
CIRCLE
  5
A3
330
70
100
AcDbEntity
  8
0
 62
    18
420
        0
370
    25
100
AcDbCircle
 10
51.90546159169993
 20
-92.5462683503577
 30
0.0
 40
25.62499999999995
  0
LINE
  5
A4
330
70
100
AcDbEntity
  8
0
 62
    18
420
        0
370
    25
100
AcDbLine
 10
43.14119541899987
 20
-68.46664494265782
 30
0.0
 11
43.42362479679986
 21
-66.86490834705795
 31
0.0
  0
LINE
  5
A5
330
70
100
AcDbEntity
  8
0
 62
    18
420
        0
370
    25
100
AcDbLine
 10
43.42362479679986
 20
-66.86490834705795
 30
0.0
 11
43.91602867330005
 21
-66.95173243585795
 31
0.0
  0
LINE
  5
A6
330
70
100
AcDbEntity
  8
0
 62
    18
420
        0
370
    25
100
AcDbLine
 10
43.91602867330005
 20
-66.95173243585795
 30
0.0
 11
43.68243959999983
 21
-68.27648190045767
 31
0.0
  0
LINE
  5
A7
330
70
100
AcDbEntity
  8
0
 62
    18
420
        0
370
    25
100
AcDbLine
 10
60.12848358340003
 20
-68.27648190045767
 30
0.0
 11
59.89489451009981
 21
-66.95173243585795
 31
0.0
  0
LINE
  5
A8
330
70
100
AcDbEntity
  8
0
 62
    18
420
        0
370
    25
100
AcDbLine
 10
60.3872983866
 20
-66.86490834705795
 30
0.0
 11
59.89489451009981
 21
-66.95173243585795
 31
0.0
  0
LINE
  5
A9
330
70
100
AcDbEntity
  8
0
 62
    18
420
        0
370
    25
100
AcDbLine
 10
60.3872983866
 20
-66.86490834705795
 30
0.0
 11
60.66972776439998
 21
-68.46664494265782
 31
0.0
  0
SPLINE
  5
AA
330
70
100
AcDbEntity
  8
0
 62
    18
420
        0
370
    25
100
AcDbSpline
210
0.0
220
0.0
230
1.0
 70
     8
 71
     3
 72
     8
 73
     4
 74
     0
 42
0.0000000001
 43
0.0000000001
 40
0.0
 40
0.0
 40
0.0
 40
0.0
 40
1.0
 40
1.0
 40
1.0
 40
1.0
 10
59.89489451012772
 20
-66.95173243590606
 30
0.0
 10
54.6923934727482
 20
-65.32775170872543
 30
0.0
 10
49.11852971065166
 20
-65.32775170872543
 30
0.0
 10
43.91602867327214
 20
-66.95173243590606
 30
0.0
  0
LINE
  5
AB
330
70
100
AcDbEntity
  8
0
 62
    18
420
        0
370
    25
100
AcDbLine
 10
59.89489451009981
 20
-66.95173243585795
 30
0.0
 11
59.93155602210002
 21
-66.83428550395776
 31
0.0
  0
LINE
  5
AC
330
70
100
AcDbEntity
  8
0
 62
    18
420
        0
370
    25
100
AcDbLine
 10
43.87936716139994
 20
-66.83428550395776
 30
0.0
 11
43.91602867330005
 21
-66.95173243585795
 31
0.0
  0
SPLINE
  5
AD
330
70
100
AcDbEntity
  8
0
 62
    18
420
        0
370
    25
100
AcDbSpline
210
0.0
220
0.0
230
1.0
 70
     8
 71
     3
 72
     8
 73
     4
 74
     0
 42
0.0000000001
 43
0.0000000001
 40
0.0
 40
0.0
 40
0.0
 40
0.0
 40
1.0
 40
1.0
 40
1.0
 40
1.0
 10
59.93155602206762
 20
-66.83428550398855
 30
0.0
 10
54.70518200698805
 20
-65.20285273491426
 30
0.0
 10
49.1057411764118
 20
-65.20285273491426
 30
0.0
 10
43.87936716133224
 20
-66.83428550398855
 30
0.0
  0
SPLINE
  5
AE
330
70
100
AcDbEntity
  8
0
 62
    18
420
        0
370
    25
100
AcDbSpline
210
0.0
220
0.0
230
1.0
 70
     8
 71
     3
 72
     8
 73
     4
 74
     0
 42
0.0000000001
 43
0.0000000001
 40
0.0
 40
0.0
 40
0.0
 40
0.0
 40
1.0
 40
1.0
 40
1.0
 40
1.0
 10
43.87936716134603
 20
-66.83428550397187
 30
0.0
 10
43.72971495270435
 20
-66.781319510969
 30
0.0
 10
43.56484580762574
 20
-66.79239761638894
 30
0.0
 10
43.42362479677997
 20
-66.86490834705537
 30
0.0
  0
SPLINE
  5
AF
330
70
100
AcDbEntity
  8
0
 62
    18
420
        0
370
    25
100
AcDbSpline
210
0.0
220
0.0
230
1.0
 70
     8
 71
     3
 72
     8
 73
     4
 74
     0
 42
0.0000000001
 43
0.0000000001
 40
0.0
 40
0.0
 40
0.0
 40
0.0
 40
1.0
 40
1.0
 40
1.0
 40
1.0
 10
60.38729838661989
 20
-66.86490834705345
 30
0.0
 10
60.2460773757738
 20
-66.79239761638702
 30
0.0
 10
60.08120823069583
 20
-66.78131951096708
 30
0.0
 10
59.93155602205415
 20
-66.83428550396995
 30
0.0
  0
LWPOLYLINE
  5
B0
330
70
100
AcDbEntity
  8
0
 62
    18
420
        0
370
    25
100
AcDbPolyline
 90
        3
 70
     0
 43
0.0
 10
59.93155602210002
 20
-66.83428550395776
 10
59.32810404859985
 20
-63.44562750665795
 10
58.71613101089997
 20
-60.00327098555797
  0
LWPOLYLINE
  5
B1
330
70
100
AcDbEntity
  8
0
 62
    18
420
        0
370
    25
100
AcDbPolyline
 90
        3
 70
     0
 43
0.0
 10
45.09479217249988
 20
-60.00327098555797
 10
44.4828191348
 20
-63.44562750665795
 10
43.87936716139994
 20
-66.83428550395776
  0
SPLINE
  5
B2
330
70
100
AcDbEntity
  8
0
 62
    18
420
        0
370
    25
100
AcDbSpline
210
0.0
220
0.0
230
1.0
 70
     8
 71
     3
 72
     8
 73
     4
 74
     0
 42
0.0000000001
 43
0.0000000001
 40
0.0
 40
0.0
 40
0.0
 40
0.0
 40
1.0
 40
1.0
 40
1.0
 40
1.0
 10
58.71613101091281
 20
-60.00327098561573
 30
0.0
 10
54.22434166415231
 20
-59.06321952082095
 30
0.0
 10
49.58658151924755
 20
-59.06321952082095
 30
0.0
 10
45.09479217248705
 20
-60.00327098561573
 30
0.0
  0
SPLINE
  5
B3
330
70
100
AcDbEntity
  8
0
 62
    18
420
        0
370
    25
100
AcDbSpline
210
0.0
220
0.0
230
1.0
 70
     8
 71
     3
 72
     8
 73
     4
 74
     0
 42
0.0000000001
 43
0.0000000001
 40
0.0
 40
0.0
 40
0.0
 40
0.0
 40
1.0
 40
1.0
 40
1.0
 40
1.0
 10
45.09479217256951
 20
-60.00327098554064
 30
0.0
 10
44.94132912921789
 20
-59.94778969874328
 30
0.0
 10
44.77153520647751
 20
-59.96000192212034
 30
0.0
 10
44.62759150728092
 20
-60.03687383065036
 30
0.0
  0
LINE
  5
B4
330
70
100
AcDbEntity
  8
0
 62
    18
420
        0
370
    25
100
AcDbLine
 10
43.42362479679986
 20
-66.86490834705795
 30
0.0
 11
44.62759150720006
 21
-60.03687383065742
 31
0.0
  0
SPLINE
  5
B5
330
70
100
AcDbEntity
  8
0
 62
    18
420
        0
370
    25
100
AcDbSpline
210
0.0
220
0.0
230
1.0
 70
     8
 71
     3
 72
     8
 73
     4
 74
     0
 42
0.0000000001
 43
0.0000000001
 40
0.0
 40
0.0
 40
0.0
 40
0.0
 40
1.0
 40
1.0
 40
1.0
 40
1.0
 10
59.18333167621808
 20
-60.03687383064971
 30
0.0
 10
59.0393879770218
 20
-59.96000192211969
 30
0.0
 10
58.86959405428175
 20
-59.94778969874264
 30
0.0
 10
58.71613101093045
 20
-60.00327098554064
 30
0.0
  0
LINE
  5
B6
330
70
100
AcDbEntity
  8
0
 62
    18
420
        0
370
    25
100
AcDbLine
 10
59.18333167619979
 20
-60.03687383065742
 30
0.0
 11
60.3872983866
 21
-66.86490834705795
 31
0.0
  0
SPLINE
  5
B7
330
70
100
AcDbEntity
  8
0
 62
    18
420
        0
370
    25
100
AcDbSpline
210
0.0
220
0.0
230
1.0
 70
     8
 71
     3
 72
     8
 73
     4
 74
     0
 42
0.0000000001
 43
0.0000000001
 40
0.0
 40
0.0
 40
0.0
 40
0.0
 40
1.0
 40
1.0
 40
1.0
 40
1.0
 10
45.0175732523585
 20
-59.63430063003592
 30
0.0
 10
44.81751555404519
 20
-59.67616914118524
 30
0.0
 10
44.66308379084771
 20
-59.83558708826905
 30
0.0
 10
44.62759150729375
 20
-60.03687383072415
 30
0.0
  0
LINE
  5
B8
330
70
100
AcDbEntity
  8
0
 62
    18
420
        0
370
    25
100
AcDbLine
 10
45.09479217249988
 20
-60.00327098555797
 30
0.0
 11
45.01757325229978
 21
-59.63430062995763
 31
0.0
  0
SPLINE
  5
B9
330
70
100
AcDbEntity
  8
0
 62
    18
420
        0
370
    25
100
AcDbSpline
210
0.0
220
0.0
230
1.0
 70
     8
 71
     3
 72
     8
 73
     4
 74
     0
 42
0.0000000001
 43
0.0000000001
 40
0.0
 40
0.0
 40
0.0
 40
0.0
 40
1.0
 40
1.0
 40
1.0
 40
1.0
 10
58.79334993113634
 20
-59.63430063003656
 30
0.0
 10
54.25063297331742
 20
-58.68359092379788
 30
0.0
 10
49.56029021008244
 20
-58.68359092379788
 30
0.0
 10
45.01757325226352
 20
-59.63430063003656
 30
0.0
  0
LINE
  5
BA
330
70
100
AcDbEntity
  8
0
 62
    18
420
        0
370
    25
100
AcDbLine
 10
58.71613101089997
 20
-60.00327098555797
 30
0.0
 11
58.79334993110007
 21
-59.63430062995763
 31
0.0
  0
SPLINE
  5
BB
330
70
100
AcDbEntity
  8
0
 62
    18
420
        0
370
    25
100
AcDbSpline
210
0.0
220
0.0
230
1.0
 70
     8
 71
     3
 72
     8
 73
     4
 74
     0
 42
0.0000000001
 43
0.0000000001
 40
0.0
 40
0.0
 40
0.0
 40
0.0
 40
1.0
 40
1.0
 40
1.0
 40
1.0
 10
59.18333167620589
 20
-60.03687383072415
 30
0.0
 10
59.14783939265225
 20
-59.83558708826905
 30
0.0
 10
58.99340762945445
 20
-59.67616914118524
 30
0.0
 10
58.79334993114146
 20
-59.63430063003592
 30
0.0
  0
SPLINE
  5
BC
330
70
100
AcDbEntity
  8
0
 62
    18
420
        0
370
    25
100
AcDbSpline
210
0.0
220
0.0
230
1.0
 70
     8
 71
     3
 72
     8
 73
     4
 74
     0
 42
0.0000000001
 43
0.0000000001
 40
0.0
 40
0.0
 40
0.0
 40
0.0
 40
1.0
 40
1.0
 40
1.0
 40
1.0
 10
45.08692756100316
 20
-117.273662047813
 30
0.0
 10
49.55384162554358
 20
-118.4704711281924
 30
0.0
 10
54.25708155785628
 20
-118.4704711281924
 30
0.0
 10
58.72399562239669
 20
-117.273662047813
 30
0.0
  0
LINE
  5
BD
330
70
100
AcDbEntity
  8
0
 62
    18
420
        0
370
    25
100
AcDbLine
 10
58.7239956223999
 20
-117.2736620478579
 30
0.0
 11
58.0766280223
 21
-124.5978755319575
 31
0.0
  0
LINE
  5
BE
330
70
100
AcDbEntity
  8
0
 62
    18
420
        0
370
    25
100
AcDbLine
 10
45.71801528510004
 20
-124.5948036665575
 30
0.0
 11
45.08692756099995
 21
-117.2736620478579
 31
0.0
  0
SPLINE
  5
BF
330
70
100
AcDbEntity
  8
0
 62
    18
420
        0
370
    25
100
AcDbSpline
210
0.0
220
0.0
230
1.0
 70
     8
 71
     3
 72
     8
 73
     4
 74
     0
 42
0.0000000001
 43
0.0000000001
 40
0.0
 40
0.0
 40
0.0
 40
0.0
 40
1.0
 40
1.0
 40
1.0
 40
1.0
 10
45.71801528509843
 20
-124.5948036666139
 30
0.0
 10
49.80133173717202
 20
-125.3663387916021
 30
0.0
 10
53.99292852829139
 20
-125.3673806578074
 30
0.0
 10
58.0766280223985
 20
-124.5978755319677
 30
0.0
  0
LINE
  5
C0
330
70
100
AcDbEntity
  8
0
 62
    18
420
        0
370
    25
100
AcDbLine
 10
125.4665761152997
 20
20.10090597804191
 30
0.0
 11
125.4665761152997
 21
-24.89909402195776
 31
0.0
  0
LINE
  5
C1
330
70
100
AcDbEntity
  8
0
 62
    18
420
        0
370
    25
100
AcDbLine
 10
176.7165761152998
 20
-24.89909402195776
 30
0.0
 11
176.7165761152998
 21
-18.14909402195767
 31
0.0
  0
LINE
  5
C2
330
70
100
AcDbEntity
  8
0
 62
    18
420
        0
370
    25
100
AcDbLine
 10
176.7165761152998
 20
-15.64909402195726
 30
0.0
 11
176.7165761152998
 21
-12.23858444095776
 31
0.0
  0
LINE
  5
C3
330
70
100
AcDbEntity
  8
0
 62
    18
420
        0
370
    25
100
AcDbLine
 10
176.7165761152998
 20
-11.65865138025768
 30
0.0
 11
176.7165761152998
 21
35.89379919684199
 31
0.0
  0
SPLINE
  5
C4
330
70
100
AcDbEntity
  8
0
 62
    18
420
        0
370
    25
100
AcDbSpline
210
0.0
220
0.0
230
1.0
 70
     8
 71
     3
 72
     8
 73
     4
 74
     0
 42
0.0000000001
 43
0.0000000001
 40
0.0
 40
0.0
 40
0.0
 40
0.0
 40
1.0
 40
1.0
 40
1.0
 40
1.0
 10
176.7165761152998
 20
35.89379919684199
 30
0.0
 10
176.7165761152998
 20
36.02640744176178
 30
0.0
 10
176.6638976951172
 20
36.15358439821155
 30
0.0
 10
176.5701295058935
 20
36.24735258743598
 30
0.0
  0
LINE
  5
C5
330
70
100
AcDbEntity
  8
0
 62
    18
420
        0
370
    25
100
AcDbLine
 10
125.4665761152997
 20
45.10090597804214
 30
0.0
 11
125.4665761152997
 21
43.85090597804259
 31
0.0
  0
LINE
  5
C6
330
70
100
AcDbEntity
  8
0
 62
    18
420
        0
370
    25
100
AcDbLine
 10
176.7165761152998
 20
38.30801275924239
 30
0.0
 11
176.7165761152998
 21
45.10090597804214
 31
0.0
  0
SPLINE
  5
C7
330
70
100
AcDbEntity
  8
0
 62
    18
420
        0
370
    25
100
AcDbSpline
210
0.0
220
0.0
230
1.0
 70
     8
 71
     3
 72
     8
 73
     4
 74
     0
 42
0.0000000001
 43
0.0000000001
 40
0.0
 40
0.0
 40
0.0
 40
0.0
 40
1.0
 40
1.0
 40
1.0
 40
1.0
 10
176.5701295058935
 20
37.95445936864903
 30
0.0
 10
176.6638976951172
 20
38.04822755787347
 30
0.0
 10
176.7165761152998
 20
38.1754045143226
 30
0.0
 10
176.7165761152998
 20
38.30801275924239
 30
0.0
  0
SPLINE
  5
C8
330
70
100
AcDbEntity
  8
0
 62
    18
420
        0
370
    25
100
AcDbSpline
210
0.0
220
0.0
230
1.0
 70
     8
 71
     3
 72
     8
 73
     4
 74
     0
 42
0.0000000001
 43
0.0000000001
 40
0.0
 40
0.0
 40
0.0
 40
0.0
 40
1.0
 40
1.0
 40
1.0
 40
1.0
 10
176.7165761152998
 20
45.10090597804214
 30
0.0
 10
176.7165761152998
 20
45.37704835295794
 30
0.0
 10
176.4927184902153
 20
45.60090597804184
 30
0.0
 10
176.2165761153001
 20
45.60090597804184
 30
0.0
  0
SPLINE
  5
C9
330
70
100
AcDbEntity
  8
0
 62
    18
420
        0
370
    25
100
AcDbSpline
210
0.0
220
0.0
230
1.0
 70
     8
 71
     3
 72
     8
 73
     4
 74
     0
 42
0.0000000001
 43
0.0000000001
 40
0.0
 40
0.0
 40
0.0
 40
0.0
 40
1.0
 40
1.0
 40
1.0
 40
1.0
 10
125.9665761153001
 20
45.60090597804184
 30
0.0
 10
125.6904337403843
 20
45.60090597804184
 30
0.0
 10
125.4665761152997
 20
45.37704835295794
 30
0.0
 10
125.4665761152997
 20
45.10090597804214
 30
0.0
  0
LINE
  5
CA
330
70
100
AcDbEntity
  8
0
 62
    18
420
        0
370
    25
100
AcDbLine
 10
176.5701295057998
 20
36.2473525874424
 30
0.0
 11
175.7165761152998
 21
37.10090597804187
 31
0.0
  0
LINE
  5
CB
330
70
100
AcDbEntity
  8
0
 62
    18
420
        0
370
    25
100
AcDbLine
 10
175.7165761152998
 20
37.10090597804187
 30
0.0
 11
176.5701295057998
 21
37.95445936864262
 31
0.0
  0
LINE
  5
CC
330
70
100
AcDbEntity
  8
0
 62
    18
420
        0
370
    25
100
AcDbLine
 10
124.1560186920996
 20
43.83553176334261
 30
0.0
 11
117.8435401519
 21
42.23293053594249
 31
0.0
  0
SPLINE
  5
CD
330
70
100
AcDbEntity
  8
0
 62
    18
420
        0
370
    25
100
AcDbSpline
210
0.0
220
0.0
230
1.0
 70
     8
 71
     3
 72
     8
 73
     4
 74
     0
 42
0.0000000001
 43
0.0000000001
 40
0.0
 40
0.0
 40
0.0
 40
0.0
 40
1.0
 40
1.0
 40
1.0
 40
1.0
 10
124.2790546553999
 20
43.85090597804259
 30
0.0
 10
124.2375636309804
 20
43.85090597804259
 30
0.0
 10
124.1962339326422
 20
43.8457415396073
 30
0.0
 10
124.1560186920617
 20
43.8355317632887
 30
0.0
  0
LINE
  5
CE
330
70
100
AcDbEntity
  8
0
 62
    18
420
        0
370
    25
100
AcDbLine
 10
119.4057058128002
 20
30.12947302884265
 30
0.0
 11
122.9665761153
 21
20.10090597804191
 31
0.0
  0
SPLINE
  5
CF
330
70
100
AcDbEntity
  8
0
 62
    18
420
        0
370
    25
100
AcDbSpline
210
0.0
220
0.0
230
1.0
 70
     8
 71
     3
 72
     8
 73
     4
 74
     0
 42
0.0000000001
 43
0.0000000001
 40
0.0
 40
0.0
 40
0.0
 40
0.0
 40
1.0
 40
1.0
 40
1.0
 40
1.0
 10
119.405705812815
 20
30.12947302883623
 30
0.0
 10
119.3808308601516
 20
30.19952897288512
 30
0.0
 10
119.3406471793528
 20
30.26315648857588
 30
0.0
 10
119.2880800861929
 20
30.3157235817358
 30
0.0
  0
LINE
  5
D0
330
70
100
AcDbEntity
  8
0
 62
    18
420
        0
370
    25
100
AcDbLine
 10
117.6130227247
 20
31.99078094334221
 30
0.0
 11
119.2880800861999
 21
30.31572358174221
 31
0.0
  0
SPLINE
  5
D1
330
70
100
AcDbEntity
  8
0
 62
    18
420
        0
370
    25
100
AcDbSpline
210
0.0
220
0.0
230
1.0
 70
     8
 71
     3
 72
     8
 73
     4
 74
     0
 42
0.0000000001
 43
0.0000000001
 40
0.0
 40
0.0
 40
0.0
 40
0.0
 40
1.0
 40
1.0
 40
1.0
 40
1.0
 10
117.4665761153001
 20
32.34433433394263
 30
0.0
 10
117.4665761153001
 20
32.21172608902283
 30
0.0
 10
117.5192545354827
 20
32.08454913257307
 30
0.0
 10
117.6130227247065
 20
31.99078094334863
 30
0.0
  0
LINE
  5
D2
330
70
100
AcDbEntity
  8
0
 62
    18
420
        0
370
    25
100
AcDbLine
 10
117.4665761153001
 20
41.74830475074222
 30
0.0
 11
117.4665761153001
 21
32.34433433394263
 31
0.0
  0
SPLINE
  5
D3
330
70
100
AcDbEntity
  8
0
 62
    18
420
        0
370
    25
100
AcDbSpline
210
0.0
220
0.0
230
1.0
 70
     8
 71
     3
 72
     8
 73
     4
 74
     0
 42
0.0000000001
 43
0.0000000001
 40
0.0
 40
0.0
 40
0.0
 40
0.0
 40
1.0
 40
1.0
 40
1.0
 40
1.0
 10
117.8435401519616
 20
42.23293053598868
 30
0.0
 10
117.6218197406923
 20
42.17664053817428
 30
0.0
 10
117.4665761153001
 20
41.97705899578987
 30
0.0
 10
117.4665761153001
 20
41.74830475074222
 30
0.0
  0
LINE
  5
D4
330
70
100
AcDbEntity
  8
0
 62
    18
420
        0
370
    25
100
AcDbLine
 10
182.9665761152995
 20
-18.14909402195767
 30
0.0
 11
176.7165761152998
 21
-15.64909402195726
 31
0.0
  0
LINE
  5
D5
330
70
100
AcDbEntity
  8
0
 62
    18
420
        0
370
    25
100
AcDbLine
 10
176.7165761152998
 20
-18.14909402195767
 30
0.0
 11
182.9665761152995
 21
-18.14909402195767
 31
0.0
  0
LINE
  5
D6
330
70
100
AcDbEntity
  8
0
 62
    18
420
        0
370
    25
100
AcDbLine
 10
176.7165761152998
 20
-12.23858444095776
 30
0.0
 11
183.7145761460001
 21
-10.36347598405762
 31
0.0
  0
LINE
  5
D7
330
70
100
AcDbEntity
  8
0
 62
    18
420
        0
370
    25
100
AcDbLine
 10
183.7195383558001
 20
-10.36207967935812
 30
0.0
 11
183.7195383558001
 21
-10.02233491465777
 31
0.0
  0
LINE
  5
D8
330
70
100
AcDbEntity
  8
0
 62
    18
420
        0
370
    25
100
AcDbLine
 10
176.7165761152998
 20
-24.89909402195776
 30
0.0
 11
125.4665761152997
 21
-24.89909402195776
 31
0.0
  0
LINE
  5
D9
330
70
100
AcDbEntity
  8
0
 62
    18
420
        0
370
    25
100
AcDbLine
 10
127.0119527075997
 20
35.89379919684199
 30
0.0
 11
127.0119527075997
 21
20.10090597804191
 31
0.0
  0
SPLINE
  5
DA
330
70
100
AcDbEntity
  8
0
 62
    18
420
        0
370
    25
100
AcDbSpline
210
0.0
220
0.0
230
1.0
 70
     8
 71
     3
 72
     8
 73
     4
 74
     0
 42
0.0000000001
 43
0.0000000001
 40
0.0
 40
0.0
 40
0.0
 40
0.0
 40
1.0
 40
1.0
 40
1.0
 40
1.0
 10
127.1786454882297
 20
36.24735258746357
 30
0.0
 10
127.0748079217444
 20
36.15896849631903
 30
0.0
 10
127.0140692695417
 20
36.0301425426804
 30
0.0
 10
127.0119527076235
 20
35.89379919687023
 30
0.0
  0
LINE
  5
DB
330
70
100
AcDbEntity
  8
0
 62
    18
420
        0
370
    25
100
AcDbLine
 10
127.0119527075997
 20
43.35090597804224
 30
0.0
 11
127.0119527075997
 21
38.30801275924239
 31
0.0
  0
LWPOLYLINE
  5
DC
330
70
100
AcDbEntity
  8
0
 62
    18
420
        0
370
    25
100
AcDbPolyline
 90
        6
 70
     0
 43
0.0
 10
126.8217896653001
 20
43.85090597804259
 10
126.8906023324001
 20
43.81527256394277
 10
126.9528562762999
 20
43.70929237654234
 10
126.9949968603
 20
43.5539264002424
 10
127.0113611385
 20
43.38958193154237
 10
127.0119527075997
 20
43.35090597804224
  0
SPLINE
  5
DD
330
70
100
AcDbEntity
  8
0
 62
    18
420
        0
370
    25
100
AcDbSpline
210
0.0
220
0.0
230
1.0
 70
     8
 71
     3
 72
     8
 73
     4
 74
     0
 42
0.0000000001
 43
0.0000000001
 40
0.0
 40
0.0
 40
0.0
 40
0.0
 40
1.0
 40
1.0
 40
1.0
 40
1.0
 10
127.0119527076126
 20
38.30801275926292
 30
0.0
 10
127.0133209115558
 20
38.17149681602467
 30
0.0
 10
127.0741986106358
 20
38.04237594562438
 30
0.0
 10
127.1786454882181
 20
37.95445936866957
 30
0.0
  0
LINE
  5
DE
330
70
100
AcDbEntity
  8
0
 62
    18
420
        0
370
    25
100
AcDbLine
 10
125.9665761153001
 20
45.60090597804249
 30
0.0
 11
176.2165761153001
 21
45.60090597804249
 31
0.0
  0
LINE
  5
DF
330
70
100
AcDbEntity
  8
0
 62
    18
420
        0
370
    25
100
AcDbLine
 10
127.0119527075997
 20
36.10090597804248
 30
0.0
 11
127.1786454882001
 21
36.2473525874424
 31
0.0
  0
LINE
  5
E0
330
70
100
AcDbEntity
  8
0
 62
    18
420
        0
370
    25
100
AcDbLine
 10
127.0119527075997
 20
37.10090597804187
 30
0.0
 11
175.7165761152998
 21
37.10090597804187
 31
0.0
  0
LINE
  5
E1
330
70
100
AcDbEntity
  8
0
 62
    18
420
        0
370
    25
100
AcDbLine
 10
127.1786454882001
 20
37.95445936864262
 30
0.0
 11
127.0119527075997
 21
38.10090597804255
 31
0.0
  0
LINE
  5
E2
330
70
100
AcDbEntity
  8
0
 62
    18
420
        0
370
    25
100
AcDbLine
 10
127.0119527075997
 20
38.10090597804255
 30
0.0
 11
127.0119527075997
 21
36.10090597804248
 31
0.0
  0
LINE
  5
E3
330
70
100
AcDbEntity
  8
0
 62
    18
420
        0
370
    25
100
AcDbLine
 10
124.5466595546997
 20
20.10090597804191
 30
0.0
 11
127.0119527075997
 21
20.10090597804191
 31
0.0
  0
LWPOLYLINE
  5
E4
330
70
100
AcDbEntity
  8
0
 62
    18
420
        0
370
    25
100
AcDbPolyline
 90
        3
 70
     0
 43
0.0
 10
120.6186989744997
 20
30.29677586654222
 10
122.2581300200999
 20
26.00896844004247
 10
124.5466595546997
 20
20.10090597804191
  0
SPLINE
  5
E5
330
70
100
AcDbEntity
  8
0
 62
    18
420
        0
370
    25
100
AcDbSpline
210
0.0
220
0.0
230
1.0
 70
     8
 71
     3
 72
     8
 73
     4
 74
     0
 42
0.0000000001
 43
0.0000000001
 40
0.0
 40
0.0
 40
0.0
 40
0.0
 40
1.0
 40
1.0
 40
1.0
 40
1.0
 10
120.6186989744875
 20
30.29677586657045
 30
0.0
 10
120.5643745632046
 20
30.43861066343457
 30
0.0
 10
120.478172903578
 20
30.56605946387128
 30
0.0
 10
120.3667529897271
 20
30.6692769723683
 30
0.0
  0
LWPOLYLINE
  5
E6
330
70
100
AcDbEntity
  8
0
 62
    18
420
        0
370
    25
100
AcDbPolyline
 90
        5
 70
     0
 43
0.0
 10
118.5821815956
 20
32.34433433394263
 10
119.0504350832001
 20
31.90340130734187
 10
119.5191716707996
 20
31.46299669194253
 10
119.9427487550996
 20
31.06590218064245
 10
120.3667529896996
 20
30.66927697234263
  0
LINE
  5
E7
330
70
100
AcDbEntity
  8
0
 62
    18
420
        0
370
    25
100
AcDbLine
 10
118.5821815956
 20
41.74830475074222
 30
0.0
 11
118.5821815956
 21
32.34433433394263
 31
0.0
  0
LWPOLYLINE
  5
E8
330
70
100
AcDbEntity
  8
0
 62
    18
420
        0
370
    25
100
AcDbPolyline
 90
        3
 70
     0
 43
0.0
 10
125.4102161119999
 20
43.35090597804224
 10
122.0233300800001
 20
42.5646939031426
 10
118.5821815956
 20
41.74830475074222
  0
LINE
  5
E9
330
70
100
AcDbEntity
  8
0
 62
    18
420
        0
370
    25
100
AcDbLine
 10
127.0119527075997
 20
43.35090597804224
 30
0.0
 11
125.4102161119999
 21
43.35090597804224
 31
0.0
  0
SPLINE
  5
EA
330
70
100
AcDbEntity
  8
0
 62
    18
420
        0
370
    25
100
AcDbSpline
210
0.0
220
0.0
230
1.0
 70
     8
 71
     3
 72
     8
 73
     4
 74
     0
 42
0.0000000001
 43
0.0000000001
 40
0.0
 40
0.0
 40
0.0
 40
0.0
 40
1.0
 40
1.0
 40
1.0
 40
1.0
 10
125.4970402008153
 20
43.85090597804259
 30
0.0
 10
125.4142008874209
 20
43.69821811320107
 30
0.0
 10
125.3837021424999
 20
43.52258284117737
 30
0.0
 10
125.4102161119819
 20
43.35090597804224
 30
0.0
  0
LINE
  5
EB
330
70
100
AcDbEntity
  8
0
 62
    18
420
        0
370
    25
100
AcDbLine
 10
125.4970402007999
 20
43.85090597804259
 30
0.0
 11
126.8217896653001
 21
43.85090597804259
 31
0.0
  0
SPLINE
  5
EC
330
70
100
AcDbEntity
  8
0
 62
    18
420
        0
370
    25
100
AcDbSpline
210
0.0
220
0.0
230
1.0
 70
     8
 71
     3
 72
     8
 73
     4
 74
     0
 42
0.0000000001
 43
0.0000000001
 40
0.0
 40
0.0
 40
0.0
 40
0.0
 40
1.0
 40
1.0
 40
1.0
 40
1.0
 10
118.5485787505493
 20
42.23293053600793
 30
0.0
 10
118.5127374846576
 20
42.07153372438365
 30
0.0
 10
118.5244086280784
 20
41.90321056524173
 30
0.0
 10
118.5821815956584
 20
41.7483047507602
 30
0.0
  0
LWPOLYLINE
  5
ED
330
70
100
AcDbEntity
  8
0
 62
    18
420
        0
370
    25
100
AcDbPolyline
 90
        3
 70
     0
 43
0.0
 10
118.5485787504999
 20
42.23293053594249
 10
121.9909352715998
 20
43.0493196883422
 10
125.3795932688997
 20
43.83553176334261
  0
SPLINE
  5
EE
330
70
100
AcDbEntity
  8
0
 62
    18
420
        0
370
    25
100
AcDbSpline
210
0.0
220
0.0
230
1.0
 70
     8
 71
     3
 72
     8
 73
     4
 74
     0
 42
0.0000000001
 43
0.0000000001
 40
0.0
 40
0.0
 40
0.0
 40
0.0
 40
1.0
 40
1.0
 40
1.0
 40
1.0
 10
125.3795932688727
 20
43.83553176331244
 30
0.0
 10
125.3449478669664
 20
43.67425436363998
 30
0.0
 10
125.3555455329476
 20
43.50653962259583
 30
0.0
 10
125.4102161119569
 20
43.35090597806727
 30
0.0
  0
SPLINE
  5
EF
330
70
100
AcDbEntity
  8
0
 62
    18
420
        0
370
    25
100
AcDbSpline
210
0.0
220
0.0
230
1.0
 70
     8
 71
     3
 72
     8
 73
     4
 74
     0
 42
0.0000000001
 43
0.0000000001
 40
0.0
 40
0.0
 40
0.0
 40
0.0
 40
1.0
 40
1.0
 40
1.0
 40
1.0
 10
125.4970402007691
 20
43.85090597803873
 30
0.0
 10
125.4573899128282
 20
43.85089990202347
 30
0.0
 10
125.417909140708
 20
43.84573173066894
 30
0.0
 10
125.3795932688522
 20
43.83553176328486
 30
0.0
  0
LWPOLYLINE
  5
F0
330
70
100
AcDbEntity
  8
0
 62
    18
420
        0
370
    25
100
AcDbPolyline
 90
        4
 70
     0
 43
0.0
 10
124.1162115871997
 20
20.10090597804191
 10
123.9345079285999
 20
20.56552919914236
 10
121.8887802855995
 20
25.84166560234227
 10
120.2468520622998
 20
30.12947302884265
  0
SPLINE
  5
F1
330
70
100
AcDbEntity
  8
0
 62
    18
420
        0
370
    25
100
AcDbSpline
210
0.0
220
0.0
230
1.0
 70
     8
 71
     3
 72
     8
 73
     4
 74
     0
 42
0.0000000001
 43
0.0000000001
 40
0.0
 40
0.0
 40
0.0
 40
0.0
 40
1.0
 40
1.0
 40
1.0
 40
1.0
 10
120.6186989744599
 20
30.29677586660125
 30
0.0
 10
120.4905272168224
 20
30.25091336749724
 30
0.0
 10
120.3661894322298
 20
30.19497081825788
 30
0.0
 10
120.2468520622658
 20
30.12947302890618
 30
0.0
  0
LINE
  5
F2
330
70
100
AcDbEntity
  8
0
 62
    18
420
        0
370
    25
100
AcDbLine
 10
124.5466595546997
 20
20.10090597804191
 30
0.0
 11
124.1162115871997
 21
20.10090597804191
 31
0.0
  0
LINE
  5
F3
330
70
100
AcDbEntity
  8
0
 62
    18
420
        0
370
    25
100
AcDbLine
 10
124.2790546553999
 20
43.85090597804259
 30
0.0
 11
125.4970402007999
 21
43.85090597804259
 31
0.0
  0
LINE
  5
F4
330
70
100
AcDbEntity
  8
0
 62
    18
420
        0
370
    25
100
AcDbLine
 10
122.9665761153
 20
20.10090597804191
 30
0.0
 11
124.1162115871997
 21
20.10090597804191
 31
0.0
  0
LWPOLYLINE
  5
F5
330
70
100
AcDbEntity
  8
0
 62
    18
420
        0
370
    25
100
AcDbPolyline
 90
        3
 70
     0
 43
0.0
 10
120.1091513807001
 20
30.31572358174221
 10
120.2191788741001
 20
30.1850497462425
 10
120.2468520622998
 20
30.12947302884265
  0
SPLINE
  5
F6
330
70
100
AcDbEntity
  8
0
 62
    18
420
        0
370
    25
100
AcDbSpline
210
0.0
220
0.0
230
1.0
 70
     8
 71
     3
 72
     8
 73
     4
 74
     0
 42
0.0000000001
 43
0.0000000001
 40
0.0
 40
0.0
 40
0.0
 40
0.0
 40
1.0
 40
1.0
 40
1.0
 40
1.0
 10
120.3667529897509
 20
30.66927697241065
 30
0.0
 10
120.2605027451398
 20
30.5677186552714
 30
0.0
 10
120.1732633215648
 20
30.44798417800392
 30
0.0
 10
120.1091513807399
 20
30.31572358181794
 30
0.0
  0
LWPOLYLINE
  5
F7
330
70
100
AcDbEntity
  8
0
 62
    18
420
        0
370
    25
100
AcDbPolyline
 90
        3
 70
     0
 43
0.0
 10
120.1091513807001
 20
30.31572358174221
 10
119.2607547765996
 20
31.10944330134212
 10
118.3229495422997
 20
31.99078094334221
  0
SPLINE
  5
F8
330
70
100
AcDbEntity
  8
0
 62
    18
420
        0
370
    25
100
AcDbSpline
210
0.0
220
0.0
230
1.0
 70
     8
 71
     3
 72
     8
 73
     4
 74
     0
 42
0.0000000001
 43
0.0000000001
 40
0.0
 40
0.0
 40
0.0
 40
0.0
 40
1.0
 40
1.0
 40
1.0
 40
1.0
 10
118.5821815956115
 20
32.34433433392851
 30
0.0
 10
118.4748311765412
 20
32.24336832200254
 30
0.0
 10
118.3869596834397
 20
32.12352486927631
 30
0.0
 10
118.3229495423305
 20
31.9907809433358
 30
0.0
  0
LINE
  5
F9
330
70
100
AcDbEntity
  8
0
 62
    18
420
        0
370
    25
100
AcDbLine
 10
118.1796083948996
 20
32.34433433394263
 30
0.0
 11
118.1796083948996
 21
41.74830475074222
 31
0.0
  0
LINE
  5
FA
330
70
100
AcDbEntity
  8
0
 62
    18
420
        0
370
    25
100
AcDbLine
 10
118.1796083948996
 20
41.74830475074222
 30
0.0
 11
118.5821815956
 21
41.74830475074222
 31
0.0
  0
LINE
  5
FB
330
70
100
AcDbEntity
  8
0
 62
    18
420
        0
370
    25
100
AcDbLine
 10
118.1796083948996
 20
32.34433433394263
 30
0.0
 11
118.5821815956
 21
32.34433433394263
 31
0.0
  0
SPLINE
  5
FC
330
70
100
AcDbEntity
  8
0
 62
    18
420
        0
370
    25
100
AcDbSpline
210
0.0
220
0.0
230
1.0
 70
     8
 71
     3
 72
     8
 73
     4
 74
     0
 42
0.0000000001
 43
0.0000000001
 40
0.0
 40
0.0
 40
0.0
 40
0.0
 40
1.0
 40
1.0
 40
1.0
 40
1.0
 10
118.1796083949169
 20
32.3443343339837
 30
0.0
 10
118.1793715488952
 20
32.21228375705006
 30
0.0
 10
118.2308206463834
 20
32.08538367853716
 30
0.0
 10
118.3229495423234
 20
31.9907809433897
 30
0.0
  0
SPLINE
  5
FD
330
70
100
AcDbEntity
  8
0
 62
    18
420
        0
370
    25
100
AcDbSpline
210
0.0
220
0.0
230
1.0
 70
     8
 71
     3
 72
     8
 73
     4
 74
     0
 42
0.0000000001
 43
0.0000000001
 40
0.0
 40
0.0
 40
0.0
 40
0.0
 40
1.0
 40
1.0
 40
1.0
 40
1.0
 10
118.5485787505223
 20
42.23293053597841
 30
0.0
 10
118.3296387921867
 20
42.17417076734129
 30
0.0
 10
118.1779899428359
 20
41.97498689907958
 30
0.0
 10
118.1796083949438
 20
41.7483047507326
 30
0.0
  0
LINE
  5
FE
330
70
100
AcDbEntity
  8
0
 62
    18
420
        0
370
    25
100
AcDbLine
 10
182.3623942033998
 20
-18.14150898065802
 30
0.0
 11
182.9665761152995
 21
-18.14909402195767
 31
0.0
  0
LWPOLYLINE
  5
FF
330
70
100
AcDbEntity
  8
0
 62
    18
420
        0
370
    25
100
AcDbPolyline
 90
        3
 70
     0
 43
0.0
 10
182.3623942033998
 20
-18.14150898065802
 10
181.6776827966997
 20
-17.87714836015797
 10
175.8206662821002
 20
-15.63784655995762
  0
LINE
  5
100
330
70
100
AcDbEntity
  8
0
 62
    18
420
        0
370
    25
100
AcDbLine
 10
175.8206662821002
 20
-15.63784655995762
 30
0.0
 11
176.7165761152998
 21
-15.64909402195726
 31
0.0
  0
LWPOLYLINE
  5
101
330
70
100
AcDbEntity
  8
0
 62
    18
420
        0
370
    25
100
AcDbPolyline
 90
        3
 70
     0
 43
0.0
 10
175.8217936392997
 20
-18.13786071305772
 10
182.053996015
 20
-18.14137210295778
 10
182.3623942033998
 20
-18.14150898065802
  0
LWPOLYLINE
  5
102
330
70
100
AcDbEntity
  8
0
 62
    18
420
        0
370
    25
100
AcDbPolyline
 90
        3
 70
     0
 43
0.0
 10
175.8206662821002
 20
-15.63784655995762
 10
175.8208080622996
 20
-15.95190435395787
 10
175.8217936392997
 20
-18.13786071305772
  0
LINE
  5
103
330
70
100
AcDbEntity
  8
0
 62
    18
420
        0
370
    25
100
AcDbLine
 10
175.8217936392997
 20
-18.13786071305772
 30
0.0
 11
176.7165761152998
 21
-18.14909402195767
 31
0.0
  0
LINE
  5
104
330
70
100
AcDbEntity
  8
0
 62
    18
420
        0
370
    25
100
AcDbLine
 10
175.8189698127998
 20
-11.88782526185808
 30
0.0
 11
175.8191236647
 21
-12.22731761255811
 31
0.0
  0
LINE
  5
105
330
70
100
AcDbEntity
  8
0
 62
    18
420
        0
370
    25
100
AcDbLine
 10
175.8191236647
 20
-12.22731761255811
 30
0.0
 11
176.7165761152998
 21
-12.23858444095776
 31
0.0
  0
LWPOLYLINE
  5
106
330
70
100
AcDbEntity
  8
0
 62
    18
420
        0
370
    25
100
AcDbPolyline
 90
        3
 70
     0
 43
0.0
 10
183.1401114315001
 20
-10.01538168355802
 10
182.0376707269996
 20
-10.30008704845759
 10
175.8189698127998
 20
-11.88782526185808
  0
LINE
  5
107
330
70
100
AcDbEntity
  8
0
 62
    18
420
        0
370
    25
100
AcDbLine
 10
183.1401114315001
 20
-10.01538168355802
 30
0.0
 11
183.1401114315001
 21
-10.35489288705753
 31
0.0
  0
LWPOLYLINE
  5
108
330
70
100
AcDbEntity
  8
0
 62
    18
420
        0
370
    25
100
AcDbPolyline
 90
        3
 70
     0
 43
0.0
 10
175.8191236647
 20
-12.22731761255811
 10
182.0376751593997
 20
-10.6395992045574
 10
183.1401114315001
 20
-10.35489288705753
  0
LINE
  5
109
330
70
100
AcDbEntity
  8
0
 62
    18
420
        0
370
    25
100
AcDbLine
 10
183.1401114315001
 20
-10.01538168355802
 30
0.0
 11
183.7195383558001
 21
-10.02265594495758
 31
0.0
  0
LINE
  5
10A
330
70
100
AcDbEntity
  8
0
 62
    18
420
        0
370
    25
100
AcDbLine
 10
183.1401114315001
 20
-10.35489288705753
 30
0.0
 11
183.7193318884001
 21
-10.36214377935794
 31
0.0
  0
LINE
  5
10B
330
70
100
AcDbEntity
  8
0
 62
     8
420
  8421504
370
    25
100
AcDbLine
 10
176.7165761152998
 20
35.89379919684199
 30
0.0
 11
127.0119527075997
 21
35.89379919684199
 31
0.0
  0
LINE
  5
10C
330
70
100
AcDbEntity
  8
0
 62
     8
420
  8421504
370
    25
100
AcDbLine
 10
127.1786454882001
 20
36.2473525874424
 30
0.0
 11
176.5701295057998
 21
36.2473525874424
 31
0.0
  0
LINE
  5
10D
330
70
100
AcDbEntity
  8
0
 62
     8
420
  8421504
370
    25
100
AcDbLine
 10
127.0119527075997
 20
38.30801275924239
 30
0.0
 11
176.7165761152998
 21
38.30801275924239
 31
0.0
  0
LINE
  5
10E
330
70
100
AcDbEntity
  8
0
 62
     8
420
  8421504
370
    25
100
AcDbLine
 10
176.7165761152998
 20
45.10090597804214
 30
0.0
 11
125.4665761152997
 21
45.10090597804214
 31
0.0
  0
LINE
  5
10F
330
70
100
AcDbEntity
  8
0
 62
     8
420
  8421504
370
    25
100
AcDbLine
 10
176.5701295057998
 20
37.95445936864262
 30
0.0
 11
127.1786454882001
 21
37.95445936864262
 31
0.0
  0
LINE
  5
110
330
70
100
AcDbEntity
  8
0
 62
     8
420
  8421504
370
    25
100
AcDbLine
 10
125.3795932688997
 20
43.83553176334261
 30
0.0
 11
124.1560186920996
 21
43.83553176334261
 31
0.0
  0
LINE
  5
111
330
70
100
AcDbEntity
  8
0
 62
     8
420
  8421504
370
    25
100
AcDbLine
 10
117.8435401519
 20
42.23293053594249
 30
0.0
 11
118.5485787504999
 21
42.23293053594249
 31
0.0
  0
LINE
  5
112
330
70
100
AcDbEntity
  8
0
 62
     8
420
  8421504
370
    25
100
AcDbLine
 10
120.2468520622998
 20
30.12947302884265
 30
0.0
 11
119.4057058128002
 21
30.12947302884265
 31
0.0
  0
LINE
  5
113
330
70
100
AcDbEntity
  8
0
 62
     8
420
  8421504
370
    25
100
AcDbLine
 10
119.2880800861999
 20
30.31572358174221
 30
0.0
 11
120.1091513807001
 21
30.31572358174221
 31
0.0
  0
LINE
  5
114
330
70
100
AcDbEntity
  8
0
 62
     8
420
  8421504
370
    25
100
AcDbLine
 10
118.3229495422997
 20
31.99078094334221
 30
0.0
 11
117.6130227247
 21
31.99078094334221
 31
0.0
  0
LINE
  5
115
330
70
100
AcDbEntity
  8
0
 62
     8
420
  8421504
370
    25
100
AcDbLine
 10
117.4665761153001
 20
32.34433433394263
 30
0.0
 11
118.1796083948996
 21
32.34433433394263
 31
0.0
  0
LINE
  5
116
330
70
100
AcDbEntity
  8
0
 62
     8
420
  8421504
370
    25
100
AcDbLine
 10
118.1796083948996
 20
41.74830475074222
 30
0.0
 11
117.4665761153001
 21
41.74830475074222
 31
0.0
  0
LWPOLYLINE
  5
117
330
70
100
AcDbEntity
  8
0
 62
    18
420
        0
370
    25
100
AcDbPolyline
 90
       14
 70
     0
 43
0.0
 10
174.4942699157997
 20
-61.90523955825756
 10
174.3853891311998
 20
-61.41401679775758
 10
174.1237961828
 20
-60.59266646565801
 10
173.7849270925002
 20
-59.78106037005792
 10
173.3695585948997
 20
-58.9815458539576
 10
172.8787208335996
 20
-58.19657770185762
 10
172.3137546873001
 20
-57.42868439785784
 10
171.6763362125002
 20
-56.68041152065743
 10
170.9684687158001
 20
-55.95426152435769
 10
170.1924525181
 20
-55.25264435945786
 10
169.3508452555001
 20
-54.57784534435751
 10
168.4464230597002
 20
-53.9320097029578
 10
167.4821483349997
 20
-53.31713934015787
 10
167.0930954534999
 20
-53.08762161685787
  0
LWPOLYLINE
  5
118
330
70
100
AcDbEntity
  8
0
 62
    18
420
        0
370
    25
100
AcDbPolyline
 90
       42
 70
     0
 43
0.0
 10
167.0930954534999
 20
-53.08762161685787
 10
166.5504768167999
 20
-52.78347848225771
 10
165.4805206985998
 20
-52.23301109985769
 10
164.3602294021997
 20
-51.71857002915746
 10
163.1931320008996
 20
-51.24164907955801
 10
161.9828555533002
 20
-50.80361423955783
 10
160.7331399378001
 20
-50.40571607045767
 10
159.4478305995998
 20
-50.04908900625783
 10
158.1308704451998
 20
-49.734749708458
 10
156.7862908037
 20
-49.46359487175779
 10
155.4182014875
 20
-49.2363987979575
 10
154.0307800431
 20
-49.05381098345799
 10
152.6282603089996
 20
-48.91635390275759
 10
151.2149204092001
 20
-48.82442111415798
 10
149.7950703072998
 20
-48.77827578335769
 10
148.3730390414
 20
-48.7780496828579
 10
146.9531617554997
 20
-48.82374271015745
 10
145.5397831860999
 20
-48.91522160625743
 10
144.1372110986997
 20
-49.05222165415762
 10
142.7497198758999
 20
-49.23434815835789
 10
141.3815378826999
 20
-49.46107819005746
 10
140.0368350785001
 20
-49.73176286185744
 10
138.7197110905996
 20
-50.04563009115747
 10
137.4341838846999
 20
-50.40178778635767
 10
136.1841791815001
 20
-50.7992273539576
 10
134.9735207737996
 20
-51.23682737205798
 10
133.8059219011001
 20
-51.7133572073577
 10
132.6849778179001
 20
-52.2274802540578
 10
131.6141596382997
 20
-52.77775635625739
 10
130.5968094244001
 20
-53.36264283055757
 10
129.6361362772001
 20
-53.98049336315785
 10
128.7352128401002
 20
-54.62955396205777
 10
127.8970213208001
 20
-55.3079120489577
 10
127.1243511677998
 20
-56.0135490973575
 10
126.4198266637999
 20
-56.74430063445748
 10
125.7858842922998
 20
-57.49784132685743
 10
125.224738919
 20
-58.27167532995742
 10
124.7383394567001
 20
-59.06313902755781
 10
124.3283189449
 20
-59.86942431155745
 10
123.9959498708999
 20
-60.68762783345746
 10
123.7421199731001
 20
-61.51482420845781
 10
123.6581195785997
 20
-61.91533239975782
  0
LINE
  5
119
330
70
100
AcDbEntity
  8
0
 62
    18
420
        0
370
    25
100
AcDbLine
 10
123.4520578929998
 20
-63.77677295275772
 30
0.0
 11
123.4520578929998
 21
-69.32344749675798
 31
0.0
  0
LINE
  5
11A
330
70
100
AcDbEntity
  8
0
 62
    18
420
        0
370
    25
100
AcDbLine
 10
174.7020578929999
 20
-69.32344749675798
 30
0.0
 11
174.7020578929999
 21
-63.77677295275772
 31
0.0
  0
SPLINE
  5
11B
330
70
100
AcDbEntity
  8
0
 62
    18
420
        0
370
    25
100
AcDbSpline
210
0.0
220
0.0
230
1.0
 70
     8
 71
     3
 72
     8
 73
     4
 74
     0
 42
0.0000000001
 43
0.0000000001
 40
0.0
 40
0.0
 40
0.0
 40
0.0
 40
1.0
 40
1.0
 40
1.0
 40
1.0
 10
171.4629179009912
 20
-76.63695244714912
 30
0.0
 10
172.9590948727341
 20
-75.15882290339494
 30
0.0
 10
174.007330915742
 20
-73.28814225790664
 30
0.0
 10
174.4869006893343
 20
-71.24035679278861
 30
0.0
  0
SPLINE
  5
11C
330
70
100
AcDbEntity
  8
0
 62
    18
420
        0
370
    25
100
AcDbSpline
210
0.0
220
0.0
230
1.0
 70
     8
 71
     3
 72
     8
 73
     4
 74
     0
 42
0.0000000001
 43
0.0000000001
 40
0.0
 40
0.0
 40
0.0
 40
0.0
 40
1.0
 40
1.0
 40
1.0
 40
1.0
 10
123.6662819127214
 20
-71.22743358660748
 30
0.0
 10
124.1763054888664
 20
-73.38383283802162
 30
0.0
 10
125.305397699891
 20
-75.34417722072159
 30
0.0
 10
126.9147217445082
 20
-76.8674164990813
 30
0.0
  0
LINE
  5
11D
330
70
100
AcDbEntity
  8
0
 62
    18
420
        0
370
    25
100
AcDbLine
 10
131.0580726131998
 20
-80.01089687405796
 30
0.0
 11
131.6617240743001
 21
-80.35949072065774
 31
0.0
  0
LINE
  5
11E
330
70
100
AcDbEntity
  8
0
 62
    18
420
        0
370
    25
100
AcDbLine
 10
166.4923917116001
 20
-80.35949072065774
 30
0.0
 11
167.0960431726998
 21
-80.01089687405796
 31
0.0
  0
LINE
  5
11F
330
70
100
AcDbEntity
  8
0
 62
    18
420
        0
370
    25
100
AcDbLine
 10
123.4520578929998
 20
-71.29475139905775
 30
0.0
 11
123.4520578929998
 21
-118.8273961839575
 31
0.0
  0
LINE
  5
120
330
70
100
AcDbEntity
  8
0
 62
    18
420
        0
370
    25
100
AcDbLine
 10
123.4520578929998
 20
-120.7037287277576
 30
0.0
 11
123.4520578929998
 21
-120.9346297847575
 31
0.0
  0
LINE
  5
121
330
70
100
AcDbEntity
  8
0
 62
    18
420
        0
370
    25
100
AcDbLine
 10
174.7020578929999
 20
-120.9346297847575
 30
0.0
 11
174.7020578929999
 21
-71.29475139905775
 31
0.0
  0
SPLINE
  5
122
330
70
100
AcDbEntity
  8
0
 62
    18
420
        0
370
    25
100
AcDbSpline
210
0.0
220
0.0
230
1.0
 70
     8
 71
     3
 72
     8
 73
     4
 74
     0
 42
0.0000000001
 43
0.0000000001
 40
0.0
 40
0.0
 40
0.0
 40
0.0
 40
1.0
 40
1.0
 40
1.0
 40
1.0
 10
177.3013264772997
 20
-56.04913875535765
 30
0.0
 10
177.3013264772997
 20
-55.90573222495813
 30
0.0
 10
177.2397508515162
 20
-55.76922894657191
 30
0.0
 10
177.1322469697022
 20
-55.67431662726505
 30
0.0
  0
SPLINE
  5
123
330
70
100
AcDbEntity
  8
0
 62
    18
420
        0
370
    25
100
AcDbSpline
210
0.0
220
0.0
230
1.0
 70
     8
 71
     3
 72
     8
 73
     4
 74
     0
 42
0.0000000001
 43
0.0000000001
 40
0.0
 40
0.0
 40
0.0
 40
0.0
 40
1.0
 40
1.0
 40
1.0
 40
1.0
 10
177.1322469696425
 20
-55.67431662720794
 30
0.0
 10
174.2463763274455
 20
-53.2269546239685
 30
0.0
 10
170.943578714838
 20
-51.31898277365848
 30
0.0
 10
167.381803757613
 20
-50.04164597685199
 30
0.0
  0
LINE
  5
124
330
70
100
AcDbEntity
  8
0
 62
    18
420
        0
370
    25
100
AcDbLine
 10
177.3013264772997
 20
-63.7278643943577
 30
0.0
 11
177.3013264772997
 21
-56.04913875535765
 31
0.0
  0
LWPOLYLINE
  5
125
330
70
100
AcDbEntity
  8
0
 62
    18
420
        0
370
    25
100
AcDbPolyline
 90
        3
 70
     0
 43
0.0
 10
174.7020578929999
 20
-72.76205826625738
 10
175.7181619902001
 20
-68.22049749635739
 10
176.1009509713999
 20
-66.48660182425747
  0
LWPOLYLINE
  5
126
330
70
100
AcDbEntity
  8
0
 62
    18
420
        0
370
    25
100
AcDbPolyline
 90
        3
 70
     0
 43
0.0
 10
167.1208607024998
 20
-50.02005599975767
 10
163.2068763712001
 20
-50.69018089115794
 10
162.1777545682997
 20
-50.87415395715773
  0
LWPOLYLINE
  5
127
330
70
100
AcDbEntity
  8
0
 62
    18
420
        0
370
    25
100
AcDbPolyline
 90
        3
 70
     0
 43
0.0
 10
176.2135931820998
 20
-66.16386621785777
 10
176.5555518602996
 20
-65.43762681695743
 10
177.2527526669
 20
-63.93777750065747
  0
SPLINE
  5
128
330
70
100
AcDbEntity
  8
0
 62
    18
420
        0
370
    25
100
AcDbSpline
210
0.0
220
0.0
230
1.0
 70
     8
 71
     3
 72
     8
 73
     4
 74
     0
 42
0.0000000001
 43
0.0000000001
 40
0.0
 40
0.0
 40
0.0
 40
0.0
 40
1.0
 40
1.0
 40
1.0
 40
1.0
 10
176.2173270662095
 20
-66.16694559285434
 30
0.0
 10
176.1584907663818
 20
-66.2811824821252
 30
0.0
 10
176.1170655288264
 20
-66.40357442038435
 30
0.0
 10
176.0944252024273
 20
-66.53006233549193
 30
0.0
  0
SPLINE
  5
129
330
70
100
AcDbEntity
  8
0
 62
    18
420
        0
370
    25
100
AcDbSpline
210
0.0
220
0.0
230
1.0
 70
     8
 71
     3
 72
     8
 73
     4
 74
     0
 42
0.0000000001
 43
0.0000000001
 40
0.0
 40
0.0
 40
0.0
 40
0.0
 40
1.0
 40
1.0
 40
1.0
 40
1.0
 10
177.2545386452586
 20
-63.93904851027048
 30
0.0
 10
177.2853568897423
 20
-63.87291094431406
 30
0.0
 10
177.3013264772997
 20
-63.8008297410895
 30
0.0
 10
177.3013264772997
 20
-63.7278643943577
 30
0.0
  0
SPLINE
  5
12A
330
70
100
AcDbEntity
  8
0
 62
    18
420
        0
370
    25
100
AcDbSpline
210
0.0
220
0.0
230
1.0
 70
     8
 71
     3
 72
     8
 73
     4
 74
     0
 42
0.0000000001
 43
0.0000000001
 40
0.0
 40
0.0
 40
0.0
 40
0.0
 40
1.0
 40
1.0
 40
1.0
 40
1.0
 10
167.3818037576078
 20
-50.04164597689435
 30
0.0
 10
167.2988922540835
 20
-50.01034910172062
 30
0.0
 10
167.209152202279
 20
-50.0016511831198
 30
0.0
 10
167.1217736268994
 20
-50.01644295031784
 30
0.0
  0
SPLINE
  5
12B
330
70
100
AcDbEntity
  8
0
 62
    18
420
        0
370
    25
100
AcDbSpline
210
0.0
220
0.0
230
1.0
 70
     8
 71
     3
 72
     8
 73
     4
 74
     0
 42
0.0000000001
 43
0.0000000001
 40
0.0
 40
0.0
 40
0.0
 40
0.0
 40
1.0
 40
1.0
 40
1.0
 40
1.0
 10
174.5117825462275
 20
-65.57615261959033
 30
0.0
 10
174.7650697624923
 20
-64.38850137047829
 30
0.0
 10
174.7647682041661
 20
-63.16075609708946
 30
0.0
 10
174.5108975976036
 20
-61.97322941588861
 30
0.0
  0
SPLINE
  5
12C
330
70
100
AcDbEntity
  8
0
 62
    18
420
        0
370
    25
100
AcDbSpline
210
0.0
220
0.0
230
1.0
 70
     8
 71
     3
 72
     8
 73
     4
 74
     0
 42
0.0000000001
 43
0.0000000001
 40
0.0
 40
0.0
 40
0.0
 40
0.0
 40
1.0
 40
1.0
 40
1.0
 40
1.0
 10
123.6411409887359
 20
-61.98301859150101
 30
0.0
 10
123.393767225521
 20
-63.1463778902287
 30
0.0
 10
123.3897132595145
 20
-64.34833105381148
 30
0.0
 10
123.6292338918172
 20
-65.51333255740016
 30
0.0
  0
LWPOLYLINE
  5
12D
330
70
100
AcDbEntity
  8
0
 62
    18
420
        0
370
    25
100
AcDbPolyline
 90
      107
 70
     0
 43
0.0
 10
166.8431157702996
 20
-53.11237564205785
 10
165.7594413832996
 20
-52.52280875435783
 10
164.6171695158996
 20
-51.97133776165788
 10
163.4203124396996
 20
-51.45989972595785
 10
162.1730741587
 20
-50.99029109195802
 10
160.8798356429997
 20
-50.56416137715737
 10
159.5451394398996
 20
-50.1830073777579
 10
158.1736737187
 20
-49.84816791095739
 10
156.7702558025001
 20
-49.56081911275794
 10
155.3398152482
 20
-49.3219703061576
 10
153.8873765301997
 20
-49.13246045625787
 10
152.4180413925997
 20
-48.99295522355745
 10
150.9369709285996
 20
-48.90394462505792
 10
149.4493674522001
 20
-48.86574131375772
 10
147.9604562248998
 20
-48.87847948025775
 10
146.4754671017001
 20
-48.94211438125761
 10
144.9996161609997
 20
-49.05642249685794
 10
143.5380873831
 20
-49.22100231565788
 10
142.0960144412
 20
-49.435275744858
 10
140.678462669
 20
-49.69849014145786
 10
139.2904112687999
 20
-50.00972095525774
 10
137.9367358218001
 20
-50.36787497645772
 10
136.6221911623997
 20
-50.77169417625785
 10
135.3513946766001
 20
-51.21976012485788
 10
134.1288100835001
 20
-51.71049897425801
 10
132.9587317560002
 20
-52.24218698645757
 10
131.8452696369
 20
-52.81295658775783
 10
130.7923348025
 20
-53.42080292935747
 10
129.8036257247997
 20
-54.06359092855778
 10
128.8826152805997
 20
-54.73906276925789
 10
128.0325385524997
 20
-55.44484583175782
 10
127.2563814661999
 20
-56.17846102755753
 10
126.5568703015997
 20
-56.93733150645758
 10
125.9364621173001
 20
-57.71879170815793
 10
125.3973361195999
 20
-58.52009672525777
 10
124.9413860082999
 20
-59.33843194455771
 10
124.5702133247998
 20
-60.17092293385747
 10
124.2851218264999
 20
-61.01464553825793
 10
124.0871129079999
 20
-61.86663615115744
 10
123.9768820824997
 20
-62.72390212455785
 10
123.9548165401001
 20
-63.58343228045794
 10
124.0209937866999
 20
-64.44220748785742
 10
124.1751813722002
 20
-65.29721126745791
 10
124.4168377072998
 20
-66.14544038735772
 10
124.7451139650997
 20
-66.98391541175753
 10
125.1588570633999
 20
-67.80969116665786
 10
125.6566137143998
 20
-68.61986708455768
 10
126.2366355297998
 20
-69.41159739295779
 10
126.8968851618002
 20
-70.18210111035767
 10
127.6350434593999
 20
-70.92867181425791
 10
128.4485176147999
 20
-71.64868714795783
 10
129.3344502701998
 20
-72.33961803115754
 10
130.2897295549
 20
-72.99903754415741
 10
131.3110000157
 20
-73.62462945165791
 10
132.3946744025999
 20
-74.21419633925783
 10
133.5369462701
 20
-74.76566733195777
 10
134.7338033463
 20
-75.27710536765781
 10
135.9810416272996
 20
-75.74671400165764
 10
137.274280143
 20
-76.17284371645763
 10
138.608976346
 20
-76.55399771595786
 10
139.9804420672996
 20
-76.88883718265763
 10
141.3838599834001
 20
-77.17618598095781
 10
142.8143005377997
 20
-77.41503478755753
 10
144.2667392556998
 20
-77.60454463735777
 10
145.7360743933999
 20
-77.74404987015767
 10
147.2171448574
 20
-77.83306046865783
 10
148.7047483337996
 20
-77.87126377985794
 10
150.1936595610999
 20
-77.85852561335791
 10
151.6786486843002
 20
-77.7948907123574
 10
153.154499625
 20
-77.68058259675772
 10
154.6160284028002
 20
-77.51600277805788
 10
156.0581013447996
 20
-77.30172934875764
 10
157.4756531169996
 20
-77.03851495215778
 10
158.8637045171997
 20
-76.72728413845802
 10
160.2173799642002
 20
-76.36913011715794
 10
161.5319246235999
 20
-75.96531091745791
 10
162.8027211093996
 20
-75.51724496885788
 10
164.0253057025002
 20
-75.02650611935765
 10
165.1953840300001
 20
-74.49481810725754
 10
166.3088461490997
 20
-73.92404850585783
 10
167.3617809834996
 20
-73.31620216435765
 10
168.3504900610998
 20
-72.67341416515797
 10
169.2715005053999
 20
-71.99794232445786
 10
170.1215772333998
 20
-71.29215926185783
 10
170.8977343197997
 20
-70.55854406605748
 10
171.5972454842998
 20
-69.79967358725753
 10
172.2176536686995
 20
-69.01821338555783
 10
172.7567796662996
 20
-68.216908368458
 10
173.2127297775996
 20
-67.39857314905794
 10
173.5839024611998
 20
-66.56608215975754
 10
173.8689939593996
 20
-65.72235955545782
 10
174.0670028779997
 20
-64.87036894255767
 10
174.1772337033998
 20
-64.01310296915792
 10
174.1992992459001
 20
-63.15357281325782
 10
174.1331219992997
 20
-62.2947976058577
 10
173.9789344136999
 20
-61.43979382625786
 10
173.7372780786998
 20
-60.5915647063574
 10
173.4090018208999
 20
-59.75308968185748
 10
172.9952587225997
 20
-58.92731392695779
 10
172.4975020714998
 20
-58.11713800915744
 10
171.9174802560997
 20
-57.32540770065787
 10
171.2572306242001
 20
-56.55490398325799
 10
170.5190723264996
 20
-55.80833327935774
 10
169.7055981711997
 20
-55.08831794575794
 10
168.8196655157998
 20
-54.39738706245747
 10
167.8643862310001
 20
-53.73796754955772
 10
166.8431157702996
 20
-53.11237564205785
  0
SPLINE
  5
12E
330
70
100
AcDbEntity
  8
0
 62
    18
420
        0
370
    25
100
AcDbSpline
210
0.0
220
0.0
230
1.0
 70
     8
 71
     3
 72
     8
 73
     4
 74
     0
 42
0.0000000001
 43
0.0000000001
 40
0.0
 40
0.0
 40
0.0
 40
0.0
 40
1.0
 40
1.0
 40
1.0
 40
1.0
 10
123.4520578930184
 20
-69.32344749675028
 30
0.0
 10
123.4526183023891
 20
-69.94037043808775
 30
0.0
 10
123.5189558562562
 20
-70.55547526009242
 30
0.0
 10
123.6499456770699
 20
-71.1583317077236
 30
0.0
  0
SPLINE
  5
12F
330
70
100
AcDbEntity
  8
0
 62
    18
420
        0
370
    25
100
AcDbSpline
210
0.0
220
0.0
230
1.0
 70
     8
 71
     3
 72
     8
 73
     4
 74
     0
 42
0.0000000001
 43
0.0000000001
 40
0.0
 40
0.0
 40
0.0
 40
0.0
 40
1.0
 40
1.0
 40
1.0
 40
1.0
 10
174.5014259713169
 20
-71.17096054819571
 30
0.0
 10
174.6343687531135
 20
-70.56410053676095
 30
0.0
 10
174.7016331452526
 20
-69.94469839313222
 30
0.0
 10
174.7020578930107
 20
-69.32344749671433
 30
0.0
  0
LWPOLYLINE
  5
130
330
70
100
AcDbEntity
  8
0
 62
    18
420
        0
370
    25
100
AcDbPolyline
 90
       39
 70
     0
 43
0.0
 10
171.3803363647997
 20
-76.72287136825795
 10
171.3565849834996
 20
-76.74764220785745
 10
170.5927988766998
 20
-77.49015024905758
 10
169.7548467121001
 20
-78.20550230745775
 10
168.8456169613999
 20
-78.89123252135796
 10
167.8682437944
 20
-79.54497713735739
 10
166.8260962752997
 20
-80.16448265815785
 10
165.7227667497001
 20
-80.74761361095765
 10
164.5620584609001
 20
-81.29235990815789
 10
163.3479724404999
 20
-81.79684377635757
 10
162.0846937162998
 20
-82.25932622925766
 10
160.7765768863002
 20
-82.67821306185791
 10
159.4281311080999
 20
-83.05206034605788
 10
158.0440045557996
 20
-83.3795794075579
 10
156.6289683971996
 20
-83.65964126855773
 10
155.1879003471996
 20
-83.89128053875781
 10
153.7257678543998
 20
-84.07369874375772
 10
152.2476109777998
 20
-84.20626707695767
 10
150.7585250133998
 20
-84.28852856715796
 10
149.2636429302996
 20
-84.32019965425753
 10
147.7681176772999
 20
-84.30117116595779
 10
146.2771044202
 20
-84.2315086947574
 10
144.7957427717999
 20
-84.1114523711575
 10
143.3291390749996
 20
-83.94141603675778
 10
141.8823488013
 20
-83.72198581705772
 10
140.4603591240998
 20
-83.45391810115751
 10
139.0680717276002
 20
-83.13813693475758
 10
137.7102859105998
 20
-82.77573083445782
 10
136.3916820426998
 20
-82.36794903615779
 10
135.1168054309997
 20
-81.91619718815772
 10
133.8900506521997
 20
-81.42203250645762
 10
132.7156464038997
 20
-80.88715840645793
 10
131.5976409286999
 20
-80.31341863145749
 10
130.5398880587
 20
-79.70279089725796
 10
129.5460339320001
 20
-79.05738007435792
 10
128.6195044237999
 20
-78.37941093275786
 10
127.7634933371997
 20
-77.67122047325753
 10
126.9809513939996
 20
-76.93524987085779
 10
126.9558543842996
 20
-76.90995549545772
  0
LWPOLYLINE
  5
131
330
70
100
AcDbEntity
  8
0
 62
    18
420
        0
370
    25
100
AcDbPolyline
 90
       28
 70
     0
 43
0.0
 10
131.6645534062998
 20
-80.36112432465774
 10
132.7370596285999
 20
-80.94428534775751
 10
133.8680588039001
 20
-81.4893751655576
 10
135.0535022487
 20
-81.99444249795751
 10
136.2891463830997
 20
-82.45767933495761
 10
137.5705679218
 20
-82.87742740895792
 10
138.8931797081996
 20
-83.25218413085755
 10
140.2522471354002
 20
-83.58060796875795
 10
141.6429050948
 20
-83.86152325045786
 10
143.0601753917997
 20
-84.09392437245799
 10
144.4989845665996
 20
-84.2769793987575
 10
145.9541820556998
 20
-84.41003304005791
 10
147.4205586298001
 20
-84.49260899875794
 10
148.8928650412997
 20
-84.52441167435791
 10
150.3658308155
 20
-84.50532722155791
 10
151.8341831169999
 20
-84.43542395785794
 10
153.2926656258996
 20
-84.31495211865799
 10
154.7360573530996
 20
-84.14434296185755
 10
156.1591913309997
 20
-83.92420722405793
 10
157.5569731091998
 20
-83.65533293395744
 10
158.9243989918997
 20
-83.33868259185749
 10
160.2565739491002
 20
-82.97538972375745
 10
161.5487291402998
 20
-82.56675482375751
 10
162.7962389852996
 20
-82.11424069885742
 10
163.9946377226001
 20
-81.61946723215788
 10
165.1396353956998
 20
-81.08420558415796
 10
166.2271332101999
 20
-80.51037185275784
 10
166.4923917116001
 20
-80.35949072065774
  0
SPLINE
  5
132
330
70
100
AcDbEntity
  8
0
 62
    18
420
        0
370
    25
100
AcDbSpline
210
0.0
220
0.0
230
1.0
 70
     8
 71
     3
 72
     8
 73
     4
 74
     0
 42
0.0000000001
 43
0.0000000001
 40
0.0
 40
0.0
 40
0.0
 40
0.0
 40
1.0
 40
1.0
 40
1.0
 40
1.0
 10
174.5029905101252
 20
-73.13507504774202
 30
0.0
 10
174.7058387291649
 20
-72.20736044065778
 30
0.0
 10
174.7538609864608
 20
-71.25248471458172
 30
0.0
 10
174.6451134311094
 20
-70.3090994479117
 30
0.0
  0
SPLINE
  5
133
330
70
100
AcDbEntity
  8
0
 62
    18
420
        0
370
    25
100
AcDbSpline
210
0.0
220
0.0
230
1.0
 70
     8
 71
     3
 72
     8
 73
     4
 74
     0
 42
0.0000000001
 43
0.0000000001
 40
0.0
 40
0.0
 40
0.0
 40
0.0
 40
1.0
 40
1.0
 40
1.0
 40
1.0
 10
123.5090023548216
 20
-70.30909944787897
 30
0.0
 10
123.4034000004181
 20
-71.2262243364227
 30
0.0
 10
123.4458551869613
 20
-72.15436011040347
 30
0.0
 10
123.6347443998009
 20
-73.05801423876978
 30
0.0
  0
LWPOLYLINE
  5
134
330
70
100
AcDbEntity
  8
0
 62
    18
420
        0
370
    25
100
AcDbPolyline
 90
       45
 70
     0
 43
0.0
 10
174.7020578929999
 20
-120.9346297847575
 10
174.6848020036998
 20
-121.4774234811579
 10
174.5854834818998
 20
-122.3440690707577
 10
174.3982321328002
 20
-123.2058560311579
 10
174.1236934504999
 20
-124.059813604158
 10
173.7628138266999
 20
-124.9029980211575
 10
173.3168372883
 20
-125.7325026507574
 10
172.7873012088002
 20
-126.5454680185579
 10
172.1760310087001
 20
-127.3390916647577
 10
171.4851338631001
 20
-128.1106378039574
 10
170.7169914374999
 20
-128.8574467570576
 10
169.8742516779998
 20
-129.5769441186576
 10
168.9598196832001
 20
-130.2666496323576
 10
167.9768476894997
 20
-130.9241857405578
 10
166.9287242050998
 20
-131.5472857797574
 10
165.8190623286997
 20
-132.1338017953576
 10
164.6516872947997
 20
-132.6817119449575
 10
163.4306232867998
 20
-133.1891274687577
 10
162.1600795654001
 20
-133.6542992003575
 10
160.844435958
 20
-134.0756235965579
 10
159.4882277606997
 20
-134.4516482647578
 10
158.0961301040001
 20
-134.7810769699574
 10
156.6729418370996
 20
-135.0627741033574
 10
155.2235689845999
 20
-135.2957685964579
 10
153.7530078349996
 20
-135.4792572689574
 10
152.2663277174001
 20
-135.6126075975576
 10
150.7686535258998
 20
-135.6953598957576
 10
149.2651480539
 20
-135.7272288995578
 10
147.7609941961001
 20
-135.7081047496574
 10
146.2613770824997
 20
-135.6380533710578
 10
144.7714662039997
 20
-135.5173162454576
 10
143.2963975918998
 20
-135.3463095785578
 10
141.8412561134996
 20
-135.1256228659574
 10
140.4110579427996
 20
-134.8560168602574
 10
139.0107332691001
 20
-134.538420949458
 10
137.6451093017998
 20
-134.1739299522577
 10
136.3188936295997
 20
-133.763800344758
 10
135.0366579926002
 20
-133.3094459285578
 10
133.8028225225997
 20
-132.8124329575578
 10
132.6216405061998
 20
-132.2744747384574
 10
131.4971837225001
 20
-131.6974257245575
 10
130.4333284068998
 20
-131.0832751234575
 10
129.4337418891
 20
-130.4341400393576
 10
128.5018699509001
 20
-129.7522581755574
 10
127.6459520418002
 20
-129.0444091304576
  0
SPLINE
  5
135
330
70
100
AcDbEntity
  8
0
 62
    18
420
        0
370
    25
100
AcDbSpline
210
0.0
220
0.0
230
1.0
 70
     8
 71
     3
 72
     8
 73
     4
 74
     0
 42
0.0000000001
 43
0.0000000001
 40
0.0
 40
0.0
 40
0.0
 40
0.0
 40
1.0
 40
1.0
 40
1.0
 40
1.0
 10
123.4520578929363
 20
-120.9346297847813
 30
0.0
 10
123.4552179643778
 20
-121.9538515839362
 30
0.0
 10
123.633987129877
 20
-122.9649067950765
 30
0.0
 10
123.9805183977489
 20
-123.9234156068831
 30
0.0
  0
SPLINE
  5
136
330
70
100
AcDbEntity
  8
0
 62
    18
420
        0
370
    25
100
AcDbSpline
210
0.0
220
0.0
230
1.0
 70
     8
 71
     3
 72
     8
 73
     4
 74
     0
 42
0.0000000001
 43
0.0000000001
 40
0.0
 40
0.0
 40
0.0
 40
0.0
 40
1.0
 40
1.0
 40
1.0
 40
1.0
 10
173.2340860160203
 20
-58.18480424022443
 30
0.0
 10
173.2168034646725
 20
-57.93155696545369
 30
0.0
 10
173.0583942813576
 20
-57.70962039584292
 30
0.0
 10
172.8245099938762
 20
-57.61097451995794
 30
0.0
  0
LINE
  5
137
330
70
100
AcDbEntity
  8
0
 62
    18
420
        0
370
    25
100
AcDbLine
 10
177.2109024993999
 20
-63.89342370865794
 30
0.0
 11
177.2109024993999
 21
-56.21469806965787
 31
0.0
  0
LWPOLYLINE
  5
138
330
70
100
AcDbEntity
  8
0
 62
    18
420
        0
370
    25
100
AcDbPolyline
 90
        3
 70
     0
 43
0.0
 10
176.1715239024001
 20
-66.11809447665784
 10
176.6651762634001
 20
-65.06299711035779
 10
177.2109024993999
 20
-63.89342370865794
  0
SPLINE
  5
139
330
70
100
AcDbEntity
  8
0
 62
    18
420
        0
370
    25
100
AcDbSpline
210
0.0
220
0.0
230
1.0
 70
     8
 71
     3
 72
     8
 73
     4
 74
     0
 42
0.0000000001
 43
0.0000000001
 40
0.0
 40
0.0
 40
0.0
 40
0.0
 40
1.0
 40
1.0
 40
1.0
 40
1.0
 10
176.1715239023539
 20
-66.11809447666489
 30
0.0
 10
176.1074730196071
 20
-66.25412274591351
 30
0.0
 10
176.0582755043144
 20
-66.39666054288993
 30
0.0
 10
176.0247843182572
 20
-66.54323661894564
 30
0.0
  0
LWPOLYLINE
  5
13A
330
70
100
AcDbEntity
  8
0
 62
    18
420
        0
370
    25
100
AcDbPolyline
 90
        3
 70
     0
 43
0.0
 10
177.2109024993999
 20
-56.21469806965787
 10
175.2066923592998
 20
-57.20045865865774
 10
173.2340860159998
 20
-58.1848042401577
  0
SPLINE
  5
13B
330
70
100
AcDbEntity
  8
0
 62
    18
420
        0
370
    25
100
AcDbSpline
210
0.0
220
0.0
230
1.0
 70
     8
 71
     3
 72
     8
 73
     4
 74
     0
 42
0.0000000001
 43
0.0000000001
 40
0.0
 40
0.0
 40
0.0
 40
0.0
 40
1.0
 40
1.0
 40
1.0
 40
1.0
 10
172.9334811195466
 20
-57.59055125758416
 30
0.0
 10
172.8965058158864
 20
-57.5932460202824
 30
0.0
 10
172.8599516855968
 20
-57.60009695979642
 30
0.0
 10
172.824509993857
 20
-57.6109745198803
 30
0.0
  0
SPLINE
  5
13C
330
70
100
AcDbEntity
  8
0
 62
    18
420
        0
370
    25
100
AcDbSpline
210
0.0
220
0.0
230
1.0
 70
     8
 71
     3
 72
     8
 73
     4
 74
     0
 42
0.0000000001
 43
0.0000000001
 40
0.0
 40
0.0
 40
0.0
 40
0.0
 40
1.0
 40
1.0
 40
1.0
 40
1.0
 10
173.2340860159946
 20
-58.1848042401577
 30
0.0
 10
173.2617642731098
 20
-57.94442453085121
 30
0.0
 10
173.1435234098973
 20
-57.71067921780564
 30
0.0
 10
172.9334811195402
 20
-57.59055125759507
 30
0.0
  0
SPLINE
  5
13D
330
70
100
AcDbEntity
  8
0
 62
    18
420
        0
370
    25
100
AcDbSpline
210
0.0
220
0.0
230
1.0
 70
     8
 71
     3
 72
     8
 73
     4
 74
     0
 42
0.0000000001
 43
0.0000000001
 40
0.0
 40
0.0
 40
0.0
 40
0.0
 40
1.0
 40
1.0
 40
1.0
 40
1.0
 10
177.2109024993973
 20
-56.21469806962965
 30
0.0
 10
177.2409633874234
 20
-55.97078830621189
 30
0.0
 10
177.1195534865557
 20
-55.73313739967718
 30
0.0
 10
176.9043025404412
 20
-55.61455131332497
 30
0.0
  0
LWPOLYLINE
  5
13E
330
70
100
AcDbEntity
  8
0
 62
    18
420
        0
370
    25
100
AcDbPolyline
 90
        3
 70
     0
 43
0.0
 10
172.9334811195999
 20
-57.59055125765796
 10
174.9029191859996
 20
-56.60293002195801
 10
176.9043025404996
 20
-55.6145513133577
  0
SPLINE
  5
13F
330
70
100
AcDbEntity
  8
0
 62
    18
420
        0
370
    25
100
AcDbSpline
210
0.0
220
0.0
230
1.0
 70
     8
 71
     3
 72
     8
 73
     4
 74
     0
 42
0.0000000001
 43
0.0000000001
 40
0.0
 40
0.0
 40
0.0
 40
0.0
 40
1.0
 40
1.0
 40
1.0
 40
1.0
 10
176.9043025404643
 20
-55.61455131335449
 30
0.0
 10
174.0528515246129
 20
-53.19893226807302
 30
0.0
 10
170.790392818668
 20
-51.31555494594465
 30
0.0
 10
167.2725614790507
 20
-50.05426555261133
 30
0.0
  0
LINE
  5
140
330
70
100
AcDbEntity
  8
0
 62
    18
420
        0
370
    25
100
AcDbLine
 10
176.2148260201999
 20
-66.16441832315773
 30
0.0
 11
176.214349518
 21
-66.16532178245801
 31
0.0
  0
SPLINE
  5
141
330
70
100
AcDbEntity
  8
0
 62
    18
420
        0
370
    25
100
AcDbSpline
210
0.0
220
0.0
230
1.0
 70
     8
 71
     3
 72
     8
 73
     4
 74
     0
 42
0.0000000001
 43
0.0000000001
 40
0.0
 40
0.0
 40
0.0
 40
0.0
 40
1.0
 40
1.0
 40
1.0
 40
1.0
 10
122.5426608379177
 20
-125.6285539917474
 30
0.0
 10
125.1773332247973
 20
-127.8162293946135
 30
0.0
 10
128.16398319977
 20
-129.5411783677452
 30
0.0
 10
131.3755403370793
 20
-130.7300109919149
 30
0.0
  0
LWPOLYLINE
  5
142
330
70
100
AcDbEntity
  8
0
 62
    18
420
        0
370
    25
100
AcDbPolyline
 90
        3
 70
     0
 43
0.0
 10
122.5426608378998
 20
-125.6285539917577
 10
122.9850896215999
 20
-125.1090975096578
 10
125.5567781158998
 20
-122.101900629958
  0
SPLINE
  5
143
330
70
100
AcDbEntity
  8
0
 62
    18
420
        0
370
    25
100
AcDbSpline
210
0.0
220
0.0
230
1.0
 70
     8
 71
     3
 72
     8
 73
     4
 74
     0
 42
0.0000000001
 43
0.0000000001
 40
0.0
 40
0.0
 40
0.0
 40
0.0
 40
1.0
 40
1.0
 40
1.0
 40
1.0
 10
132.0028230581283
 20
-124.4128819928395
 30
0.0
 10
133.4218987604957
 20
-125.1406370610028
 30
0.0
 10
134.8963139294363
 20
-125.7550090820921
 30
0.0
 10
136.4122753842532
 20
-126.2502505946861
 30
0.0
  0
LWPOLYLINE
  5
144
330
70
100
AcDbEntity
  8
0
 62
    18
420
        0
370
    25
100
AcDbPolyline
 90
        3
 70
     0
 43
0.0
 10
136.4122753843
 20
-126.2502505946579
 10
131.9048873039001
 20
-130.2572850834577
 10
131.3755403370998
 20
-130.7300109919579
  0
LWPOLYLINE
  5
145
330
70
100
AcDbEntity
  8
0
 62
    18
420
        0
370
    25
100
AcDbPolyline
 90
        3
 70
     0
 43
0.0
 10
136.4114072454997
 20
-128.2920339549577
 10
136.4121662041001
 20
-126.5067445417574
 10
136.4122753843
 20
-126.2502505946579
  0
LWPOLYLINE
  5
146
330
70
100
AcDbEntity
  8
0
 62
    18
420
        0
370
    25
100
AcDbPolyline
 90
        3
 70
     0
 43
0.0
 10
131.3755403370998
 20
-130.7300109919579
 10
131.6158092212
 20
-130.6137208014578
 10
136.4114072454997
 20
-128.2920339549577
  0
SPLINE
  5
147
330
70
100
AcDbEntity
  8
0
 62
    18
420
        0
370
    25
100
AcDbSpline
210
0.0
220
0.0
230
1.0
 70
     8
 71
     3
 72
     8
 73
     4
 74
     0
 42
0.0000000001
 43
0.0000000001
 40
0.0
 40
0.0
 40
0.0
 40
0.0
 40
1.0
 40
1.0
 40
1.0
 40
1.0
 10
122.0401360020396
 20
-119.3380726521219
 30
0.0
 10
124.6561747880389
 20
-121.4874968892802
 30
0.0
 10
127.6077549455656
 20
-123.1922657450732
 30
0.0
 10
130.7768227378372
 20
-124.3841939346566
 30
0.0
  0
LINE
  5
148
330
70
100
AcDbEntity
  8
0
 62
    18
420
        0
370
    25
100
AcDbLine
 10
130.7768227377999
 20
-124.3841939346579
 30
0.0
 11
130.7768227377999
 21
-124.6614185984574
 31
0.0
  0
LINE
  5
149
330
70
100
AcDbEntity
  8
0
 62
    18
420
        0
370
    25
100
AcDbLine
 10
122.0401360020999
 20
-119.3380726521578
 30
0.0
 11
122.0401360020999
 21
-119.6152974059575
 31
0.0
  0
SPLINE
  5
14A
330
70
100
AcDbEntity
  8
0
 62
    18
420
        0
370
    25
100
AcDbSpline
210
0.0
220
0.0
230
1.0
 70
     8
 71
     3
 72
     8
 73
     4
 74
     0
 42
0.0000000001
 43
0.0000000001
 40
0.0
 40
0.0
 40
0.0
 40
0.0
 40
1.0
 40
1.0
 40
1.0
 40
1.0
 10
122.0401360020845
 20
-119.6152974058953
 30
0.0
 10
124.6558022263165
 20
-121.7652594374364
 30
0.0
 10
127.6074752620962
 20
-123.4700819072984
 30
0.0
 10
130.7768227378442
 20
-124.6614185984254
 30
0.0
  0
LWPOLYLINE
  5
14B
330
70
100
AcDbEntity
  8
0
 62
    18
420
        0
370
    25
100
AcDbPolyline
 90
        3
 70
     0
 43
0.0
 10
122.0401360020999
 20
-119.3380726521578
 10
122.7524821017997
 20
-119.0817333179577
 10
126.7707184774996
 20
-117.6208669805577
  0
LWPOLYLINE
  5
14C
330
70
100
AcDbEntity
  8
0
 62
    18
420
        0
370
    25
100
AcDbPolyline
 90
       10
 70
     0
 43
0.0
 10
126.7707184774996
 20
-117.6208669805577
 10
127.5752447019001
 20
-118.3774366788578
 10
128.4542434829997
 20
-119.1048361405576
 10
129.4047405671996
 20
-119.8006040763579
 10
130.4235197732002
 20
-120.4623862275576
 10
131.5071338747001
 20
-121.0879433330574
 10
132.6519162645998
 20
-121.6751587054576
 10
133.8539933615997
 20
-122.2220453938574
 10
135.1092977173001
 20
-122.7267529068574
 10
136.4135817792002
 20
-123.1875734740576
  0
LWPOLYLINE
  5
14D
330
70
100
AcDbEntity
  8
0
 62
    18
420
        0
370
    25
100
AcDbPolyline
 90
        3
 70
     0
 43
0.0
 10
136.4135817792002
 20
-123.1875734740576
 10
131.6262127582997
 20
-124.206152094958
 10
130.7768227377999
 20
-124.3841939346579
  0
LINE
  5
14E
330
70
100
AcDbEntity
  8
0
 62
    18
420
        0
370
    25
100
AcDbLine
 10
136.4134633028
 20
-123.4648401208576
 30
0.0
 11
136.4135817792002
 21
-123.1875734740576
 31
0.0
  0
LWPOLYLINE
  5
14F
330
70
100
AcDbEntity
  8
0
 62
    18
420
        0
370
    25
100
AcDbPolyline
 90
        3
 70
     0
 43
0.0
 10
130.7768227377999
 20
-124.6614185984574
 10
131.6262093730999
 20
-124.4833791892574
 10
136.4134633028
 20
-123.4648401208576
  0
LWPOLYLINE
  5
150
330
70
100
AcDbEntity
  8
0
 62
     8
420
  8421504
370
    25
100
AcDbPolyline
 90
       51
 70
     0
 43
0.0
 10
174.5117825463
 20
-65.57615261965771
 10
174.3982321328002
 20
-66.04799919915746
 10
174.1236934504999
 20
-66.90195677215751
 10
173.7628138266999
 20
-67.74514118915765
 10
173.3168372883
 20
-68.57464581875754
 10
172.7873012088002
 20
-69.38761118655744
 10
172.1760310087001
 20
-70.18123483275788
 10
171.4851338631001
 20
-70.95278097195759
 10
170.7169914374999
 20
-71.69958992505775
 10
169.8742516779998
 20
-72.41908728665783
 10
168.9598196832001
 20
-73.10879280035781
 10
167.9768476894997
 20
-73.76632890855794
 10
166.9287242050998
 20
-74.38942894775755
 10
165.8190623286997
 20
-74.9759449633578
 10
164.6516872947997
 20
-75.52385511295771
 10
163.4306232867998
 20
-76.03127063675785
 10
162.1600795654001
 20
-76.49644236835768
 10
160.844435958
 20
-76.91776676455744
 10
159.4882277606997
 20
-77.29379143275799
 10
158.0961301040001
 20
-77.62322013795756
 10
156.6729418370996
 20
-77.90491727135758
 10
155.2235689845999
 20
-78.13791176445748
 10
153.7530078349996
 20
-78.32140043695762
 10
152.2663277174001
 20
-78.45475076545771
 10
150.7686535258998
 20
-78.53750306375774
 10
149.2651480539
 20
-78.56937206755798
 10
147.7609941961001
 20
-78.55024791765756
 10
146.2613770824997
 20
-78.48019653905798
 10
144.7714662039997
 20
-78.35945941345776
 10
143.2963975918998
 20
-78.18845274655801
 10
141.8412561134996
 20
-77.9677660339576
 10
140.4110579427996
 20
-77.69816002825759
 10
139.0107332691001
 20
-77.38056411745754
 10
137.6451093017998
 20
-77.01607312025791
 10
136.3188936295997
 20
-76.60594351275749
 10
135.0366579926002
 20
-76.15158909655801
 10
133.8028225225997
 20
-75.65457612555796
 10
132.6216405061998
 20
-75.1166179064576
 10
131.4971837225001
 20
-74.53956889255763
 10
130.4333284068998
 20
-73.92541829145769
 10
129.4337418891
 20
-73.2762832073578
 10
128.5018699509001
 20
-72.59440134355762
 10
127.640924948
 20
-71.88212328805758
 10
126.8538747359997
 20
-71.14190441075784
 10
126.1434324402001
 20
-70.37629639965778
 10
125.5120471021999
 20
-69.58793846395782
 10
124.9618952382996
 20
-68.77954823695787
 10
124.4948733356999
 20
-67.95391240715765
 10
124.1125913157997
 20
-67.11387711235762
 10
123.8163669837999
 20
-66.26233812815776
 10
123.6292338917999
 20
-65.51333255735781
  0
LWPOLYLINE
  5
151
330
70
100
AcDbEntity
  8
0
 62
     8
420
  8421504
370
    25
100
AcDbPolyline
 90
       51
 70
     0
 43
0.0
 10
123.6499456769999
 20
-71.15833170765751
 10
123.8132686201998
 20
-71.79849587565785
 10
124.1088249828999
 20
-72.65114790875753
 10
124.4906534113998
 20
-73.49230182775746
 10
124.9574345842997
 20
-74.31905121615779
 10
125.5075556450996
 20
-75.12853942895739
 10
126.1391157752996
 20
-75.91796946315759
 10
126.8499327619996
 20
-76.68461362245796
 10
127.6375505384001
 20
-77.42582294165794
 10
128.4992476699
 20
-78.13903634025748
 10
129.4320467574996
 20
-78.82178947095797
 10
130.4327247254997
 20
-79.47172323525752
 10
131.4978239580999
 20
-80.08659193435772
 10
132.6236642464996
 20
-80.66427102905748
 10
133.8063555049999
 20
-81.20276448015742
 10
135.0418112121001
 20
-81.70021164565781
 10
136.3257625308999
 20
-82.15489370985748
 10
137.6537730587001
 20
-82.56523962185791
 10
139.0212541564002
 20
-82.92983152435771
 10
140.4234808032998
 20
-83.2474096529574
 10
141.8556079231001
 20
-83.51687668835801
 10
143.3126871254
 20
-83.73730154825761
 10
144.7896838034996
 20
-83.90792260455754
 10
146.2814945304002
 20
-84.02815031505751
 10
147.7829646925002
 20
-84.09756926005748
 10
149.2889063000996
 20
-84.1159395780579
 10
150.7941159135997
 20
-84.08319779475785
 10
152.2933926225001
 20
-83.99945704175769
 10
153.7815560162002
 20
-83.86500666645792
 10
155.2534640836998
 20
-83.6803112315574
 10
156.7040309803996
 20
-83.44600891015764
 10
158.1282446015
 20
-83.16290928085788
 10
159.5211838997002
 20
-82.83199053025793
 10
160.8780358893
 20
-82.45439607295798
 10
162.1941122759
 20
-82.03143060105778
 10
163.4648656560999
 20
-81.56455557575769
 10
164.6859052297996
 20
-81.05538417775754
 10
165.8530119716997
 20
-80.50567573355776
 10
166.9621532092001
 20
-79.91732963575741
 10
168.0094965562001
 20
-79.29237878095779
 10
168.9914231552997
 20
-78.63298254515744
 10
169.904540182
 20
-77.9414193223574
 10
170.7456925673001
 20
-77.22007865255801
 10
171.5119739001
 20
-76.47145296485769
 10
172.2007364690002
 20
-75.69812896535757
 10
172.8096004110997
 20
-74.90277869985785
 10
173.3364619351998
 20
-74.08815032085768
 10
173.7795005908002
 20
-73.25705859185773
 10
174.1371855581999
 20
-72.41237516195759
 10
174.4082809381999
 20
-71.55701864305754
 10
174.5014259712996
 20
-71.17096054825795
  0
LWPOLYLINE
  5
152
330
70
100
AcDbEntity
  8
0
 62
     8
420
  8421504
370
    25
100
AcDbPolyline
 90
       55
 70
     0
 43
0.0
 10
123.59909532
 20
-70.9058949569577
 10
123.6321495930996
 20
-71.76169572875761
 10
123.7528216078001
 20
-72.62243936065782
 10
123.9607877934999
 20
-73.47761123745744
 10
124.2553312782002
 20
-74.32426353005789
 10
124.6354367526997
 20
-75.15947777705787
 10
125.0997939705996
 20
-75.98037494445745
 10
125.6468022643998
 20
-76.78412535005797
 10
126.2745760635999
 20
-77.56795841795737
 10
126.9809513939996
 20
-78.32917222795789
 10
127.7634933371997
 20
-79.06514283035763
 10
128.6195044237999
 20
-79.77333328985796
 10
129.5460339320001
 20
-80.45130243145802
 10
130.5398880587
 20
-81.09671325435742
 10
131.5976409286999
 20
-81.70734098855758
 10
132.7156464038997
 20
-82.2810807635574
 10
133.8900506521997
 20
-82.81595486345763
 10
135.1168054309997
 20
-83.31011954525783
 10
136.3916820426998
 20
-83.76187139325791
 10
137.7102859105998
 20
-84.1696531915579
 10
139.0680717276002
 20
-84.53205929175757
 10
140.4603591240998
 20
-84.84784045825762
 10
141.8823488013
 20
-85.11590817415783
 10
143.3291390749996
 20
-85.33533839385787
 10
144.7957427717999
 20
-85.50537472825759
 10
146.2771044202
 20
-85.62543105175739
 10
147.7681176772999
 20
-85.69509352305788
 10
149.2636429302996
 20
-85.71412201135764
 10
150.7585250133998
 20
-85.6824509242574
 10
152.2476109777998
 20
-85.60018943395766
 10
153.7257678543998
 20
-85.46762110085785
 10
155.1879003471996
 20
-85.2852028958579
 10
156.6289683971996
 20
-85.05356362565784
 10
158.0440045558997
 20
-84.77350176465801
 10
159.4281311080999
 20
-84.44598270315799
 10
160.7765768863002
 20
-84.07213541895801
 10
162.0846937162998
 20
-83.65324858635775
 10
163.3479724404999
 20
-83.19076613345767
 10
164.5620584609001
 20
-82.686282265258
 10
165.7227667497001
 20
-82.14153596805775
 10
166.8260962752997
 20
-81.55840501525796
 10
167.8682437944
 20
-80.93889949445749
 10
168.8456169613999
 20
-80.28515487845742
 10
169.7548467121001
 20
-79.59942466455784
 10
170.5927988766998
 20
-78.88407260615768
 10
171.3565849834996
 20
-78.14156456495755
 10
172.0435722156996
 20
-77.37446001095786
 10
172.6513924866997
 20
-76.58540319985739
 10
173.1779506035
 20
-75.77711405825754
 10
173.6214314884999
 20
-74.95237880745744
 10
173.9803064361998
 20
-74.11404035965791
 10
174.2533383829998
 20
-73.2649885181576
 10
174.4395861713996
 20
-72.40815001585779
 10
174.5384077939996
 20
-71.54647842675757
 10
174.5550204658996
 20
-70.9058949569577
  0
LWPOLYLINE
  5
153
330
70
100
AcDbEntity
  8
0
 62
     8
420
  8421504
370
    25
100
AcDbPolyline
 90
       51
 70
     0
 43
0.0
 10
174.5029905101002
 20
-73.13507504765796
 10
174.4082809381999
 20
-73.52832254535797
 10
174.1371855581999
 20
-74.38367906425738
 10
173.7795005908002
 20
-75.22836249415751
 10
173.3364619351998
 20
-76.05945422315745
 10
172.8096004110997
 20
-76.87408260215763
 10
172.2007364690002
 20
-77.66943286765799
 10
171.5119739001
 20
-78.44275686715747
 10
170.7456925673001
 20
-79.1913825548578
 10
169.904540182
 20
-79.91272322465782
 10
168.9914231552997
 20
-80.60428644745787
 10
168.0094965562001
 20
-81.26368268325757
 10
166.9621532092001
 20
-81.88863353805784
 10
165.8530119716997
 20
-82.47697963575744
 10
164.6859052297996
 20
-83.02668808005796
 10
163.4648656560999
 20
-83.53585947805747
 10
162.1941122759
 20
-84.00273450335758
 10
160.8780358893
 20
-84.42569997525774
 10
159.5211838997002
 20
-84.80329443255769
 10
158.1282446015
 20
-85.13421318315764
 10
156.7040309804002
 20
-85.41731281245741
 10
155.2534640836998
 20
-85.65161513385781
 10
153.7815560162002
 20
-85.8363105687577
 10
152.2933926225001
 20
-85.97076094405746
 10
150.7941159135997
 20
-86.05450169695751
 10
149.2889063000996
 20
-86.08724348035767
 10
147.7829646925002
 20
-86.06887316225778
 10
146.2814945304002
 20
-85.99945421735794
 10
144.7896838034996
 20
-85.87922650685795
 10
143.3126871254
 20
-85.70860545055738
 10
141.8556079231001
 20
-85.48818059055768
 10
140.4234808032998
 20
-85.21871355525782
 10
139.0212541564002
 20
-84.90113542665749
 10
137.6537730587001
 20
-84.53654352405759
 10
136.3257625308999
 20
-84.12619761215792
 10
135.0418112121001
 20
-83.67151554795759
 10
133.8063555049999
 20
-83.17406838245783
 10
132.6236642464996
 20
-82.6355749313579
 10
131.4978239580999
 20
-82.05789583665749
 10
130.4327247254997
 20
-81.44302713755793
 10
129.4320467574996
 20
-80.79309337325774
 10
128.4992476699
 20
-80.1103402425579
 10
127.6375505384001
 20
-79.39712684395772
 10
126.8499327619996
 20
-78.65591752475774
 10
126.1391157752996
 20
-77.88927336545801
 10
125.5075556450996
 20
-77.09984333125781
 10
124.9574345842997
 20
-76.29035511845756
 10
124.4906534113998
 20
-75.46360573005788
 10
124.1088249828999
 20
-74.62245181105796
 10
123.8132686201998
 20
-73.76979977795762
 10
123.6347443997996
 20
-73.0580142387576
  0
LINE
  5
154
330
70
100
AcDbEntity
  8
0
 62
     8
420
  8421504
370
    25
100
AcDbLine
 10
172.5900751228001
 20
-57.8042548874579
 30
0.0
 11
172.8245099939
 21
-57.61097451995794
 31
0.0
  0
LINE
  5
155
330
70
100
AcDbEntity
  8
0
 62
     8
420
  8421504
370
    25
100
AcDbLine
 10
173.2340860159998
 20
-58.1848042401577
 30
0.0
 11
172.9947454613999
 21
-58.38212910985784
 31
0.0
  0
LWPOLYLINE
  5
156
330
70
100
AcDbEntity
  8
0
 62
     8
420
  8421504
370
    25
100
AcDbPolyline
 90
        4
 70
     0
 43
0.0
 10
174.7020578929999
 20
-72.4719661455575
 10
175.0699390564998
 20
-70.83163074405779
 10
175.5483751505
 20
-68.6871610980577
 10
176.0247843182996
 20
-66.54323661895784
  0
SPLINE
  5
157
330
70
100
AcDbEntity
  8
0
 62
     8
420
  8421504
370
    25
100
AcDbSpline
210
0.0
220
0.0
230
1.0
 70
     8
 71
     3
 72
     8
 73
     4
 74
     0
 42
0.0000000001
 43
0.0000000001
 40
0.0
 40
0.0
 40
0.0
 40
0.0
 40
1.0
 40
1.0
 40
1.0
 40
1.0
 10
172.8245099938236
 20
-57.61097451991496
 30
0.0
 10
172.1224204245927
 20
-56.84511870380315
 30
0.0
 10
171.3542065703604
 20
-56.14262331497669
 30
0.0
 10
170.5287825482097
 20
-55.51163989367899
 30
0.0
  0
SPLINE
  5
158
330
70
100
AcDbEntity
  8
0
 62
     8
420
  8421504
370
    25
100
AcDbSpline
210
0.0
220
0.0
230
1.0
 70
     8
 71
     3
 72
     8
 73
     4
 74
     0
 42
0.0000000001
 43
0.0000000001
 40
0.0
 40
0.0
 40
0.0
 40
0.0
 40
1.0
 40
1.0
 40
1.0
 40
1.0
 10
172.9334811195896
 20
-57.59055125763165
 30
0.0
 10
171.9419058208052
 20
-56.51692594426861
 30
0.0
 10
170.8279305547109
 20
-55.56319994396504
 30
0.0
 10
169.6143467157424
 20
-54.74888602878984
 30
0.0
  0
LWPOLYLINE
  5
159
330
70
100
AcDbEntity
  8
0
 62
     8
420
  8421504
370
    25
100
AcDbPolyline
 90
        3
 70
     0
 43
0.0
 10
167.272561479
 20
-50.05426555255742
 10
164.4057175548001
 20
-50.54302450895768
 10
162.2885398544998
 20
-50.91425042865779
  0
SPLINE
  5
15A
330
70
100
AcDbEntity
  8
0
 62
     8
420
  8421504
370
    25
100
AcDbSpline
210
0.0
220
0.0
230
1.0
 70
     8
 71
     3
 72
     8
 73
     4
 74
     0
 42
0.0000000001
 43
0.0000000001
 40
0.0
 40
0.0
 40
0.0
 40
0.0
 40
1.0
 40
1.0
 40
1.0
 40
1.0
 10
177.2109024993915
 20
-56.21469806958536
 30
0.0
 10
177.2651810848714
 20
-56.17660417489724
 30
0.0
 10
177.2986116613763
 20
-56.11539537326247
 30
0.0
 10
177.3013264772471
 20
-56.0491387552614
 30
0.0
  0
SPLINE
  5
15B
330
70
100
AcDbEntity
  8
0
 62
     8
420
  8421504
370
    25
100
AcDbSpline
210
0.0
220
0.0
230
1.0
 70
     8
 71
     3
 72
     8
 73
     4
 74
     0
 42
0.0000000001
 43
0.0000000001
 40
0.0
 40
0.0
 40
0.0
 40
0.0
 40
1.0
 40
1.0
 40
1.0
 40
1.0
 10
177.1322469696291
 20
-55.67431662724452
 30
0.0
 10
177.0690086452592
 20
-55.62134361458163
 30
0.0
 10
176.9853969751428
 20
-55.59942126391721
 30
0.0
 10
176.9043025404155
 20
-55.61455131335705
 30
0.0
  0
SPLINE
  5
15C
330
70
100
AcDbEntity
  8
0
 62
     8
420
  8421504
370
    25
100
AcDbSpline
210
0.0
220
0.0
230
1.0
 70
     8
 71
     3
 72
     8
 73
     4
 74
     0
 42
0.0000000001
 43
0.0000000001
 40
0.0
 40
0.0
 40
0.0
 40
0.0
 40
1.0
 40
1.0
 40
1.0
 40
1.0
 10
167.3817092779982
 20
-50.04161036790772
 30
0.0
 10
167.3451941608778
 20
-50.02999332046416
 30
0.0
 10
167.3054496975408
 20
-50.03460150796443
 30
0.0
 10
167.2725614789949
 20
-50.05426555257603
 30
0.0
  0
SPLINE
  5
15D
330
70
100
AcDbEntity
  8
0
 62
     8
420
  8421504
370
    25
100
AcDbSpline
210
0.0
220
0.0
230
1.0
 70
     8
 71
     3
 72
     8
 73
     4
 74
     0
 42
0.0000000001
 43
0.0000000001
 40
0.0
 40
0.0
 40
0.0
 40
0.0
 40
1.0
 40
1.0
 40
1.0
 40
1.0
 10
177.2109024993921
 20
-63.89342370868488
 30
0.0
 10
177.2651810848714
 20
-63.8553298139974
 30
0.0
 10
177.2986116613763
 20
-63.79412101236262
 30
0.0
 10
177.3013264772471
 20
-63.72786439436155
 30
0.0
  0
SPLINE
  5
15E
330
70
100
AcDbEntity
  8
0
 62
     8
420
  8421504
370
    25
100
AcDbSpline
210
0.0
220
0.0
230
1.0
 70
     8
 71
     3
 72
     8
 73
     4
 74
     0
 42
0.0000000001
 43
0.0000000001
 40
0.0
 40
0.0
 40
0.0
 40
0.0
 40
1.0
 40
1.0
 40
1.0
 40
1.0
 10
176.0247843182553
 20
-66.54323661901237
 30
0.0
 10
176.0592020706119
 20
-66.54029685350714
 30
0.0
 10
176.0892484383838
 20
-66.51875078084955
 30
0.0
 10
176.1030743309875
 20
-66.48709531383012
 30
0.0
  0
SPLINE
  5
15F
330
70
100
AcDbEntity
  8
0
 62
     8
420
  8421504
370
    25
100
AcDbSpline
210
0.0
220
0.0
230
1.0
 70
     8
 71
     3
 72
     8
 73
     4
 74
     0
 42
0.0000000001
 43
0.0000000001
 40
0.0
 40
0.0
 40
0.0
 40
0.0
 40
1.0
 40
1.0
 40
1.0
 40
1.0
 10
167.2725614790238
 20
-50.05426555251187
 30
0.0
 10
167.2286976843212
 20
-50.02221898969673
 30
0.0
 10
167.1739818797099
 20
-50.00872720235601
 30
0.0
 10
167.1202481100015
 20
-50.01670822152462
 30
0.0
  0
SPLINE
  5
160
330
70
100
AcDbEntity
  8
0
 62
     8
420
  8421504
370
    25
100
AcDbSpline
210
0.0
220
0.0
230
1.0
 70
     8
 71
     3
 72
     8
 73
     4
 74
     0
 42
0.0000000001
 43
0.0000000001
 40
0.0
 40
0.0
 40
0.0
 40
0.0
 40
1.0
 40
1.0
 40
1.0
 40
1.0
 10
177.2546905435791
 20
-63.938683635502
 30
0.0
 10
177.2467299045821
 20
-63.91835120482576
 30
0.0
 10
177.2309607305211
 20
-63.90205196888239
 30
0.0
 10
177.2109024993806
 20
-63.89342370868938
 30
0.0
  0
LWPOLYLINE
  5
161
330
70
100
AcDbEntity
  8
0
 62
     8
420
  8421504
370
    25
100
AcDbPolyline
 90
        5
 70
     0
 43
0.0
 10
176.1715239024001
 20
-66.11809447665784
 10
176.1973934098997
 20
-66.13848118375774
 10
176.2119598529999
 20
-66.15404120255767
 10
176.2148451237998
 20
-66.16437063435802
 10
176.2148260201999
 20
-66.16441832315773
  0
INSERT
  5
164
330
70
100
AcDbEntity
  8
CAPA_BASE
100
AcDbBlockReference
  2
Block_0
 10
0.0
 20
0.0
 30
0.0
  0
INSERT
  5
171
330
70
100
AcDbEntity
  8
CAPA_BASE
100
AcDbBlockReference
  2
Block_1
 10
0.0
 20
0.0
 30
0.0
  0
INSERT
  5
17D
330
70
100
AcDbEntity
  8
CAPA_BASE
100
AcDbBlockReference
  2
Block_2
 10
0.0
 20
0.0
 30
0.0
  0
ENDSEC
  0
SECTION
  2
OBJECTS
  0
DICTIONARY
  5
C
330
0
100
AcDbDictionary
281
     1
  3
ACAD_COLOR
350
63
  3
ACAD_DETAILVIEWSTYLE
350
6A
  3
ACAD_GROUP
350
D
  3
ACAD_LAYOUT
350
62
  3
ACAD_MATERIAL
350
10
  3
ACAD_MLEADERSTYLE
350
66
  3
ACAD_MLINESTYLE
350
5F
  3
ACAD_PLOTSETTINGS
350
61
  3
ACAD_PLOTSTYLENAME
350
E
  3
ACAD_SCALELIST
350
42
  3
ACAD_SECTIONVIEWSTYLE
350
68
  3
ACAD_TABLESTYLE
350
64
  3
ACAD_VISUALSTYLE
350
29
  3
ACDB_RECOMPOSE_DATA
350
190
  3
AcDbVariableDictionary
350
188
  0
DICTIONARY
  5
63
102
{ACAD_REACTORS
330
C
102
}
330
C
100
AcDbDictionary
281
     1
  0
DICTIONARY
  5
6A
102
{ACAD_REACTORS
330
C
102
}
330
C
100
AcDbDictionary
281
     1
  3
Imperial24
350
6B
  0
DICTIONARY
  5
D
102
{ACAD_REACTORS
330
C
102
}
330
C
100
AcDbDictionary
281
     1
  0
DICTIONARY
  5
62
102
{ACAD_REACTORS
330
C
102
}
330
C
100
AcDbDictionary
281
     1
  3
Layout1
350
6F
  3
Layout2
350
77
  3
Model
350
73
  0
DICTIONARY
  5
10
102
{ACAD_REACTORS
330
C
102
}
330
C
100
AcDbDictionary
281
     1
  3
ByBlock
350
19
  3
ByLayer
350
11
  3
Global
350
21
  0
DICTIONARY
  5
66
102
{ACAD_REACTORS
330
C
102
}
330
C
100
AcDbDictionary
281
     1
  3
Standard
350
67
  0
DICTIONARY
  5
5F
102
{ACAD_REACTORS
330
C
102
}
330
C
100
AcDbDictionary
281
     1
  3
Standard
350
60
  0
DICTIONARY
  5
61
102
{ACAD_REACTORS
330
C
102
}
330
C
100
AcDbDictionary
281
     1
  0
ACDBDICTIONARYWDFLT
  5
E
102
{ACAD_REACTORS
330
C
102
}
330
C
100
AcDbDictionary
281
     1
  3
Normal
350
F
100
AcDbDictionaryWithDefault
340
F
  0
DICTIONARY
  5
42
102
{ACAD_REACTORS
330
C
102
}
330
C
100
AcDbDictionary
281
     1
  3
A0
350
43
  3
A1
350
44
  3
A2
350
45
  3
A3
350
46
  3
A4
350
47
  3
A5
350
48
  3
A6
350
49
  3
A7
350
4A
  3
A8
350
4B
  3
A9
350
4C
  3
B0
350
4D
  3
B1
350
4E
  3
B2
350
4F
  3
B3
350
50
  3
B4
350
51
  3
B5
350
52
  3
B6
350
53
  0
DICTIONARY
  5
68
102
{ACAD_REACTORS
330
C
102
}
330
C
100
AcDbDictionary
281
     1
  3
Imperial24
350
69
  0
DICTIONARY
  5
64
102
{ACAD_REACTORS
330
C
102
}
330
C
100
AcDbDictionary
281
     1
  3
Standard
350
65
  0
DICTIONARY
  5
29
102
{ACAD_REACTORS
330
C
102
}
330
C
100
AcDbDictionary
281
     1
  3
2dWireframe
350
2F
  3
Basic
350
2E
  3
Brighten
350
35
  3
ColorChange
350
39
  3
Conceptual
350
32
  3
Dim
350
34
  3
EdgeColorOff
350
41
  3
Facepattern
350
38
  3
Flat
350
2A
  3
FlatWithEdges
350
2B
  3
Gouraud
350
2C
  3
GouraudWithEdges
350
2D
  3
Hidden
350
31
  3
JitterOff
350
3F
  3
Linepattern
350
37
  3
OverhangOff
350
40
  3
Realistic
350
33
  3
Shaded
350
3E
  3
Shaded with edges
350
3D
  3
Shades of Gray
350
3A
  3
Sketchy
350
3B
  3
Thicken
350
36
  3
Wireframe
350
30
  3
X-Ray
350
3C
  0
XRECORD
  5
190
102
{ACAD_REACTORS
330
C
102
}
330
C
100
AcDbXrecord
280
     1
 90
        1
330
65
  0
DICTIONARY
  5
188
102
{ACAD_REACTORS
330
C
102
}
330
C
100
AcDbDictionary
281
     1
  3
CANNOSCALE
350
18D
  3
CMLEADERSTYLE
350
18A
  3
CTABLESTYLE
350
189
  3
CVIEWDETAILSTYLE
350
18B
  3
CVIEWSECTIONSTYLE
350
18C
  0
ACDBDETAILVIEWSTYLE
  5
6B
102
{ACAD_REACTORS
330
6A
102
}
330
6A
100
AcDbModelDocViewStyle
 70
     0
  3
Imperial24
290
     1
300
Imperial24
 90
        0
100
AcDbDetailViewStyle
 70
     0
 71
     0
 90
        3
 71
     1
340
55
 62
   256
 40
0.24
340
0
 62
   256
 40
0.24
300

 40
0.36
280
     3
 71
     2
340
5D
 90
       25
 62
   256
 71
     3
340
55
 62
   256
 40
0.24
 90
        1
 40
0.75
 90
        1
300
%<\AcVar ViewType \f "%tc1">% %<\AcVar ViewDetailId>%\PSCALE %<\AcVar ViewScale \f "%sn">%
 71
     4
340
5D
 90
       25
 62
   256
340
5D
 90
       25
 62
   256
280
     0
  0
LAYOUT
  5
6F
102
{ACAD_REACTORS
330
62
102
}
330
62
100
AcDbPlotSettings
  1

  2

  4

  6

 40
0.0
 41
0.0
 42
0.0
 43
0.0
 44
0.0
 45
0.0
 46
0.0
 47
0.0
 48
0.0
 49
0.0
140
0.0
141
0.0
142
1.0
143
1.0
 70
   688
 72
     0
 73
     0
 74
     5
  7

 75
    16
147
1.0
 76
     0
 77
     2
 78
   300
148
0.0
149
0.0
100
AcDbLayout
  1
Layout1
 70
     1
 71
     1
 10
0.0
 20
0.0
 11
12.0
 21
9.0
 12
0.0
 22
0.0
 32
0.0
 14
0.0
 24
0.0
 34
0.0
 15
0.0
 25
0.0
 35
0.0
146
0.0
 13
0.0
 23
0.0
 33
0.0
 16
1.0
 26
0.0
 36
0.0
 17
0.0
 27
1.0
 37
0.0
 76
     0
330
6C
  0
LAYOUT
  5
77
102
{ACAD_REACTORS
330
62
102
}
330
62
100
AcDbPlotSettings
  1

  2

  4

  6

 40
0.0
 41
0.0
 42
0.0
 43
0.0
 44
0.0
 45
0.0
 46
0.0
 47
0.0
 48
0.0
 49
0.0
140
0.0
141
0.0
142
1.0
143
1.0
 70
   688
 72
     0
 73
     0
 74
     5
  7

 75
    16
147
1.0
 76
     0
 77
     2
 78
   300
148
0.0
149
0.0
100
AcDbLayout
  1
Layout2
 70
     1
 71
     2
 10
0.0
 20
0.0
 11
12.0
 21
9.0
 12
0.0
 22
0.0
 32
0.0
 14
0.0
 24
0.0
 34
0.0
 15
0.0
 25
0.0
 35
0.0
146
0.0
 13
0.0
 23
0.0
 33
0.0
 16
1.0
 26
0.0
 36
0.0
 17
0.0
 27
1.0
 37
0.0
 76
     0
330
74
  0
LAYOUT
  5
73
102
{ACAD_REACTORS
330
62
102
}
330
62
100
AcDbPlotSettings
  1

  2

  4

  6

 40
0.0
 41
0.0
 42
0.0
 43
0.0
 44
0.0
 45
0.0
 46
0.0
 47
0.0
 48
0.0
 49
0.0
140
0.0
141
0.0
142
1.0
143
1.0
 70
  1712
 72
     0
 73
     0
 74
     0
  7

 75
     0
147
1.0
 76
     0
 77
     2
 78
   300
148
0.0
149
0.0
100
AcDbLayout
  1
Model
 70
     1
 71
     0
 10
0.0
 20
0.0
 11
12.0
 21
9.0
 12
0.0
 22
0.0
 32
0.0
 14
0.0
 24
0.0
 34
0.0
 15
0.0
 25
0.0
 35
0.0
146
0.0
 13
0.0
 23
0.0
 33
0.0
 16
1.0
 26
0.0
 36
0.0
 17
0.0
 27
1.0
 37
0.0
 76
     0
330
70
  0
MATERIAL
  5
19
102
{ACAD_XDICTIONARY
360
1A
102
}
102
{ACAD_REACTORS
330
10
102
}
330
10
100
AcDbMaterial
  1
ByBlock
 72
     0
 43
0.0208333333333333
 43
0.0
 43
0.0
 43
0.0
 43
0.0
 43
0.0208333333333333
 43
0.0
 43
0.0
 43
0.0
 43
0.0
 43
1.0
 43
0.0
 43
0.0
 43
0.0
 43
0.0
 43
1.0
 77
     0
 47
0.0208333333333333
 47
0.0
 47
0.0
 47
0.0
 47
0.0
 47
0.0208333333333333
 47
0.0
 47
0.0
 47
0.0
 47
0.0
 47
1.0
 47
0.0
 47
0.0
 47
0.0
 47
0.0
 47
1.0
171
     0
 49
0.0208333333333333
 49
0.0
 49
0.0
 49
0.0
 49
0.0
 49
0.0208333333333333
 49
0.0
 49
0.0
 49
0.0
 49
0.0
 49
1.0
 49
0.0
 49
0.0
 49
0.0
 49
0.0
 49
1.0
175
     0
142
0.0208333333333333
142
0.0
142
0.0
142
0.0
142
0.0
142
0.0208333333333333
142
0.0
142
0.0
142
0.0
142
0.0
142
1.0
142
0.0
142
0.0
142
0.0
142
0.0
142
1.0
179
     0
144
0.0208333333333333
144
0.0
144
0.0
144
0.0
144
0.0
144
0.0208333333333333
144
0.0
144
0.0
144
0.0
144
0.0
144
1.0
144
0.0
144
0.0
144
0.0
144
0.0
144
1.0
147
0.0208333333333333
147
0.0
147
0.0
147
0.0
147
0.0
147
0.0208333333333333
147
0.0
147
0.0
147
0.0
147
0.0
147
1.0
147
0.0
147
0.0
147
0.0
147
0.0
147
1.0
  0
MATERIAL
  5
11
102
{ACAD_XDICTIONARY
360
12
102
}
102
{ACAD_REACTORS
330
10
102
}
330
10
100
AcDbMaterial
  1
ByLayer
 72
     0
 43
0.0208333333333333
 43
0.0
 43
0.0
 43
0.0
 43
0.0
 43
0.0208333333333333
 43
0.0
 43
0.0
 43
0.0
 43
0.0
 43
1.0
 43
0.0
 43
0.0
 43
0.0
 43
0.0
 43
1.0
 77
     0
 47
0.0208333333333333
 47
0.0
 47
0.0
 47
0.0
 47
0.0
 47
0.0208333333333333
 47
0.0
 47
0.0
 47
0.0
 47
0.0
 47
1.0
 47
0.0
 47
0.0
 47
0.0
 47
0.0
 47
1.0
171
     0
 49
0.0208333333333333
 49
0.0
 49
0.0
 49
0.0
 49
0.0
 49
0.0208333333333333
 49
0.0
 49
0.0
 49
0.0
 49
0.0
 49
1.0
 49
0.0
 49
0.0
 49
0.0
 49
0.0
 49
1.0
175
     0
142
0.0208333333333333
142
0.0
142
0.0
142
0.0
142
0.0
142
0.0208333333333333
142
0.0
142
0.0
142
0.0
142
0.0
142
1.0
142
0.0
142
0.0
142
0.0
142
0.0
142
1.0
179
     0
144
0.0208333333333333
144
0.0
144
0.0
144
0.0
144
0.0
144
0.0208333333333333
144
0.0
144
0.0
144
0.0
144
0.0
144
1.0
144
0.0
144
0.0
144
0.0
144
0.0
144
1.0
147
0.0208333333333333
147
0.0
147
0.0
147
0.0
147
0.0
147
0.0208333333333333
147
0.0
147
0.0
147
0.0
147
0.0
147
1.0
147
0.0
147
0.0
147
0.0
147
0.0
147
1.0
  0
MATERIAL
  5
21
102
{ACAD_XDICTIONARY
360
22
102
}
102
{ACAD_REACTORS
330
10
102
}
330
10
100
AcDbMaterial
  1
Global
 72
     0
 43
0.0208333333333333
 43
0.0
 43
0.0
 43
0.0
 43
0.0
 43
0.0208333333333333
 43
0.0
 43
0.0
 43
0.0
 43
0.0
 43
1.0
 43
0.0
 43
0.0
 43
0.0
 43
0.0
 43
1.0
 77
     0
 47
0.0208333333333333
 47
0.0
 47
0.0
 47
0.0
 47
0.0
 47
0.0208333333333333
 47
0.0
 47
0.0
 47
0.0
 47
0.0
 47
1.0
 47
0.0
 47
0.0
 47
0.0
 47
0.0
 47
1.0
171
     0
 49
0.0208333333333333
 49
0.0
 49
0.0
 49
0.0
 49
0.0
 49
0.0208333333333333
 49
0.0
 49
0.0
 49
0.0
 49
0.0
 49
1.0
 49
0.0
 49
0.0
 49
0.0
 49
0.0
 49
1.0
175
     0
142
0.0208333333333333
142
0.0
142
0.0
142
0.0
142
0.0
142
0.0208333333333333
142
0.0
142
0.0
142
0.0
142
0.0
142
1.0
142
0.0
142
0.0
142
0.0
142
0.0
142
1.0
179
     0
144
0.0208333333333333
144
0.0
144
0.0
144
0.0
144
0.0
144
0.0208333333333333
144
0.0
144
0.0
144
0.0
144
0.0
144
1.0
144
0.0
144
0.0
144
0.0
144
0.0
144
1.0
147
0.0208333333333333
147
0.0
147
0.0
147
0.0
147
0.0
147
0.0208333333333333
147
0.0
147
0.0
147
0.0
147
0.0
147
1.0
147
0.0
147
0.0
147
0.0
147
0.0
147
1.0
  0
MLEADERSTYLE
  5
67
102
{ACAD_REACTORS
330
66
102
}
330
66
100
AcDbMLeaderStyle
179
     2
170
     2
171
     1
172
     0
 90
        2
 40
0.0
 41
0.0
173
     1
 91
-1056964608
340
5B
 92
       -2
290
     1
 42
0.09
291
     1
 43
0.36
  3
Standard
 44
0.18
300

342
55
174
     1
178
     6
175
     1
176
     0
 93
-1056964608
 45
0.18
292
     0
297
     0
 46
0.18
 94
-1056964608
 47
1.0
 49
1.0
140
1.0
293
     1
141
0.0
294
     1
177
     0
142
1.0
295
     1
296
     0
143
0.125
271
     0
272
     9
273
     9
298
     1
  0
MLINESTYLE
  5
60
102
{ACAD_REACTORS
330
5F
102
}
330
5F
100
AcDbMlineStyle
  2
STANDARD
 70
     0
  3

 62
   256
 51
90.0
 52
90.0
 71
     2
 49
0.5
 62
   256
  6
BYLAYER
 49
-0.5
 62
   256
  6
BYLAYER
  0
ACDBPLACEHOLDER
  5
F
102
{ACAD_REACTORS
330
E
102
}
330
E
  0
SCALE
  5
43
102
{ACAD_REACTORS
330
42
102
}
330
42
100
AcDbScale
 70
     0
300
1:1
140
1.0
141
1.0
290
     1
  0
SCALE
  5
44
102
{ACAD_REACTORS
330
42
102
}
330
42
100
AcDbScale
 70
     0
300
1/128" = 1'-0"
140
0.0078125
141
12.0
290
     0
  0
SCALE
  5
45
102
{ACAD_REACTORS
330
42
102
}
330
42
100
AcDbScale
 70
     0
300
1/64" = 1'-0"
140
0.015625
141
12.0
290
     0
  0
SCALE
  5
46
102
{ACAD_REACTORS
330
42
102
}
330
42
100
AcDbScale
 70
     0
300
1/32" = 1'-0"
140
0.03125
141
12.0
290
     0
  0
SCALE
  5
47
102
{ACAD_REACTORS
330
42
102
}
330
42
100
AcDbScale
 70
     0
300
1/16" = 1'-0"
140
0.0625
141
12.0
290
     0
  0
SCALE
  5
48
102
{ACAD_REACTORS
330
42
102
}
330
42
100
AcDbScale
 70
     0
300
3/32" = 1'-0"
140
0.09375
141
12.0
290
     0
  0
SCALE
  5
49
102
{ACAD_REACTORS
330
42
102
}
330
42
100
AcDbScale
 70
     0
300
1/8" = 1'-0"
140
0.125
141
12.0
290
     0
  0
SCALE
  5
4A
102
{ACAD_REACTORS
330
42
102
}
330
42
100
AcDbScale
 70
     0
300
3/16" = 1'-0"
140
0.1875
141
12.0
290
     0
  0
SCALE
  5
4B
102
{ACAD_REACTORS
330
42
102
}
330
42
100
AcDbScale
 70
     0
300
1/4" = 1'-0"
140
0.25
141
12.0
290
     0
  0
SCALE
  5
4C
102
{ACAD_REACTORS
330
42
102
}
330
42
100
AcDbScale
 70
     0
300
3/8" = 1'-0"
140
0.375
141
12.0
290
     0
  0
SCALE
  5
4D
102
{ACAD_REACTORS
330
42
102
}
330
42
100
AcDbScale
 70
     0
300
1/2" = 1'-0"
140
0.5
141
12.0
290
     0
  0
SCALE
  5
4E
102
{ACAD_REACTORS
330
42
102
}
330
42
100
AcDbScale
 70
     0
300
3/4" = 1'-0"
140
0.75
141
12.0
290
     0
  0
SCALE
  5
4F
102
{ACAD_REACTORS
330
42
102
}
330
42
100
AcDbScale
 70
     0
300
1" = 1'-0"
140
1.0
141
12.0
290
     0
  0
SCALE
  5
50
102
{ACAD_REACTORS
330
42
102
}
330
42
100
AcDbScale
 70
     0
300
1-1/2" = 1'-0"
140
1.5
141
12.0
290
     0
  0
SCALE
  5
51
102
{ACAD_REACTORS
330
42
102
}
330
42
100
AcDbScale
 70
     0
300
3" = 1'-0"
140
3.0
141
12.0
290
     0
  0
SCALE
  5
52
102
{ACAD_REACTORS
330
42
102
}
330
42
100
AcDbScale
 70
     0
300
6" = 1'-0"
140
6.0
141
12.0
290
     0
  0
SCALE
  5
53
102
{ACAD_REACTORS
330
42
102
}
330
42
100
AcDbScale
 70
     0
300
1'-0" = 1'-0"
140
12.0
141
12.0
290
     0
  0
ACDBSECTIONVIEWSTYLE
  5
69
102
{ACAD_REACTORS
330
68
102
}
330
68
100
AcDbModelDocViewStyle
 70
     0
  3
Imperial24
290
     1
300
Imperial24
 90
        0
100
AcDbSectionViewStyle
 70
     0
 71
     0
 90
       78
 71
     1
340
55
 62
   256
 40
0.24
340
0
340
0
 62
   256
 40
0.24
300
I, O, Q, S, X, Z
 40
0.48
 90
        3
 40
0.18
 90
        1
 71
     2
340
5D
 90
       25
 62
   256
340
5D
 90
       50
 62
   256
 40
0.24
 40
0.0
 40
0.24
 71
     3
340
55
 62
   256
 40
0.24
 90
        1
 40
0.75
 90
        1
300
%<\AcVar ViewType \f "%tc1">% %<\AcVar ViewSectionStartId>%-%<\AcVar ViewSectionEndId>%\PSCALE %<\AcVar ViewScale \f "%sn">%
 71
     4
 62
   256
 62
   257
300
ANSI31
 40
1.0
 90
        0
290
     0
290
     0
 90
        6
 40
0.0
 40
1.570796326794896
 40
0.2617993877991494
 40
1.308996938995747
 40
-0.2617993877991494
 40
1.832595714594046
  0
TABLESTYLE
  5
65
102
{ACAD_XDICTIONARY
360
18E
102
}
102
{ACAD_REACTORS
330
64
102
}
330
64
100
AcDbTableStyle
280
     0
  3
Standard
 70
     0
 71
     0
 40
0.06
 41
0.06
280
     0
281
     0
  7
Standard
140
0.18
170
     2
 62
     0
 63
     7
283
     0
 90
      512
 91
        0
  1

274
    -2
284
     1
 64
     0
275
    -2
285
     1
 65
     0
276
    -2
286
     1
 66
     0
277
    -2
287
     1
 67
     0
278
    -2
288
     1
 68
     0
279
    -2
289
     1
 69
     0
  7
Standard
140
0.25
170
     5
 62
     0
 63
     7
283
     0
 90
      512
 91
        0
  1

274
    -2
284
     1
 64
     0
275
    -2
285
     1
 65
     0
276
    -2
286
     1
 66
     0
277
    -2
287
     1
 67
     0
278
    -2
288
     1
 68
     0
279
    -2
289
     1
 69
     0
  7
Standard
140
0.18
170
     5
 62
     0
 63
     7
283
     0
 90
      512
 91
        0
  1

274
    -2
284
     1
 64
     0
275
    -2
285
     1
 65
     0
276
    -2
286
     1
 66
     0
277
    -2
287
     1
 67
     0
278
    -2
288
     1
 68
     0
279
    -2
289
     1
 69
     0
  0
VISUALSTYLE
  5
2F
102
{ACAD_REACTORS
330
29
102
}
330
29
100
AcDbVisualStyle
  2
2dWireframe
 70
     4
177
     3
291
     0
 70
    58
 90
        0
176
     1
 90
        2
176
     1
 90
        0
176
     1
 90
        0
176
     1
 40
0.6
176
     1
 40
30.0
176
     1
 62
     7
420
 16777215
176
     1
 90
        1
176
     1
 90
        4
176
     1
 62
     7
176
     1
 62
   257
176
     1
 90
        1
176
     1
 90
        1
176
     1
 40
1.0
176
     1
 90
        0
176
     1
 62
   257
176
     1
 40
1.0
176
     1
 90
        1
176
     1
 90
        6
176
     1
 90
        2
176
     1
 62
     7
176
     1
 90
        5
176
     1
 90
        0
176
     1
 90
        0
176
     1
290
     0
176
     1
 90
        1
176
     1
 40
0.0
176
     1
 90
        0
176
     1
290
     1
176
     1
290
     1
176
     1
290
     0
176
     1
290
     0
176
     1
290
     0
176
     1
290
     0
176
     1
290
     0
176
     1
290
     0
176
     1
290
     0
176
     1
 90
       50
176
     1
 40
0.0
176
     1
 40
1.0
176
     1
 90
        0
176
     1
 62
    18
420
        0
176
     1
 90
       50
176
     1
 90
        3
176
     1
 62
     5
420
      255
176
     1
290
     0
176
     1
 90
       50
176
     1
 90
       50
176
     1
 90
       50
176
     1
290
     0
176
     1
 90
       50
176
     1
 62
   256
176
     0
 40
1.0
176
     0
 90
        2
176
     1
  1
strokes_ogs.tif
176
     1
290
     0
176
     1
 40
1.0
176
     1
 40
1.0
176
     1
  0
VISUALSTYLE
  5
2E
102
{ACAD_REACTORS
330
29
102
}
330
29
100
AcDbVisualStyle
  2
Basic
 70
     7
177
     3
291
     1
 70
    58
 90
        1
176
     1
 90
        0
176
     1
 90
        1
176
     1
 90
        0
176
     1
 40
0.6
176
     1
 40
30.0
176
     1
 62
     7
420
 16777215
176
     1
 90
        0
176
     1
 90
        4
176
     1
 62
     7
176
     1
 62
   257
176
     1
 90
        1
176
     1
 90
        1
176
     1
 40
1.0
176
     1
 90
        8
176
     1
 62
     7
176
     1
 40
1.0
176
     1
 90
        1
176
     1
 90
        6
176
     1
 90
        2
176
     1
 62
     7
176
     1
 90
        5
176
     1
 90
        0
176
     1
 90
        0
176
     1
290
     0
176
     1
 90
        1
176
     1
 40
0.0
176
     1
 90
        0
176
     1
290
     0
176
     1
290
     1
176
     1
290
     1
176
     1
290
     0
176
     1
290
     0
176
     1
290
     0
176
     1
290
     0
176
     1
290
     0
176
     1
290
     0
176
     1
 90
       50
176
     1
 40
0.0
176
     1
 40
1.0
176
     1
 90
        0
176
     1
 62
    18
420
        0
176
     1
 90
       50
176
     1
 90
        3
176
     1
 62
     5
420
      255
176
     1
290
     0
176
     1
 90
       50
176
     1
 90
       50
176
     1
 90
       50
176
     1
290
     0
176
     1
 90
       50
176
     1
 62
   256
176
     0
 40
1.0
176
     0
 90
        2
176
     1
  1
strokes_ogs.tif
176
     1
290
     0
176
     1
 40
1.0
176
     1
 40
1.0
176
     1
  0
VISUALSTYLE
  5
35
102
{ACAD_REACTORS
330
29
102
}
330
29
100
AcDbVisualStyle
  2
Brighten
 70
    12
177
     3
291
     1
 70
    58
 90
        2
176
     1
 90
        2
176
     1
 90
        0
176
     1
 90
        0
176
     1
 40
0.6
176
     1
 40
30.0
176
     1
 62
     7
420
 16777215
176
     1
 90
        1
176
     1
 90
        4
176
     1
 62
     7
176
     1
 62
   257
176
     1
 90
        1
176
     1
 90
        1
176
     1
 40
1.0
176
     1
 90
        8
176
     1
 62
     7
176
     1
 40
1.0
176
     1
 90
        1
176
     1
 90
        6
176
     1
 90
        2
176
     1
 62
     7
176
     1
 90
        5
176
     1
 90
        0
176
     1
 90
        0
176
     1
290
     0
176
     1
 90
        1
176
     1
 40
50.0
176
     1
 90
        0
176
     1
290
     0
176
     1
290
     1
176
     1
290
     1
176
     1
290
     0
176
     1
290
     0
176
     1
290
     0
176
     1
290
     0
176
     1
290
     0
176
     1
290
     0
176
     1
 90
       50
176
     1
 40
0.0
176
     1
 40
1.0
176
     1
 90
        0
176
     1
 62
    18
420
        0
176
     1
 90
       50
176
     1
 90
        3
176
     1
 62
     5
420
      255
176
     1
290
     0
176
     1
 90
       50
176
     1
 90
       50
176
     1
 90
       50
176
     1
290
     0
176
     1
 90
       50
176
     1
 62
   256
176
     0
 40
1.0
176
     0
 90
        2
176
     1
  1
strokes_ogs.tif
176
     1
290
     0
176
     1
 40
1.0
176
     1
 40
1.0
176
     1
  0
VISUALSTYLE
  5
39
102
{ACAD_REACTORS
330
29
102
}
330
29
100
AcDbVisualStyle
  2
ColorChange
 70
    16
177
     3
291
     1
 70
    58
 90
        2
176
     1
 90
        2
176
     1
 90
        3
176
     1
 90
        0
176
     1
 40
0.6
176
     1
 40
30.0
176
     1
 62
     8
420
  8421504
176
     1
 90
        1
176
     1
 90
        4
176
     1
 62
     7
176
     1
 62
   257
176
     1
 90
        1
176
     1
 90
        1
176
     1
 40
1.0
176
     1
 90
        8
176
     1
 62
     8
420
  8421504
176
     1
 40
1.0
176
     1
 90
        1
176
     1
 90
        6
176
     1
 90
        2
176
     1
 62
     7
176
     1
 90
        5
176
     1
 90
        0
176
     1
 90
        0
176
     1
290
     0
176
     1
 90
        1
176
     1
 40
0.0
176
     1
 90
        0
176
     1
290
     0
176
     1
290
     1
176
     1
290
     1
176
     1
290
     0
176
     1
290
     0
176
     1
290
     0
176
     1
290
     0
176
     1
290
     0
176
     1
290
     0
176
     1
 90
       50
176
     1
 40
0.0
176
     1
 40
1.0
176
     1
 90
        0
176
     1
 62
    18
420
        0
176
     1
 90
       50
176
     1
 90
        3
176
     1
 62
     5
420
      255
176
     1
290
     0
176
     1
 90
       50
176
     1
 90
       50
176
     1
 90
       50
176
     1
290
     0
176
     1
 90
       50
176
     1
 62
   256
176
     0
 40
1.0
176
     0
 90
        2
176
     1
  1
strokes_ogs.tif
176
     1
290
     0
176
     1
 40
1.0
176
     1
 40
1.0
176
     1
  0
VISUALSTYLE
  5
32
102
{ACAD_REACTORS
330
29
102
}
330
29
100
AcDbVisualStyle
  2
Conceptual
 70
     9
177
     3
291
     0
 70
    58
 90
        3
176
     1
 90
        2
176
     1
 90
        0
176
     1
 90
        0
176
     1
 40
0.6
176
     1
 40
30.0
176
     1
 62
     7
420
 16777215
176
     1
 90
        2
176
     1
 90
        2
176
     1
 62
     7
176
     1
 62
   257
176
     1
 90
        1
176
     1
 90
        1
176
     1
 40
179.0
176
     1
 90
        8
176
     1
 62
     7
176
     1
 40
1.0
176
     1
 90
        1
176
     1
 90
        6
176
     1
 90
        2
176
     1
 62
     7
176
     1
 90
        3
176
     1
 90
        0
176
     1
 90
        0
176
     1
290
     0
176
     1
 90
        1
176
     1
 40
0.0
176
     1
 90
        0
176
     1
290
     0
176
     1
290
     1
176
     1
290
     1
176
     1
290
     0
176
     1
290
     0
176
     1
290
     0
176
     1
290
     0
176
     1
290
     0
176
     1
290
     0
176
     1
 90
       50
176
     1
 40
0.0
176
     1
 40
1.0
176
     1
 90
        0
176
     1
 62
    18
420
        0
176
     1
 90
       50
176
     1
 90
        3
176
     1
 62
     5
420
      255
176
     1
290
     0
176
     1
 90
       50
176
     1
 90
       50
176
     1
 90
       50
176
     1
290
     0
176
     1
 90
       50
176
     1
 62
   256
176
     0
 40
1.0
176
     0
 90
        2
176
     1
  1
strokes_ogs.tif
176
     1
290
     0
176
     1
 40
1.0
176
     1
 40
1.0
176
     1
  0
VISUALSTYLE
  5
34
102
{ACAD_REACTORS
330
29
102
}
330
29
100
AcDbVisualStyle
  2
Dim
 70
    11
177
     3
291
     1
 70
    58
 90
        2
176
     1
 90
        2
176
     1
 90
        0
176
     1
 90
        0
176
     1
 40
0.6
176
     1
 40
30.0
176
     1
 62
     7
420
 16777215
176
     1
 90
        1
176
     1
 90
        4
176
     1
 62
     7
176
     1
 62
   257
176
     1
 90
        1
176
     1
 90
        1
176
     1
 40
1.0
176
     1
 90
        8
176
     1
 62
     7
176
     1
 40
1.0
176
     1
 90
        1
176
     1
 90
        6
176
     1
 90
        2
176
     1
 62
     7
176
     1
 90
        5
176
     1
 90
        0
176
     1
 90
        0
176
     1
290
     0
176
     1
 90
        1
176
     1
 40
-50.0
176
     1
 90
        0
176
     1
290
     0
176
     1
290
     1
176
     1
290
     1
176
     1
290
     0
176
     1
290
     0
176
     1
290
     0
176
     1
290
     0
176
     1
290
     0
176
     1
290
     0
176
     1
 90
       50
176
     1
 40
0.0
176
     1
 40
1.0
176
     1
 90
        0
176
     1
 62
    18
420
        0
176
     1
 90
       50
176
     1
 90
        3
176
     1
 62
     5
420
      255
176
     1
290
     0
176
     1
 90
       50
176
     1
 90
       50
176
     1
 90
       50
176
     1
290
     0
176
     1
 90
       50
176
     1
 62
   256
176
     0
 40
1.0
176
     0
 90
        2
176
     1
  1
strokes_ogs.tif
176
     1
290
     0
176
     1
 40
1.0
176
     1
 40
1.0
176
     1
  0
VISUALSTYLE
  5
41
102
{ACAD_REACTORS
330
29
102
}
330
29
100
AcDbVisualStyle
  2
EdgeColorOff
 70
    22
177
     3
291
     1
 70
    58
 90
        2
176
     0
 90
        2
176
     0
 90
        0
176
     0
 90
        0
176
     0
 40
0.6
176
     0
 40
30.0
176
     0
 62
     7
420
 16777215
176
     0
 90
        1
176
     0
 90
        4
176
     0
 62
     7
176
     0
 62
   257
176
     0
 90
        1
176
     0
 90
        1
176
     0
 40
1.0
176
     0
 90
        8
176
     2
 62
     7
176
     0
 40
1.0
176
     0
 90
        1
176
     0
 90
        6
176
     0
 90
        2
176
     0
 62
     7
176
     0
 90
        5
176
     0
 90
        0
176
     0
 90
        0
176
     0
290
     0
176
     0
 90
        1
176
     0
 40
0.0
176
     0
 90
        0
176
     0
290
     0
176
     0
290
     1
176
     0
290
     1
176
     0
290
     0
176
     0
290
     0
176
     0
290
     0
176
     0
290
     0
176
     0
290
     0
176
     0
290
     0
176
     0
 90
       50
176
     0
 40
0.0
176
     0
 40
1.0
176
     0
 90
        0
176
     0
 62
    18
420
        0
176
     0
 90
       50
176
     0
 90
        3
176
     0
 62
     5
420
      255
176
     0
290
     0
176
     0
 90
       50
176
     0
 90
       50
176
     0
 90
       50
176
     0
290
     0
176
     0
 90
       50
176
     0
 62
   256
176
     0
 40
1.0
176
     0
 90
        2
176
     0
  1
strokes_ogs.tif
176
     0
290
     0
176
     0
 40
1.0
176
     0
 40
1.0
176
     0
  0
VISUALSTYLE
  5
38
102
{ACAD_REACTORS
330
29
102
}
330
29
100
AcDbVisualStyle
  2
Facepattern
 70
    15
177
     3
291
     1
 70
    58
 90
        2
176
     1
 90
        2
176
     1
 90
        0
176
     1
 90
        0
176
     1
 40
0.6
176
     1
 40
30.0
176
     1
 62
     7
420
 16777215
176
     1
 90
        1
176
     1
 90
        4
176
     1
 62
     7
176
     1
 62
   257
176
     1
 90
        1
176
     1
 90
        1
176
     1
 40
1.0
176
     1
 90
        8
176
     1
 62
     7
176
     1
 40
1.0
176
     1
 90
        1
176
     1
 90
        6
176
     1
 90
        2
176
     1
 62
     7
176
     1
 90
        5
176
     1
 90
        0
176
     1
 90
        0
176
     1
290
     0
176
     1
 90
        1
176
     1
 40
0.0
176
     1
 90
        0
176
     1
290
     0
176
     1
290
     1
176
     1
290
     1
176
     1
290
     0
176
     1
290
     0
176
     1
290
     0
176
     1
290
     0
176
     1
290
     0
176
     1
290
     0
176
     1
 90
       50
176
     1
 40
0.0
176
     1
 40
1.0
176
     1
 90
        0
176
     1
 62
    18
420
        0
176
     1
 90
       50
176
     1
 90
        3
176
     1
 62
     5
420
      255
176
     1
290
     0
176
     1
 90
       50
176
     1
 90
       50
176
     1
 90
       50
176
     1
290
     0
176
     1
 90
       50
176
     1
 62
   256
176
     0
 40
1.0
176
     0
 90
        2
176
     1
  1
strokes_ogs.tif
176
     1
290
     0
176
     1
 40
1.0
176
     1
 40
1.0
176
     1
  0
VISUALSTYLE
  5
2A
102
{ACAD_REACTORS
330
29
102
}
330
29
100
AcDbVisualStyle
  2
Flat
 70
     0
177
     3
291
     1
 70
    58
 90
        2
176
     1
 90
        1
176
     1
 90
        1
176
     1
 90
        2
176
     1
 40
0.6
176
     1
 40
30.0
176
     1
 62
     7
420
 16777215
176
     1
 90
        0
176
     1
 90
        0
176
     1
 62
     7
176
     1
 62
   257
176
     1
 90
        1
176
     1
 90
        1
176
     1
 40
1.0
176
     1
 90
        8
176
     1
 62
     7
176
     1
 40
1.0
176
     1
 90
        1
176
     1
 90
        6
176
     1
 90
        2
176
     1
 62
     7
176
     1
 90
        5
176
     1
 90
        0
176
     1
 90
        0
176
     1
290
     0
176
     1
 90
       13
176
     1
 40
0.0
176
     1
 90
        0
176
     1
290
     0
176
     1
290
     1
176
     1
290
     1
176
     1
290
     0
176
     1
290
     0
176
     1
290
     0
176
     1
290
     0
176
     1
290
     0
176
     1
290
     0
176
     1
 90
       50
176
     1
 40
0.0
176
     1
 40
1.0
176
     1
 90
        0
176
     1
 62
    18
420
        0
176
     1
 90
       50
176
     1
 90
        3
176
     1
 62
     5
420
      255
176
     1
290
     0
176
     1
 90
       50
176
     1
 90
       50
176
     1
 90
       50
176
     1
290
     0
176
     1
 90
       50
176
     1
 62
   256
176
     0
 40
1.0
176
     0
 90
        2
176
     1
  1
strokes_ogs.tif
176
     1
290
     0
176
     1
 40
1.0
176
     1
 40
1.0
176
     1
  0
VISUALSTYLE
  5
2B
102
{ACAD_REACTORS
330
29
102
}
330
29
100
AcDbVisualStyle
  2
FlatWithEdges
 70
     1
177
     3
291
     1
 70
    58
 90
        2
176
     1
 90
        1
176
     1
 90
        1
176
     1
 90
        2
176
     1
 40
0.6
176
     1
 40
30.0
176
     1
 62
     7
420
 16777215
176
     1
 90
        1
176
     1
 90
        0
176
     1
 62
     7
176
     1
 62
   257
176
     1
 90
        1
176
     1
 90
        1
176
     1
 40
1.0
176
     1
 90
        0
176
     1
 62
   257
176
     1
 40
1.0
176
     1
 90
        1
176
     1
 90
        6
176
     1
 90
        2
176
     1
 62
     7
176
     1
 90
        5
176
     1
 90
        0
176
     1
 90
        0
176
     1
290
     0
176
     1
 90
       13
176
     1
 40
0.0
176
     1
 90
        0
176
     1
290
     0
176
     1
290
     1
176
     1
290
     1
176
     1
290
     0
176
     1
290
     0
176
     1
290
     0
176
     1
290
     0
176
     1
290
     0
176
     1
290
     0
176
     1
 90
       50
176
     1
 40
0.0
176
     1
 40
1.0
176
     1
 90
        0
176
     1
 62
    18
420
        0
176
     1
 90
       50
176
     1
 90
        3
176
     1
 62
     5
420
      255
176
     1
290
     0
176
     1
 90
       50
176
     1
 90
       50
176
     1
 90
       50
176
     1
290
     0
176
     1
 90
       50
176
     1
 62
   256
176
     0
 40
1.0
176
     0
 90
        2
176
     1
  1
strokes_ogs.tif
176
     1
290
     0
176
     1
 40
1.0
176
     1
 40
1.0
176
     1
  0
VISUALSTYLE
  5
2C
102
{ACAD_REACTORS
330
29
102
}
330
29
100
AcDbVisualStyle
  2
Gouraud
 70
     2
177
     3
291
     1
 70
    58
 90
        2
176
     1
 90
        2
176
     1
 90
        1
176
     1
 90
        2
176
     1
 40
0.6
176
     1
 40
30.0
176
     1
 62
     7
420
 16777215
176
     1
 90
        0
176
     1
 90
        0
176
     1
 62
     7
176
     1
 62
   257
176
     1
 90
        1
176
     1
 90
        1
176
     1
 40
1.0
176
     1
 90
        0
176
     1
 62
     7
176
     1
 40
1.0
176
     1
 90
        1
176
     1
 90
        6
176
     1
 90
        2
176
     1
 62
     7
176
     1
 90
        5
176
     1
 90
        0
176
     1
 90
        0
176
     1
290
     0
176
     1
 90
       13
176
     1
 40
0.0
176
     1
 90
        0
176
     1
290
     0
176
     1
290
     1
176
     1
290
     1
176
     1
290
     0
176
     1
290
     0
176
     1
290
     0
176
     1
290
     0
176
     1
290
     0
176
     1
290
     0
176
     1
 90
       50
176
     1
 40
0.0
176
     1
 40
1.0
176
     1
 90
        0
176
     1
 62
    18
420
        0
176
     1
 90
       50
176
     1
 90
        3
176
     1
 62
     5
420
      255
176
     1
290
     0
176
     1
 90
       50
176
     1
 90
       50
176
     1
 90
       50
176
     1
290
     0
176
     1
 90
       50
176
     1
 62
   256
176
     0
 40
1.0
176
     0
 90
        2
176
     1
  1
strokes_ogs.tif
176
     1
290
     0
176
     1
 40
1.0
176
     1
 40
1.0
176
     1
  0
VISUALSTYLE
  5
2D
102
{ACAD_REACTORS
330
29
102
}
330
29
100
AcDbVisualStyle
  2
GouraudWithEdges
 70
     3
177
     3
291
     1
 70
    58
 90
        2
176
     1
 90
        2
176
     1
 90
        1
176
     1
 90
        2
176
     1
 40
0.6
176
     1
 40
30.0
176
     1
 62
     7
420
 16777215
176
     1
 90
        1
176
     1
 90
        0
176
     1
 62
     7
176
     1
 62
   257
176
     1
 90
        1
176
     1
 90
        1
176
     1
 40
1.0
176
     1
 90
        0
176
     1
 62
   257
176
     1
 40
1.0
176
     1
 90
        1
176
     1
 90
        6
176
     1
 90
        2
176
     1
 62
     7
176
     1
 90
        5
176
     1
 90
        0
176
     1
 90
        0
176
     1
290
     0
176
     1
 90
       13
176
     1
 40
0.0
176
     1
 90
        0
176
     1
290
     0
176
     1
290
     1
176
     1
290
     1
176
     1
290
     0
176
     1
290
     0
176
     1
290
     0
176
     1
290
     0
176
     1
290
     0
176
     1
290
     0
176
     1
 90
       50
176
     1
 40
0.0
176
     1
 40
1.0
176
     1
 90
        0
176
     1
 62
    18
420
        0
176
     1
 90
       50
176
     1
 90
        3
176
     1
 62
     5
420
      255
176
     1
290
     0
176
     1
 90
       50
176
     1
 90
       50
176
     1
 90
       50
176
     1
290
     0
176
     1
 90
       50
176
     1
 62
   256
176
     0
 40
1.0
176
     0
 90
        2
176
     1
  1
strokes_ogs.tif
176
     1
290
     0
176
     1
 40
1.0
176
     1
 40
1.0
176
     1
  0
VISUALSTYLE
  5
31
102
{ACAD_REACTORS
330
29
102
}
330
29
100
AcDbVisualStyle
  2
Hidden
 70
     6
177
     3
291
     0
 70
    58
 90
        1
176
     1
 90
        2
176
     1
 90
        2
176
     1
 90
        0
176
     1
 40
0.6
176
     1
 40
30.0
176
     1
 62
     7
420
 16777215
176
     1
 90
        2
176
     1
 90
        2
176
     1
 62
     7
176
     1
 62
   257
176
     1
 90
        2
176
     1
 90
        1
176
     1
 40
40.0
176
     1
 90
        0
176
     1
 62
   257
176
     1
 40
1.0
176
     1
 90
        1
176
     1
 90
        6
176
     1
 90
        2
176
     1
 62
     7
176
     1
 90
        3
176
     1
 90
        0
176
     1
 90
        0
176
     1
290
     0
176
     1
 90
        1
176
     1
 40
0.0
176
     1
 90
        0
176
     1
290
     0
176
     1
290
     1
176
     1
290
     1
176
     1
290
     0
176
     1
290
     0
176
     1
290
     0
176
     1
290
     0
176
     1
290
     0
176
     1
290
     0
176
     1
 90
       50
176
     1
 40
0.0
176
     1
 40
1.0
176
     1
 90
        0
176
     1
 62
    18
420
        0
176
     1
 90
       50
176
     1
 90
        3
176
     1
 62
     5
420
      255
176
     1
290
     0
176
     1
 90
       50
176
     1
 90
       50
176
     1
 90
       50
176
     1
290
     0
176
     1
 90
       50
176
     1
 62
   256
176
     0
 40
1.0
176
     0
 90
        2
176
     1
  1
strokes_ogs.tif
176
     1
290
     0
176
     1
 40
1.0
176
     1
 40
1.0
176
     1
  0
VISUALSTYLE
  5
3F
102
{ACAD_REACTORS
330
29
102
}
330
29
100
AcDbVisualStyle
  2
JitterOff
 70
    20
177
     3
291
     1
 70
    58
 90
        2
176
     0
 90
        2
176
     0
 90
        0
176
     0
 90
        0
176
     0
 40
0.6
176
     0
 40
30.0
176
     0
 62
     7
420
 16777215
176
     0
 90
        1
176
     0
 90
        4
176
     0
 62
     7
176
     0
 62
   257
176
     0
 90
        1
176
     0
 90
        1
176
     0
 40
1.0
176
     0
 90
       10
176
     2
 62
     7
176
     0
 40
1.0
176
     0
 90
        1
176
     0
 90
        6
176
     0
 90
        2
176
     0
 62
     7
176
     0
 90
        5
176
     0
 90
        0
176
     0
 90
        0
176
     0
290
     0
176
     0
 90
        1
176
     0
 40
0.0
176
     0
 90
        0
176
     0
290
     0
176
     0
290
     1
176
     0
290
     1
176
     0
290
     0
176
     0
290
     0
176
     0
290
     0
176
     0
290
     0
176
     0
290
     0
176
     0
290
     0
176
     0
 90
       50
176
     0
 40
0.0
176
     0
 40
1.0
176
     0
 90
        0
176
     0
 62
    18
420
        0
176
     0
 90
       50
176
     0
 90
        3
176
     0
 62
     5
420
      255
176
     0
290
     0
176
     0
 90
       50
176
     0
 90
       50
176
     0
 90
       50
176
     0
290
     0
176
     0
 90
       50
176
     0
 62
   256
176
     0
 40
1.0
176
     0
 90
        2
176
     0
  1
strokes_ogs.tif
176
     0
290
     0
176
     0
 40
1.0
176
     0
 40
1.0
176
     0
  0
VISUALSTYLE
  5
37
102
{ACAD_REACTORS
330
29
102
}
330
29
100
AcDbVisualStyle
  2
Linepattern
 70
    14
177
     3
291
     1
 70
    58
 90
        2
176
     1
 90
        2
176
     1
 90
        0
176
     1
 90
        0
176
     1
 40
0.6
176
     1
 40
30.0
176
     1
 62
     7
420
 16777215
176
     1
 90
        1
176
     1
 90
        4
176
     1
 62
     7
176
     1
 62
   257
176
     1
 90
        7
176
     1
 90
        7
176
     1
 40
1.0
176
     1
 90
        8
176
     1
 62
     7
176
     1
 40
1.0
176
     1
 90
        1
176
     1
 90
        6
176
     1
 90
        2
176
     1
 62
     7
176
     1
 90
        5
176
     1
 90
        0
176
     1
 90
        0
176
     1
290
     0
176
     1
 90
        1
176
     1
 40
0.0
176
     1
 90
        0
176
     1
290
     0
176
     1
290
     1
176
     1
290
     1
176
     1
290
     0
176
     1
290
     0
176
     1
290
     0
176
     1
290
     0
176
     1
290
     0
176
     1
290
     0
176
     1
 90
       50
176
     1
 40
0.0
176
     1
 40
1.0
176
     1
 90
        0
176
     1
 62
    18
420
        0
176
     1
 90
       50
176
     1
 90
        3
176
     1
 62
     5
420
      255
176
     1
290
     0
176
     1
 90
       50
176
     1
 90
       50
176
     1
 90
       50
176
     1
290
     0
176
     1
 90
       50
176
     1
 62
   256
176
     0
 40
1.0
176
     0
 90
        2
176
     1
  1
strokes_ogs.tif
176
     1
290
     0
176
     1
 40
1.0
176
     1
 40
1.0
176
     1
  0
VISUALSTYLE
  5
40
102
{ACAD_REACTORS
330
29
102
}
330
29
100
AcDbVisualStyle
  2
OverhangOff
 70
    21
177
     3
291
     1
 70
    58
 90
        2
176
     0
 90
        2
176
     0
 90
        0
176
     0
 90
        0
176
     0
 40
0.6
176
     0
 40
30.0
176
     0
 62
     7
420
 16777215
176
     0
 90
        1
176
     0
 90
        4
176
     0
 62
     7
176
     0
 62
   257
176
     0
 90
        1
176
     0
 90
        1
176
     0
 40
1.0
176
     0
 90
        9
176
     2
 62
     7
176
     0
 40
1.0
176
     0
 90
        1
176
     0
 90
        6
176
     0
 90
        2
176
     0
 62
     7
176
     0
 90
        5
176
     0
 90
        0
176
     0
 90
        0
176
     0
290
     0
176
     0
 90
        1
176
     0
 40
0.0
176
     0
 90
        0
176
     0
290
     0
176
     0
290
     1
176
     0
290
     1
176
     0
290
     0
176
     0
290
     0
176
     0
290
     0
176
     0
290
     0
176
     0
290
     0
176
     0
290
     0
176
     0
 90
       50
176
     0
 40
0.0
176
     0
 40
1.0
176
     0
 90
        0
176
     0
 62
    18
420
        0
176
     0
 90
       50
176
     0
 90
        3
176
     0
 62
     5
420
      255
176
     0
290
     0
176
     0
 90
       50
176
     0
 90
       50
176
     0
 90
       50
176
     0
290
     0
176
     0
 90
       50
176
     0
 62
   256
176
     0
 40
1.0
176
     0
 90
        2
176
     0
  1
strokes_ogs.tif
176
     0
290
     0
176
     0
 40
1.0
176
     0
 40
1.0
176
     0
  0
VISUALSTYLE
  5
33
102
{ACAD_REACTORS
330
29
102
}
330
29
100
AcDbVisualStyle
  2
Realistic
 70
     8
177
     3
291
     0
 70
    58
 90
        2
176
     1
 90
        3
176
     1
 90
        0
176
     1
 90
        2
176
     1
 40
0.6
176
     1
 40
30.0
176
     1
 62
     7
420
 16777215
176
     1
 90
        0
176
     1
 90
        0
176
     1
 62
     7
176
     1
 62
   257
176
     1
 90
        1
176
     1
 90
        1
176
     1
 40
1.0
176
     1
 90
        8
176
     1
 62
   257
176
     1
 40
1.0
176
     1
 90
        1
176
     1
 90
        6
176
     1
 90
        2
176
     1
 62
     7
176
     1
 90
        3
176
     1
 90
        0
176
     1
 90
        0
176
     1
290
     0
176
     1
 90
       13
176
     1
 40
0.0
176
     1
 90
        0
176
     1
290
     0
176
     1
290
     1
176
     1
290
     1
176
     1
290
     0
176
     1
290
     0
176
     1
290
     0
176
     1
290
     0
176
     1
290
     0
176
     1
290
     0
176
     1
 90
       50
176
     1
 40
0.0
176
     1
 40
1.0
176
     1
 90
        0
176
     1
 62
    18
420
        0
176
     1
 90
       50
176
     1
 90
        3
176
     1
 62
     5
420
      255
176
     1
290
     0
176
     1
 90
       50
176
     1
 90
       50
176
     1
 90
       50
176
     1
290
     0
176
     1
 90
       50
176
     1
 62
   256
176
     0
 40
1.0
176
     0
 90
        2
176
     1
  1
strokes_ogs.tif
176
     1
290
     0
176
     1
 40
1.0
176
     1
 40
1.0
176
     1
  0
VISUALSTYLE
  5
3E
102
{ACAD_REACTORS
330
29
102
}
330
29
100
AcDbVisualStyle
  2
Shaded
 70
    27
177
     3
291
     0
 70
    58
 90
        2
176
     1
 90
        2
176
     1
 90
        1
176
     1
 90
        2
176
     1
 40
0.6
176
     1
 40
30.0
176
     1
 62
     7
420
 16777215
176
     1
 90
        0
176
     1
 90
        4
176
     1
 62
     7
176
     1
 62
   257
176
     1
 90
        1
176
     1
 90
        1
176
     1
 40
1.0
176
     1
 90
        8
176
     1
 62
   257
176
     1
 40
1.0
176
     1
 90
        1
176
     1
 90
        6
176
     1
 90
        2
176
     1
 62
     8
420
  7895160
176
     1
 90
        3
176
     1
 90
        0
176
     1
 90
        0
176
     1
290
     0
176
     1
 90
        5
176
     1
 40
0.0
176
     1
 90
        0
176
     1
290
     0
176
     1
290
     1
176
     1
290
     1
176
     1
290
     0
176
     1
290
     0
176
     1
290
     0
176
     1
290
     0
176
     1
290
     0
176
     1
290
     0
176
     1
 90
       50
176
     1
 40
0.0
176
     1
 40
1.0
176
     1
 90
        0
176
     1
 62
    18
420
        0
176
     1
 90
       50
176
     1
 90
        3
176
     1
 62
     5
420
      255
176
     1
290
     0
176
     1
 90
       50
176
     1
 90
       50
176
     1
 90
       50
176
     1
290
     0
176
     1
 90
       50
176
     1
 62
   256
176
     0
 40
1.0
176
     0
 90
        2
176
     1
  1
strokes_ogs.tif
176
     1
290
     0
176
     1
 40
1.0
176
     1
 40
1.0
176
     1
  0
VISUALSTYLE
  5
3D
102
{ACAD_REACTORS
330
29
102
}
330
29
100
AcDbVisualStyle
  2
Shaded with edges
 70
    26
177
     3
291
     0
 70
    58
 90
        2
176
     1
 90
        2
176
     1
 90
        1
176
     1
 90
        2
176
     1
 40
0.6
176
     1
 40
30.0
176
     1
 62
     7
420
 16777215
176
     1
 90
        1
176
     1
 90
        2
176
     1
 62
     7
176
     1
 62
   257
176
     1
 90
        2
176
     1
 90
        1
176
     1
 40
1.0
176
     1
 90
        8
176
     1
 62
   257
176
     1
 40
1.0
176
     1
 90
        1
176
     1
 90
        6
176
     1
 90
        2
176
     1
 62
     7
176
     1
 90
        3
176
     1
 90
        0
176
     1
 90
        0
176
     1
290
     0
176
     1
 90
        5
176
     1
 40
0.0
176
     1
 90
        0
176
     1
290
     0
176
     1
290
     1
176
     1
290
     1
176
     1
290
     0
176
     1
290
     0
176
     1
290
     0
176
     1
290
     0
176
     1
290
     0
176
     1
290
     0
176
     1
 90
       50
176
     1
 40
0.0
176
     1
 40
1.0
176
     1
 90
        0
176
     1
 62
    18
420
        0
176
     1
 90
       50
176
     1
 90
        3
176
     1
 62
     5
420
      255
176
     1
290
     0
176
     1
 90
       50
176
     1
 90
       50
176
     1
 90
       50
176
     1
290
     0
176
     1
 90
       50
176
     1
 62
   256
176
     0
 40
1.0
176
     0
 90
        2
176
     1
  1
strokes_ogs.tif
176
     1
290
     0
176
     1
 40
1.0
176
     1
 40
1.0
176
     1
  0
VISUALSTYLE
  5
3A
102
{ACAD_REACTORS
330
29
102
}
330
29
100
AcDbVisualStyle
  2
Shades of Gray
 70
    23
177
     3
291
     0
 70
    58
 90
        2
176
     1
 90
        2
176
     1
 90
        3
176
     1
 90
        0
176
     1
 40
0.6
176
     1
 40
30.0
176
     1
 62
     7
420
 16777215
176
     1
 90
        2
176
     1
 90
        2
176
     1
 62
     7
176
     1
 62
     7
176
     1
 90
        1
176
     1
 90
        1
176
     1
 40
40.0
176
     1
 90
        8
176
     1
 62
     7
176
     1
 40
1.0
176
     1
 90
        1
176
     1
 90
        6
176
     1
 90
        2
176
     1
 62
     7
176
     1
 90
        3
176
     1
 90
        0
176
     1
 90
        0
176
     1
290
     0
176
     1
 90
        1
176
     1
 40
0.0
176
     1
 90
        0
176
     1
290
     0
176
     1
290
     1
176
     1
290
     1
176
     1
290
     0
176
     1
290
     0
176
     1
290
     0
176
     1
290
     0
176
     1
290
     0
176
     1
290
     0
176
     1
 90
       50
176
     1
 40
0.0
176
     1
 40
1.0
176
     1
 90
        0
176
     1
 62
    18
420
        0
176
     1
 90
       50
176
     1
 90
        3
176
     1
 62
     5
420
      255
176
     1
290
     0
176
     1
 90
       50
176
     1
 90
       50
176
     1
 90
       50
176
     1
290
     0
176
     1
 90
       50
176
     1
 62
   256
176
     0
 40
1.0
176
     0
 90
        2
176
     1
  1
strokes_ogs.tif
176
     1
290
     0
176
     1
 40
1.0
176
     1
 40
1.0
176
     1
  0
VISUALSTYLE
  5
3B
102
{ACAD_REACTORS
330
29
102
}
330
29
100
AcDbVisualStyle
  2
Sketchy
 70
    24
177
     3
291
     0
 70
    58
 90
        1
176
     1
 90
        2
176
     1
 90
        2
176
     1
 90
        0
176
     1
 40
0.6
176
     1
 40
30.0
176
     1
 62
     7
420
 16777215
176
     1
 90
        2
176
     1
 90
        2
176
     1
 62
     7
176
     1
 62
     7
176
     1
 90
        1
176
     1
 90
        1
176
     1
 40
40.0
176
     1
 90
       11
176
     1
 62
     7
176
     1
 40
1.0
176
     1
 90
        1
176
     1
 90
        6
176
     1
 90
        2
176
     1
 62
     7
176
     1
 90
        6
176
     1
 90
        0
176
     1
 90
        0
176
     1
290
     0
176
     1
 90
        1
176
     1
 40
0.0
176
     1
 90
        0
176
     1
290
     0
176
     1
290
     1
176
     1
290
     1
176
     1
290
     0
176
     1
290
     0
176
     1
290
     0
176
     1
290
     0
176
     1
290
     0
176
     1
290
     0
176
     1
 90
       50
176
     1
 40
0.0
176
     1
 40
1.0
176
     1
 90
        0
176
     1
 62
    18
420
        0
176
     1
 90
       50
176
     1
 90
        3
176
     1
 62
     5
420
      255
176
     1
290
     0
176
     1
 90
       50
176
     1
 90
       50
176
     1
 90
       50
176
     1
290
     0
176
     1
 90
       50
176
     1
 62
   256
176
     0
 40
1.0
176
     0
 90
        2
176
     1
  1
strokes_ogs.tif
176
     1
290
     0
176
     1
 40
1.0
176
     1
 40
1.0
176
     1
  0
VISUALSTYLE
  5
36
102
{ACAD_REACTORS
330
29
102
}
330
29
100
AcDbVisualStyle
  2
Thicken
 70
    13
177
     3
291
     1
 70
    58
 90
        2
176
     1
 90
        2
176
     1
 90
        0
176
     1
 90
        0
176
     1
 40
0.6
176
     1
 40
30.0
176
     1
 62
     7
420
 16777215
176
     1
 90
        1
176
     1
 90
        4
176
     1
 62
     7
176
     1
 62
   257
176
     1
 90
        1
176
     1
 90
        1
176
     1
 40
1.0
176
     1
 90
       12
176
     1
 62
     7
176
     1
 40
1.0
176
     1
 90
        1
176
     1
 90
        6
176
     1
 90
        2
176
     1
 62
     7
176
     1
 90
        5
176
     1
 90
        0
176
     1
 90
        0
176
     1
290
     0
176
     1
 90
        1
176
     1
 40
0.0
176
     1
 90
        0
176
     1
290
     0
176
     1
290
     1
176
     1
290
     1
176
     1
290
     0
176
     1
290
     0
176
     1
290
     0
176
     1
290
     0
176
     1
290
     0
176
     1
290
     0
176
     1
 90
       50
176
     1
 40
0.0
176
     1
 40
1.0
176
     1
 90
        0
176
     1
 62
    18
420
        0
176
     1
 90
       50
176
     1
 90
        3
176
     1
 62
     5
420
      255
176
     1
290
     0
176
     1
 90
       50
176
     1
 90
       50
176
     1
 90
       50
176
     1
290
     0
176
     1
 90
       50
176
     1
 62
   256
176
     0
 40
1.0
176
     0
 90
        2
176
     1
  1
strokes_ogs.tif
176
     1
290
     0
176
     1
 40
1.0
176
     1
 40
1.0
176
     1
  0
VISUALSTYLE
  5
30
102
{ACAD_REACTORS
330
29
102
}
330
29
100
AcDbVisualStyle
  2
Wireframe
 70
     5
177
     3
291
     0
 70
    58
 90
        0
176
     1
 90
        2
176
     1
 90
        0
176
     1
 90
        0
176
     1
 40
0.6
176
     1
 40
30.0
176
     1
 62
     7
420
 16777215
176
     1
 90
        1
176
     1
 90
        4
176
     1
 62
     7
176
     1
 62
   257
176
     1
 90
        1
176
     1
 90
        1
176
     1
 40
1.0
176
     1
 90
        0
176
     1
 62
   257
176
     1
 40
1.0
176
     1
 90
        1
176
     1
 90
        6
176
     1
 90
        2
176
     1
 62
     7
176
     1
 90
        3
176
     1
 90
        0
176
     1
 90
        0
176
     1
290
     0
176
     1
 90
        1
176
     1
 40
0.0
176
     1
 90
        0
176
     1
290
     0
176
     1
290
     1
176
     1
290
     1
176
     1
290
     0
176
     1
290
     0
176
     1
290
     0
176
     1
290
     0
176
     1
290
     0
176
     1
290
     0
176
     1
 90
       50
176
     1
 40
0.0
176
     1
 40
1.0
176
     1
 90
        0
176
     1
 62
    18
420
        0
176
     1
 90
       50
176
     1
 90
        3
176
     1
 62
     5
420
      255
176
     1
290
     0
176
     1
 90
       50
176
     1
 90
       50
176
     1
 90
       50
176
     1
290
     0
176
     1
 90
       50
176
     1
 62
   256
176
     0
 40
1.0
176
     0
 90
        2
176
     1
  1
strokes_ogs.tif
176
     1
290
     0
176
     1
 40
1.0
176
     1
 40
1.0
176
     1
  0
VISUALSTYLE
  5
3C
102
{ACAD_REACTORS
330
29
102
}
330
29
100
AcDbVisualStyle
  2
X-Ray
 70
    25
177
     3
291
     0
 70
    58
 90
        2
176
     1
 90
        2
176
     1
 90
        1
176
     1
 90
        1
176
     1
 40
0.5
176
     1
 40
30.0
176
     1
 62
     7
420
 16777215
176
     1
 90
        1
176
     1
 90
        0
176
     1
 62
     7
176
     1
 62
   257
176
     1
 90
        1
176
     1
 90
        1
176
     1
 40
1.0
176
     1
 90
        8
176
     1
 62
     7
176
     1
 40
1.0
176
     1
 90
        1
176
     1
 90
        6
176
     1
 90
        2
176
     1
 62
     7
176
     1
 90
        3
176
     1
 90
        0
176
     1
 90
        0
176
     1
290
     0
176
     1
 90
       13
176
     1
 40
0.0
176
     1
 90
        0
176
     1
290
     0
176
     1
290
     1
176
     1
290
     1
176
     1
290
     0
176
     1
290
     0
176
     1
290
     0
176
     1
290
     0
176
     1
290
     0
176
     1
290
     0
176
     1
 90
       50
176
     1
 40
0.0
176
     1
 40
1.0
176
     1
 90
        0
176
     1
 62
    18
420
        0
176
     1
 90
       50
176
     1
 90
        3
176
     1
 62
     5
420
      255
176
     1
290
     0
176
     1
 90
       50
176
     1
 90
       50
176
     1
 90
       50
176
     1
290
     0
176
     1
 90
       50
176
     1
 62
   256
176
     0
 40
1.0
176
     0
 90
        2
176
     1
  1
strokes_ogs.tif
176
     1
290
     0
176
     1
 40
1.0
176
     1
 40
1.0
176
     1
  0
DICTIONARYVAR
  5
18D
102
{ACAD_REACTORS
330
188
102
}
330
188
100
DictionaryVariables
280
     0
  1
1:1
  0
DICTIONARYVAR
  5
18A
102
{ACAD_REACTORS
330
188
102
}
330
188
100
DictionaryVariables
280
     0
  1
STANDARD
  0
DICTIONARYVAR
  5
189
102
{ACAD_REACTORS
330
188
102
}
330
188
100
DictionaryVariables
280
     0
  1
STANDARD
  0
DICTIONARYVAR
  5
18B
102
{ACAD_REACTORS
330
188
102
}
330
188
100
DictionaryVariables
280
     0
  1
Imperial24
  0
DICTIONARYVAR
  5
18C
102
{ACAD_REACTORS
330
188
102
}
330
188
100
DictionaryVariables
280
     0
  1
Imperial24
  0
DICTIONARY
  5
1A
330
19
100
AcDbDictionary
280
     1
281
     1
  3
BUMPTILE
360
1C
  3
DIFFUSETILE
360
1B
  3
OPACITYTILE
360
1F
  3
REFLECTIONTILE
360
1E
  3
REFRACTIONTILE
360
20
  3
SPECULARTILE
360
1D
  0
DICTIONARY
  5
12
330
11
100
AcDbDictionary
280
     1
281
     1
  3
BUMPTILE
360
14
  3
DIFFUSETILE
360
13
  3
OPACITYTILE
360
17
  3
REFLECTIONTILE
360
16
  3
REFRACTIONTILE
360
18
  3
SPECULARTILE
360
15
  0
DICTIONARY
  5
22
330
21
100
AcDbDictionary
280
     1
281
     1
  3
BUMPTILE
360
24
  3
DIFFUSETILE
360
23
  3
OPACITYTILE
360
27
  3
REFLECTIONTILE
360
26
  3
REFRACTIONTILE
360
28
  3
SPECULARTILE
360
25
  0
DICTIONARY
  5
18E
330
65
100
AcDbDictionary
280
     1
281
     1
  3
ACAD_ROUNDTRIP_2008_TABLESTYLE_CELLSTYLEMAP
360
18F
  0
XRECORD
  5
1C
102
{ACAD_REACTORS
330
1A
102
}
330
1A
100
AcDbXrecord
280
     1
270
     1
271
     1
  0
XRECORD
  5
1B
102
{ACAD_REACTORS
330
1A
102
}
330
1A
100
AcDbXrecord
280
     1
270
     1
271
     1
  0
XRECORD
  5
1F
102
{ACAD_REACTORS
330
1A
102
}
330
1A
100
AcDbXrecord
280
     1
270
     1
271
     1
  0
XRECORD
  5
1E
102
{ACAD_REACTORS
330
1A
102
}
330
1A
100
AcDbXrecord
280
     1
270
     1
271
     1
  0
XRECORD
  5
20
102
{ACAD_REACTORS
330
1A
102
}
330
1A
100
AcDbXrecord
280
     1
270
     1
271
     1
  0
XRECORD
  5
1D
102
{ACAD_REACTORS
330
1A
102
}
330
1A
100
AcDbXrecord
280
     1
270
     1
271
     1
  0
XRECORD
  5
14
102
{ACAD_REACTORS
330
12
102
}
330
12
100
AcDbXrecord
280
     1
270
     1
271
     1
  0
XRECORD
  5
13
102
{ACAD_REACTORS
330
12
102
}
330
12
100
AcDbXrecord
280
     1
270
     1
271
     1
  0
XRECORD
  5
17
102
{ACAD_REACTORS
330
12
102
}
330
12
100
AcDbXrecord
280
     1
270
     1
271
     1
  0
XRECORD
  5
16
102
{ACAD_REACTORS
330
12
102
}
330
12
100
AcDbXrecord
280
     1
270
     1
271
     1
  0
XRECORD
  5
18
102
{ACAD_REACTORS
330
12
102
}
330
12
100
AcDbXrecord
280
     1
270
     1
271
     1
  0
XRECORD
  5
15
102
{ACAD_REACTORS
330
12
102
}
330
12
100
AcDbXrecord
280
     1
270
     1
271
     1
  0
XRECORD
  5
24
102
{ACAD_REACTORS
330
22
102
}
330
22
100
AcDbXrecord
280
     1
270
     1
271
     1
  0
XRECORD
  5
23
102
{ACAD_REACTORS
330
22
102
}
330
22
100
AcDbXrecord
280
     1
270
     1
271
     1
  0
XRECORD
  5
27
102
{ACAD_REACTORS
330
22
102
}
330
22
100
AcDbXrecord
280
     1
270
     1
271
     1
  0
XRECORD
  5
26
102
{ACAD_REACTORS
330
22
102
}
330
22
100
AcDbXrecord
280
     1
270
     1
271
     1
  0
XRECORD
  5
28
102
{ACAD_REACTORS
330
22
102
}
330
22
100
AcDbXrecord
280
     1
270
     1
271
     1
  0
XRECORD
  5
25
102
{ACAD_REACTORS
330
22
102
}
330
22
100
AcDbXrecord
280
     1
270
     1
271
     1
  0
CELLSTYLEMAP
  5
18F
102
{ACAD_REACTORS
330
18E
102
}
330
18E
100
AcDbCellStyleMap
 90
        3
300
CELLSTYLE
  1
TABLEFORMAT_BEGIN
 90
        5
170
     1
 91
        0
 92
    32768
 62
   257
 93
        1
300
CONTENTFORMAT
  1
CONTENTFORMAT_BEGIN
 90
        0
 91
        0
 92
      512
 93
        0
300

 40
0.0
140
1.0
 94
        5
 62
     0
340
55
144
0.25
309
CONTENTFORMAT_END
171
     0
 94
        0
309
TABLEFORMAT_END
  1
CELLSTYLE_BEGIN
 90
        1
 91
        1
300
_TITLE
309
CELLSTYLE_END
300
CELLSTYLE
  1
TABLEFORMAT_BEGIN
 90
        5
170
     1
 91
        0
 92
        0
 62
   257
 93
        1
300
CONTENTFORMAT
  1
CONTENTFORMAT_BEGIN
 90
        0
 91
        0
 92
      512
 93
        0
300

 40
0.0
140
1.0
 94
        5
 62
     0
340
55
144
0.18
309
CONTENTFORMAT_END
171
     0
 94
        0
309
TABLEFORMAT_END
  1
CELLSTYLE_BEGIN
 90
        2
 91
        1
300
_HEADER
309
CELLSTYLE_END
300
CELLSTYLE
  1
TABLEFORMAT_BEGIN
 90
        5
170
     1
 91
        0
 92
        0
 62
   257
 93
        1
300
CONTENTFORMAT
  1
CONTENTFORMAT_BEGIN
 90
        0
 91
        0
 92
      512
 93
        0
300

 40
0.0
140
1.0
 94
        2
 62
     0
340
55
144
0.18
309
CONTENTFORMAT_END
171
     0
 94
        0
309
TABLEFORMAT_END
  1
CELLSTYLE_BEGIN
 90
        3
 91
        2
300
_DATA
309
CELLSTYLE_END
  0
ENDSEC
  0
EOF
