  0
SECTION
  2
HEADER
  9
$ACADVER
  1
AC1032
  9
$ACADMAINTVER
 90
      251
  9
$DWGCODEPAGE
  3
ANSI_1252
  9
$REQUIREDVERSIONS
160
                 0
  9
$INSBASE
 10
0.0
 20
0.0
 30
0.0
  9
$EXTMIN
 10
1.000000000000000E+20
 20
1.000000000000000E+20
 30
1.000000000000000E+20
  9
$EXTMAX
 10
-1.000000000000000E+20
 20
-1.000000000000000E+20
 30
-1.000000000000000E+20
  9
$LIMMIN
 10
0.0
 20
0.0
  9
$LIMMAX
 10
12.0
 20
9.0
  9
$ORTHOMODE
 70
     0
  9
$REGENMODE
 70
     1
  9
$FILLMODE
 70
     1
  9
$QTEXTMODE
 70
     0
  9
$MIRRTEXT
 70
     0
  9
$LTSCALE
 40
1.0
  9
$ATTMODE
 70
     1
  9
$TEXTSIZE
 40
0.2
  9
$TRACEWID
 40
0.05
  9
$TEXTSTYLE
  7
Standard
  9
$CLAYER
  8
0
  9
$CELTYPE
  6
ByLayer
  9
$CECOLOR
 62
   256
  9
$CELTSCALE
 40
1.0
  9
$DISPSILH
 70
     0
  9
$DIMSCALE
 40
1.0
  9
$DIMASZ
 40
0.18
  9
$DIMEXO
 40
0.0625
  9
$DIMDLI
 40
0.38
  9
$DIMRND
 40
0.0
  9
$DIMDLE
 40
0.0
  9
$DIMEXE
 40
0.18
  9
$DIMTP
 40
0.0
  9
$DIMTM
 40
0.0
  9
$DIMTXT
 40
0.18
  9
$DIMCEN
 40
0.09
  9
$DIMTSZ
 40
0.0
  9
$DIMTOL
 70
     0
  9
$DIMLIM
 70
     0
  9
$DIMTIH
 70
     1
  9
$DIMTOH
 70
     1
  9
$DIMSE1
 70
     0
  9
$DIMSE2
 70
     0
  9
$DIMTAD
 70
     0
  9
$DIMZIN
 70
     0
  9
$DIMBLK
  1

  9
$DIMASO
 70
     1
  9
$DIMSHO
 70
     1
  9
$DIMPOST
  1

  9
$DIMAPOST
  1

  9
$DIMALT
 70
     0
  9
$DIMALTD
 70
     2
  9
$DIMALTF
 40
25.4
  9
$DIMLFAC
 40
1.0
  9
$DIMTOFL
 70
     0
  9
$DIMTVP
 40
0.0
  9
$DIMTIX
 70
     0
  9
$DIMSOXD
 70
     0
  9
$DIMSAH
 70
     0
  9
$DIMBLK1
  1

  9
$DIMBLK2
  1

  9
$DIMSTYLE
  2
Standard
  9
$DIMCLRD
 70
     0
  9
$DIMCLRE
 70
     0
  9
$DIMCLRT
 70
     0
  9
$DIMTFAC
 40
1.0
  9
$DIMGAP
 40
0.09
  9
$DIMJUST
 70
     0
  9
$DIMSD1
 70
     0
  9
$DIMSD2
 70
     0
  9
$DIMTOLJ
 70
     1
  9
$DIMTZIN
 70
     0
  9
$DIMALTZ
 70
     0
  9
$DIMALTTZ
 70
     0
  9
$DIMUPT
 70
     0
  9
$DIMDEC
 70
     4
  9
$DIMTDEC
 70
     4
  9
$DIMALTU
 70
     2
  9
$DIMALTTD
 70
     2
  9
$DIMTXSTY
  7
Standard
  9
$DIMAUNIT
 70
     0
  9
$DIMADEC
 70
     0
  9
$DIMALTRND
 40
0.0
  9
$DIMAZIN
 70
     0
  9
$DIMDSEP
 70
    46
  9
$DIMATFIT
 70
     3
  9
$DIMFRAC
 70
     0
  9
$DIMLDRBLK
  1

  9
$DIMLUNIT
 70
     2
  9
$DIMLWD
 70
    -2
  9
$DIMLWE
 70
    -2
  9
$DIMTMOVE
 70
     0
  9
$DIMFXL
 40
1.0
  9
$DIMFXLON
 70
     0
  9
$DIMJOGANG
 40
0.7853981633974483
  9
$DIMTFILL
 70
     0
  9
$DIMTFILLCLR
 70
     0
  9
$DIMARCSYM
 70
     0
  9
$DIMLTYPE
  6

  9
$DIMLTEX1
  6

  9
$DIMLTEX2
  6

  9
$DIMTXTDIRECTION
 70
     0
  9
$LUNITS
 70
     2
  9
$LUPREC
 70
     4
  9
$SKETCHINC
 40
0.1
  9
$FILLETRAD
 40
0.0
  9
$AUNITS
 70
     0
  9
$AUPREC
 70
     0
  9
$MENU
  1
.
  9
$ELEVATION
 40
0.0
  9
$PELEVATION
 40
0.0
  9
$THICKNESS
 40
0.0
  9
$LIMCHECK
 70
     0
  9
$CHAMFERA
 40
0.0
  9
$CHAMFERB
 40
0.0
  9
$CHAMFERC
 40
0.0
  9
$CHAMFERD
 40
0.0
  9
$SKPOLY
 70
     0
  9
$TDCREATE
 40
2460035.492534722
  9
$TDUCREATE
 40
2460035.409201389
  9
$TDUPDATE
 40
2460035.492534722
  9
$TDUUPDATE
 40
2460035.409201389
  9
$TDINDWG
 40
0.0000000000
  9
$TDUSRTIMER
 40
0.0000000000
  9
$USRTIMER
 70
     1
  9
$ANGBASE
 50
0.0
  9
$ANGDIR
 70
     0
  9
$PDMODE
 70
     0
  9
$PDSIZE
 40
0.0
  9
$PLINEWID
 40
0.0
  9
$SPLFRAME
 70
     0
  9
$SPLINETYPE
 70
     6
  9
$SPLINESEGS
 70
     8
  9
$HANDSEED
  5
1A9
  9
$SURFTAB1
 70
     6
  9
$SURFTAB2
 70
     6
  9
$SURFTYPE
 70
     6
  9
$SURFU
 70
     6
  9
$SURFV
 70
     6
  9
$UCSBASE
  2

  9
$UCSNAME
  2

  9
$UCSORG
 10
0.0
 20
0.0
 30
0.0
  9
$UCSXDIR
 10
1.0
 20
0.0
 30
0.0
  9
$UCSYDIR
 10
0.0
 20
1.0
 30
0.0
  9
$UCSORTHOREF
  2

  9
$UCSORTHOVIEW
 70
     0
  9
$UCSORGTOP
 10
0.0
 20
0.0
 30
0.0
  9
$UCSORGBOTTOM
 10
0.0
 20
0.0
 30
0.0
  9
$UCSORGLEFT
 10
0.0
 20
0.0
 30
0.0
  9
$UCSORGRIGHT
 10
0.0
 20
0.0
 30
0.0
  9
$UCSORGFRONT
 10
0.0
 20
0.0
 30
0.0
  9
$UCSORGBACK
 10
0.0
 20
0.0
 30
0.0
  9
$PUCSBASE
  2

  9
$PUCSNAME
  2

  9
$PUCSORG
 10
0.0
 20
0.0
 30
0.0
  9
$PUCSXDIR
 10
1.0
 20
0.0
 30
0.0
  9
$PUCSYDIR
 10
0.0
 20
1.0
 30
0.0
  9
$PUCSORTHOREF
  2

  9
$PUCSORTHOVIEW
 70
     0
  9
$PUCSORGTOP
 10
0.0
 20
0.0
 30
0.0
  9
$PUCSORGBOTTOM
 10
0.0
 20
0.0
 30
0.0
  9
$PUCSORGLEFT
 10
0.0
 20
0.0
 30
0.0
  9
$PUCSORGRIGHT
 10
0.0
 20
0.0
 30
0.0
  9
$PUCSORGFRONT
 10
0.0
 20
0.0
 30
0.0
  9
$PUCSORGBACK
 10
0.0
 20
0.0
 30
0.0
  9
$USERI1
 70
     0
  9
$USERI2
 70
     0
  9
$USERI3
 70
     0
  9
$USERI4
 70
     0
  9
$USERI5
 70
     0
  9
$USERR1
 40
0.0
  9
$USERR2
 40
0.0
  9
$USERR3
 40
0.0
  9
$USERR4
 40
0.0
  9
$USERR5
 40
0.0
  9
$WORLDVIEW
 70
     1
  9
$SHADEDGE
 70
     3
  9
$SHADEDIF
 70
    70
  9
$TILEMODE
 70
     1
  9
$MAXACTVP
 70
    64
  9
$PINSBASE
 10
0.0
 20
0.0
 30
0.0
  9
$PLIMCHECK
 70
     0
  9
$PEXTMIN
 10
1.000000000000000E+20
 20
1.000000000000000E+20
 30
1.000000000000000E+20
  9
$PEXTMAX
 10
-1.000000000000000E+20
 20
-1.000000000000000E+20
 30
-1.000000000000000E+20
  9
$PLIMMIN
 10
0.0
 20
0.0
  9
$PLIMMAX
 10
12.0
 20
9.0
  9
$UNITMODE
 70
     0
  9
$VISRETAIN
 70
     1
  9
$PLINEGEN
 70
     0
  9
$PSLTSCALE
 70
     1
  9
$TREEDEPTH
 70
  3020
  9
$CMLSTYLE
  2
Standard
  9
$CMLJUST
 70
     0
  9
$CMLSCALE
 40
1.0
  9
$PROXYGRAPHICS
 70
     1
  9
$MEASUREMENT
 70
     0
  9
$CELWEIGHT
370
    -1
  9
$ENDCAPS
280
     0
  9
$JOINSTYLE
280
     0
  9
$LWDISPLAY
290
     1
  9
$INSUNITS
 70
     4
  9
$HYPERLINKBASE
  1

  9
$STYLESHEET
  1

  9
$XEDIT
290
     1
  9
$CEPSNTYPE
380
     0
  9
$PSTYLEMODE
290
     1
  9
$FINGERPRINTGUID
  2
{771584B4-122C-474B-9844-72C9E623918D}
  9
$VERSIONGUID
  2
{F86944C1-8DC0-1F4F-AF9D-39B4D2085E3F}
  9
$EXTNAMES
290
     1
  9
$PSVPSCALE
 40
0.0
  9
$OLESTARTUP
290
     0
  9
$SORTENTS
280
   127
  9
$INDEXCTL
280
     0
  9
$HIDETEXT
280
     1
  9
$XCLIPFRAME
280
     2
  9
$HALOGAP
280
     0
  9
$OBSCOLOR
 70
   257
  9
$OBSLTYPE
280
     0
  9
$INTERSECTIONDISPLAY
280
     0
  9
$INTERSECTIONCOLOR
 70
   257
  9
$DIMASSOC
280
     2
  9
$PROJECTNAME
  1

  9
$CAMERADISPLAY
290
     0
  9
$LENSLENGTH
 40
50.0
  9
$CAMERAHEIGHT
 40
0.0
  9
$STEPSPERSEC
 40
2.0
  9
$STEPSIZE
 40
6.0
  9
$3DDWFPREC
 40
2.0
  9
$PSOLWIDTH
 40
0.25
  9
$PSOLHEIGHT
 40
4.0
  9
$LOFTANG1
 40
1.570796326794896
  9
$LOFTANG2
 40
1.570796326794896
  9
$LOFTMAG1
 40
0.0
  9
$LOFTMAG2
 40
0.0
  9
$LOFTPARAM
 70
     7
  9
$LOFTNORMALS
280
     1
  9
$LATITUDE
 40
37.795
  9
$LONGITUDE
 40
-122.394
  9
$NORTHDIRECTION
 40
0.0
  9
$TIMEZONE
 70
 -8000
  9
$LIGHTGLYPHDISPLAY
280
     1
  9
$TILEMODELIGHTSYNCH
280
     1
  9
$CMATERIAL
347
11
  9
$SOLIDHIST
280
     0
  9
$SHOWHIST
280
     1
  9
$DWFFRAME
280
     2
  9
$DGNFRAME
280
     0
  9
$REALWORLDSCALE
290
     1
  9
$INTERFERECOLOR
 62
     1
  9
$INTERFEREOBJVS
345
33
  9
$INTERFEREVPVS
346
30
  9
$CSHADOW
280
     0
  9
$SHADOWPLANELOCATION
 40
0.0
  0
ENDSEC
  0
SECTION
  2
CLASSES
  0
CLASS
  1
ACDBDICTIONARYWDFLT
  2
AcDbDictionaryWithDefault
  3
ObjectDBX Classes
 90
        0
 91
        1
280
     0
281
     0
  0
CLASS
  1
MATERIAL
  2
AcDbMaterial
  3
ObjectDBX Classes
 90
     1153
 91
        3
280
     0
281
     0
  0
CLASS
  1
VISUALSTYLE
  2
AcDbVisualStyle
  3
ObjectDBX Classes
 90
     4095
 91
       24
280
     0
281
     0
  0
CLASS
  1
SCALE
  2
AcDbScale
  3
ObjectDBX Classes
 90
     1153
 91
       17
280
     0
281
     0
  0
CLASS
  1
TABLESTYLE
  2
AcDbTableStyle
  3
ObjectDBX Classes
 90
     4095
 91
        1
280
     0
281
     0
  0
CLASS
  1
MLEADERSTYLE
  2
AcDbMLeaderStyle
  3
ACDB_MLEADERSTYLE_CLASS
 90
     4095
 91
        1
280
     0
281
     0
  0
CLASS
  1
ACDBSECTIONVIEWSTYLE
  2
AcDbSectionViewStyle
  3
ObjectDBX Classes
 90
     1025
 91
        1
280
     0
281
     0
  0
CLASS
  1
ACDBDETAILVIEWSTYLE
  2
AcDbDetailViewStyle
  3
ObjectDBX Classes
 90
     1025
 91
        1
280
     0
281
     0
  0
CLASS
  1
DICTIONARYVAR
  2
AcDbDictionaryVar
  3
ObjectDBX Classes
 90
        0
 91
        5
280
     0
281
     0
  0
CLASS
  1
CELLSTYLEMAP
  2
AcDbCellStyleMap
  3
ObjectDBX Classes
 90
     1152
 91
        1
280
     0
281
     0
  0
ENDSEC
  0
SECTION
  2
TABLES
  0
TABLE
  2
VPORT
  5
8
330
0
100
AcDbSymbolTable
 70
     1
  0
VPORT
  5
57
330
8
100
AcDbSymbolTableRecord
100
AcDbViewportTableRecord
  2
*Active
 70
     0
 10
0.0
 20
0.0
 11
1.0
 21
1.0
 12
0.0
 22
0.0
 13
0.0
 23
0.0
 14
1.0
 24
1.0
 15
0.0
 25
0.0
 16
0.0
 26
0.0
 36
1.0
 17
104.9999999737499
 27
31.49999999212523
 37
0.0
 40
302.9399999242649
 41
0.7070707070707066
 42
50.0
 43
0.0
 44
0.0
 50
0.0
 51
0.0
 71
     0
 72
   100
 73
     1
 74
     1
 75
     0
 76
     0
 77
     0
 78
     0
281
     0
 65
     1
110
0.0
120
0.0
130
0.0
111
1.0
121
0.0
131
0.0
112
0.0
122
1.0
132
0.0
 79
     0
146
0.0
 60
     3
 61
     5
292
     1
282
     1
141
0.0
142
0.0
 63
   250
421
  3355443
  0
ENDTAB
  0
TABLE
  2
LTYPE
  5
5
330
0
100
AcDbSymbolTable
 70
     1
  0
LTYPE
  5
5B
330
5
100
AcDbSymbolTableRecord
100
AcDbLinetypeTableRecord
  2
ByBlock
 70
     0
  3

 72
    65
 73
     0
 40
0.0
  0
LTYPE
  5
5C
330
5
100
AcDbSymbolTableRecord
100
AcDbLinetypeTableRecord
  2
ByLayer
 70
     0
  3

 72
    65
 73
     0
 40
0.0
  0
LTYPE
  5
5D
330
5
100
AcDbSymbolTableRecord
100
AcDbLinetypeTableRecord
  2
Continuous
 70
     0
  3
Solid line
 72
    65
 73
     0
 40
0.0
  0
ENDTAB
  0
TABLE
  2
LAYER
  5
2
330
0
100
AcDbSymbolTable
 70
     2
  0
LAYER
  5
54
330
2
100
AcDbSymbolTableRecord
100
AcDbLayerTableRecord
  2
0
 70
     0
 62
     7
  6
Continuous
370
     0
390
F
347
21
348
0
  0
LAYER
  5
17B
330
2
100
AcDbSymbolTableRecord
100
AcDbLayerTableRecord
  2
CAPA_BASE
 70
     0
 62
     7
  6
Continuous
370
     0
390
F
347
21
348
0
  0
ENDTAB
  0
TABLE
  2
STYLE
  5
3
330
0
100
AcDbSymbolTable
 70
     2
  0
STYLE
  5
55
330
3
100
AcDbSymbolTableRecord
100
AcDbTextStyleTableRecord
  2
Standard
 70
     0
 40
0.0
 41
1.0
 50
0.0
 71
     0
 42
0.2
  3
txt
  4

  0
STYLE
  5
5A
330
3
100
AcDbSymbolTableRecord
100
AcDbTextStyleTableRecord
  2
Annotative
 70
     0
 40
0.0
 41
1.0
 50
0.0
 71
     0
 42
0.2
  3
txt
  4

1001
AcadAnnotative
1000
AnnotativeData
1002
{
1070
     1
1070
     1
1002
}
  0
ENDTAB
  0
TABLE
  2
VIEW
  5
6
330
0
100
AcDbSymbolTable
 70
     0
  0
ENDTAB
  0
TABLE
  2
UCS
  5
7
330
0
100
AcDbSymbolTable
 70
     0
  0
ENDTAB
  0
TABLE
  2
APPID
  5
9
330
0
100
AcDbSymbolTable
 70
     2
  0
APPID
  5
56
330
9
100
AcDbSymbolTableRecord
100
AcDbRegAppTableRecord
  2
ACAD
 70
     0
  0
APPID
  5
5E
330
9
100
AcDbSymbolTableRecord
100
AcDbRegAppTableRecord
  2
AcadAnnotative
 70
     0
  0
ENDTAB
  0
TABLE
  2
DIMSTYLE
  5
A
330
0
100
AcDbSymbolTable
 70
     2
100
AcDbDimStyleTable
 71
     0
  0
DIMSTYLE
105
58
330
A
100
AcDbSymbolTableRecord
100
AcDbDimStyleTableRecord
  2
Standard
 70
     0
340
55
  0
DIMSTYLE
105
59
330
A
100
AcDbSymbolTableRecord
100
AcDbDimStyleTableRecord
  2
Annotative
 70
     0
340
55
1001
AcadAnnotative
1000
AnnotativeData
1002
{
1070
     1
1070
     1
1002
}
  0
ENDTAB
  0
TABLE
  2
BLOCK_RECORD
  5
1
330
0
100
AcDbSymbolTable
 70
     4
  0
BLOCK_RECORD
  5
70
330
1
100
AcDbSymbolTableRecord
100
AcDbBlockTableRecord
  2
*Model_Space
340
73
 70
     0
280
     1
281
     0
  0
BLOCK_RECORD
  5
6C
330
1
100
AcDbSymbolTableRecord
100
AcDbBlockTableRecord
  2
*Paper_Space
340
6F
 70
     0
280
     1
281
     0
  0
BLOCK_RECORD
  5
74
330
1
100
AcDbSymbolTableRecord
100
AcDbBlockTableRecord
  2
*Paper_Space0
340
77
 70
     0
280
     1
281
     0
  0
BLOCK_RECORD
  5
17C
330
1
100
AcDbSymbolTableRecord
100
AcDbBlockTableRecord
  2
Block_0
340
0
102
{BLKREFS
331
17D
102
}
 70
     0
280
     1
281
     0
  0
BLOCK_RECORD
  5
188
330
1
100
AcDbSymbolTableRecord
100
AcDbBlockTableRecord
  2
Block_1
340
0
102
{BLKREFS
331
189
102
}
 70
     0
280
     1
281
     0
  0
BLOCK_RECORD
  5
194
330
1
100
AcDbSymbolTableRecord
100
AcDbBlockTableRecord
  2
Block_2
340
0
102
{BLKREFS
331
195
102
}
 70
     0
280
     1
281
     0
  0
ENDTAB
  0
ENDSEC
  0
SECTION
  2
BLOCKS
  0
BLOCK
  5
71
330
70
100
AcDbEntity
  8
0
100
AcDbBlockBegin
  2
*Model_Space
 70
     0
 10
0.0
 20
0.0
 30
0.0
  3
*Model_Space
  1

  0
ENDBLK
  5
72
330
70
100
AcDbEntity
  8
0
100
AcDbBlockEnd
  0
BLOCK
  5
6D
330
6C
100
AcDbEntity
 67
     1
  8
0
100
AcDbBlockBegin
  2
*Paper_Space
 70
     0
 10
0.0
 20
0.0
 30
0.0
  3
*Paper_Space
  1

  0
ENDBLK
  5
6E
330
6C
100
AcDbEntity
 67
     1
  8
0
100
AcDbBlockEnd
  0
BLOCK
  5
75
330
74
100
AcDbEntity
 67
     1
  8
0
100
AcDbBlockBegin
  2
*Paper_Space0
 70
     0
 10
0.0
 20
0.0
 30
0.0
  3
*Paper_Space0
  1

  0
ENDBLK
  5
76
330
74
100
AcDbEntity
 67
     1
  8
0
100
AcDbBlockEnd
  0
BLOCK
  5
17E
330
17C
100
AcDbEntity
  8
0
100
AcDbBlockBegin
  2
Block_0
 70
     0
 10
0.0
 20
0.0
 30
0.0
  3
Block_0
  1

  0
LWPOLYLINE
  5
180
330
17C
100
AcDbEntity
  8
CAPA_BASE
100
AcDbPolyline
 90
        4
 70
     1
 43
0.0
 10
84.0787237832181
 20
50.42345232058963
 10
81.57872378321769
 20
50.73345232058934
 10
81.57872378321769
 20
50.1134523205899
 10
81.57872378321769
 20
50.1134523205899
  0
HATCH
  5
181
330
17C
100
AcDbEntity
  8
CAPA_BASE
 62
    18
420
        0
440
 33554687
100
AcDbHatch
 10
0.0
 20
0.0
 30
0.0
210
0.0
220
0.0
230
1.0
  2
SOLID
 70
     1
 71
     1
 91
        1
 92
        1
 93
        3
 72
     1
 10
84.0787237832181
 20
50.42345232058963
 11
81.57872378321769
 21
50.73345232058934
 72
     1
 10
81.57872378321769
 20
50.73345232058934
 11
81.57872378321769
 21
50.1134523205899
 72
     1
 10
81.57872378321769
 20
50.1134523205899
 11
84.0787237832181
 21
50.42345232058963
 97
        1
330
180
 75
     2
 76
     1
 98
        1
 10
0.0
 20
0.0
450
        0
451
        0
460
0.0
461
0.0
452
        0
462
0.0
453
        0
470

  0
LWPOLYLINE
  5
182
330
17C
100
AcDbEntity
  8
CAPA_BASE
100
AcDbPolyline
 90
        4
 70
     1
 43
0.0
 10
21.57872378321783
 20
50.42345232058963
 10
24.07872378321792
 20
50.1134523205899
 10
24.07872378321792
 20
50.73345232058934
 10
24.07872378321792
 20
50.73345232058934
  0
HATCH
  5
183
330
17C
100
AcDbEntity
  8
CAPA_BASE
 62
    18
420
        0
440
 33554687
100
AcDbHatch
 10
0.0
 20
0.0
 30
0.0
210
0.0
220
0.0
230
1.0
  2
SOLID
 70
     1
 71
     1
 91
        1
 92
        1
 93
        3
 72
     1
 10
21.57872378321783
 20
50.42345232058963
 11
24.07872378321792
 21
50.1134523205899
 72
     1
 10
24.07872378321792
 20
50.1134523205899
 11
24.07872378321792
 21
50.73345232058934
 72
     1
 10
24.07872378321792
 20
50.73345232058934
 11
21.57872378321783
 21
50.42345232058963
 97
        1
330
182
 75
     2
 76
     1
 98
        1
 10
0.0
 20
0.0
450
        0
451
        0
460
0.0
461
0.0
452
        0
462
0.0
453
        0
470

  0
LINE
  5
184
330
17C
100
AcDbEntity
  8
CAPA_BASE
 62
    18
420
        0
370
    25
100
AcDbLine
 10
84.0787237832181
 20
61.09017802358946
 30
0.0
 11
84.0787237832181
 21
49.42345232058959
 31
0.0
  0
LINE
  5
185
330
17C
100
AcDbEntity
  8
CAPA_BASE
 62
    18
420
        0
370
    25
100
AcDbLine
 10
21.57872378321783
 20
61.09017802358946
 30
0.0
 11
21.57872378321783
 21
49.42345232058959
 31
0.0
  0
LINE
  5
186
330
17C
100
AcDbEntity
  8
CAPA_BASE
 62
    18
420
        0
370
    25
100
AcDbLine
 10
84.0787237832181
 20
50.42345232058963
 30
0.0
 11
21.57872378321783
 21
50.42345232058963
 31
0.0
  0
MTEXT
  5
187
330
17C
100
AcDbEntity
  8
CAPA_BASE
100
AcDbMText
 10
50.18289187554293
 20
51.21720643352546
 30
0.0
 40
0.2
 41
0.0
 46
0.0
 71
     7
 72
     1
  1
\C18;\c0;\FArial Bold|b1|i0|c1;\H2.997200;\W0.700000;125
 73
     1
 44
1.0
  0
ENDBLK
  5
17F
330
17C
100
AcDbEntity
  8
0
100
AcDbBlockEnd
  0
BLOCK
  5
18A
330
188
100
AcDbEntity
  8
0
100
AcDbBlockBegin
  2
Block_1
 70
     0
 10
0.0
 20
0.0
 30
0.0
  3
Block_1
  1

  0
LWPOLYLINE
  5
18C
330
188
100
AcDbEntity
  8
CAPA_BASE
100
AcDbPolyline
 90
        4
 70
     1
 43
0.0
 10
94.07998628321818
 20
-8.406381918910422
 10
93.7699862832178
 20
-10.90638191891083
 10
94.38998628321789
 20
-10.90638191891083
 10
94.38998628321789
 20
-10.90638191891083
  0
HATCH
  5
18D
330
188
100
AcDbEntity
  8
CAPA_BASE
 62
    18
420
        0
440
 33554687
100
AcDbHatch
 10
0.0
 20
0.0
 30
0.0
210
0.0
220
0.0
230
1.0
  2
SOLID
 70
     1
 71
     1
 91
        1
 92
        1
 93
        3
 72
     1
 10
94.07998628321818
 20
-8.406381918910422
 11
93.7699862832178
 21
-10.90638191891083
 72
     1
 10
93.7699862832178
 20
-10.90638191891083
 11
94.38998628321789
 21
-10.90638191891083
 72
     1
 10
94.38998628321789
 20
-10.90638191891083
 11
94.07998628321818
 21
-8.406381918910422
 97
        1
330
18C
 75
     2
 76
     1
 98
        1
 10
0.0
 20
0.0
450
        0
451
        0
460
0.0
461
0.0
452
        0
462
0.0
453
        0
470

  0
LWPOLYLINE
  5
18E
330
188
100
AcDbEntity
  8
CAPA_BASE
100
AcDbPolyline
 90
        4
 70
     1
 43
0.0
 10
94.07998628321818
 20
-34.9063819189104
 10
94.38998628321789
 20
-32.40638191891063
 10
93.7699862832178
 20
-32.40638191891063
 10
93.7699862832178
 20
-32.40638191891063
  0
HATCH
  5
18F
330
188
100
AcDbEntity
  8
CAPA_BASE
 62
    18
420
        0
440
 33554687
100
AcDbHatch
 10
0.0
 20
0.0
 30
0.0
210
0.0
220
0.0
230
1.0
  2
SOLID
 70
     1
 71
     1
 91
        1
 92
        1
 93
        3
 72
     1
 10
94.07998628321818
 20
-34.9063819189104
 11
94.38998628321789
 21
-32.40638191891063
 72
     1
 10
94.38998628321789
 20
-32.40638191891063
 11
93.7699862832178
 21
-32.40638191891063
 72
     1
 10
93.7699862832178
 20
-32.40638191891063
 11
94.07998628321818
 21
-34.9063819189104
 97
        1
330
18E
 75
     2
 76
     1
 98
        1
 10
0.0
 20
0.0
450
        0
451
        0
460
0.0
461
0.0
452
        0
462
0.0
453
        0
470

  0
LINE
  5
190
330
188
100
AcDbEntity
  8
CAPA_BASE
 62
    18
420
        0
370
    25
100
AcDbLine
 10
67.428723783218
 20
-8.406381918910422
 30
0.0
 11
95.07998628321756
 21
-8.406381918910422
 31
0.0
  0
LINE
  5
191
330
188
100
AcDbEntity
  8
CAPA_BASE
 62
    18
420
        0
370
    25
100
AcDbLine
 10
53.678723783218
 20
-34.9063819189104
 30
0.0
 11
95.07998628321756
 21
-34.9063819189104
 31
0.0
  0
LINE
  5
192
330
188
100
AcDbEntity
  8
CAPA_BASE
 62
    18
420
        0
370
    25
100
AcDbLine
 10
94.07998628321818
 20
-8.406381918910422
 30
0.0
 11
94.07998628321818
 21
-34.9063819189104
 31
0.0
  0
MTEXT
  5
193
330
188
100
AcDbEntity
  8
CAPA_BASE
100
AcDbMText
 10
93.28624171997878
 20
-23.42044812782609
 30
0.0
 40
0.2
 41
0.0
 46
0.0
 71
     7
 72
     1
  1
\C18;\c0;\FArial Bold|b1|i0|c1;\H2.997200;\W0.700000;53
 11
0.0000000000000003
 21
1.0
 31
0.0
 73
     1
 44
1.0
  0
ENDBLK
  5
18B
330
188
100
AcDbEntity
  8
0
100
AcDbBlockEnd
  0
BLOCK
  5
196
330
194
100
AcDbEntity
  8
0
100
AcDbBlockBegin
  2
Block_2
 70
     0
 10
0.0
 20
0.0
 30
0.0
  3
Block_2
  1

  0
LWPOLYLINE
  5
198
330
194
100
AcDbEntity
  8
CAPA_BASE
100
AcDbPolyline
 90
        4
 70
     1
 43
0.0
 10
141.4215864017178
 20
119.9875590046893
 10
141.1115864017181
 20
117.4875590046896
 10
141.7315864017175
 20
117.4875590046896
 10
141.7315864017175
 20
117.4875590046896
  0
HATCH
  5
199
330
194
100
AcDbEntity
  8
CAPA_BASE
 62
    18
420
        0
440
 33554687
100
AcDbHatch
 10
0.0
 20
0.0
 30
0.0
210
0.0
220
0.0
230
1.0
  2
SOLID
 70
     1
 71
     1
 91
        1
 92
        1
 93
        3
 72
     1
 10
141.4215864017178
 20
119.9875590046893
 11
141.1115864017181
 21
117.4875590046896
 72
     1
 10
141.1115864017181
 20
117.4875590046896
 11
141.7315864017175
 21
117.4875590046896
 72
     1
 10
141.7315864017175
 20
117.4875590046896
 11
141.4215864017178
 21
119.9875590046893
 97
        1
330
198
 75
     2
 76
     1
 98
        1
 10
0.0
 20
0.0
450
        0
451
        0
460
0.0
461
0.0
452
        0
462
0.0
453
        0
470

  0
LWPOLYLINE
  5
19A
330
194
100
AcDbEntity
  8
CAPA_BASE
100
AcDbPolyline
 90
        4
 70
     1
 43
0.0
 10
141.4215864017178
 20
60.51994923578957
 10
141.7315864017175
 20
63.01994923578934
 10
141.1115864017181
 20
63.01994923578934
 10
141.1115864017181
 20
63.01994923578934
  0
HATCH
  5
19B
330
194
100
AcDbEntity
  8
CAPA_BASE
 62
    18
420
        0
440
 33554687
100
AcDbHatch
 10
0.0
 20
0.0
 30
0.0
210
0.0
220
0.0
230
1.0
  2
SOLID
 70
     1
 71
     1
 91
        1
 92
        1
 93
        3
 72
     1
 10
141.4215864017178
 20
60.51994923578957
 11
141.7315864017175
 21
63.01994923578934
 72
     1
 10
141.7315864017175
 20
63.01994923578934
 11
141.1115864017181
 21
63.01994923578934
 72
     1
 10
141.1115864017181
 20
63.01994923578934
 11
141.4215864017178
 21
60.51994923578957
 97
        1
330
19A
 75
     2
 76
     1
 98
        1
 10
0.0
 20
0.0
450
        0
451
        0
460
0.0
461
0.0
452
        0
462
0.0
453
        0
470

  0
LINE
  5
19C
330
194
100
AcDbEntity
  8
CAPA_BASE
 62
    18
420
        0
370
    25
100
AcDbLine
 10
150.4215864017175
 20
119.9875590046893
 30
0.0
 11
140.4215864017184
 21
119.9875590046893
 31
0.0
  0
LINE
  5
19D
330
194
100
AcDbEntity
  8
CAPA_BASE
 62
    18
420
        0
370
    25
100
AcDbLine
 10
164.4233727919184
 20
60.51994923578957
 30
0.0
 11
140.4215864017184
 21
60.51994923578957
 31
0.0
  0
LINE
  5
19E
330
194
100
AcDbEntity
  8
CAPA_BASE
 62
    18
420
        0
370
    25
100
AcDbLine
 10
141.4215864017178
 20
119.9875590046893
 30
0.0
 11
141.4215864017178
 21
60.51994923578957
 31
0.0
  0
MTEXT
  5
19F
330
194
100
AcDbEntity
  8
CAPA_BASE
100
AcDbMText
 10
140.6278381949767
 20
87.60774466125715
 30
0.0
 40
0.2
 41
0.0
 46
0.0
 71
     7
 72
     1
  1
\C18;\c0;\FArial Bold|b1|i0|c1;\H2.997200;\W0.700000;119
 11
0.0000000000000003
 21
1.0
 31
0.0
 73
     1
 44
1.0
  0
ENDBLK
  5
197
330
194
100
AcDbEntity
  8
0
100
AcDbBlockEnd
  0
ENDSEC
  0
SECTION
  2
ENTITIES
  0
LINE
  5
78
330
70
100
AcDbEntity
  8
0
 62
    18
420
        0
370
    25
100
AcDbLine
 10
57.32872378321797
 20
107.4875590046895
 30
0.0
 11
56.47839482161796
 21
107.4875590046895
 31
0.0
  0
LINE
  5
79
330
70
100
AcDbEntity
  8
0
 62
    18
420
        0
370
    25
100
AcDbLine
 10
48.87905274481799
 20
107.4875590046895
 30
0.0
 11
48.32872378321797
 21
107.4875590046895
 31
0.0
  0
LINE
  5
7A
330
70
100
AcDbEntity
  8
0
 62
    18
420
        0
370
    25
100
AcDbLine
 10
48.32872378321797
 20
104.9875590046895
 30
0.0
 11
48.87905274481799
 21
104.9875590046895
 31
0.0
  0
LINE
  5
7B
330
70
100
AcDbEntity
  8
0
 62
    18
420
        0
370
    25
100
AcDbLine
 10
56.47839482161796
 20
104.9875590046895
 30
0.0
 11
57.32872378321797
 21
104.9875590046895
 31
0.0
  0
LINE
  5
7C
330
70
100
AcDbEntity
  8
0
 62
    18
420
        0
370
    25
100
AcDbLine
 10
39.69100851941798
 20
107.4875590046895
 30
0.0
 11
26.81719659511781
 21
107.4875590046895
 31
0.0
  0
LWPOLYLINE
  5
7D
330
70
100
AcDbEntity
  8
0
 62
    18
420
        0
370
    25
100
AcDbPolyline
 90
        3
 70
     0
 43
0.0
 10
26.81719659511781
 20
107.4875590046895
 10
26.17677982291786
 20
107.4417554931893
 10
25.98789765161793
 20
107.4104837454895
  0
LINE
  5
7E
330
70
100
AcDbEntity
  8
0
 62
    18
420
        0
370
    25
100
AcDbLine
 10
48.32872378321797
 20
108.0125590046893
 30
0.0
 11
40.328723783218
 21
108.0125590046893
 31
0.0
  0
LINE
  5
7F
330
70
100
AcDbEntity
  8
0
 62
    18
420
        0
370
    25
100
AcDbLine
 10
65.32872378321761
 20
108.0125590046893
 30
0.0
 11
57.32872378321797
 21
108.0125590046893
 31
0.0
  0
SPLINE
  5
80
330
70
100
AcDbEntity
  8
0
 62
    18
420
        0
370
    25
100
AcDbSpline
210
0.0
220
0.0
230
1.0
 70
     8
 71
     3
 72
    11
 73
     7
 74
     0
 42
0.0000000001
 43
0.0000000001
 40
0.0
 40
0.0
 40
0.0
 40
0.0
 40
1.0
 40
1.0
 40
1.0
 40
2.0
 40
2.0
 40
2.0
 40
2.0
 10
66.37860508024203
 20
107.4104837454333
 30
0.0
 10
65.73081663322948
 20
114.9767192602717
 30
0.0
 10
59.07203455731237
 20
120.5852287487257
 30
0.0
 10
51.50579904247398
 20
119.9374403017134
 30
0.0
 10
44.86720592246792
 20
119.3690725950621
 30
0.0
 10
39.5913761448894
 20
114.1228486161431
 30
0.0
 10
38.98565984558981
 20
107.4875590047005
 30
0.0
  0
LINE
  5
81
330
70
100
AcDbEntity
  8
0
 62
    18
420
        0
370
    25
100
AcDbLine
 10
57.32872378321797
 20
103.5520669243894
 30
0.0
 11
57.32872378321797
 21
106.7314084730895
 31
0.0
  0
LINE
  5
82
330
70
100
AcDbEntity
  8
0
 62
    18
420
        0
370
    25
100
AcDbLine
 10
84.03040381781783
 20
106.7314084730895
 30
0.0
 11
57.32872378321797
 21
106.7314084730895
 31
0.0
  0
LINE
  5
83
330
70
100
AcDbEntity
  8
0
 62
    18
420
        0
370
    25
100
AcDbLine
 10
84.03040381781783
 20
106.7314084730895
 30
0.0
 11
84.0787237832181
 21
106.4350066293896
 31
0.0
  0
LINE
  5
84
330
70
100
AcDbEntity
  8
0
 62
    18
420
        0
370
    25
100
AcDbLine
 10
84.0787237832181
 20
106.4350066293896
 30
0.0
 11
84.0787237832181
 21
62.0901780235895
 31
0.0
  0
SPLINE
  5
85
330
70
100
AcDbEntity
  8
0
 62
    18
420
        0
370
    25
100
AcDbSpline
210
0.0
220
0.0
230
1.0
 70
     8
 71
     3
 72
     8
 73
     4
 74
     0
 42
0.0000000001
 43
0.0000000001
 40
0.0
 40
0.0
 40
0.0
 40
0.0
 40
1.0
 40
1.0
 40
1.0
 40
1.0
 10
82.07872378317954
 20
60.51994923579599
 30
0.0
 10
83.05796682720879
 20
60.42451865642492
 30
0.0
 10
83.93904014747091
 20
61.11626200225361
 30
0.0
 10
84.07872378318089
 20
62.09017802361902
 30
0.0
  0
LINE
  5
86
330
70
100
AcDbEntity
  8
0
 62
    18
420
        0
370
    25
100
AcDbLine
 10
82.07872378321804
 20
60.51994923578957
 30
0.0
 11
23.5787237832179
 21
60.51994923578957
 31
0.0
  0
SPLINE
  5
87
330
70
100
AcDbEntity
  8
0
 62
    18
420
        0
370
    25
100
AcDbSpline
210
0.0
220
0.0
230
1.0
 70
     8
 71
     3
 72
     8
 73
     4
 74
     0
 42
0.0000000001
 43
0.0000000001
 40
0.0
 40
0.0
 40
0.0
 40
0.0
 40
1.0
 40
1.0
 40
1.0
 40
1.0
 10
21.5787237832127
 20
62.09017802364598
 30
0.0
 10
21.71809685580038
 20
61.11608263963962
 30
0.0
 10
22.59938020136126
 20
60.42417439992529
 30
0.0
 10
23.57872378321277
 20
60.51994923582294
 30
0.0
  0
LINE
  5
88
330
70
100
AcDbEntity
  8
0
 62
    18
420
        0
370
    25
100
AcDbLine
 10
21.57872378321783
 20
62.0901780235895
 30
0.0
 11
21.57872378321783
 21
106.4350066293896
 31
0.0
  0
LINE
  5
89
330
70
100
AcDbEntity
  8
0
 62
    18
420
        0
370
    25
100
AcDbLine
 10
21.57872378321783
 20
106.4350066293896
 30
0.0
 11
21.62704374861779
 21
106.7314084730895
 31
0.0
  0
LINE
  5
8A
330
70
100
AcDbEntity
  8
0
 62
    18
420
        0
370
    25
100
AcDbLine
 10
48.32872378321797
 20
106.7314084730895
 30
0.0
 11
21.62704374861779
 21
106.7314084730895
 31
0.0
  0
LINE
  5
8B
330
70
100
AcDbEntity
  8
0
 62
    18
420
        0
370
    25
100
AcDbLine
 10
48.32872378321797
 20
106.7314084730895
 30
0.0
 11
48.32872378321797
 21
103.6611753493894
 31
0.0
  0
LWPOLYLINE
  5
8C
330
70
100
AcDbEntity
  8
0
 62
    18
420
        0
370
    25
100
AcDbPolyline
 90
        3
 70
     0
 43
0.0
 10
48.32872378321797
 20
103.6611753493894
 10
48.46233941891775
 20
102.8631454731894
 10
48.85607204691787
 20
102.1512251168893
  0
SPLINE
  5
8D
330
70
100
AcDbEntity
  8
0
 62
    18
420
        0
370
    25
100
AcDbSpline
210
0.0
220
0.0
230
1.0
 70
     8
 71
     3
 72
    11
 73
     7
 74
     0
 42
0.0000000001
 43
0.0000000001
 40
0.0
 40
0.0
 40
0.0
 40
0.0
 40
1.0
 40
1.0
 40
1.0
 40
2.0
 40
2.0
 40
2.0
 40
2.0
 10
48.85607331207694
 20
102.1512234083849
 30
0.0
 10
50.60878958455383
 20
99.93186110800833
 30
0.0
 10
53.82879548274645
 20
99.55356975887147
 30
0.0
 10
56.04815778312274
 20
101.3062860313483
 30
0.0
 10
56.28808270434103
 20
101.4957640239779
 30
0.0
 10
56.51055649757534
 20
101.7063482965981
 30
0.0
 10
56.71291331779474
 20
101.9355154731815
 30
0.0
  0
LWPOLYLINE
  5
8E
330
70
100
AcDbEntity
  8
0
 62
    18
420
        0
370
    25
100
AcDbPolyline
 90
        3
 70
     0
 43
0.0
 10
56.71291436091792
 20
101.9355165375895
 10
57.17249892621804
 20
102.6888386837896
 10
57.32872378321797
 20
103.5520669243894
  0
LINE
  5
8F
330
70
100
AcDbEntity
  8
0
 62
    18
420
        0
370
    25
100
AcDbLine
 10
48.32872378321797
 20
108.0125590046893
 30
0.0
 11
48.32872378321797
 21
106.7314084730895
 31
0.0
  0
SPLINE
  5
90
330
70
100
AcDbEntity
  8
0
 62
    18
420
        0
370
    25
100
AcDbSpline
210
0.0
220
0.0
230
1.0
 70
     8
 71
     3
 72
     8
 73
     4
 74
     0
 42
0.0000000001
 43
0.0000000001
 40
0.0
 40
0.0
 40
0.0
 40
0.0
 40
1.0
 40
1.0
 40
1.0
 40
1.0
 10
22.57872378317391
 20
107.4104837455077
 30
0.0
 10
22.14555265038347
 20
107.421694397615
 30
0.0
 10
21.75732757670722
 20
107.1446747711821
 30
0.0
 10
21.62704374858924
 20
106.7314084730953
 30
0.0
  0
LINE
  5
91
330
70
100
AcDbEntity
  8
0
 62
    18
420
        0
370
    25
100
AcDbLine
 10
22.57872378321787
 20
107.4104837454895
 30
0.0
 11
39.32872378321798
 21
107.4104837454895
 31
0.0
  0
SPLINE
  5
92
330
70
100
AcDbEntity
  8
0
 62
    18
420
        0
370
    25
100
AcDbSpline
210
0.0
220
0.0
230
1.0
 70
     8
 71
     3
 72
     8
 73
     4
 74
     0
 42
0.0000000001
 43
0.0000000001
 40
0.0
 40
0.0
 40
0.0
 40
0.0
 40
1.0
 40
1.0
 40
1.0
 40
1.0
 10
39.32872378316729
 20
107.4104837454523
 30
0.0
 10
39.73977354720287
 20
107.4003255736631
 30
0.0
 10
40.12345923581275
 20
107.6157998901681
 30
0.0
 10
40.32872378316795
 20
107.9720744508187
 30
0.0
  0
LINE
  5
93
330
70
100
AcDbEntity
  8
0
 62
    18
420
        0
370
    25
100
AcDbLine
 10
40.328723783218
 20
107.9720744508896
 30
0.0
 11
40.328723783218
 21
108.0125590046893
 31
0.0
  0
SPLINE
  5
94
330
70
100
AcDbEntity
  8
0
 62
    18
420
        0
370
    25
100
AcDbSpline
210
0.0
220
0.0
230
1.0
 70
     8
 71
     3
 72
     8
 73
     4
 74
     0
 42
0.0000000001
 43
0.0000000001
 40
0.0
 40
0.0
 40
0.0
 40
0.0
 40
1.0
 40
1.0
 40
1.0
 40
1.0
 10
65.32872378320156
 20
107.9720744508857
 30
0.0
 10
65.54011611790935
 20
107.6220595680977
 30
0.0
 10
65.91982971896571
 20
107.408815939043
 30
0.0
 10
66.32872378320161
 20
107.4104837455183
 30
0.0
  0
LINE
  5
95
330
70
100
AcDbEntity
  8
0
 62
    18
420
        0
370
    25
100
AcDbLine
 10
66.32872378321829
 20
107.4104837454895
 30
0.0
 11
83.07872378321745
 21
107.4104837454895
 31
0.0
  0
SPLINE
  5
96
330
70
100
AcDbEntity
  8
0
 62
    18
420
        0
370
    25
100
AcDbSpline
210
0.0
220
0.0
230
1.0
 70
     8
 71
     3
 72
     8
 73
     4
 74
     0
 42
0.0000000001
 43
0.0000000001
 40
0.0
 40
0.0
 40
0.0
 40
0.0
 40
1.0
 40
1.0
 40
1.0
 40
1.0
 10
84.03040381774339
 20
106.7314084730763
 30
0.0
 10
83.90010759038867
 20
107.1446657644584
 30
0.0
 10
83.51189043166483
 20
107.4216797431437
 30
0.0
 10
83.07872378315648
 20
107.4104837454901
 30
0.0
  0
LINE
  5
97
330
70
100
AcDbEntity
  8
0
 62
    18
420
        0
370
    25
100
AcDbLine
 10
57.32872378321797
 20
106.7314084730895
 30
0.0
 11
57.32872378321797
 21
108.0125590046893
 31
0.0
  0
LINE
  5
98
330
70
100
AcDbEntity
  8
0
 62
    18
420
        0
370
    25
100
AcDbLine
 10
65.32872378321761
 20
108.0125590046893
 30
0.0
 11
65.32872378321761
 21
107.9720744508896
 31
0.0
  0
CIRCLE
  5
99
330
70
100
AcDbEntity
  8
0
 62
    18
420
        0
370
    25
100
AcDbCircle
 10
52.67872378321797
 20
106.2375590046893
 30
0.0
 40
3.808593749999981
  0
CIRCLE
  5
9A
330
70
100
AcDbEntity
  8
0
 62
    18
420
        0
370
    25
100
AcDbCircle
 10
52.67872378321788
 20
106.2375590046894
 30
0.0
 40
4.000000000000061
  0
SPLINE
  5
9B
330
70
100
AcDbEntity
  8
0
 62
     8
420
  8421504
370
    25
100
AcDbSpline
210
0.0
220
0.0
230
1.0
 70
     8
 71
     3
 72
    11
 73
     7
 74
     0
 42
0.0000000001
 43
0.0000000001
 40
0.0
 40
0.0
 40
0.0
 40
0.0
 40
1.0
 40
1.0
 40
1.0
 40
2.0
 40
2.0
 40
2.0
 40
2.0
 10
65.89316794120779
 20
107.5202623910744
 30
0.0
 10
65.18475042235114
 20
114.8183983770226
 30
0.0
 10
58.69415638278141
 20
120.1604206815361
 30
0.0
 10
51.39602039683288
 20
119.4520031626795
 30
0.0
 10
45.0519486888512
 20
118.8361950237971
 30
0.0
 10
40.04071201871
 20
113.7989071994342
 30
0.0
 10
39.45780639605993
 20
107.4517277837396
 30
0.0
  0
LINE
  5
9C
330
70
100
AcDbEntity
  8
0
 62
     8
420
  8421504
370
    25
100
AcDbLine
 10
26.81719659511781
 20
107.4875590046895
 30
0.0
 11
26.81719659511781
 21
107.4104837454895
 31
0.0
  0
LINE
  5
9D
330
70
100
AcDbEntity
  8
0
 62
    18
420
        0
370
    25
100
AcDbLine
 10
66.42872378321797
 20
-10.5863068965102
 30
0.0
 11
66.42872378321797
 21
-8.406381918910422
 31
0.0
  0
LINE
  5
9E
330
70
100
AcDbEntity
  8
0
 62
    18
420
        0
370
    25
100
AcDbLine
 10
38.92872378321796
 20
-8.406381918910422
 30
0.0
 11
38.92872378321796
 21
-10.5863068965102
 31
0.0
  0
SPLINE
  5
9F
330
70
100
AcDbEntity
  8
0
 62
    18
420
        0
370
    25
100
AcDbSpline
210
0.0
220
0.0
230
1.0
 70
     8
 71
     3
 72
     8
 73
     4
 74
     0
 42
0.0000000001
 43
0.0000000001
 40
0.0
 40
0.0
 40
0.0
 40
0.0
 40
1.0
 40
1.0
 40
1.0
 40
1.0
 10
38.92872378321796
 20
-10.5863068965102
 30
0.0
 10
38.92872378321796
 20
-10.85213092189769
 30
0.0
 10
39.13672176402008
 20
-11.07148442407891
 30
0.0
 10
39.40217067700598
 20
-11.08560133123841
 30
0.0
  0
SPLINE
  5
A0
330
70
100
AcDbEntity
  8
0
 62
    18
420
        0
370
    25
100
AcDbSpline
210
0.0
220
0.0
230
1.0
 70
     8
 71
     3
 72
     8
 73
     4
 74
     0
 42
0.0000000001
 43
0.0000000001
 40
0.0
 40
0.0
 40
0.0
 40
0.0
 40
1.0
 40
1.0
 40
1.0
 40
1.0
 10
65.95527688942995
 20
-11.08560133123841
 30
0.0
 10
66.22072580241585
 20
-11.07148442407891
 30
0.0
 10
66.42872378321797
 20
-10.85213092189769
 30
0.0
 10
66.42872378321797
 20
-10.5863068965102
 30
0.0
  0
SPLINE
  5
A1
330
70
100
AcDbEntity
  8
0
 62
    18
420
        0
370
    25
100
AcDbSpline
210
0.0
220
0.0
230
1.0
 70
     8
 71
     3
 72
     8
 73
     4
 74
     0
 42
0.0000000001
 43
0.0000000001
 40
0.0
 40
0.0
 40
0.0
 40
0.0
 40
1.0
 40
1.0
 40
1.0
 40
1.0
 10
39.40217067722127
 20
-11.0856013312814
 30
0.0
 10
42.4921034034246
 20
-11.24992784117202
 30
0.0
 10
45.58482069272063
 20
-11.35687313197224
 30
0.0
 10
48.67872378336926
 20
-11.40638191895095
 30
0.0
  0
SPLINE
  5
A2
330
70
100
AcDbEntity
  8
0
 62
    18
420
        0
370
    25
100
AcDbSpline
210
0.0
220
0.0
230
1.0
 70
     8
 71
     3
 72
     8
 73
     4
 74
     0
 42
0.0000000001
 43
0.0000000001
 40
0.0
 40
0.0
 40
0.0
 40
0.0
 40
1.0
 40
1.0
 40
1.0
 40
1.0
 10
56.67872378306634
 20
-11.40638191895095
 30
0.0
 10
59.77262687386033
 20
-11.35687313196968
 30
0.0
 10
62.86534416330201
 20
-11.24992784116239
 30
0.0
 10
65.95527688965006
 20
-11.0856013312583
 30
0.0
  0
LINE
  5
A3
330
70
100
AcDbEntity
  8
0
 62
    18
420
        0
370
    25
100
AcDbLine
 10
40.328723783218
 20
-29.08138191891075
 30
0.0
 11
26.81719659511781
 21
-29.08138191891075
 31
0.0
  0
LINE
  5
A4
330
70
100
AcDbEntity
  8
0
 62
    18
420
        0
370
    25
100
AcDbLine
 10
57.32872378321797
 20
-29.08138191891075
 30
0.0
 11
56.53397959121777
 21
-29.08138191891075
 31
0.0
  0
LINE
  5
A5
330
70
100
AcDbEntity
  8
0
 62
    18
420
        0
370
    25
100
AcDbLine
 10
48.79238669811787
 20
-29.08138191891075
 30
0.0
 11
48.32872378321797
 21
-29.08138191891075
 31
0.0
  0
LINE
  5
A6
330
70
100
AcDbEntity
  8
0
 62
    18
420
        0
370
    25
100
AcDbLine
 10
48.32872378321797
 20
-31.58138191891052
 30
0.0
 11
48.79242208961793
 21
-31.58138191891052
 31
0.0
  0
LINE
  5
A7
330
70
100
AcDbEntity
  8
0
 62
    18
420
        0
370
    25
100
AcDbLine
 10
56.53418726441779
 20
-31.58138191891052
 30
0.0
 11
57.32872378321797
 21
-31.58138191891052
 31
0.0
  0
LINE
  5
A8
330
70
100
AcDbEntity
  8
0
 62
    18
420
        0
370
    25
100
AcDbLine
 10
26.81719659511781
 20
-29.08138191891075
 30
0.0
 11
23.56719659511785
 21
-29.08138191891075
 31
0.0
  0
LINE
  5
A9
330
70
100
AcDbEntity
  8
0
 62
    18
420
        0
370
    25
100
AcDbLine
 10
81.56719659511798
 20
-29.08138191891075
 30
0.0
 11
78.31719659511833
 21
-29.08138191891075
 31
0.0
  0
LINE
  5
AA
330
70
100
AcDbEntity
  8
0
 62
    18
420
        0
370
    25
100
AcDbLine
 10
78.31719659511833
 20
-29.08138191891075
 30
0.0
 11
65.32872378321761
 21
-29.08138191891075
 31
0.0
  0
LINE
  5
AB
330
70
100
AcDbEntity
  8
0
 62
    18
420
        0
370
    25
100
AcDbLine
 10
48.32872378321797
 20
-28.55638191891033
 30
0.0
 11
40.328723783218
 21
-28.55638191891033
 31
0.0
  0
LINE
  5
AC
330
70
100
AcDbEntity
  8
0
 62
    18
420
        0
370
    25
100
AcDbLine
 10
65.32872378321761
 20
-28.55638191891033
 30
0.0
 11
57.32872378321797
 21
-28.55638191891033
 31
0.0
  0
LINE
  5
AD
330
70
100
AcDbEntity
  8
0
 62
    18
420
        0
370
    25
100
AcDbLine
 10
21.57872378321783
 20
-34.02629562421022
 30
0.0
 11
48.67872378321782
 21
-34.02629562421022
 31
0.0
  0
LINE
  5
AE
330
70
100
AcDbEntity
  8
0
 62
    18
420
        0
370
    25
100
AcDbLine
 10
56.67872378321778
 20
-34.02629562421022
 30
0.0
 11
84.0787237832181
 21
-34.02629562421022
 31
0.0
  0
LINE
  5
AF
330
70
100
AcDbEntity
  8
0
 62
    18
420
        0
370
    25
100
AcDbLine
 10
48.67872378321782
 20
-31.90638191891029
 30
0.0
 11
48.67872378321782
 21
-34.21072214921051
 31
0.0
  0
LINE
  5
B0
330
70
100
AcDbEntity
  8
0
 62
    18
420
        0
370
    25
100
AcDbLine
 10
48.67872378321782
 20
-11.40638191891053
 30
0.0
 11
48.67872378321782
 21
-28.75638191891034
 31
0.0
  0
LINE
  5
B1
330
70
100
AcDbEntity
  8
0
 62
    18
420
        0
370
    25
100
AcDbLine
 10
56.67872378321778
 20
-28.69200677151066
 30
0.0
 11
56.67872378321778
 21
-11.40638191891053
 31
0.0
  0
LINE
  5
B2
330
70
100
AcDbEntity
  8
0
 62
    18
420
        0
370
    25
100
AcDbLine
 10
56.67872378321778
 20
-34.21072214921051
 30
0.0
 11
56.67872378321778
 21
-31.97519039561037
 31
0.0
  0
SPLINE
  5
B3
330
70
100
AcDbEntity
  8
0
 62
    18
420
        0
370
    25
100
AcDbSpline
210
0.0
220
0.0
230
1.0
 70
     8
 71
     3
 72
     8
 73
     4
 74
     0
 42
0.0000000001
 43
0.0000000001
 40
0.0
 40
0.0
 40
0.0
 40
0.0
 40
1.0
 40
1.0
 40
1.0
 40
1.0
 10
48.67872378321782
 20
-34.21072214921051
 30
0.0
 10
48.67872378321782
 20
-34.32622281976605
 30
0.0
 10
48.75784648780205
 20
-34.42668824564734
 30
0.0
 10
48.87013003321766
 20
-34.45375871530924
 30
0.0
  0
SPLINE
  5
B4
330
70
100
AcDbEntity
  8
0
 62
    18
420
        0
370
    25
100
AcDbSpline
210
0.0
220
0.0
230
1.0
 70
     8
 71
     3
 72
     8
 73
     4
 74
     0
 42
0.0000000001
 43
0.0000000001
 40
0.0
 40
0.0
 40
0.0
 40
0.0
 40
1.0
 40
1.0
 40
1.0
 40
1.0
 10
56.48731753321794
 20
-34.45375871530924
 30
0.0
 10
56.59960107863357
 20
-34.42668824564734
 30
0.0
 10
56.67872378321778
 20
-34.32622281976605
 30
0.0
 10
56.67872378321778
 20
-34.21072214921051
 30
0.0
  0
SPLINE
  5
B5
330
70
100
AcDbEntity
  8
0
 62
    18
420
        0
370
    25
100
AcDbSpline
210
0.0
220
0.0
230
1.0
 70
     8
 71
     3
 72
     8
 73
     4
 74
     0
 42
0.0000000001
 43
0.0000000001
 40
0.0
 40
0.0
 40
0.0
 40
0.0
 40
1.0
 40
1.0
 40
1.0
 40
1.0
 10
48.87013003321222
 20
-34.45375871530989
 30
0.0
 10
50.11734264466237
 20
-34.75444953367298
 30
0.0
 10
51.39577629153791
 20
-34.9063819189104
 30
0.0
 10
52.67872378321797
 20
-34.9063819189104
 30
0.0
  0
SPLINE
  5
B6
330
70
100
AcDbEntity
  8
0
 62
    18
420
        0
370
    25
100
AcDbSpline
210
0.0
220
0.0
230
1.0
 70
     8
 71
     3
 72
     8
 73
     4
 74
     0
 42
0.0000000001
 43
0.0000000001
 40
0.0
 40
0.0
 40
0.0
 40
0.0
 40
1.0
 40
1.0
 40
1.0
 40
1.0
 10
52.67872378321797
 20
-34.9063819189104
 30
0.0
 10
53.96167127489801
 20
-34.9063819189104
 30
0.0
 10
55.24010492177356
 20
-34.75444953367298
 30
0.0
 10
56.48731753322373
 20
-34.45375871530989
 30
0.0
  0
LINE
  5
B7
330
70
100
AcDbEntity
  8
0
 62
    18
420
        0
370
    25
100
AcDbLine
 10
66.42872378321797
 20
-8.406381918910422
 30
0.0
 11
38.92872378321796
 21
-8.406381918910422
 31
0.0
  0
LINE
  5
B8
330
70
100
AcDbEntity
  8
0
 62
    18
420
        0
370
    25
100
AcDbLine
 10
56.67872378321778
 20
-11.40638191891053
 30
0.0
 11
48.67872378321782
 21
-11.40638191891053
 31
0.0
  0
SPLINE
  5
B9
330
70
100
AcDbEntity
  8
0
 62
    18
420
        0
370
    25
100
AcDbSpline
210
0.0
220
0.0
230
1.0
 70
     8
 71
     3
 72
    11
 73
     7
 74
     0
 42
0.0000000001
 43
0.0000000001
 40
0.0
 40
0.0
 40
0.0
 40
0.0
 40
1.0
 40
1.0
 40
1.0
 40
2.0
 40
2.0
 40
2.0
 40
2.0
 10
23.56719659511785
 20
-29.08138191891075
 30
0.0
 10
22.87684065782932
 20
-29.08138191891075
 30
0.0
 10
22.31719659511797
 20
-29.64102598162178
 30
0.0
 10
22.31719659511797
 20
-30.33138191891032
 30
0.0
 10
22.31719659511797
 20
-30.74423351483155
 30
0.0
 10
22.52104868882538
 20
-31.13045700825737
 30
0.0
 10
22.86190542580153
 20
-31.36340147613071
 30
0.0
  0
SPLINE
  5
BA
330
70
100
AcDbEntity
  8
0
 62
    18
420
        0
370
    25
100
AcDbSpline
210
0.0
220
0.0
230
1.0
 70
     8
 71
     3
 72
    11
 73
     7
 74
     0
 42
0.0000000001
 43
0.0000000001
 40
0.0
 40
0.0
 40
0.0
 40
0.0
 40
1.0
 40
1.0
 40
1.0
 40
2.0
 40
2.0
 40
2.0
 40
2.0
 10
82.27248776443461
 20
-31.36340147613071
 30
0.0
 10
82.84245642741424
 20
-30.97387991912697
 30
0.0
 10
82.98873770934147
 20
-30.19605941257394
 30
0.0
 10
82.59921615233771
 20
-29.62609074959431
 30
0.0
 10
82.36627168446437
 20
-29.28523401261817
 30
0.0
 10
81.98004819103919
 20
-29.08138191891075
 30
0.0
 10
81.56719659511798
 20
-29.08138191891075
 30
0.0
  0
SPLINE
  5
BB
330
70
100
AcDbEntity
  8
0
 62
    18
420
        0
370
    25
100
AcDbSpline
210
0.0
220
0.0
230
1.0
 70
     8
 71
     3
 72
    11
 73
     7
 74
     0
 42
0.0000000001
 43
0.0000000001
 40
0.0
 40
0.0
 40
0.0
 40
0.0
 40
1.0
 40
1.0
 40
1.0
 40
2.0
 40
2.0
 40
2.0
 40
2.0
 10
81.56719659511798
 20
-29.08138191891075
 30
0.0
 10
80.87684065782942
 20
-29.08138191891075
 30
0.0
 10
80.31719659511777
 20
-29.64102598162178
 30
0.0
 10
80.31719659511777
 20
-30.33138191891032
 30
0.0
 10
80.31719659511777
 20
-30.74423351483155
 30
0.0
 10
80.52104868882583
 20
-31.13045700825737
 30
0.0
 10
80.86190542580132
 20
-31.36340147613071
 30
0.0
  0
CIRCLE
  5
BC
330
70
100
AcDbEntity
  8
0
 62
    18
420
        0
370
    25
100
AcDbCircle
 10
81.56719659511798
 20
-30.33138191891032
 30
0.0
 40
1.000000000000035
  0
LINE
  5
BD
330
70
100
AcDbEntity
  8
0
 62
    18
420
        0
370
    25
100
AcDbLine
 10
48.32872378321797
 20
-28.55638191891033
 30
0.0
 11
48.32872378321797
 21
-32.03629766541055
 31
0.0
  0
LINE
  5
BE
330
70
100
AcDbEntity
  8
0
 62
    18
420
        0
370
    25
100
AcDbLine
 10
48.32872378321797
 20
-32.03629766541055
 30
0.0
 11
21.62704374861779
 21
-32.03629766541055
 31
0.0
  0
SPLINE
  5
BF
330
70
100
AcDbEntity
  8
0
 62
    18
420
        0
370
    25
100
AcDbSpline
210
0.0
220
0.0
230
1.0
 70
     8
 71
     3
 72
     8
 73
     4
 74
     0
 42
0.0000000001
 43
0.0000000001
 40
0.0
 40
0.0
 40
0.0
 40
0.0
 40
1.0
 40
1.0
 40
1.0
 40
1.0
 10
22.57872378317295
 20
-31.66362534734719
 30
0.0
 10
22.22778825608148
 20
-31.67328445803559
 30
0.0
 10
21.89121936580469
 20
-31.80508286083279
 30
0.0
 10
21.62704374858795
 20
-32.03629766542466
 30
0.0
  0
LINE
  5
C0
330
70
100
AcDbEntity
  8
0
 62
    18
420
        0
370
    25
100
AcDbLine
 10
22.57872378321787
 20
-31.66362534731061
 30
0.0
 11
39.32872378321798
 21
-31.66362534731061
 31
0.0
  0
SPLINE
  5
C1
330
70
100
AcDbEntity
  8
0
 62
    18
420
        0
370
    25
100
AcDbSpline
210
0.0
220
0.0
230
1.0
 70
     8
 71
     3
 72
    11
 73
     7
 74
     0
 42
0.0000000001
 43
0.0000000001
 40
0.0
 40
0.0
 40
0.0
 40
0.0
 40
1.0
 40
1.0
 40
1.0
 40
2.0
 40
2.0
 40
2.0
 40
2.0
 10
39.32872378320001
 20
-31.6636253473581
 30
0.0
 10
39.84926086406002
 20
-31.69450570138041
 30
0.0
 10
40.29627301654389
 20
-31.29756049508844
 30
0.0
 10
40.32715337056556
 20
-30.77702341422842
 30
0.0
 10
40.32851040767787
 20
-30.75414841297512
 30
0.0
 10
40.3290342254442
 20
-30.73123159028253
 30
0.0
 10
40.3287237831994
 20
-30.70831847487522
 30
0.0
  0
LINE
  5
C2
330
70
100
AcDbEntity
  8
0
 62
    18
420
        0
370
    25
100
AcDbLine
 10
40.328723783218
 20
-30.7083184748104
 30
0.0
 11
40.328723783218
 21
-28.55638191891033
 31
0.0
  0
SPLINE
  5
C3
330
70
100
AcDbEntity
  8
0
 62
    18
420
        0
370
    25
100
AcDbSpline
210
0.0
220
0.0
230
1.0
 70
     8
 71
     3
 72
    11
 73
     7
 74
     0
 42
0.0000000001
 43
0.0000000001
 40
0.0
 40
0.0
 40
0.0
 40
0.0
 40
1.0
 40
1.0
 40
1.0
 40
2.0
 40
2.0
 40
2.0
 40
2.0
 10
65.3287237831958
 20
-30.70831847485917
 30
0.0
 10
65.32736866880792
 20
-31.23517692952154
 30
0.0
 10
65.75337329690487
 20
-31.66337863214383
 30
0.0
 10
66.28023175156659
 20
-31.66473374653235
 30
0.0
 10
66.29640254385911
 20
-31.66477533886713
 30
0.0
 10
66.31257177959705
 20
-31.66440575303691
 30
0.0
 10
66.32872378319518
 20
-31.6636253473427
 30
0.0
  0
LINE
  5
C4
330
70
100
AcDbEntity
  8
0
 62
    18
420
        0
370
    25
100
AcDbLine
 10
66.32872378321829
 20
-31.66362534731061
 30
0.0
 11
83.07872378321745
 21
-31.66362534731061
 31
0.0
  0
SPLINE
  5
C5
330
70
100
AcDbEntity
  8
0
 62
    18
420
        0
370
    25
100
AcDbSpline
210
0.0
220
0.0
230
1.0
 70
     8
 71
     3
 72
     8
 73
     4
 74
     0
 42
0.0000000001
 43
0.0000000001
 40
0.0
 40
0.0
 40
0.0
 40
0.0
 40
1.0
 40
1.0
 40
1.0
 40
1.0
 10
84.03040381774596
 20
-32.03629766538295
 30
0.0
 10
83.76639718502422
 20
-31.80480495524057
 30
0.0
 10
83.42972397511777
 20
-31.67296570148852
 30
0.0
 10
83.07872378316096
 20
-31.66362534730548
 30
0.0
  0
LINE
  5
C6
330
70
100
AcDbEntity
  8
0
 62
    18
420
        0
370
    25
100
AcDbLine
 10
84.03040381781783
 20
-32.03629766541055
 30
0.0
 11
57.32872378321797
 21
-32.03629766541055
 31
0.0
  0
LINE
  5
C7
330
70
100
AcDbEntity
  8
0
 62
    18
420
        0
370
    25
100
AcDbLine
 10
57.32872378321797
 20
-32.03629766541055
 30
0.0
 11
57.32872378321797
 21
-28.55638191891033
 31
0.0
  0
LINE
  5
C8
330
70
100
AcDbEntity
  8
0
 62
    18
420
        0
370
    25
100
AcDbLine
 10
65.32872378321761
 20
-28.55638191891033
 30
0.0
 11
65.32872378321761
 21
-30.7083184748104
 31
0.0
  0
LWPOLYLINE
  5
C9
330
70
100
AcDbEntity
  8
0
 62
    18
420
        0
370
    25
100
AcDbPolyline
 90
        7
 70
     0
 43
0.0
 10
39.32872378321798
 20
-31.36340147611081
 10
39.74369681011794
 20
-31.29890939741058
 10
40.04868781911776
 20
-31.16561058901024
 10
40.15994006691782
 20
-31.06760545721064
 10
40.24369681011796
 20
-30.94559017591048
 10
40.29995804891774
 20
-30.79777155431064
 10
40.328723783218
 20
-30.62337502561026
  0
LINE
  5
CA
330
70
100
AcDbEntity
  8
0
 62
    18
420
        0
370
    25
100
AcDbLine
 10
39.32872378321798
 20
-31.66362534731061
 30
0.0
 11
39.32872378321798
 21
-31.36340147611081
 31
0.0
  0
SPLINE
  5
CB
330
70
100
AcDbEntity
  8
0
 62
    18
420
        0
370
    25
100
AcDbSpline
210
0.0
220
0.0
230
1.0
 70
     8
 71
     3
 72
     8
 73
     4
 74
     0
 42
0.0000000001
 43
0.0000000001
 40
0.0
 40
0.0
 40
0.0
 40
0.0
 40
1.0
 40
1.0
 40
1.0
 40
1.0
 10
65.32872378320734
 20
-30.62337502559357
 30
0.0
 10
65.40117170842605
 20
-31.10347427905611
 30
0.0
 10
65.84841485634645
 20
-31.43444603832883
 30
0.0
 10
66.32872378320802
 20
-31.36340147610889
 30
0.0
  0
LINE
  5
CC
330
70
100
AcDbEntity
  8
0
 62
    18
420
        0
370
    25
100
AcDbLine
 10
66.32872378321829
 20
-31.66362534731061
 30
0.0
 11
66.32872378321829
 21
-31.36340147611081
 31
0.0
  0
LINE
  5
CD
330
70
100
AcDbEntity
  8
0
 62
    18
420
        0
370
    25
100
AcDbLine
 10
22.57872378321787
 20
-31.36340147611081
 30
0.0
 11
39.32872378321798
 21
-31.36340147611081
 31
0.0
  0
SPLINE
  5
CE
330
70
100
AcDbEntity
  8
0
 62
    18
420
        0
370
    25
100
AcDbSpline
210
0.0
220
0.0
230
1.0
 70
     8
 71
     3
 72
     8
 73
     4
 74
     0
 42
0.0000000001
 43
0.0000000001
 40
0.0
 40
0.0
 40
0.0
 40
0.0
 40
1.0
 40
1.0
 40
1.0
 40
1.0
 10
22.57872378318996
 20
-31.36340147611531
 30
0.0
 10
22.24037051211792
 20
-31.36633768435999
 30
0.0
 10
21.91000518114976
 20
-31.46655320401106
 30
0.0
 10
21.62704374860335
 20
-31.65209129997883
 30
0.0
  0
SPLINE
  5
CF
330
70
100
AcDbEntity
  8
0
 62
    18
420
        0
370
    25
100
AcDbSpline
210
0.0
220
0.0
230
1.0
 70
     8
 71
     3
 72
     8
 73
     4
 74
     0
 42
0.0000000001
 43
0.0000000001
 40
0.0
 40
0.0
 40
0.0
 40
0.0
 40
1.0
 40
1.0
 40
1.0
 40
1.0
 10
84.03040381779858
 20
-31.65209130000001
 30
0.0
 10
83.74757634065595
 20
-31.46626694355575
 30
0.0
 10
83.41712471274259
 20
-31.36602524593547
 30
0.0
 10
83.0787237832123
 20
-31.36340147613648
 30
0.0
  0
LINE
  5
D0
330
70
100
AcDbEntity
  8
0
 62
    18
420
        0
370
    25
100
AcDbLine
 10
66.32872378321829
 20
-31.36340147611081
 30
0.0
 11
83.07872378321745
 21
-31.36340147611081
 31
0.0
  0
LINE
  5
D1
330
70
100
AcDbEntity
  8
0
 62
    18
420
        0
370
    25
100
AcDbLine
 10
22.57872378321787
 20
-31.66362534731061
 30
0.0
 11
22.57872378321787
 21
-31.36340147611081
 31
0.0
  0
LINE
  5
D2
330
70
100
AcDbEntity
  8
0
 62
    18
420
        0
370
    25
100
AcDbLine
 10
21.62704374861779
 20
-32.03629766541055
 30
0.0
 11
21.62704374861779
 21
-31.65209130001028
 31
0.0
  0
LINE
  5
D3
330
70
100
AcDbEntity
  8
0
 62
    18
420
        0
370
    25
100
AcDbLine
 10
83.07872378321745
 20
-31.66362534731061
 30
0.0
 11
83.07872378321745
 21
-31.36340147611081
 31
0.0
  0
LINE
  5
D4
330
70
100
AcDbEntity
  8
0
 62
    18
420
        0
370
    25
100
AcDbLine
 10
84.03040381781783
 20
-31.65209130001028
 30
0.0
 11
84.03040381781783
 21
-32.03629766541055
 31
0.0
  0
LINE
  5
D5
330
70
100
AcDbEntity
  8
0
 62
    18
420
        0
370
    25
100
AcDbLine
 10
57.32872378321797
 20
-32.84605781251047
 30
0.0
 11
57.32872378321797
 21
-32.03629766541055
 31
0.0
  0
LINE
  5
D6
330
70
100
AcDbEntity
  8
0
 62
    18
420
        0
370
    25
100
AcDbLine
 10
84.03040381781783
 20
-32.03629766541055
 30
0.0
 11
84.0787237832181
 21
-32.12117224601056
 31
0.0
  0
LINE
  5
D7
330
70
100
AcDbEntity
  8
0
 62
    18
420
        0
370
    25
100
AcDbLine
 10
84.0787237832181
 20
-32.12117224601056
 30
0.0
 11
84.0787237832181
 21
-34.02629562421022
 31
0.0
  0
LINE
  5
D8
330
70
100
AcDbEntity
  8
0
 62
    18
420
        0
370
    25
100
AcDbLine
 10
21.57872378321783
 20
-34.02629562421022
 30
0.0
 11
21.57872378321783
 21
-32.12117224601056
 31
0.0
  0
LINE
  5
D9
330
70
100
AcDbEntity
  8
0
 62
    18
420
        0
370
    25
100
AcDbLine
 10
21.57872378321783
 20
-32.12117224601056
 30
0.0
 11
21.62704374861779
 21
-32.03629766541055
 31
0.0
  0
LINE
  5
DA
330
70
100
AcDbEntity
  8
0
 62
    18
420
        0
370
    25
100
AcDbLine
 10
48.32872378321797
 20
-32.03629766541055
 30
0.0
 11
48.32872378321797
 21
-32.82189416761081
 31
0.0
  0
LWPOLYLINE
  5
DB
330
70
100
AcDbEntity
  8
0
 62
    18
420
        0
370
    25
100
AcDbPolyline
 90
        3
 70
     0
 43
0.0
 10
48.32872378321797
 20
-32.82189416761081
 10
48.46233941891775
 20
-32.99278835751063
 10
48.67872378321782
 20
-33.07033356961059
  0
LWPOLYLINE
  5
DC
330
70
100
AcDbEntity
  8
0
 62
    18
420
        0
370
    25
100
AcDbPolyline
 90
        3
 70
     0
 43
0.0
 10
56.71291436091792
 20
-33.17454399481068
 10
57.17249892621804
 20
-33.02832130841073
 10
57.32872378321797
 20
-32.84605781251047
  0
LINE
  5
DD
330
70
100
AcDbEntity
  8
0
 62
    18
420
        0
370
    25
100
AcDbLine
 10
21.57872378321783
 20
-31.73629227281085
 30
0.0
 11
21.62704374861779
 21
-31.65209130001028
 31
0.0
  0
LINE
  5
DE
330
70
100
AcDbEntity
  8
0
 62
    18
420
        0
370
    25
100
AcDbLine
 10
21.57872378321783
 20
-32.12117224601056
 30
0.0
 11
21.57872378321783
 21
-31.73629227281085
 31
0.0
  0
LINE
  5
DF
330
70
100
AcDbEntity
  8
0
 62
    18
420
        0
370
    25
100
AcDbLine
 10
84.03040381781783
 20
-31.65209130001028
 30
0.0
 11
84.0787237832181
 21
-31.73629227281085
 31
0.0
  0
LINE
  5
E0
330
70
100
AcDbEntity
  8
0
 62
    18
420
        0
370
    25
100
AcDbLine
 10
84.0787237832181
 20
-32.12117224601056
 30
0.0
 11
84.0787237832181
 21
-31.73629227281085
 31
0.0
  0
LWPOLYLINE
  5
E1
330
70
100
AcDbEntity
  8
0
 62
    18
420
        0
370
    25
100
AcDbPolyline
 90
        3
 70
     0
 43
0.0
 10
48.32872378321797
 20
-32.43145290931054
 10
48.46233941891775
 20
-32.60099079611029
 10
48.67872378321782
 20
-32.67792050051048
  0
LINE
  5
E2
330
70
100
AcDbEntity
  8
0
 62
    18
420
        0
370
    25
100
AcDbLine
 10
21.57872378321783
 20
-23.34175763021069
 30
0.0
 11
21.57872378321783
 21
-31.68631650161072
 31
0.0
  0
LWPOLYLINE
  5
E3
330
70
100
AcDbEntity
  8
0
 62
    18
420
        0
370
    25
100
AcDbPolyline
 90
        5
 70
     0
 43
0.0
 10
23.5787237832179
 20
-22.1003756688103
 10
22.76473170761805
 20
-22.21999939251078
 10
22.16006768241787
 20
-22.46965985201028
 10
21.76473170761801
 20
-22.84554287821032
 10
21.57872378321783
 20
-23.34175763021069
  0
LINE
  5
E4
330
70
100
AcDbEntity
  8
0
 62
    18
420
        0
370
    25
100
AcDbLine
 10
82.07872378321804
 20
-22.1003756688103
 30
0.0
 11
56.67872378321778
 21
-22.1003756688103
 31
0.0
  0
LINE
  5
E5
330
70
100
AcDbEntity
  8
0
 62
    18
420
        0
370
    25
100
AcDbLine
 10
48.67872378321782
 20
-22.1003756688103
 30
0.0
 11
23.5787237832179
 21
-22.1003756688103
 31
0.0
  0
LWPOLYLINE
  5
E6
330
70
100
AcDbEntity
  8
0
 62
    18
420
        0
370
    25
100
AcDbPolyline
 90
        5
 70
     0
 43
0.0
 10
84.0787237832181
 20
-23.34175763021069
 10
83.89017995751782
 20
-22.84398029461021
 10
83.49399868221743
 20
-22.46754484681033
 10
82.89017995751777
 20
-22.21839776091066
 10
82.07872378321804
 20
-22.1003756688103
  0
LINE
  5
E7
330
70
100
AcDbEntity
  8
0
 62
    18
420
        0
370
    25
100
AcDbLine
 10
84.0787237832181
 20
-31.68830167371073
 30
0.0
 11
84.0787237832181
 21
-23.34175763021069
 31
0.0
  0
LWPOLYLINE
  5
E8
330
70
100
AcDbEntity
  8
0
 62
    18
420
        0
370
    25
100
AcDbPolyline
 90
        3
 70
     0
 43
0.0
 10
56.71291436091792
 20
-32.78130392841035
 10
57.17249892621804
 20
-32.63624173951044
 10
57.32872378321797
 20
-32.45542477931051
  0
SPLINE
  5
E9
330
70
100
AcDbEntity
  8
0
 62
    18
420
        0
370
    25
100
AcDbSpline
210
0.0
220
0.0
230
1.0
 70
     8
 71
     3
 72
     8
 73
     4
 74
     0
 42
0.0000000001
 43
0.0000000001
 40
0.0
 40
0.0
 40
0.0
 40
0.0
 40
1.0
 40
1.0
 40
1.0
 40
1.0
 10
48.67872378316874
 20
-31.90638191890772
 30
0.0
 10
49.09951378516383
 20
-30.89854006790446
 30
0.0
 10
49.09951378516383
 20
-29.76422376991617
 30
0.0
 10
48.67872378316874
 20
-28.75638191891355
 30
0.0
  0
LWPOLYLINE
  5
EA
330
70
100
AcDbEntity
  8
0
 62
    18
420
        0
370
    25
100
AcDbPolyline
 90
       10
 70
     0
 43
0.0
 10
56.48959134041778
 20
-29.22562389301067
 10
56.51856301041782
 20
-29.1292232284106
 10
56.5472066428178
 20
-29.0403352385104
 10
56.57514367371786
 20
-28.95859956901038
 10
56.60119328011787
 20
-28.88605917021023
 10
56.62369323421785
 20
-28.82585192301027
 10
56.65900304911789
 20
-28.73530137191022
 10
56.67051597461777
 20
-28.70670180651084
 10
56.67674071061778
 20
-28.69141282891052
 10
56.67649802721784
 20
-28.69200677151066
  0
SPLINE
  5
EB
330
70
100
AcDbEntity
  8
0
 62
    18
420
        0
370
    25
100
AcDbSpline
210
0.0
220
0.0
230
1.0
 70
     8
 71
     3
 72
     8
 73
     4
 74
     0
 42
0.0000000001
 43
0.0000000001
 40
0.0
 40
0.0
 40
0.0
 40
0.0
 40
1.0
 40
1.0
 40
1.0
 40
1.0
 10
56.48959134037222
 20
-29.22562389294972
 30
0.0
 10
56.23087659717127
 20
-30.13620894762133
 30
0.0
 10
56.29761061309111
 20
-31.10849251676399
 30
0.0
 10
56.67831160736158
 20
-31.97519039555582
 30
0.0
  0
LINE
  5
EC
330
70
100
AcDbEntity
  8
0
 62
     8
420
  8421504
370
    25
100
AcDbLine
 10
38.92872378321796
 20
-10.5863068965102
 30
0.0
 11
66.42872378321797
 21
-10.5863068965102
 31
0.0
  0
LINE
  5
ED
330
70
100
AcDbEntity
  8
0
 62
     8
420
  8421504
370
    25
100
AcDbLine
 10
65.95527688941776
 20
-11.08560133121081
 30
0.0
 11
39.40217067701785
 21
-11.08560133121081
 31
0.0
  0
LINE
  5
EE
330
70
100
AcDbEntity
  8
0
 62
     8
420
  8421504
370
    25
100
AcDbLine
 10
26.81719659511781
 20
-29.08138191891075
 30
0.0
 11
26.81719659511781
 21
-31.36340147611081
 31
0.0
  0
LINE
  5
EF
330
70
100
AcDbEntity
  8
0
 62
     8
420
  8421504
370
    25
100
AcDbLine
 10
78.31719659511833
 20
-31.36340147611081
 30
0.0
 11
78.31719659511833
 21
-29.08138191891075
 31
0.0
  0
LINE
  5
F0
330
70
100
AcDbEntity
  8
0
 62
     8
420
  8421504
370
    25
100
AcDbLine
 10
48.67872378321782
 20
-34.21072214921051
 30
0.0
 11
56.67872378321778
 21
-34.21072214921051
 31
0.0
  0
LINE
  5
F1
330
70
100
AcDbEntity
  8
0
 62
     8
420
  8421504
370
    25
100
AcDbLine
 10
56.48731753321794
 20
-34.45375871531053
 30
0.0
 11
48.87013003321798
 21
-34.45375871531053
 31
0.0
  0
LWPOLYLINE
  5
F2
330
70
100
AcDbEntity
  8
0
 62
    18
420
        0
370
    25
100
AcDbPolyline
 90
       19
 70
     0
 43
0.0
 10
158.7557643605176
 20
9.471118025089703
 10
158.3653747004176
 20
9.24002567818943
 10
157.8640297951172
 20
8.84873890258931
 10
157.4093630006178
 20
8.391668256589673
 10
157.0032717416176
 20
7.870919183589657
 10
156.6478006512181
 20
7.288697649389337
 10
156.3451484390175
 20
6.647697452589329
 10
156.0974801094182
 20
5.951354758989332
 10
155.9066743394176
 20
5.203875138889263
 10
155.7741323059172
 20
4.410075222589346
 10
155.700702395318
 20
3.575158091289365
 10
155.6846244209176
 20
2.937945830589702
 10
155.6928986649172
 20
2.469740206989784
 10
155.7537171623184
 20
1.56189811908953
 10
155.8730322575175
 20
0.6309185855892965
 10
156.0498596381177
 20
-0.3177170589103398
 10
156.2829178940174
 20
-1.278474491410515
 10
156.5706428214181
 20
-2.245788193610662
 10
156.8022285806183
 20
-2.904249314310393
  0
LWPOLYLINE
  5
F3
330
70
100
AcDbEntity
  8
0
 62
    18
420
        0
370
    25
100
AcDbPolyline
 90
       18
 70
     0
 43
0.0
 10
160.8021399836179
 20
-9.832503700710576
 10
161.2333087775173
 20
-10.33689933821077
 10
161.9261245382173
 20
-11.07125970371076
 10
162.6407511264174
 20
-11.75519443381073
 10
163.3732239949175
 20
-12.38460618111053
 10
164.1195061943184
 20
-12.95566357511057
 10
164.8755016156183
 20
-13.4648069648105
 10
165.6370579927174
 20
-13.9087504073108
 10
166.399954381018
 20
-14.28448350281024
 10
167.1598150283184
 20
-14.58926213111037
 10
167.9120054914178
 20
-14.82065204231025
 10
168.6517417367183
 20
-14.9766817971108
 10
169.3739843488183
 20
-15.05594064921074
 10
170.0734992029179
 20
-15.05776240841065
 10
170.7450556139177
 20
-14.98238977611079
 10
171.3837495977183
 20
-14.83101182761032
 10
171.9853366607173
 20
-14.60558836721076
 10
172.5196329647181
 20
-14.32266378691046
  0
LINE
  5
F4
330
70
100
AcDbEntity
  8
0
 62
    18
420
        0
370
    25
100
AcDbLine
 10
172.4282305585174
 20
-14.37892976791074
 30
0.0
 11
173.9696702926178
 21
-13.48907555051058
 31
0.0
  0
LINE
  5
F5
330
70
100
AcDbEntity
  8
0
 62
    18
420
        0
370
    25
100
AcDbLine
 10
160.2207877189173
 20
10.32726816498928
 30
0.0
 11
158.6793479847181
 21
9.437413947489654
 31
0.0
  0
LINE
  5
F6
330
70
100
AcDbEntity
  8
0
 62
    18
420
        0
370
    25
100
AcDbLine
 10
160.5101777881177
 20
-15.42659373291059
 30
0.0
 11
160.2659864917178
 21
-14.82942051801068
 31
0.0
  0
LINE
  5
F7
330
70
100
AcDbEntity
  8
0
 62
    18
420
        0
370
    25
100
AcDbLine
 10
154.8747532078177
 20
-10.98258445411069
 30
0.0
 11
154.2755778090182
 21
-10.63668785901066
 31
0.0
  0
LINE
  5
F8
330
70
100
AcDbEntity
  8
0
 62
    18
420
        0
370
    25
100
AcDbLine
 10
153.2664653750182
 20
-12.94081280351067
 30
0.0
 11
153.587113251318
 21
-13.1259188824105
 31
0.0
  0
LINE
  5
F9
330
70
100
AcDbEntity
  8
0
 62
    18
420
        0
370
    25
100
AcDbLine
 10
172.9031749491182
 20
-39.3686246993107
 30
0.0
 11
172.7263695296178
 21
-39.26652392551023
 31
0.0
  0
LINE
  5
FA
330
70
100
AcDbEntity
  8
0
 62
    18
420
        0
370
    25
100
AcDbLine
 10
173.2691478517178
 20
-42.12428407781057
 30
0.0
 11
173.2691478517178
 21
-39.87879684511071
 31
0.0
  0
SPLINE
  5
FB
330
70
100
AcDbEntity
  8
0
 62
    18
420
        0
370
    25
100
AcDbSpline
210
0.0
220
0.0
230
1.0
 70
     8
 71
     3
 72
     8
 73
     4
 74
     0
 42
0.0000000001
 43
0.0000000001
 40
0.0
 40
0.0
 40
0.0
 40
0.0
 40
1.0
 40
1.0
 40
1.0
 40
1.0
 10
172.3810603018871
 20
-44.39224091827622
 30
0.0
 10
172.9802649768513
 20
-43.79308597699801
 30
0.0
 10
173.3021744688575
 20
-42.97100843008101
 30
0.0
 10
173.2691478517088
 20
-42.124284077817
 30
0.0
  0
LINE
  5
FC
330
70
100
AcDbEntity
  8
0
 62
    18
420
        0
370
    25
100
AcDbLine
 10
142.8539379277181
 20
-4.043115503610819
 30
0.0
 11
133.9300007896177
 21
1.108563749589597
 31
0.0
  0
SPLINE
  5
FD
330
70
100
AcDbEntity
  8
0
 62
    18
420
        0
370
    25
100
AcDbSpline
210
0.0
220
0.0
230
1.0
 70
     8
 71
     3
 72
     8
 73
     4
 74
     0
 42
0.0000000001
 43
0.0000000001
 40
0.0
 40
0.0
 40
0.0
 40
0.0
 40
1.0
 40
1.0
 40
1.0
 40
1.0
 10
133.930000789619
 20
1.108563749597939
 30
0.0
 10
133.0630072577935
 20
1.697709314522473
 30
0.0
 10
131.9386335491419
 20
1.750107643710473
 30
0.0
 10
131.0206056688642
 20
1.244148068318458
 30
0.0
  0
LINE
  5
FE
330
70
100
AcDbEntity
  8
0
 62
    18
420
        0
370
    25
100
AcDbLine
 10
161.4242414854174
 20
-14.15732219521057
 30
0.0
 11
155.7673872359173
 21
-10.89168974791036
 31
0.0
  0
LINE
  5
FF
330
70
100
AcDbEntity
  8
0
 62
    18
420
        0
370
    25
100
AcDbLine
 10
149.366731993618
 20
-7.196670127210366
 30
0.0
 11
143.7465719558177
 21
-3.952220797410488
 31
0.0
  0
LINE
  5
100
330
70
100
AcDbEntity
  8
0
 62
    18
420
        0
370
    25
100
AcDbLine
 10
178.7561176330178
 20
-56.97968443731035
 30
0.0
 11
178.9769270274181
 21
-56.6473627600105
 31
0.0
  0
LWPOLYLINE
  5
101
330
70
100
AcDbEntity
  8
0
 62
    18
420
        0
370
    25
100
AcDbPolyline
 90
       11
 70
     0
 43
0.0
 10
147.2673777309178
 20
-14.07238379611064
 10
147.5178199562176
 20
-14.38226311291039
 10
147.8961658829179
 20
-14.7714530418103
 10
148.2948213759178
 20
-15.10740985951041
 10
148.7067572639177
 20
-15.38297377101029
 10
149.1248268572174
 20
-15.59167979951075
 10
149.5413835421173
 20
-15.72761620031037
 10
149.9470593796181
 20
-15.7856877686103
 10
150.3307194272175
 20
-15.76326589211058
 10
150.6804222804174
 20
-15.66209842101072
 10
150.766811249618
 20
-15.61309033671062
  0
LWPOLYLINE
  5
102
330
70
100
AcDbEntity
  8
0
 62
    18
420
        0
370
    25
100
AcDbPolyline
 90
       15
 70
     0
 43
0.0
 10
146.8525382600185
 20
-8.658571818010543
 10
146.7519048416184
 20
-8.711235721510579
 10
146.4861257091178
 20
-8.941955323510379
 10
146.2708794806181
 20
-9.23319891191072
 10
146.1078381060184
 20
-9.581408748910632
 10
145.9999180709173
 20
-9.982634976310661
 10
145.9503568989177
 20
-10.42962677391041
 10
145.9608187976184
 20
-10.91223977821045
 10
146.0308279783182
 20
-11.41915965641068
 10
146.1582557039172
 20
-11.93938858201079
 10
146.3399444868174
 20
-12.46252407311069
 10
146.5718858526177
 20
-12.9783039407105
 10
146.8492907707177
 20
-13.47664422261055
 10
147.1666618343178
 20
-13.94776514131021
 10
147.2673777309178
 20
-14.07238379611064
  0
LINE
  5
103
330
70
100
AcDbEntity
  8
0
 62
    18
420
        0
370
    25
100
AcDbLine
 10
162.974071196918
 20
0.6586795889896461
 30
0.0
 11
146.8489675796176
 21
-8.650144585410316
 31
0.0
  0
LINE
  5
104
330
70
100
AcDbEntity
  8
0
 62
    18
420
        0
370
    25
100
AcDbLine
 10
150.8486425101183
 20
-15.57853548441029
 30
0.0
 11
153.3846447783181
 21
-14.11453253721058
 31
0.0
  0
LINE
  5
105
330
70
100
AcDbEntity
  8
0
 62
    18
420
        0
370
    25
100
AcDbLine
 10
157.3673821854174
 20
-11.8153471716105
 30
0.0
 11
166.9737461274174
 21
-6.269711310010325
 31
0.0
  0
LINE
  5
106
330
70
100
AcDbEntity
  8
0
 62
    18
420
        0
370
    25
100
AcDbLine
 10
158.6793479847181
 20
9.437413947489654
 30
0.0
 11
158.7466442282179
 21
9.475510082489657
 31
0.0
  0
LWPOLYLINE
  5
107
330
70
100
AcDbEntity
  8
0
 62
    18
420
        0
370
    25
100
AcDbPolyline
 90
        3
 70
     0
 43
0.0
 10
172.5144700497175
 20
-14.32787990901074
 10
172.4985552589182
 20
-14.33749307521068
 10
172.4282305585174
 20
-14.37892976791074
  0
LWPOLYLINE
  5
108
330
70
100
AcDbEntity
  8
0
 62
    18
420
        0
370
    25
100
AcDbPolyline
 90
       30
 70
     0
 43
0.0
 10
176.8179472470184
 20
-7.1937094615103
 10
176.7855957042178
 20
-6.259893035610411
 10
176.6887563697183
 20
-5.29493870761044
 10
176.528073693518
 20
-4.305268089310735
 10
176.3046169921181
 20
-3.29746727551034
 10
176.0198733332181
 20
-2.278243014210764
 10
175.6757376387178
 20
-1.254378074810816
 10
175.2745000750183
 20
-0.2326861095106382
 10
174.8188308117175
 20
0.7800336901896748
 10
174.3117622528175
 20
1.777041841089529
 10
173.7566688557183
 20
2.751703418589599
 10
173.1572446755184
 20
3.697532210589706
 10
172.5174787812173
 20
4.60823388248934
 10
171.8416287092177
 20
5.477747864889442
 10
171.1341921304173
 20
6.300287685889524
 10
170.3998769182184
 20
7.070379478489605
 10
169.6435698195176
 20
7.782898408989294
 10
168.8703039331174
 20
8.433102781389742
 10
168.0852252159174
 20
9.016665592889362
 10
167.2935582373172
 20
9.529703329289517
 10
166.5005714104181
 20
9.968801809089656
 10
165.7115419316181
 20
10.33103890438958
 10
164.9317206621175
 20
10.61400398698975
 10
164.1662971836177
 20
10.81581397098919
 10
163.4203652631184
 20
10.93512584428927
 10
162.6988889546177
 20
10.97114560598922
 10
162.0066695637181
 20
10.92363355048963
 10
161.3483136964173
 20
10.79290586278965
 10
160.7282026023179
 20
10.57983251408946
 10
160.2207877189173
 20
10.32726816498928
  0
LWPOLYLINE
  5
109
330
70
100
AcDbEntity
  8
0
 62
    18
420
        0
370
    25
100
AcDbPolyline
 90
       11
 70
     0
 43
0.0
 10
173.9696702926178
 20
-13.48907555051058
 10
174.3117622528175
 20
-13.27088116151066
 10
174.8188308117175
 20
-12.85932190701047
 10
175.2745000750183
 20
-12.37270664021026
 10
175.6757376387178
 20
-11.81427370521069
 10
176.0198733332181
 20
-11.18773938131041
 10
176.3046169921181
 20
-10.49727315081041
 10
176.528073693518
 20
-9.747469952710563
 10
176.6887563697183
 20
-8.943319603510232
 10
176.7855957042178
 20
-8.090173591110518
 10
176.8179472470184
 20
-7.1937094615103
  0
LWPOLYLINE
  5
10A
330
70
100
AcDbEntity
  8
0
 62
    18
420
        0
370
    25
100
AcDbPolyline
 90
        7
 70
     0
 43
0.0
 10
160.5213349303179
 20
-15.48998165991053
 10
160.5084363956174
 20
-15.42254685171067
 10
160.4717044765179
 20
-15.38027071291072
 10
160.4167312748174
 20
-15.36958940241073
 10
160.3518859621183
 20
-15.3921290529107
 10
160.2870406493179
 20
-15.44445820691081
 10
160.2455789613173
 20
-15.49679694981068
  0
SPLINE
  5
10B
330
70
100
AcDbEntity
  8
0
 62
    18
420
        0
370
    25
100
AcDbSpline
210
0.0
220
0.0
230
1.0
 70
     8
 71
     3
 72
     8
 73
     4
 74
     0
 42
0.0000000001
 43
0.0000000001
 40
0.0
 40
0.0
 40
0.0
 40
0.0
 40
1.0
 40
1.0
 40
1.0
 40
1.0
 10
160.4359753557823
 20
-15.70913814669525
 30
0.0
 10
160.4873677950557
 20
-15.6472320503893
 30
0.0
 10
160.517316738214
 20
-15.57033961968486
 30
0.0
 10
160.5213349302807
 20
-15.48998165986304
 30
0.0
  0
LWPOLYLINE
  5
10C
330
70
100
AcDbEntity
  8
0
 62
    18
420
        0
370
    25
100
AcDbPolyline
 90
       11
 70
     0
 43
0.0
 10
172.9030313281179
 20
-39.36854177521073
 10
173.1087234392174
 20
-39.52512858771021
 10
173.2336067134175
 20
-39.70794535681039
 10
173.268419129618
 20
-39.90343339931046
 10
173.210578810218
 20
-40.09709426131061
 10
173.0643755070178
 20
-40.27456500251055
 10
172.8406524502176
 20
-40.42268343001041
 10
172.5560021554182
 20
-40.53046427771061
 10
172.2315358329175
 20
-40.58991393301034
 10
171.8913176655178
 20
-40.59662328711079
 10
171.7307173429175
 20
-40.58093341461044
  0
LWPOLYLINE
  5
10D
330
70
100
AcDbEntity
  8
0
 62
    18
420
        0
370
    25
100
AcDbPolyline
 90
       10
 70
     0
 43
0.0
 10
172.7262546328183
 20
-40.08286569801067
 10
172.9101543759174
 20
-39.93674477901048
 10
173.0068361923175
 20
-39.76496933651024
 10
173.0068361923175
 20
-39.58435394771029
 10
172.9101543759174
 20
-39.41257850521069
 10
172.7262546328183
 20
-39.26645758621049
 10
172.4731383514177
 20
-39.1602945243107
 10
172.1755823167181
 20
-39.10448129971079
 10
171.8627133866183
 20
-39.10448129971079
 10
171.5943617639179
 20
-39.15204668261056
  0
SPLINE
  5
10E
330
70
100
AcDbEntity
  8
0
 62
    18
420
        0
370
    25
100
AcDbSpline
210
0.0
220
0.0
230
1.0
 70
     8
 71
     3
 72
     8
 73
     4
 74
     0
 42
0.0000000001
 43
0.0000000001
 40
0.0
 40
0.0
 40
0.0
 40
0.0
 40
1.0
 40
1.0
 40
1.0
 40
1.0
 10
171.6913707897465
 20
-40.22005715192153
 30
0.0
 10
172.0418553503027
 20
-40.29441547529368
 30
0.0
 10
172.4072505933504
 20
-40.24597612148617
 30
0.0
 10
172.7262546328466
 20
-40.08286569806714
 30
0.0
  0
SPLINE
  5
10F
330
70
100
AcDbEntity
  8
0
 62
    18
420
        0
370
    25
100
AcDbSpline
210
0.0
220
0.0
230
1.0
 70
     8
 71
     3
 72
     8
 73
     4
 74
     0
 42
0.0000000001
 43
0.0000000001
 40
0.0
 40
0.0
 40
0.0
 40
0.0
 40
1.0
 40
1.0
 40
1.0
 40
1.0
 10
153.6744018750871
 20
-12.72163175551425
 30
0.0
 10
153.4613672252032
 20
-13.69269916935925
 30
0.0
 10
153.270455520531
 20
-14.66848820376928
 30
0.0
 10
153.1018149839129
 20
-15.64824126127481
 30
0.0
  0
LINE
  5
110
330
70
100
AcDbEntity
  8
0
 62
    18
420
        0
370
    25
100
AcDbLine
 10
172.5553408966182
 20
-23.62136584531069
 30
0.0
 11
153.6744018750178
 21
-12.7216317555104
 31
0.0
  0
LINE
  5
111
330
70
100
AcDbEntity
  8
0
 62
    18
420
        0
370
    25
100
AcDbLine
 10
172.5553408966182
 20
-23.62136584531069
 30
0.0
 11
172.5294928803176
 21
-23.9177606013103
 31
0.0
  0
LWPOLYLINE
  5
112
330
70
100
AcDbEntity
  8
0
 62
    18
420
        0
370
    25
100
AcDbPolyline
 90
       22
 70
     0
 43
0.0
 10
172.5294928803176
 20
-23.9177606013103
 10
172.1339086475184
 20
-25.90779521281046
 10
171.8061596219174
 20
-27.87714309701082
 10
171.5468867686182
 20
-29.82195288271026
 10
171.3565971365177
 20
-31.73842118701073
 10
171.2356628671176
 20
-33.62280005341069
 10
171.1843204665176
 20
-35.47140428111051
 10
171.2026703428178
 20
-37.28061863231043
 10
171.2906766100185
 20
-39.04690490261039
 10
171.4481671580177
 20
-40.7668088399104
 10
171.6748339890182
 20
-42.43696690021044
 10
171.9702338202177
 20
-44.05411282561069
 10
172.3337889506183
 20
-45.61508403161063
 10
172.7647883907184
 20
-47.11682779231064
 10
173.2623892530183
 20
-48.55640721041025
 10
173.8256184002177
 20
-49.93100696081043
 10
174.4533743489181
 20
-51.23793879651081
 10
175.144429423018
 20
-52.47464680581042
 10
175.8974321552182
 20
-53.63871241071081
 10
176.7109099295185
 20
-54.72785909691043
 10
177.5832718616179
 20
-55.73995686591061
 10
178.5128119100173
 20
-56.67302640061073
  0
LWPOLYLINE
  5
113
330
70
100
AcDbEntity
  8
0
 62
    18
420
        0
370
    25
100
AcDbPolyline
 90
        5
 70
     0
 43
0.0
 10
178.5128119100173
 20
-56.67302640061073
 10
178.7342888756175
 20
-56.91801730101048
 10
178.7224559076179
 20
-56.98835817471045
 10
178.4730745754183
 20
-56.89030602381071
 10
177.9834102673184
 20
-56.62798312931069
  0
LINE
  5
114
330
70
100
AcDbEntity
  8
0
 62
    18
420
        0
370
    25
100
AcDbLine
 10
177.9834102673184
 20
-56.62798312931069
 30
0.0
 11
136.6176635679173
 21
-32.74804585841053
 31
0.0
  0
SPLINE
  5
115
330
70
100
AcDbEntity
  8
0
 62
    18
420
        0
370
    25
100
AcDbSpline
210
0.0
220
0.0
230
1.0
 70
     8
 71
     3
 72
     8
 73
     4
 74
     0
 42
0.0000000001
 43
0.0000000001
 40
0.0
 40
0.0
 40
0.0
 40
0.0
 40
1.0
 40
1.0
 40
1.0
 40
1.0
 10
134.3186380858386
 20
-31.16027290612816
 30
0.0
 10
135.0353699022697
 20
-31.75798911204813
 30
0.0
 10
135.8048676122913
 20
-32.28942630589941
 30
0.0
 10
136.6176635679648
 20
-32.74804585840861
 30
0.0
  0
LWPOLYLINE
  5
116
330
70
100
AcDbEntity
  8
0
 62
    18
420
        0
370
    25
100
AcDbPolyline
 90
       22
 70
     0
 43
0.0
 10
134.3186380858181
 20
-31.1602729062103
 10
133.3890980375175
 20
-30.22720337141072
 10
132.5167361053179
 20
-29.21510560241054
 10
131.7032583310177
 20
-28.12595891621029
 10
130.9502555989175
 20
-26.96189331141064
 10
130.2592005247175
 20
-25.72518530211038
 10
129.6314445761185
 20
-24.41825346631055
 10
129.0682154288177
 20
-23.04365371591035
 10
128.5706145666179
 20
-21.60407429781075
 10
128.1396151265178
 20
-20.10233053711074
 10
127.7760599960184
 20
-18.54135933121026
 10
127.4806601648176
 20
-16.92421340581065
 10
127.2539933338184
 20
-15.25405534541052
 10
127.096502785918
 20
-13.53415140811049
 10
127.0084965187173
 20
-11.76786513791064
 10
126.9901466423183
 20
-9.958650786610617
 10
127.0414890429183
 20
-8.110046558910799
 10
127.1624233123184
 20
-6.225667692610302
 10
127.3527129444177
 20
-4.309199388210362
 10
127.6119857978182
 20
-2.364389602510288
 10
127.9397348233179
 20
-0.395041718410671
 10
128.3353190561183
 20
1.594992893189595
  0
LINE
  5
117
330
70
100
AcDbEntity
  8
0
 62
    18
420
        0
370
    25
100
AcDbLine
 10
128.3353190561183
 20
1.594992893189595
 30
0.0
 11
128.4295018228179
 21
1.851938837489553
 31
0.0
  0
LWPOLYLINE
  5
118
330
70
100
AcDbEntity
  8
0
 62
    18
420
        0
370
    25
100
AcDbPolyline
 90
       12
 70
     0
 43
0.0
 10
147.0276011436174
 20
-13.74133674301054
 10
147.1589150633183
 20
-14.05802504761049
 10
147.3770377100185
 20
-14.51421288421061
 10
147.6317713552177
 20
-14.94676887271084
 10
147.9439097108174
 20
-15.39023186811052
 10
148.6473199423174
 20
-16.16868226251024
 10
149.4147525448184
 20
-16.7545314498107
 10
150.2132176535176
 20
-17.13022891981067
 10
151.0085765666178
 20
-17.27478300261026
 10
151.5141519768178
 20
-17.24047117571044
 10
151.9344747270181
 20
-17.11211592891063
 10
152.4340962807183
 20
-16.85093463891063
  0
LWPOLYLINE
  5
119
330
70
100
AcDbEntity
  8
0
 62
    18
420
        0
370
    25
100
AcDbPolyline
 90
        3
 70
     0
 43
0.0
 10
152.4340971584175
 20
-16.85093411461043
 10
152.8624675742181
 20
-16.36373142771056
 10
153.1018149839181
 20
-15.64824126131075
  0
LWPOLYLINE
  5
11A
330
70
100
AcDbEntity
  8
0
 62
    18
420
        0
370
    25
100
AcDbPolyline
 90
       22
 70
     0
 43
0.0
 10
172.8016441193178
 20
-23.84960305231048
 10
172.4091994439173
 20
-25.82384373841086
 10
172.0840516011183
 20
-27.77756187741033
 10
171.8268364688179
 20
-29.70693666481071
 10
171.6380570718183
 20
-31.60819490331058
 10
171.5180825982181
 20
-33.47761838181036
 10
171.4671476770176
 20
-35.31155114731074
 10
171.4853519194179
 20
-37.10640665461041
 10
171.5726597242182
 20
-38.85867477981027
 10
171.7289003471176
 20
-40.56492868591052
 10
171.9537682350178
 20
-42.2218315235103
 10
172.2468236231172
 20
-43.82614295741049
 10
172.6074933954179
 20
-45.37472550301065
 10
173.0350722050178
 20
-46.86455066241034
 10
173.5287238541182
 20
-48.29270484701026
 10
174.0874829287184
 20
-49.65639507561033
 10
174.7102566873182
 20
-50.95295443651031
 10
175.3958271974177
 20
-52.1798473029103
 10
176.1428537174182
 20
-53.3346742918102
 10
176.9498753189177
 20
-54.41517695671044
 10
177.8153137436178
 20
-55.41924220371037
 10
178.7374764900177
 20
-56.34490642471039
  0
LINE
  5
11B
330
70
100
AcDbEntity
  8
0
 62
    18
420
        0
370
    25
100
AcDbLine
 10
178.5128119100173
 20
-56.67302640061073
 30
0.0
 11
178.7374764900177
 21
-56.34490642471039
 31
0.0
  0
LINE
  5
11C
330
70
100
AcDbEntity
  8
0
 62
    18
420
        0
370
    25
100
AcDbLine
 10
172.5294928803176
 20
-23.9177606013103
 30
0.0
 11
172.8016441193178
 21
-23.84960305231048
 31
0.0
  0
SPLINE
  5
11D
330
70
100
AcDbEntity
  8
0
 62
    18
420
        0
370
    25
100
AcDbSpline
210
0.0
220
0.0
230
1.0
 70
     8
 71
     3
 72
    11
 73
     7
 74
     0
 42
0.0000000001
 43
0.0000000001
 40
0.0
 40
0.0
 40
0.0
 40
0.0
 40
1.0
 40
1.0
 40
1.0
 40
2.0
 40
2.0
 40
2.0
 40
2.0
 10
160.2702792154149
 20
-14.43212330625398
 30
0.0
 10
159.9299237698365
 20
-14.70648233946464
 30
0.0
 10
159.8764231068501
 20
-15.20480688443499
 30
0.0
 10
160.1507821400614
 20
-15.54516233001344
 30
0.0
 10
160.1945925264186
 20
-15.59951120052533
 30
0.0
 10
160.245399850067
 20
-15.64782590823447
 30
0.0
 10
160.3018820289535
 20
-15.68884923266034
 30
0.0
  0
LINE
  5
11E
330
70
100
AcDbEntity
  8
0
 62
    18
420
        0
370
    25
100
AcDbLine
 10
160.3018820290177
 20
-15.68884923271039
 30
0.0
 11
172.1459206139178
 21
-22.52626716921038
 31
0.0
  0
SPLINE
  5
11F
330
70
100
AcDbEntity
  8
0
 62
    18
420
        0
370
    25
100
AcDbSpline
210
0.0
220
0.0
230
1.0
 70
     8
 71
     3
 72
     8
 73
     4
 74
     0
 42
0.0000000001
 43
0.0000000001
 40
0.0
 40
0.0
 40
0.0
 40
0.0
 40
1.0
 40
1.0
 40
1.0
 40
1.0
 10
172.5553408966233
 20
-23.62136584522535
 30
0.0
 10
172.6088175041941
 20
-23.21103566579941
 30
0.0
 10
172.4554717936413
 20
-22.80087356171312
 30
0.0
 10
172.1459206139229
 20
-22.52626716914428
 30
0.0
  0
LWPOLYLINE
  5
120
330
70
100
AcDbEntity
  8
0
 62
    18
420
        0
370
    25
100
AcDbPolyline
 90
       11
 70
     0
 43
0.0
 10
153.6744018750178
 20
-12.7216317555104
 10
153.7849416595175
 20
-12.35274525271024
 10
153.9524901343179
 20
-11.98782488841074
 10
154.1683244093182
 20
-11.64586910621035
 10
154.4212077443177
 20
-11.34468077031049
 10
154.6979745551179
 20
-11.09994031431083
 10
154.9842158387175
 20
-10.92438938891067
 10
155.2650293331179
 20
-10.82716750671083
 10
155.5257953573172
 20
-10.81333622281041
 10
155.7529379393178
 20
-10.88361561991035
 10
155.7673872359173
 20
-10.89168974791036
  0
LWPOLYLINE
  5
121
330
70
100
AcDbEntity
  8
0
 62
    18
420
        0
370
    25
100
AcDbPolyline
 90
       13
 70
     0
 43
0.0
 10
161.3797402900181
 20
-16.28180729811054
 10
161.4252197252172
 20
-16.20549781761058
 10
161.6062934736174
 20
-15.83573199481049
 10
161.7292914833175
 20
-15.4583000807108
 10
161.7875346195177
 20
-15.09369768071032
 10
161.777860117418
 20
-14.76172372171023
 10
161.7007933295176
 20
-14.48040531531073
 10
161.5605191973174
 20
-14.26501883551027
 10
161.3646549972176
 20
-14.12726036871057
 10
161.1238367015173
 20
-14.07461058381056
 10
160.8511414151174
 20
-14.10992851081029
 10
160.561377252418
 20
-14.2312962878104
 10
160.2702792154175
 20
-14.43212330631045
  0
SPLINE
  5
122
330
70
100
AcDbEntity
  8
0
 62
    18
420
        0
370
    25
100
AcDbSpline
210
0.0
220
0.0
230
1.0
 70
     8
 71
     3
 72
     8
 73
     4
 74
     0
 42
0.0000000001
 43
0.0000000001
 40
0.0
 40
0.0
 40
0.0
 40
0.0
 40
1.0
 40
1.0
 40
1.0
 40
1.0
 10
172.8270158229365
 20
-23.55540409269174
 30
0.0
 10
172.8318076734848
 20
-23.18587342099554
 30
0.0
 10
172.6570359301326
 20
-22.83698202668924
 30
0.0
 10
172.3582109490736
 20
-22.61954350698442
 30
0.0
  0
LINE
  5
123
330
70
100
AcDbEntity
  8
0
 62
    18
420
        0
370
    25
100
AcDbLine
 10
172.8270158229173
 20
-23.55540409271034
 30
0.0
 11
172.5553408966182
 21
-23.62136584531069
 31
0.0
  0
LINE
  5
124
330
70
100
AcDbEntity
  8
0
 62
    18
420
        0
370
    25
100
AcDbLine
 10
172.1459206139178
 20
-22.52626716921038
 30
0.0
 11
172.3582109491173
 21
-22.61954350701073
 31
0.0
  0
LINE
  5
125
330
70
100
AcDbEntity
  8
0
 62
    18
420
        0
370
    25
100
AcDbLine
 10
160.5141723642184
 20
-15.78212557051075
 30
0.0
 11
172.3582109491173
 21
-22.61954350701073
 31
0.0
  0
SPLINE
  5
126
330
70
100
AcDbEntity
  8
0
 62
    18
420
        0
370
    25
100
AcDbSpline
210
0.0
220
0.0
230
1.0
 70
     8
 71
     3
 72
    11
 73
     7
 74
     0
 42
0.0000000001
 43
0.0000000001
 40
0.0
 40
0.0
 40
0.0
 40
0.0
 40
1.0
 40
1.0
 40
1.0
 40
2.0
 40
2.0
 40
2.0
 40
2.0
 10
160.3303433044393
 20
-14.716615840302
 30
0.0
 10
160.0750236068423
 20
-14.9929245098009
 30
0.0
 10
160.092038530411
 20
-15.42389445319336
 30
0.0
 10
160.3683471999099
 20
-15.67921415078904
 30
0.0
 10
160.4122317137859
 20
-15.71976510719759
 30
0.0
 10
160.4612608511881
 20
-15.75436584407031
 30
0.0
 10
160.5141723642082
 20
-15.78212557054091
 30
0.0
  0
LWPOLYLINE
  5
127
330
70
100
AcDbEntity
  8
0
 62
    18
420
        0
370
    25
100
AcDbPolyline
 90
       11
 70
     0
 43
0.0
 10
161.179412024518
 20
-16.16616025201083
 10
161.3003502097183
 20
-15.94886962351061
 10
161.4341760594184
 20
-15.60867738091068
 10
161.5017848459172
 20
-15.27482240341056
 10
161.4981876651184
 20
-14.97194010571037
 10
161.4236499557179
 20
-14.72238040481032
 10
161.2836719125179
 20
-14.54455850231036
 10
161.0885826225183
 20
-14.45159601271075
 10
160.8527778741172
 20
-14.45035270951064
 10
160.5936578804173
 20
-14.54092033691066
 10
160.3303433044175
 20
-14.71661584031034
  0
LINE
  5
128
330
70
100
AcDbEntity
  8
0
 62
    18
420
        0
370
    25
100
AcDbLine
 10
172.8270158229173
 20
-23.55540409271034
 30
0.0
 11
172.8016441193178
 21
-23.84960305231048
 31
0.0
  0
LINE
  5
129
330
70
100
AcDbEntity
  8
0
 62
    18
420
        0
370
    25
100
AcDbLine
 10
160.3018820290177
 20
-15.68884923271039
 30
0.0
 11
160.5141723642184
 21
-15.78212557051075
 31
0.0
  0
LINE
  5
12A
330
70
100
AcDbEntity
  8
0
 62
    18
420
        0
370
    25
100
AcDbLine
 10
160.2702792154175
 20
-14.43212330631045
 30
0.0
 11
160.3303433044175
 21
-14.71661584031034
 31
0.0
  0
LWPOLYLINE
  5
12B
330
70
100
AcDbEntity
  8
0
 62
    18
420
        0
370
    25
100
AcDbPolyline
 90
        9
 70
     0
 43
0.0
 10
147.8299864811179
 20
-14.70337683211082
 10
147.9107305788172
 20
-14.83966722801053
 10
148.223124649518
 20
-15.28118840511077
 10
148.9268834484184
 20
-16.05688462401067
 10
149.6944456076183
 20
-16.64167511251036
 10
150.4928336635175
 20
-17.0180046614108
 10
151.2879011390179
 20
-17.16488730111066
 10
151.7931630139173
 20
-17.13298296491083
 10
152.0909459677174
 20
-17.04390362951028
  0
LWPOLYLINE
  5
12C
330
70
100
AcDbEntity
  8
0
 62
    18
420
        0
370
    25
100
AcDbPolyline
 90
        8
 70
     0
 43
0.0
 10
149.3651480657172
 20
-7.197584509310843
 10
149.1618343266176
 20
-7.139499719610753
 10
148.9010683024183
 20
-7.15333100351053
 10
148.6202548080179
 20
-7.250552885710365
 10
148.3340135244183
 20
-7.426103811110529
 10
148.0572467136181
 20
-7.670844267110825
 10
147.8043633786174
 20
-7.972032603010684
 10
147.6668485944181
 20
-8.177991925610808
  0
SPLINE
  5
12D
330
70
100
AcDbEntity
  8
0
 62
    18
420
        0
370
    25
100
AcDbSpline
210
0.0
220
0.0
230
1.0
 70
     8
 71
     3
 72
     8
 73
     4
 74
     0
 42
0.0000000001
 43
0.0000000001
 40
0.0
 40
0.0
 40
0.0
 40
0.0
 40
1.0
 40
1.0
 40
1.0
 40
1.0
 10
129.3659603521125
 20
2.170078213407188
 30
0.0
 10
129.0193829758981
 20
2.338797791509785
 30
0.0
 10
128.6015820717978
 20
2.196859932261313
 30
0.0
 10
128.4295018228628
 20
1.851938837422174
 30
0.0
  0
LINE
  5
12E
330
70
100
AcDbEntity
  8
0
 62
    18
420
        0
370
    25
100
AcDbLine
 10
129.3659603521176
 20
2.170078213489325
 30
0.0
 11
141.2099989369176
 21
-4.667339723110764
 31
0.0
  0
SPLINE
  5
12F
330
70
100
AcDbEntity
  8
0
 62
    18
420
        0
370
    25
100
AcDbSpline
210
0.0
220
0.0
230
1.0
 70
     8
 71
     3
 72
     8
 73
     4
 74
     0
 42
0.0000000001
 43
0.0000000001
 40
0.0
 40
0.0
 40
0.0
 40
0.0
 40
1.0
 40
1.0
 40
1.0
 40
1.0
 10
141.2099989369843
 20
-4.667339723038893
 30
0.0
 10
141.7166720353487
 20
-4.783457885359601
 30
0.0
 10
142.2463979022304
 20
-4.614756943152598
 30
0.0
 10
142.5926096858178
 20
-4.227021908453895
 30
0.0
  0
SPLINE
  5
130
330
70
100
AcDbEntity
  8
0
 62
    18
420
        0
370
    25
100
AcDbSpline
210
0.0
220
0.0
230
1.0
 70
     8
 71
     3
 72
     8
 73
     4
 74
     0
 42
0.0000000001
 43
0.0000000001
 40
0.0
 40
0.0
 40
0.0
 40
0.0
 40
1.0
 40
1.0
 40
1.0
 40
1.0
 10
143.7465719557638
 20
-3.952220797423963
 30
0.0
 10
143.3430189093167
 20
-3.783969603794254
 30
0.0
 10
142.8770154494616
 20
-3.894942268902094
 30
0.0
 10
142.5926096857768
 20
-4.227021908502023
 30
0.0
  0
SPLINE
  5
131
330
70
100
AcDbEntity
  8
0
 62
    18
420
        0
370
    25
100
AcDbSpline
210
0.0
220
0.0
230
1.0
 70
     8
 71
     3
 72
     8
 73
     4
 74
     0
 42
0.0000000001
 43
0.0000000001
 40
0.0
 40
0.0
 40
0.0
 40
0.0
 40
1.0
 40
1.0
 40
1.0
 40
1.0
 10
148.8177519939022
 20
-7.513589535213994
 30
0.0
 10
148.5890418077669
 20
-7.57365102135243
 30
0.0
 10
148.380630299804
 20
-7.693964423956463
 30
0.0
 10
148.2142446662921
 20
-7.861986899597283
 30
0.0
  0
LINE
  5
132
330
70
100
AcDbEntity
  8
0
 62
    18
420
        0
370
    25
100
AcDbLine
 10
129.5782506873183
 20
2.076801875589509
 30
0.0
 11
141.2836405822174
 21
-4.680575875910625
 31
0.0
  0
LINE
  5
133
330
70
100
AcDbEntity
  8
0
 62
    18
420
        0
370
    25
100
AcDbLine
 10
129.3659603521176
 20
2.170078213489325
 30
0.0
 11
129.5782506873183
 21
2.076801875589509
 31
0.0
  0
LWPOLYLINE
  5
134
330
70
100
AcDbEntity
  8
0
 62
    18
420
        0
370
    25
100
AcDbPolyline
 90
        3
 70
     0
 43
0.0
 10
178.7374764900177
 20
-56.34490642471039
 10
178.9561376018173
 20
-56.58734212461068
 10
178.9480154105175
 20
-56.62718931721062
  0
LWPOLYLINE
  5
135
330
70
100
AcDbEntity
  8
0
 62
    18
420
        0
370
    25
100
AcDbPolyline
 90
       41
 70
     0
 43
0.0
 10
151.3700347083185
 20
-13.76823196301049
 10
151.3368783942172
 20
-13.26260003121083
 10
151.2382258704175
 20
-12.73113697031021
 10
151.0765062895172
 20
-12.18692916461079
 10
150.8557017243181
 20
-11.64337681641071
 10
150.581249115918
 20
-11.11386398861053
 10
150.2599063984179
 20
-10.61142904421056
 10
149.8995860961174
 20
-10.14844359911065
 10
149.5091604906181
 20
-9.736307891510573
 10
149.098243156018
 20
-9.385170070410481
 10
148.6769522409174
 20
-9.103676314110483
 10
148.255661325818
 20
-8.898757933410399
 10
147.8447439912179
 20
-8.775460698710249
 10
147.4543183856173
 20
-8.736820597110643
 10
147.0939980833181
 20
-8.783789076310588
 10
146.7726553659181
 20
-8.915209616410418
 10
146.498202757518
 20
-9.127846207510261
 10
146.2773981922174
 20
-9.416463031110328
 10
146.1156786113185
 20
-9.773953383010818
 10
146.0170260875174
 20
-10.19151466451034
 10
145.9838697735176
 20
-10.65886513081024
 10
146.0170260875174
 20
-11.16449706261054
 10
146.1156786113185
 20
-11.69596012351052
 10
146.2773981922174
 20
-12.24016792921058
 10
146.498202757518
 20
-12.78372027741066
 10
146.7726553659181
 20
-13.31323310521084
 10
147.0939980833181
 20
-13.81566804961081
 10
147.4543183856173
 20
-14.27865349471072
 10
147.8447439912179
 20
-14.6907892023108
 10
148.255661325818
 20
-15.04192702351035
 10
148.6769522409174
 20
-15.32342077971025
 10
149.098243156018
 20
-15.52833916051044
 10
149.5091604906181
 20
-15.65163639521059
 10
149.8995860961174
 20
-15.69027649671073
 10
150.2599063984179
 20
-15.64330801751078
 10
150.581249115918
 20
-15.51188747741031
 10
150.8557017243181
 20
-15.29925088631047
 10
151.0765062895172
 20
-15.01063406281051
 10
151.2382258704175
 20
-14.65314371081055
 10
151.3368783942172
 20
-14.23558242941049
 10
151.3700347083185
 20
-13.76823196301049
  0
LINE
  5
136
330
70
100
AcDbEntity
  8
0
 62
    18
420
        0
370
    25
100
AcDbLine
 10
150.8486425101183
 20
-15.57853548441029
 30
0.0
 11
150.7793209669183
 21
-15.61587144021033
 31
0.0
  0
LWPOLYLINE
  5
137
330
70
100
AcDbEntity
  8
0
 62
    18
420
        0
370
    25
100
AcDbPolyline
 90
       22
 70
     0
 43
0.0
 10
166.9737461274174
 20
-6.269711310010325
 10
167.1560095848176
 20
-6.14328759131079
 10
167.4051386542172
 20
-5.878105489810216
 10
167.5972817531172
 20
-5.540904491510405
 10
167.7279352103179
 20
-5.139588302110746
 10
167.7940366194172
 20
-4.683563433010631
 10
167.7940366194172
 20
-4.18351872051083
 10
167.7279352103179
 20
-3.651174788910541
 10
167.5972817531172
 20
-3.099009328810841
 10
167.4051386542172
 20
-2.539964630510751
 10
167.1560095848176
 20
-1.987144228010594
 10
166.8557339193182
 20
-1.453505763010805
 10
166.5113498647184
 20
-0.9515572687103679
 10
166.1309294914176
 20
-0.4930639925102807
 10
165.7233895305175
 20
-0.0887726281107902
 10
165.2982823733174
 20
0.2518405774896435
 10
164.8655721712183
 20
0.5207919394891999
 10
164.4354012847182
 20
0.7117774659895464
 10
164.0178525547184
 20
0.8203206178895529
 10
163.6227129695179
 20
0.8438772359892919
 10
163.2592442661177
 20
0.7818951728894939
 10
162.974071196918
 20
0.6586795889896461
  0
LINE
  5
138
330
70
100
AcDbEntity
  8
0
 62
    18
420
        0
370
    25
100
AcDbLine
 10
155.0684921186177
 20
-10.64255992921036
 30
0.0
 11
155.2976783298177
 21
-10.82894983621082
 31
0.0
  0
LWPOLYLINE
  5
139
330
70
100
AcDbEntity
  8
0
 62
    18
420
        0
370
    25
100
AcDbPolyline
 90
       12
 70
     0
 43
0.0
 10
153.4803607343182
 20
-13.50133580711033
 10
153.4342226263174
 20
-13.4862603036103
 10
153.3026700901177
 20
-13.24914095471029
 10
153.257442854918
 20
-12.86397482911032
 10
153.2873669686177
 20
-12.40412006831054
 10
153.3858134533182
 20
-11.90730057181042
 10
153.5688393618172
 20
-11.39666310311058
 10
153.8572884261176
 20
-10.94231154501038
 10
154.2244965635177
 20
-10.65037532231023
 10
154.6088984841173
 20
-10.54737299471039
 10
154.988799855718
 20
-10.60774648601035
 10
155.0684921186177
 20
-10.64255992921036
  0
SPLINE
  5
13A
330
70
100
AcDbEntity
  8
0
 62
     8
420
  8421504
370
    25
100
AcDbSpline
210
0.0
220
0.0
230
1.0
 70
     8
 71
     3
 72
     8
 73
     4
 74
     0
 42
0.0000000001
 43
0.0000000001
 40
0.0
 40
0.0
 40
0.0
 40
0.0
 40
1.0
 40
1.0
 40
1.0
 40
1.0
 10
155.8127940587954
 20
2.744970902860279
 30
0.0
 10
155.8457908632163
 20
0.828702148300456
 30
0.0
 10
156.2034462906302
 20
-1.06810247829332
 30
0.0
 10
156.8705555052678
 20
-2.864805020326635
 30
0.0
  0
LWPOLYLINE
  5
13B
330
70
100
AcDbEntity
  8
0
 62
     8
420
  8421504
370
    25
100
AcDbPolyline
 90
       65
 70
     0
 43
0.0
 10
160.8702304358173
 20
-9.793195919310564
 10
161.4296419520173
 20
-10.42532530171023
 10
162.1524754183182
 20
-11.16830967961036
 10
162.8961315871175
 20
-11.85327321611064
 10
163.6555305326175
 20
-12.47553691561059
 10
164.4254847900178
 20
-13.0308500863105
 10
165.2007347910179
 20
-13.51541937591086
 10
165.975984792018
 20
-13.92593468501043
 10
166.7459390494183
 20
-14.25959177771066
 10
167.5053379949183
 20
-14.51411143771043
 10
168.2489941637176
 20
-14.68775503781064
 10
168.9718276300172
 20
-14.77933641591026
 10
169.6689007085184
 20
-14.78822997851075
 10
170.3354516830176
 20
-14.71437497351083
 10
170.9669273347185
 20
-14.55827590541078
 10
171.5590140444181
 20
-14.32099908921024
 10
172.1076672596179
 20
-14.00416536621027
 10
172.6091391226182
 20
-13.6099390319104
 10
173.0600040719184
 20
-13.14101305201025
 10
173.4571822428179
 20
-12.60059066631052
 10
173.7979605057184
 20
-11.9923635077107
 10
174.0800109995185
 20
-11.32048638451033
 10
174.3014070334172
 20
-10.58954889871056
 10
174.4606362479176
 20
-9.804544094410623
 10
174.5566109459184
 20
-8.970834350610594
 10
174.5886755232174
 20
-8.094114750010426
 10
174.5566109459184
 20
-7.180374176610789
 10
174.4606362479176
 20
-6.235854405010262
 10
174.3014070334172
 20
-5.267007462910305
 10
174.0800109995185
 20
-4.280451557510609
 10
173.7979605057184
 20
-3.282925865710847
 10
173.4571822428179
 20
-2.281244499710553
 10
173.0600040719184
 20
-1.282249958810834
 10
172.6091391226182
 20
-0.2927663887102401
 10
172.1076672596179
 20
0.680447034389564
 10
171.5590140444181
 20
1.630742276089531
 10
170.9669273347185
 20
2.551627856289453
 10
170.3354516830176
 20
3.436813192689302
 10
169.6689007085184
 20
4.280251571889467
 10
168.9718276300172
 20
5.076181454589604
 10
168.2489941637176
 20
5.819165832489732
 10
167.5053379949183
 20
6.504129368989366
 10
166.7459390494183
 20
7.126393068489324
 10
165.975984792018
 20
7.681706239189226
 10
165.2007347910179
 20
8.166275528789588
 10
164.4254847900178
 20
8.576790837889157
 10
163.6555305326175
 20
8.910447930589395
 10
162.8961315871175
 20
9.164967590589162
 10
162.1524754183182
 20
9.338611190689375
 10
161.4296419520173
 20
9.430192568789635
 10
160.7325688735175
 20
9.439086131389482
 10
160.0660178990183
 20
9.365231126389558
 10
159.4345422473174
 20
9.209132058289512
 10
158.8424555376177
 20
8.97185524208961
 10
158.2938023223178
 20
8.655021519089645
 10
157.7923304594177
 20
8.260795184789767
 10
157.3414655101174
 20
7.791869204889618
 10
156.9442873391178
 20
7.251446819189256
 10
156.6035090762173
 20
6.643219660589434
 10
156.3214585824172
 20
5.971342537389701
 10
156.1000625486173
 20
5.240405051589293
 10
155.9408333341182
 20
4.455400247289352
 10
155.8448586360173
 20
3.621690503489323
 10
155.8127940588184
 20
2.744970902889156
 10
155.8127940588184
 20
2.744970902889156
  0
LWPOLYLINE
  5
13C
330
70
100
AcDbEntity
  8
0
 62
     8
420
  8421504
370
    25
100
AcDbPolyline
 90
       40
 70
     0
 43
0.0
 10
158.7466442282179
 20
9.475510082489657
 10
158.8923494216176
 20
9.552983941589401
 10
159.4917736018176
 20
9.80673230638947
 10
160.1315394961173
 20
9.978775999489734
 10
160.8073895681182
 20
10.06797009848977
 10
161.5148261470174
 20
10.07372103128979
 10
162.2491413591175
 20
9.995990526389253
 10
163.0054484578183
 20
9.835295867589412
 10
163.7787143442172
 20
9.59270645118943
 10
164.5637930614185
 20
9.269836669789153
 10
165.3554600400174
 20
8.868835168589676
 10
166.1484468669178
 20
8.392370546289162
 10
166.9374763457178
 20
7.843613596489303
 10
167.7172976152184
 20
7.226216205989659
 10
168.4827210937182
 20
6.544287052589448
 10
169.2286530142175
 20
5.802364262389657
 10
169.9501293227182
 20
5.005385209189653
 10
170.6423487136178
 20
4.158653656889146
 10
171.3007045809173
 20
3.267804464389284
 10
171.920815675018
 20
2.338766086189532
 10
172.4985552589182
 20
1.377721119189371
 10
173.0300785710181
 20
0.391065159289367
 10
173.5118484112179
 20
-0.6146357610103074
 10
173.9406586809174
 20
-1.632688868010583
 10
174.3136557184173
 20
-2.656319186210791
 10
174.6283572900177
 20
-3.678714624710758
 10
174.8826691086179
 20
-4.693071310510444
 10
175.0748987710178
 20
-5.692638867310741
 10
175.2037670206181
 20
-6.670765338010226
 10
175.2684162604174
 20
-7.620941452110617
 10
175.2684162604174
 20
-8.536843944510735
 10
175.2037670206181
 20
-9.412377635210422
 10
175.0748987710178
 20
-10.24171599191022
 10
174.8826691086179
 20
-11.01933990471051
 10
174.6283572900177
 20
-11.74007441471082
 10
174.3136557184173
 20
-12.39912315271075
 10
173.9406586809174
 20
-12.99210025811069
 10
173.5118484112179
 20
-13.51505956611075
 10
173.0300785710181
 20
-13.96452086871069
 10
172.5144700497175
 20
-14.32787990901074
  0
LWPOLYLINE
  5
13D
330
70
100
AcDbEntity
  8
0
 62
     8
420
  8421504
370
    25
100
AcDbPolyline
 90
       17
 70
     0
 43
0.0
 10
167.8023357869177
 20
-4.438332084110713
 10
167.7691878196179
 20
-3.920618688110246
 10
167.6705208781177
 20
-3.376768226910392
 10
167.5086476317174
 20
-2.819528094310318
 10
167.2873622523177
 20
-2.261959526910675
 10
167.0118514815175
 20
-1.717131459310256
 10
166.6885730583178
 20
-1.197814199510784
 10
166.3251043549175
 20
-0.7161801041108489
 10
165.9299647697183
 20
-0.2835182679104142
 10
165.5124160396184
 20
0.0900300821896684
 10
165.0822451531184
 20
0.3957092895893972
 10
164.6495349510179
 20
0.6263544926894167
 10
164.2244277938178
 20
0.7765595633896302
 10
163.8168878329178
 20
0.8428038221895539
 10
163.4364674596182
 20
0.8235345598897216
 10
163.0920834050185
 20
0.7192034314891784
 10
162.974071196918
 20
0.6586795889896461
  0
SPLINE
  5
13E
330
70
100
AcDbEntity
  8
0
 62
     8
420
  8421504
370
    25
100
AcDbSpline
210
0.0
220
0.0
230
1.0
 70
     8
 71
     3
 72
     8
 73
     4
 74
     0
 42
0.0000000001
 43
0.0000000001
 40
0.0
 40
0.0
 40
0.0
 40
0.0
 40
1.0
 40
1.0
 40
1.0
 40
1.0
 10
166.9737461274854
 20
-6.269711310059094
 30
0.0
 10
167.5638529692903
 20
-5.856532766122242
 30
0.0
 10
167.8815532824675
 20
-5.154339893023469
 30
0.0
 10
167.8023357869613
 20
-4.438332084182584
 30
0.0
  0
LWPOLYLINE
  5
13F
330
70
100
AcDbEntity
  8
0
 62
     8
420
  8421504
370
    25
100
AcDbPolyline
 90
        8
 70
     0
 43
0.0
 10
173.2691478517178
 20
-42.12428407781057
 10
173.268419129618
 20
-42.14892063201031
 10
173.210578810218
 20
-42.34258149401047
 10
173.0643755070178
 20
-42.52005223521041
 10
172.8406524502176
 20
-42.66817066271027
 10
172.5560021554182
 20
-42.77595151041047
 10
172.2315358329175
 20
-42.83540116571084
 10
172.0584875059181
 20
-42.84553626321027
  0
LWPOLYLINE
  5
140
330
70
100
AcDbEntity
  8
0
 62
     8
420
  8421504
370
    25
100
AcDbPolyline
 90
        8
 70
     0
 43
0.0
 10
133.9300007896177
 20
1.108563749589597
 10
133.9083490268182
 20
1.120225612889799
 10
133.7116954667173
 20
1.166996335989669
 10
133.4848829898184
 20
1.129144778589565
 10
133.2447332401179
 20
1.009478217689613
 10
133.0090570259184
 20
0.8168717745892982
 10
132.795333373818
 20
0.5656101881891812
 10
132.6379472198184
 20
0.3104766646894265
  0
LINE
  5
141
330
70
100
AcDbEntity
  8
0
 62
     8
420
  8421504
370
    25
100
AcDbLine
 10
146.7421332907181
 20
-8.719718284910795
 30
0.0
 11
128.4295018228179
 21
1.851938837489553
 31
0.0
  0
SPLINE
  5
142
330
70
100
AcDbEntity
  8
0
 62
     8
420
  8421504
370
    25
100
AcDbSpline
210
0.0
220
0.0
230
1.0
 70
     8
 71
     3
 72
     8
 73
     4
 74
     0
 42
0.0000000001
 43
0.0000000001
 40
0.0
 40
0.0
 40
0.0
 40
0.0
 40
1.0
 40
1.0
 40
1.0
 40
1.0
 10
150.8486425100862
 20
-15.5785354844597
 30
0.0
 10
151.4387493518912
 20
-15.1653569405222
 30
0.0
 10
151.7564496650683
 20
-14.46316406742343
 30
0.0
 10
151.6772321695609
 20
-13.74715625858255
 30
0.0
  0
LWPOLYLINE
  5
143
330
70
100
AcDbEntity
  8
0
 62
     8
420
  8421504
370
    25
100
AcDbPolyline
 90
       17
 70
     0
 43
0.0
 10
146.8485459714182
 20
-8.650388077210521
 10
146.9669797877181
 20
-8.589620742910785
 10
147.3113638423179
 20
-8.485289614510241
 10
147.6917842156175
 20
-8.466020352110303
 10
148.0993241765174
 20
-8.532264611010333
 10
148.5244313337176
 20
-8.682469681710546
 10
148.957141535818
 20
-8.913114884810566
 10
149.3873124223181
 20
-9.218794092210295
 10
149.8048611523179
 20
-9.592342442310377
 10
150.2000007375183
 20
-10.02500427851081
 10
150.5634694409173
 20
-10.50663837391074
 10
150.8867478641184
 20
-11.02595563371022
 10
151.1622586350173
 20
-11.57078370131064
 10
151.3835440144184
 20
-12.12835226871028
 10
151.5454172608174
 20
-12.68559240121025
 10
151.6440842023176
 20
-13.22944286251085
 10
151.6772321696174
 20
-13.74715625851067
  0
LINE
  5
144
330
70
100
AcDbEntity
  8
0
 62
    18
420
        0
370
    25
100
AcDbLine
 10
153.6015113793173
 20
119.9875590046893
 30
0.0
 11
151.4215864017181
 21
119.9875590046893
 31
0.0
  0
LINE
  5
145
330
70
100
AcDbEntity
  8
0
 62
    18
420
        0
370
    25
100
AcDbLine
 10
151.4215864017181
 20
92.48755900468935
 30
0.0
 11
153.6015113793173
 21
92.48755900468935
 31
0.0
  0
SPLINE
  5
146
330
70
100
AcDbEntity
  8
0
 62
    18
420
        0
370
    25
100
AcDbSpline
210
0.0
220
0.0
230
1.0
 70
     8
 71
     3
 72
     8
 73
     4
 74
     0
 42
0.0000000001
 43
0.0000000001
 40
0.0
 40
0.0
 40
0.0
 40
0.0
 40
1.0
 40
1.0
 40
1.0
 40
1.0
 10
153.6015113793173
 20
92.48755900468935
 30
0.0
 10
153.8673354047054
 20
92.48755900468935
 30
0.0
 10
154.086688906886
 20
92.69555698549146
 30
0.0
 10
154.1008058140455
 20
92.96100589847737
 30
0.0
  0
SPLINE
  5
147
330
70
100
AcDbEntity
  8
0
 62
    18
420
        0
370
    25
100
AcDbSpline
210
0.0
220
0.0
230
1.0
 70
     8
 71
     3
 72
     8
 73
     4
 74
     0
 42
0.0000000001
 43
0.0000000001
 40
0.0
 40
0.0
 40
0.0
 40
0.0
 40
1.0
 40
1.0
 40
1.0
 40
1.0
 10
154.1008058140455
 20
119.5141121109013
 30
0.0
 10
154.086688906886
 20
119.7795610238872
 30
0.0
 10
153.8673354047054
 20
119.9875590046893
 30
0.0
 10
153.6015113793173
 20
119.9875590046893
 30
0.0
  0
SPLINE
  5
148
330
70
100
AcDbEntity
  8
0
 62
    18
420
        0
370
    25
100
AcDbSpline
210
0.0
220
0.0
230
1.0
 70
     8
 71
     3
 72
     8
 73
     4
 74
     0
 42
0.0000000001
 43
0.0000000001
 40
0.0
 40
0.0
 40
0.0
 40
0.0
 40
1.0
 40
1.0
 40
1.0
 40
1.0
 10
154.1008058140891
 20
92.96100589869297
 30
0.0
 10
154.2651323239791
 20
96.05093862489631
 30
0.0
 10
154.3720776147793
 20
99.14365591419203
 30
0.0
 10
154.4215864017587
 20
102.2375590048409
 30
0.0
  0
SPLINE
  5
149
330
70
100
AcDbEntity
  8
0
 62
    18
420
        0
370
    25
100
AcDbSpline
210
0.0
220
0.0
230
1.0
 70
     8
 71
     3
 72
     8
 73
     4
 74
     0
 42
0.0000000001
 43
0.0000000001
 40
0.0
 40
0.0
 40
0.0
 40
0.0
 40
1.0
 40
1.0
 40
1.0
 40
1.0
 10
154.4215864017587
 20
110.2375590045377
 30
0.0
 10
154.3720776147793
 20
113.3314620951867
 30
0.0
 10
154.2651323239791
 20
116.4241793844827
 30
0.0
 10
154.1008058140891
 20
119.514112110686
 30
0.0
  0
LINE
  5
14A
330
70
100
AcDbEntity
  8
0
 62
    18
420
        0
370
    25
100
AcDbLine
 10
174.5965864017182
 20
81.98755900468993
 30
0.0
 11
174.5965864017182
 21
102.9875590046894
 31
0.0
  0
LINE
  5
14B
330
70
100
AcDbEntity
  8
0
 62
    18
420
        0
370
    25
100
AcDbLine
 10
172.0965864017179
 20
102.9875590046894
 30
0.0
 11
172.0965864017179
 21
81.98755900468993
 31
0.0
  0
LINE
  5
14C
330
70
100
AcDbEntity
  8
0
 62
    18
420
        0
370
    25
100
AcDbLine
 10
172.0965864017179
 20
81.98755900468993
 30
0.0
 11
172.0965864017179
 21
78.73755900468967
 31
0.0
  0
LINE
  5
14D
330
70
100
AcDbEntity
  8
0
 62
    18
420
        0
370
    25
100
AcDbLine
 10
174.5965864017182
 20
78.73755900468967
 30
0.0
 11
174.5965864017182
 21
81.98755900468993
 31
0.0
  0
LINE
  5
14E
330
70
100
AcDbEntity
  8
0
 62
    18
420
        0
370
    25
100
AcDbLine
 10
172.0965864017179
 20
106.2375590046893
 30
0.0
 11
172.0965864017179
 21
102.9875590046894
 31
0.0
  0
LINE
  5
14F
330
70
100
AcDbEntity
  8
0
 62
    18
420
        0
370
    25
100
AcDbLine
 10
174.5965864017182
 20
102.9875590046894
 30
0.0
 11
174.5965864017182
 21
106.2375590046893
 31
0.0
  0
LINE
  5
150
330
70
100
AcDbEntity
  8
0
 62
    18
420
        0
370
    25
100
AcDbLine
 10
154.4215864017176
 20
102.2375590046895
 30
0.0
 11
172.0965864017179
 21
102.2375590046895
 31
0.0
  0
LINE
  5
151
330
70
100
AcDbEntity
  8
0
 62
    18
420
        0
370
    25
100
AcDbLine
 10
174.5965864017182
 20
102.2375590046895
 30
0.0
 11
175.7251430673176
 21
102.2375590046895
 31
0.0
  0
LINE
  5
152
330
70
100
AcDbEntity
  8
0
 62
    18
420
        0
370
    25
100
AcDbLine
 10
176.1325498660183
 20
102.2375590046895
 30
0.0
 11
177.2259266320176
 21
102.2375590046895
 31
0.0
  0
LINE
  5
153
330
70
100
AcDbEntity
  8
0
 62
    18
420
        0
370
    25
100
AcDbLine
 10
177.2259266320176
 20
110.2375590046895
 30
0.0
 11
154.4215864017176
 21
110.2375590046895
 31
0.0
  0
SPLINE
  5
154
330
70
100
AcDbEntity
  8
0
 62
    18
420
        0
370
    25
100
AcDbSpline
210
0.0
220
0.0
230
1.0
 70
     8
 71
     3
 72
     8
 73
     4
 74
     0
 42
0.0000000001
 43
0.0000000001
 40
0.0
 40
0.0
 40
0.0
 40
0.0
 40
1.0
 40
1.0
 40
1.0
 40
1.0
 10
177.2259266320176
 20
102.2375590046895
 30
0.0
 10
177.3414273025731
 20
102.2375590046895
 30
0.0
 10
177.4418927284551
 20
102.3166817092737
 30
0.0
 10
177.4689631981163
 20
102.4289652546894
 30
0.0
  0
SPLINE
  5
155
330
70
100
AcDbEntity
  8
0
 62
    18
420
        0
370
    25
100
AcDbSpline
210
0.0
220
0.0
230
1.0
 70
     8
 71
     3
 72
     8
 73
     4
 74
     0
 42
0.0000000001
 43
0.0000000001
 40
0.0
 40
0.0
 40
0.0
 40
0.0
 40
1.0
 40
1.0
 40
1.0
 40
1.0
 10
177.4689631981163
 20
110.0461527546896
 30
0.0
 10
177.4418927284551
 20
110.1584363001053
 30
0.0
 10
177.3414273025731
 20
110.2375590046895
 30
0.0
 10
177.2259266320176
 20
110.2375590046895
 30
0.0
  0
SPLINE
  5
156
330
70
100
AcDbEntity
  8
0
 62
    18
420
        0
370
    25
100
AcDbSpline
210
0.0
220
0.0
230
1.0
 70
     8
 71
     3
 72
     8
 73
     4
 74
     0
 42
0.0000000001
 43
0.0000000001
 40
0.0
 40
0.0
 40
0.0
 40
0.0
 40
1.0
 40
1.0
 40
1.0
 40
1.0
 10
177.4689631981176
 20
102.4289652546836
 30
0.0
 10
177.7696540164807
 20
103.6761778661337
 30
0.0
 10
177.9215864017181
 20
104.9546115130093
 30
0.0
 10
177.9215864017181
 20
106.2375590046893
 30
0.0
  0
SPLINE
  5
157
330
70
100
AcDbEntity
  8
0
 62
    18
420
        0
370
    25
100
AcDbSpline
210
0.0
220
0.0
230
1.0
 70
     8
 71
     3
 72
     8
 73
     4
 74
     0
 42
0.0000000001
 43
0.0000000001
 40
0.0
 40
0.0
 40
0.0
 40
0.0
 40
1.0
 40
1.0
 40
1.0
 40
1.0
 10
177.9215864017181
 20
106.2375590046893
 30
0.0
 10
177.9215864017181
 20
107.5205064963694
 30
0.0
 10
177.7696540164807
 20
108.7989401432449
 30
0.0
 10
177.4689631981176
 20
110.0461527546951
 30
0.0
  0
LINE
  5
158
330
70
100
AcDbEntity
  8
0
 62
    18
420
        0
370
    25
100
AcDbLine
 10
151.4215864017181
 20
119.9875590046893
 30
0.0
 11
151.4215864017181
 21
92.48755900468935
 31
0.0
  0
LINE
  5
159
330
70
100
AcDbEntity
  8
0
 62
    18
420
        0
370
    25
100
AcDbLine
 10
154.4215864017176
 20
110.2375590046895
 30
0.0
 11
154.4215864017176
 21
102.2375590047893
 31
0.0
  0
SPLINE
  5
15A
330
70
100
AcDbEntity
  8
0
 62
    18
420
        0
370
    25
100
AcDbSpline
210
0.0
220
0.0
230
1.0
 70
     8
 71
     3
 72
    11
 73
     7
 74
     0
 42
0.0000000001
 43
0.0000000001
 40
0.0
 40
0.0
 40
0.0
 40
0.0
 40
1.0
 40
1.0
 40
1.0
 40
2.0
 40
2.0
 40
2.0
 40
2.0
 10
172.0965864017179
 20
78.73755900468967
 30
0.0
 10
172.0965864017179
 20
78.0472030674005
 30
0.0
 10
172.6562304644289
 20
77.48755900468947
 30
0.0
 10
173.346586401718
 20
77.48755900468947
 30
0.0
 10
174.0369423390059
 20
77.48755900468947
 30
0.0
 10
174.5965864017182
 20
78.0472030674005
 30
0.0
 10
174.5965864017182
 20
78.73755900468967
 30
0.0
  0
SPLINE
  5
15B
330
70
100
AcDbEntity
  8
0
 62
    18
420
        0
370
    25
100
AcDbSpline
210
0.0
220
0.0
230
1.0
 70
     8
 71
     3
 72
    11
 73
     7
 74
     0
 42
0.0000000001
 43
0.0000000001
 40
0.0
 40
0.0
 40
0.0
 40
0.0
 40
1.0
 40
1.0
 40
1.0
 40
2.0
 40
2.0
 40
2.0
 40
2.0
 10
174.5965864017182
 20
106.2375590046893
 30
0.0
 10
174.5965864017182
 20
106.9279149419779
 30
0.0
 10
174.0369423390059
 20
107.4875590046895
 30
0.0
 10
173.346586401718
 20
107.4875590046895
 30
0.0
 10
172.6562304644289
 20
107.4875590046895
 30
0.0
 10
172.0965864017179
 20
106.9279149419779
 30
0.0
 10
172.0965864017179
 20
106.2375590046893
 30
0.0
  0
LINE
  5
15C
330
70
100
AcDbEntity
  8
0
 62
    18
420
        0
370
    25
100
AcDbLine
 10
166.6746858090174
 20
62.0901780235895
 30
0.0
 11
166.3569621130178
 21
62.33318348238913
 31
0.0
  0
SPLINE
  5
15D
330
70
100
AcDbEntity
  8
0
 62
    18
420
        0
370
    25
100
AcDbSpline
210
0.0
220
0.0
230
1.0
 70
     8
 71
     3
 72
     8
 73
     4
 74
     0
 42
0.0000000001
 43
0.0000000001
 40
0.0
 40
0.0
 40
0.0
 40
0.0
 40
1.0
 40
1.0
 40
1.0
 40
1.0
 10
165.4233727919293
 20
60.51994923579279
 30
0.0
 10
165.8508625802694
 20
61.03499777744299
 30
0.0
 10
166.2680496822719
 20
61.55851122973466
 30
0.0
 10
166.6746858090623
 20
62.09017802367678
 30
0.0
  0
LINE
  5
15E
330
70
100
AcDbEntity
  8
0
 62
    18
420
        0
370
    25
100
AcDbLine
 10
165.4233727919177
 20
60.51994923578957
 30
0.0
 11
165.115580151618
 21
60.77541682778936
 31
0.0
  0
SPLINE
  5
15F
330
70
100
AcDbEntity
  8
0
 62
    18
420
        0
370
    25
100
AcDbSpline
210
0.0
220
0.0
230
1.0
 70
     8
 71
     3
 72
     8
 73
     4
 74
     0
 42
0.0000000001
 43
0.0000000001
 40
0.0
 40
0.0
 40
0.0
 40
0.0
 40
1.0
 40
1.0
 40
1.0
 40
1.0
 10
165.1155801516822
 20
60.77541682777717
 30
0.0
 10
165.5396771639051
 20
61.28637768256757
 30
0.0
 10
165.9535532571431
 20
61.80573626616938
 30
0.0
 10
166.3569621130691
 20
62.33318348235897
 30
0.0
  0
LINE
  5
160
330
70
100
AcDbEntity
  8
0
 62
    18
420
        0
370
    25
100
AcDbLine
 10
175.1363767288176
 20
106.4350066293896
 30
0.0
 11
174.7514967556179
 21
106.3260690039893
 31
0.0
  0
SPLINE
  5
161
330
70
100
AcDbEntity
  8
0
 62
    18
420
        0
370
    25
100
AcDbSpline
210
0.0
220
0.0
230
1.0
 70
     8
 71
     3
 72
     8
 73
     4
 74
     0
 42
0.0000000001
 43
0.0000000001
 40
0.0
 40
0.0
 40
0.0
 40
0.0
 40
1.0
 40
1.0
 40
1.0
 40
1.0
 10
166.6746858090251
 20
62.09017802362801
 30
0.0
 10
176.327871562953
 20
74.71148238639422
 30
0.0
 10
179.463831509287
 20
91.14597611269765
 30
0.0
 10
175.1363767287843
 20
106.4350066293822
 30
0.0
  0
SPLINE
  5
162
330
70
100
AcDbEntity
  8
0
 62
    18
420
        0
370
    25
100
AcDbSpline
210
0.0
220
0.0
230
1.0
 70
     8
 71
     3
 72
     8
 73
     4
 74
     0
 42
0.0000000001
 43
0.0000000001
 40
0.0
 40
0.0
 40
0.0
 40
0.0
 40
1.0
 40
1.0
 40
1.0
 40
1.0
 10
166.3569621129767
 20
62.33318348235256
 30
0.0
 10
175.9335352815567
 20
74.85431876287409
 30
0.0
 10
179.0446066568889
 20
91.15837999928636
 30
0.0
 10
174.7514967555961
 20
106.3260690039338
 30
0.0
  0
LINE
  5
163
330
70
100
AcDbEntity
  8
0
 62
    18
420
        0
370
    25
100
AcDbLine
 10
175.0515021482176
 20
106.7314084730895
 30
0.0
 11
174.667295782818
 21
106.6201184520894
 31
0.0
  0
LINE
  5
164
330
70
100
AcDbEntity
  8
0
 62
    18
420
        0
370
    25
100
AcDbLine
 10
175.1363767288176
 20
106.4350066293896
 30
0.0
 11
175.0515021482176
 21
106.7314084730895
 31
0.0
  0
LINE
  5
165
330
70
100
AcDbEntity
  8
0
 62
    18
420
        0
370
    25
100
AcDbLine
 10
174.7514967556179
 20
106.3260690039893
 30
0.0
 11
174.667295782818
 21
106.6201184520894
 31
0.0
  0
LINE
  5
166
330
70
100
AcDbEntity
  8
0
 62
    18
420
        0
370
    25
100
AcDbLine
 10
174.6788298301177
 20
107.4104837454895
 30
0.0
 11
174.3786059589173
 21
107.1461626771894
 31
0.0
  0
SPLINE
  5
167
330
70
100
AcDbEntity
  8
0
 62
    18
420
        0
370
    25
100
AcDbSpline
210
0.0
220
0.0
230
1.0
 70
     8
 71
     3
 72
     8
 73
     4
 74
     0
 42
0.0000000001
 43
0.0000000001
 40
0.0
 40
0.0
 40
0.0
 40
0.0
 40
1.0
 40
1.0
 40
1.0
 40
1.0
 10
174.6672957828013
 20
106.6201184520903
 30
0.0
 10
174.6109671462844
 20
106.8145817157612
 30
0.0
 10
174.5123901495016
 20
106.9942065435163
 30
0.0
 10
174.3786059589365
 20
107.1461626771996
 30
0.0
  0
SPLINE
  5
168
330
70
100
AcDbEntity
  8
0
 62
    18
420
        0
370
    25
100
AcDbSpline
210
0.0
220
0.0
230
1.0
 70
     8
 71
     3
 72
     8
 73
     4
 74
     0
 42
0.0000000001
 43
0.0000000001
 40
0.0
 40
0.0
 40
0.0
 40
0.0
 40
1.0
 40
1.0
 40
1.0
 40
1.0
 10
175.0515021482061
 20
106.7314084731232
 30
0.0
 10
174.9787869992489
 20
106.9824428680434
 30
0.0
 10
174.8515330579472
 20
107.2143221911455
 30
0.0
 10
174.6788298301267
 20
107.410483745537
 30
0.0
  0
LINE
  5
169
330
70
100
AcDbEntity
  8
0
 62
    18
420
        0
370
    25
100
AcDbLine
 10
173.7235229576181
 20
107.9720744508896
 30
0.0
 11
173.638579508418
 21
107.5811977305896
 31
0.0
  0
SPLINE
  5
16A
330
70
100
AcDbEntity
  8
0
 62
    18
420
        0
370
    25
100
AcDbSpline
210
0.0
220
0.0
230
1.0
 70
     8
 71
     3
 72
     8
 73
     4
 74
     0
 42
0.0000000001
 43
0.0000000001
 40
0.0
 40
0.0
 40
0.0
 40
0.0
 40
1.0
 40
1.0
 40
1.0
 40
1.0
 10
174.3786059589365
 20
107.1461626770999
 30
0.0
 10
174.1846774498581
 20
107.3664325484963
 30
0.0
 10
173.9253600517535
 20
107.5188759619268
 30
0.0
 10
173.6385795084206
 20
107.5811977305523
 30
0.0
  0
SPLINE
  5
16B
330
70
100
AcDbEntity
  8
0
 62
    18
420
        0
370
    25
100
AcDbSpline
210
0.0
220
0.0
230
1.0
 70
     8
 71
     3
 72
     8
 73
     4
 74
     0
 42
0.0000000001
 43
0.0000000001
 40
0.0
 40
0.0
 40
0.0
 40
0.0
 40
1.0
 40
1.0
 40
1.0
 40
1.0
 10
174.6788298301293
 20
107.4104837455347
 30
0.0
 10
174.4284857547727
 20
107.694832124975
 30
0.0
 10
174.0937305681279
 20
107.8916227132221
 30
0.0
 10
173.7235229576438
 20
107.9720744509027
 30
0.0
  0
SPLINE
  5
16C
330
70
100
AcDbEntity
  8
0
 62
    18
420
        0
370
    25
100
AcDbSpline
210
0.0
220
0.0
230
1.0
 70
     8
 71
     3
 72
    11
 73
     7
 74
     0
 42
0.0000000001
 43
0.0000000001
 40
0.0
 40
0.0
 40
0.0
 40
0.0
 40
1.0
 40
1.0
 40
1.0
 40
2.0
 40
2.0
 40
2.0
 40
2.0
 10
173.6385795084206
 20
107.581197730552
 30
0.0
 10
172.8965083308455
 20
107.74246107044
 30
0.0
 10
172.1642110157427
 20
107.2716232889685
 30
0.0
 10
172.0029476758547
 20
106.5295521113928
 30
0.0
 10
171.9397504284659
 20
106.2387429552497
 30
0.0
 10
171.9726082309902
 20
105.9352795913343
 30
0.0
 10
172.0965864017179
 20
105.6647370428191
 30
0.0
  0
SPLINE
  5
16D
330
70
100
AcDbEntity
  8
0
 62
    18
420
        0
370
    25
100
AcDbSpline
210
0.0
220
0.0
230
1.0
 70
     8
 71
     3
 72
    11
 73
     7
 74
     0
 42
0.0000000001
 43
0.0000000001
 40
0.0
 40
0.0
 40
0.0
 40
0.0
 40
1.0
 40
1.0
 40
1.0
 40
2.0
 40
2.0
 40
2.0
 40
2.0
 10
173.7235229576438
 20
107.9720744508029
 30
0.0
 10
172.7655765284099
 20
108.1802507622948
 30
0.0
 10
171.8202472670963
 20
107.57244198985
 30
0.0
 10
171.6120709556048
 20
106.6144955606154
 30
0.0
 10
171.4832784580525
 20
106.0218425721066
 30
0.0
 10
171.6659956990747
 20
105.4044533916954
 30
0.0
 10
172.0965864017179
 20
104.9773506885766
 30
0.0
  0
SPLINE
  5
16E
330
70
100
AcDbEntity
  8
0
 62
    18
420
        0
370
    25
100
AcDbSpline
210
0.0
220
0.0
230
1.0
 70
     8
 71
     3
 72
     8
 73
     4
 74
     0
 42
0.0000000001
 43
0.0000000001
 40
0.0
 40
0.0
 40
0.0
 40
0.0
 40
1.0
 40
1.0
 40
1.0
 40
1.0
 10
176.0829862071526
 20
100.1612838759131
 30
0.0
 10
175.9973075753038
 20
100.7298948634045
 30
0.0
 10
175.9018006933775
 20
101.2969814308352
 30
0.0
 10
175.7965084111969
 20
101.8622891508992
 30
0.0
  0
SPLINE
  5
16F
330
70
100
AcDbEntity
  8
0
 62
    18
420
        0
370
    25
100
AcDbSpline
210
0.0
220
0.0
230
1.0
 70
     8
 71
     3
 72
     8
 73
     4
 74
     0
 42
0.0000000001
 43
0.0000000001
 40
0.0
 40
0.0
 40
0.0
 40
0.0
 40
1.0
 40
1.0
 40
1.0
 40
1.0
 10
174.4133548140617
 20
107.1051015998543
 30
0.0
 10
174.2165679969736
 20
107.3470792982468
 30
0.0
 10
173.9433603798766
 20
107.5149642171777
 30
0.0
 10
173.6385795084206
 20
107.581197730552
 30
0.0
  0
LWPOLYLINE
  5
170
330
70
100
AcDbEntity
  8
0
 62
    18
420
        0
370
    25
100
AcDbPolyline
 90
        3
 70
     0
 43
0.0
 10
174.8652366517183
 20
105.8429480380894
 10
174.8000081723181
 20
105.6297207850895
 10
174.5965864017182
 20
105.3257506418895
  0
LINE
  5
171
330
70
100
AcDbEntity
  8
0
 62
    18
420
        0
370
    25
100
AcDbLine
 10
154.4215864017176
 20
106.2375590046893
 30
0.0
 11
154.4215864017176
 21
102.2375590046895
 31
0.0
  0
LINE
  5
172
330
70
100
AcDbEntity
  8
0
 62
    18
420
        0
370
    25
100
AcDbLine
 10
154.4215864017176
 20
110.2375590046895
 30
0.0
 11
154.4215864017176
 21
106.2375590046893
 31
0.0
  0
LINE
  5
173
330
70
100
AcDbEntity
  8
0
 62
     8
420
  8421504
370
    25
100
AcDbLine
 10
153.6015113793173
 20
106.2375590046893
 30
0.0
 11
153.6015113793173
 21
119.9875590046893
 31
0.0
  0
LINE
  5
174
330
70
100
AcDbEntity
  8
0
 62
     8
420
  8421504
370
    25
100
AcDbLine
 10
153.6015113793173
 20
92.48755900468935
 30
0.0
 11
153.6015113793173
 21
106.2375590046893
 31
0.0
  0
LINE
  5
175
330
70
100
AcDbEntity
  8
0
 62
     8
420
  8421504
370
    25
100
AcDbLine
 10
154.1008058140173
 20
106.2375590046893
 30
0.0
 11
154.1008058140173
 21
92.96100589848956
 31
0.0
  0
LINE
  5
176
330
70
100
AcDbEntity
  8
0
 62
     8
420
  8421504
370
    25
100
AcDbLine
 10
154.1008058140173
 20
119.5141121109896
 30
0.0
 11
154.1008058140173
 21
106.2375590046893
 31
0.0
  0
LINE
  5
177
330
70
100
AcDbEntity
  8
0
 62
     8
420
  8421504
370
    25
100
AcDbLine
 10
172.0965864017179
 20
81.98755900468993
 30
0.0
 11
174.5965864017182
 21
81.98755900468993
 31
0.0
  0
LINE
  5
178
330
70
100
AcDbEntity
  8
0
 62
     8
420
  8421504
370
    25
100
AcDbLine
 10
172.0965864017179
 20
102.9875590046894
 30
0.0
 11
174.5965864017182
 21
102.9875590046894
 31
0.0
  0
LINE
  5
179
330
70
100
AcDbEntity
  8
0
 62
     8
420
  8421504
370
    25
100
AcDbLine
 10
177.2259266320176
 20
102.2375590046895
 30
0.0
 11
177.2259266320176
 21
110.2375590046895
 31
0.0
  0
LINE
  5
17A
330
70
100
AcDbEntity
  8
0
 62
     8
420
  8421504
370
    25
100
AcDbLine
 10
177.4689631981176
 20
110.0461527546893
 30
0.0
 11
177.4689631981176
 21
102.4289652546894
 31
0.0
  0
INSERT
  5
17D
330
70
100
AcDbEntity
  8
CAPA_BASE
100
AcDbBlockReference
  2
Block_0
 10
0.0
 20
0.0
 30
0.0
  0
INSERT
  5
189
330
70
100
AcDbEntity
  8
CAPA_BASE
100
AcDbBlockReference
  2
Block_1
 10
0.0
 20
0.0
 30
0.0
  0
INSERT
  5
195
330
70
100
AcDbEntity
  8
CAPA_BASE
100
AcDbBlockReference
  2
Block_2
 10
0.0
 20
0.0
 30
0.0
  0
ENDSEC
  0
SECTION
  2
OBJECTS
  0
DICTIONARY
  5
C
330
0
100
AcDbDictionary
281
     1
  3
ACAD_COLOR
350
63
  3
ACAD_DETAILVIEWSTYLE
350
6A
  3
ACAD_GROUP
350
D
  3
ACAD_LAYOUT
350
62
  3
ACAD_MATERIAL
350
10
  3
ACAD_MLEADERSTYLE
350
66
  3
ACAD_MLINESTYLE
350
5F
  3
ACAD_PLOTSETTINGS
350
61
  3
ACAD_PLOTSTYLENAME
350
E
  3
ACAD_SCALELIST
350
42
  3
ACAD_SECTIONVIEWSTYLE
350
68
  3
ACAD_TABLESTYLE
350
64
  3
ACAD_VISUALSTYLE
350
29
  3
ACDB_RECOMPOSE_DATA
350
1A8
  3
AcDbVariableDictionary
350
1A0
  0
DICTIONARY
  5
63
102
{ACAD_REACTORS
330
C
102
}
330
C
100
AcDbDictionary
281
     1
  0
DICTIONARY
  5
6A
102
{ACAD_REACTORS
330
C
102
}
330
C
100
AcDbDictionary
281
     1
  3
Imperial24
350
6B
  0
DICTIONARY
  5
D
102
{ACAD_REACTORS
330
C
102
}
330
C
100
AcDbDictionary
281
     1
  0
DICTIONARY
  5
62
102
{ACAD_REACTORS
330
C
102
}
330
C
100
AcDbDictionary
281
     1
  3
Layout1
350
6F
  3
Layout2
350
77
  3
Model
350
73
  0
DICTIONARY
  5
10
102
{ACAD_REACTORS
330
C
102
}
330
C
100
AcDbDictionary
281
     1
  3
ByBlock
350
19
  3
ByLayer
350
11
  3
Global
350
21
  0
DICTIONARY
  5
66
102
{ACAD_REACTORS
330
C
102
}
330
C
100
AcDbDictionary
281
     1
  3
Standard
350
67
  0
DICTIONARY
  5
5F
102
{ACAD_REACTORS
330
C
102
}
330
C
100
AcDbDictionary
281
     1
  3
Standard
350
60
  0
DICTIONARY
  5
61
102
{ACAD_REACTORS
330
C
102
}
330
C
100
AcDbDictionary
281
     1
  0
ACDBDICTIONARYWDFLT
  5
E
102
{ACAD_REACTORS
330
C
102
}
330
C
100
AcDbDictionary
281
     1
  3
Normal
350
F
100
AcDbDictionaryWithDefault
340
F
  0
DICTIONARY
  5
42
102
{ACAD_REACTORS
330
C
102
}
330
C
100
AcDbDictionary
281
     1
  3
A0
350
43
  3
A1
350
44
  3
A2
350
45
  3
A3
350
46
  3
A4
350
47
  3
A5
350
48
  3
A6
350
49
  3
A7
350
4A
  3
A8
350
4B
  3
A9
350
4C
  3
B0
350
4D
  3
B1
350
4E
  3
B2
350
4F
  3
B3
350
50
  3
B4
350
51
  3
B5
350
52
  3
B6
350
53
  0
DICTIONARY
  5
68
102
{ACAD_REACTORS
330
C
102
}
330
C
100
AcDbDictionary
281
     1
  3
Imperial24
350
69
  0
DICTIONARY
  5
64
102
{ACAD_REACTORS
330
C
102
}
330
C
100
AcDbDictionary
281
     1
  3
Standard
350
65
  0
DICTIONARY
  5
29
102
{ACAD_REACTORS
330
C
102
}
330
C
100
AcDbDictionary
281
     1
  3
2dWireframe
350
2F
  3
Basic
350
2E
  3
Brighten
350
35
  3
ColorChange
350
39
  3
Conceptual
350
32
  3
Dim
350
34
  3
EdgeColorOff
350
41
  3
Facepattern
350
38
  3
Flat
350
2A
  3
FlatWithEdges
350
2B
  3
Gouraud
350
2C
  3
GouraudWithEdges
350
2D
  3
Hidden
350
31
  3
JitterOff
350
3F
  3
Linepattern
350
37
  3
OverhangOff
350
40
  3
Realistic
350
33
  3
Shaded
350
3E
  3
Shaded with edges
350
3D
  3
Shades of Gray
350
3A
  3
Sketchy
350
3B
  3
Thicken
350
36
  3
Wireframe
350
30
  3
X-Ray
350
3C
  0
XRECORD
  5
1A8
102
{ACAD_REACTORS
330
C
102
}
330
C
100
AcDbXrecord
280
     1
 90
        1
330
65
  0
DICTIONARY
  5
1A0
102
{ACAD_REACTORS
330
C
102
}
330
C
100
AcDbDictionary
281
     1
  3
CANNOSCALE
350
1A5
  3
CMLEADERSTYLE
350
1A2
  3
CTABLESTYLE
350
1A1
  3
CVIEWDETAILSTYLE
350
1A3
  3
CVIEWSECTIONSTYLE
350
1A4
  0
ACDBDETAILVIEWSTYLE
  5
6B
102
{ACAD_REACTORS
330
6A
102
}
330
6A
100
AcDbModelDocViewStyle
 70
     0
  3
Imperial24
290
     1
300
Imperial24
 90
        0
100
AcDbDetailViewStyle
 70
     0
 71
     0
 90
        3
 71
     1
340
55
 62
   256
 40
0.24
340
0
 62
   256
 40
0.24
300

 40
0.36
280
     3
 71
     2
340
5D
 90
       25
 62
   256
 71
     3
340
55
 62
   256
 40
0.24
 90
        1
 40
0.75
 90
        1
300
%<\AcVar ViewType \f "%tc1">% %<\AcVar ViewDetailId>%\PSCALE %<\AcVar ViewScale \f "%sn">%
 71
     4
340
5D
 90
       25
 62
   256
340
5D
 90
       25
 62
   256
280
     0
  0
LAYOUT
  5
6F
102
{ACAD_REACTORS
330
62
102
}
330
62
100
AcDbPlotSettings
  1

  2

  4

  6

 40
0.0
 41
0.0
 42
0.0
 43
0.0
 44
0.0
 45
0.0
 46
0.0
 47
0.0
 48
0.0
 49
0.0
140
0.0
141
0.0
142
1.0
143
1.0
 70
   688
 72
     0
 73
     0
 74
     5
  7

 75
    16
147
1.0
 76
     0
 77
     2
 78
   300
148
0.0
149
0.0
100
AcDbLayout
  1
Layout1
 70
     1
 71
     1
 10
0.0
 20
0.0
 11
12.0
 21
9.0
 12
0.0
 22
0.0
 32
0.0
 14
0.0
 24
0.0
 34
0.0
 15
0.0
 25
0.0
 35
0.0
146
0.0
 13
0.0
 23
0.0
 33
0.0
 16
1.0
 26
0.0
 36
0.0
 17
0.0
 27
1.0
 37
0.0
 76
     0
330
6C
  0
LAYOUT
  5
77
102
{ACAD_REACTORS
330
62
102
}
330
62
100
AcDbPlotSettings
  1

  2

  4

  6

 40
0.0
 41
0.0
 42
0.0
 43
0.0
 44
0.0
 45
0.0
 46
0.0
 47
0.0
 48
0.0
 49
0.0
140
0.0
141
0.0
142
1.0
143
1.0
 70
   688
 72
     0
 73
     0
 74
     5
  7

 75
    16
147
1.0
 76
     0
 77
     2
 78
   300
148
0.0
149
0.0
100
AcDbLayout
  1
Layout2
 70
     1
 71
     2
 10
0.0
 20
0.0
 11
12.0
 21
9.0
 12
0.0
 22
0.0
 32
0.0
 14
0.0
 24
0.0
 34
0.0
 15
0.0
 25
0.0
 35
0.0
146
0.0
 13
0.0
 23
0.0
 33
0.0
 16
1.0
 26
0.0
 36
0.0
 17
0.0
 27
1.0
 37
0.0
 76
     0
330
74
  0
LAYOUT
  5
73
102
{ACAD_REACTORS
330
62
102
}
330
62
100
AcDbPlotSettings
  1

  2

  4

  6

 40
0.0
 41
0.0
 42
0.0
 43
0.0
 44
0.0
 45
0.0
 46
0.0
 47
0.0
 48
0.0
 49
0.0
140
0.0
141
0.0
142
1.0
143
1.0
 70
  1712
 72
     0
 73
     0
 74
     0
  7

 75
     0
147
1.0
 76
     0
 77
     2
 78
   300
148
0.0
149
0.0
100
AcDbLayout
  1
Model
 70
     1
 71
     0
 10
0.0
 20
0.0
 11
12.0
 21
9.0
 12
0.0
 22
0.0
 32
0.0
 14
0.0
 24
0.0
 34
0.0
 15
0.0
 25
0.0
 35
0.0
146
0.0
 13
0.0
 23
0.0
 33
0.0
 16
1.0
 26
0.0
 36
0.0
 17
0.0
 27
1.0
 37
0.0
 76
     0
330
70
  0
MATERIAL
  5
19
102
{ACAD_XDICTIONARY
360
1A
102
}
102
{ACAD_REACTORS
330
10
102
}
330
10
100
AcDbMaterial
  1
ByBlock
 72
     0
 43
0.0208333333333333
 43
0.0
 43
0.0
 43
0.0
 43
0.0
 43
0.0208333333333333
 43
0.0
 43
0.0
 43
0.0
 43
0.0
 43
1.0
 43
0.0
 43
0.0
 43
0.0
 43
0.0
 43
1.0
 77
     0
 47
0.0208333333333333
 47
0.0
 47
0.0
 47
0.0
 47
0.0
 47
0.0208333333333333
 47
0.0
 47
0.0
 47
0.0
 47
0.0
 47
1.0
 47
0.0
 47
0.0
 47
0.0
 47
0.0
 47
1.0
171
     0
 49
0.0208333333333333
 49
0.0
 49
0.0
 49
0.0
 49
0.0
 49
0.0208333333333333
 49
0.0
 49
0.0
 49
0.0
 49
0.0
 49
1.0
 49
0.0
 49
0.0
 49
0.0
 49
0.0
 49
1.0
175
     0
142
0.0208333333333333
142
0.0
142
0.0
142
0.0
142
0.0
142
0.0208333333333333
142
0.0
142
0.0
142
0.0
142
0.0
142
1.0
142
0.0
142
0.0
142
0.0
142
0.0
142
1.0
179
     0
144
0.0208333333333333
144
0.0
144
0.0
144
0.0
144
0.0
144
0.0208333333333333
144
0.0
144
0.0
144
0.0
144
0.0
144
1.0
144
0.0
144
0.0
144
0.0
144
0.0
144
1.0
147
0.0208333333333333
147
0.0
147
0.0
147
0.0
147
0.0
147
0.0208333333333333
147
0.0
147
0.0
147
0.0
147
0.0
147
1.0
147
0.0
147
0.0
147
0.0
147
0.0
147
1.0
  0
MATERIAL
  5
11
102
{ACAD_XDICTIONARY
360
12
102
}
102
{ACAD_REACTORS
330
10
102
}
330
10
100
AcDbMaterial
  1
ByLayer
 72
     0
 43
0.0208333333333333
 43
0.0
 43
0.0
 43
0.0
 43
0.0
 43
0.0208333333333333
 43
0.0
 43
0.0
 43
0.0
 43
0.0
 43
1.0
 43
0.0
 43
0.0
 43
0.0
 43
0.0
 43
1.0
 77
     0
 47
0.0208333333333333
 47
0.0
 47
0.0
 47
0.0
 47
0.0
 47
0.0208333333333333
 47
0.0
 47
0.0
 47
0.0
 47
0.0
 47
1.0
 47
0.0
 47
0.0
 47
0.0
 47
0.0
 47
1.0
171
     0
 49
0.0208333333333333
 49
0.0
 49
0.0
 49
0.0
 49
0.0
 49
0.0208333333333333
 49
0.0
 49
0.0
 49
0.0
 49
0.0
 49
1.0
 49
0.0
 49
0.0
 49
0.0
 49
0.0
 49
1.0
175
     0
142
0.0208333333333333
142
0.0
142
0.0
142
0.0
142
0.0
142
0.0208333333333333
142
0.0
142
0.0
142
0.0
142
0.0
142
1.0
142
0.0
142
0.0
142
0.0
142
0.0
142
1.0
179
     0
144
0.0208333333333333
144
0.0
144
0.0
144
0.0
144
0.0
144
0.0208333333333333
144
0.0
144
0.0
144
0.0
144
0.0
144
1.0
144
0.0
144
0.0
144
0.0
144
0.0
144
1.0
147
0.0208333333333333
147
0.0
147
0.0
147
0.0
147
0.0
147
0.0208333333333333
147
0.0
147
0.0
147
0.0
147
0.0
147
1.0
147
0.0
147
0.0
147
0.0
147
0.0
147
1.0
  0
MATERIAL
  5
21
102
{ACAD_XDICTIONARY
360
22
102
}
102
{ACAD_REACTORS
330
10
102
}
330
10
100
AcDbMaterial
  1
Global
 72
     0
 43
0.0208333333333333
 43
0.0
 43
0.0
 43
0.0
 43
0.0
 43
0.0208333333333333
 43
0.0
 43
0.0
 43
0.0
 43
0.0
 43
1.0
 43
0.0
 43
0.0
 43
0.0
 43
0.0
 43
1.0
 77
     0
 47
0.0208333333333333
 47
0.0
 47
0.0
 47
0.0
 47
0.0
 47
0.0208333333333333
 47
0.0
 47
0.0
 47
0.0
 47
0.0
 47
1.0
 47
0.0
 47
0.0
 47
0.0
 47
0.0
 47
1.0
171
     0
 49
0.0208333333333333
 49
0.0
 49
0.0
 49
0.0
 49
0.0
 49
0.0208333333333333
 49
0.0
 49
0.0
 49
0.0
 49
0.0
 49
1.0
 49
0.0
 49
0.0
 49
0.0
 49
0.0
 49
1.0
175
     0
142
0.0208333333333333
142
0.0
142
0.0
142
0.0
142
0.0
142
0.0208333333333333
142
0.0
142
0.0
142
0.0
142
0.0
142
1.0
142
0.0
142
0.0
142
0.0
142
0.0
142
1.0
179
     0
144
0.0208333333333333
144
0.0
144
0.0
144
0.0
144
0.0
144
0.0208333333333333
144
0.0
144
0.0
144
0.0
144
0.0
144
1.0
144
0.0
144
0.0
144
0.0
144
0.0
144
1.0
147
0.0208333333333333
147
0.0
147
0.0
147
0.0
147
0.0
147
0.0208333333333333
147
0.0
147
0.0
147
0.0
147
0.0
147
1.0
147
0.0
147
0.0
147
0.0
147
0.0
147
1.0
  0
MLEADERSTYLE
  5
67
102
{ACAD_REACTORS
330
66
102
}
330
66
100
AcDbMLeaderStyle
179
     2
170
     2
171
     1
172
     0
 90
        2
 40
0.0
 41
0.0
173
     1
 91
-1056964608
340
5B
 92
       -2
290
     1
 42
0.09
291
     1
 43
0.36
  3
Standard
 44
0.18
300

342
55
174
     1
178
     6
175
     1
176
     0
 93
-1056964608
 45
0.18
292
     0
297
     0
 46
0.18
 94
-1056964608
 47
1.0
 49
1.0
140
1.0
293
     1
141
0.0
294
     1
177
     0
142
1.0
295
     1
296
     0
143
0.125
271
     0
272
     9
273
     9
298
     1
  0
MLINESTYLE
  5
60
102
{ACAD_REACTORS
330
5F
102
}
330
5F
100
AcDbMlineStyle
  2
STANDARD
 70
     0
  3

 62
   256
 51
90.0
 52
90.0
 71
     2
 49
0.5
 62
   256
  6
BYLAYER
 49
-0.5
 62
   256
  6
BYLAYER
  0
ACDBPLACEHOLDER
  5
F
102
{ACAD_REACTORS
330
E
102
}
330
E
  0
SCALE
  5
43
102
{ACAD_REACTORS
330
42
102
}
330
42
100
AcDbScale
 70
     0
300
1:1
140
1.0
141
1.0
290
     1
  0
SCALE
  5
44
102
{ACAD_REACTORS
330
42
102
}
330
42
100
AcDbScale
 70
     0
300
1/128" = 1'-0"
140
0.0078125
141
12.0
290
     0
  0
SCALE
  5
45
102
{ACAD_REACTORS
330
42
102
}
330
42
100
AcDbScale
 70
     0
300
1/64" = 1'-0"
140
0.015625
141
12.0
290
     0
  0
SCALE
  5
46
102
{ACAD_REACTORS
330
42
102
}
330
42
100
AcDbScale
 70
     0
300
1/32" = 1'-0"
140
0.03125
141
12.0
290
     0
  0
SCALE
  5
47
102
{ACAD_REACTORS
330
42
102
}
330
42
100
AcDbScale
 70
     0
300
1/16" = 1'-0"
140
0.0625
141
12.0
290
     0
  0
SCALE
  5
48
102
{ACAD_REACTORS
330
42
102
}
330
42
100
AcDbScale
 70
     0
300
3/32" = 1'-0"
140
0.09375
141
12.0
290
     0
  0
SCALE
  5
49
102
{ACAD_REACTORS
330
42
102
}
330
42
100
AcDbScale
 70
     0
300
1/8" = 1'-0"
140
0.125
141
12.0
290
     0
  0
SCALE
  5
4A
102
{ACAD_REACTORS
330
42
102
}
330
42
100
AcDbScale
 70
     0
300
3/16" = 1'-0"
140
0.1875
141
12.0
290
     0
  0
SCALE
  5
4B
102
{ACAD_REACTORS
330
42
102
}
330
42
100
AcDbScale
 70
     0
300
1/4" = 1'-0"
140
0.25
141
12.0
290
     0
  0
SCALE
  5
4C
102
{ACAD_REACTORS
330
42
102
}
330
42
100
AcDbScale
 70
     0
300
3/8" = 1'-0"
140
0.375
141
12.0
290
     0
  0
SCALE
  5
4D
102
{ACAD_REACTORS
330
42
102
}
330
42
100
AcDbScale
 70
     0
300
1/2" = 1'-0"
140
0.5
141
12.0
290
     0
  0
SCALE
  5
4E
102
{ACAD_REACTORS
330
42
102
}
330
42
100
AcDbScale
 70
     0
300
3/4" = 1'-0"
140
0.75
141
12.0
290
     0
  0
SCALE
  5
4F
102
{ACAD_REACTORS
330
42
102
}
330
42
100
AcDbScale
 70
     0
300
1" = 1'-0"
140
1.0
141
12.0
290
     0
  0
SCALE
  5
50
102
{ACAD_REACTORS
330
42
102
}
330
42
100
AcDbScale
 70
     0
300
1-1/2" = 1'-0"
140
1.5
141
12.0
290
     0
  0
SCALE
  5
51
102
{ACAD_REACTORS
330
42
102
}
330
42
100
AcDbScale
 70
     0
300
3" = 1'-0"
140
3.0
141
12.0
290
     0
  0
SCALE
  5
52
102
{ACAD_REACTORS
330
42
102
}
330
42
100
AcDbScale
 70
     0
300
6" = 1'-0"
140
6.0
141
12.0
290
     0
  0
SCALE
  5
53
102
{ACAD_REACTORS
330
42
102
}
330
42
100
AcDbScale
 70
     0
300
1'-0" = 1'-0"
140
12.0
141
12.0
290
     0
  0
ACDBSECTIONVIEWSTYLE
  5
69
102
{ACAD_REACTORS
330
68
102
}
330
68
100
AcDbModelDocViewStyle
 70
     0
  3
Imperial24
290
     1
300
Imperial24
 90
        0
100
AcDbSectionViewStyle
 70
     0
 71
     0
 90
       78
 71
     1
340
55
 62
   256
 40
0.24
340
0
340
0
 62
   256
 40
0.24
300
I, O, Q, S, X, Z
 40
0.48
 90
        3
 40
0.18
 90
        1
 71
     2
340
5D
 90
       25
 62
   256
340
5D
 90
       50
 62
   256
 40
0.24
 40
0.0
 40
0.24
 71
     3
340
55
 62
   256
 40
0.24
 90
        1
 40
0.75
 90
        1
300
%<\AcVar ViewType \f "%tc1">% %<\AcVar ViewSectionStartId>%-%<\AcVar ViewSectionEndId>%\PSCALE %<\AcVar ViewScale \f "%sn">%
 71
     4
 62
   256
 62
   257
300
ANSI31
 40
1.0
 90
        0
290
     0
290
     0
 90
        6
 40
0.0
 40
1.570796326794896
 40
0.2617993877991494
 40
1.308996938995747
 40
-0.2617993877991494
 40
1.832595714594046
  0
TABLESTYLE
  5
65
102
{ACAD_XDICTIONARY
360
1A6
102
}
102
{ACAD_REACTORS
330
64
102
}
330
64
100
AcDbTableStyle
280
     0
  3
Standard
 70
     0
 71
     0
 40
0.06
 41
0.06
280
     0
281
     0
  7
Standard
140
0.18
170
     2
 62
     0
 63
     7
283
     0
 90
      512
 91
        0
  1

274
    -2
284
     1
 64
     0
275
    -2
285
     1
 65
     0
276
    -2
286
     1
 66
     0
277
    -2
287
     1
 67
     0
278
    -2
288
     1
 68
     0
279
    -2
289
     1
 69
     0
  7
Standard
140
0.25
170
     5
 62
     0
 63
     7
283
     0
 90
      512
 91
        0
  1

274
    -2
284
     1
 64
     0
275
    -2
285
     1
 65
     0
276
    -2
286
     1
 66
     0
277
    -2
287
     1
 67
     0
278
    -2
288
     1
 68
     0
279
    -2
289
     1
 69
     0
  7
Standard
140
0.18
170
     5
 62
     0
 63
     7
283
     0
 90
      512
 91
        0
  1

274
    -2
284
     1
 64
     0
275
    -2
285
     1
 65
     0
276
    -2
286
     1
 66
     0
277
    -2
287
     1
 67
     0
278
    -2
288
     1
 68
     0
279
    -2
289
     1
 69
     0
  0
VISUALSTYLE
  5
2F
102
{ACAD_REACTORS
330
29
102
}
330
29
100
AcDbVisualStyle
  2
2dWireframe
 70
     4
177
     3
291
     0
 70
    58
 90
        0
176
     1
 90
        2
176
     1
 90
        0
176
     1
 90
        0
176
     1
 40
0.6
176
     1
 40
30.0
176
     1
 62
     7
420
 16777215
176
     1
 90
        1
176
     1
 90
        4
176
     1
 62
     7
176
     1
 62
   257
176
     1
 90
        1
176
     1
 90
        1
176
     1
 40
1.0
176
     1
 90
        0
176
     1
 62
   257
176
     1
 40
1.0
176
     1
 90
        1
176
     1
 90
        6
176
     1
 90
        2
176
     1
 62
     7
176
     1
 90
        5
176
     1
 90
        0
176
     1
 90
        0
176
     1
290
     0
176
     1
 90
        1
176
     1
 40
0.0
176
     1
 90
        0
176
     1
290
     1
176
     1
290
     1
176
     1
290
     0
176
     1
290
     0
176
     1
290
     0
176
     1
290
     0
176
     1
290
     0
176
     1
290
     0
176
     1
290
     0
176
     1
 90
       50
176
     1
 40
0.0
176
     1
 40
1.0
176
     1
 90
        0
176
     1
 62
    18
420
        0
176
     1
 90
       50
176
     1
 90
        3
176
     1
 62
     5
420
      255
176
     1
290
     0
176
     1
 90
       50
176
     1
 90
       50
176
     1
 90
       50
176
     1
290
     0
176
     1
 90
       50
176
     1
 62
   256
176
     0
 40
1.0
176
     0
 90
        2
176
     1
  1
strokes_ogs.tif
176
     1
290
     0
176
     1
 40
1.0
176
     1
 40
1.0
176
     1
  0
VISUALSTYLE
  5
2E
102
{ACAD_REACTORS
330
29
102
}
330
29
100
AcDbVisualStyle
  2
Basic
 70
     7
177
     3
291
     1
 70
    58
 90
        1
176
     1
 90
        0
176
     1
 90
        1
176
     1
 90
        0
176
     1
 40
0.6
176
     1
 40
30.0
176
     1
 62
     7
420
 16777215
176
     1
 90
        0
176
     1
 90
        4
176
     1
 62
     7
176
     1
 62
   257
176
     1
 90
        1
176
     1
 90
        1
176
     1
 40
1.0
176
     1
 90
        8
176
     1
 62
     7
176
     1
 40
1.0
176
     1
 90
        1
176
     1
 90
        6
176
     1
 90
        2
176
     1
 62
     7
176
     1
 90
        5
176
     1
 90
        0
176
     1
 90
        0
176
     1
290
     0
176
     1
 90
        1
176
     1
 40
0.0
176
     1
 90
        0
176
     1
290
     0
176
     1
290
     1
176
     1
290
     1
176
     1
290
     0
176
     1
290
     0
176
     1
290
     0
176
     1
290
     0
176
     1
290
     0
176
     1
290
     0
176
     1
 90
       50
176
     1
 40
0.0
176
     1
 40
1.0
176
     1
 90
        0
176
     1
 62
    18
420
        0
176
     1
 90
       50
176
     1
 90
        3
176
     1
 62
     5
420
      255
176
     1
290
     0
176
     1
 90
       50
176
     1
 90
       50
176
     1
 90
       50
176
     1
290
     0
176
     1
 90
       50
176
     1
 62
   256
176
     0
 40
1.0
176
     0
 90
        2
176
     1
  1
strokes_ogs.tif
176
     1
290
     0
176
     1
 40
1.0
176
     1
 40
1.0
176
     1
  0
VISUALSTYLE
  5
35
102
{ACAD_REACTORS
330
29
102
}
330
29
100
AcDbVisualStyle
  2
Brighten
 70
    12
177
     3
291
     1
 70
    58
 90
        2
176
     1
 90
        2
176
     1
 90
        0
176
     1
 90
        0
176
     1
 40
0.6
176
     1
 40
30.0
176
     1
 62
     7
420
 16777215
176
     1
 90
        1
176
     1
 90
        4
176
     1
 62
     7
176
     1
 62
   257
176
     1
 90
        1
176
     1
 90
        1
176
     1
 40
1.0
176
     1
 90
        8
176
     1
 62
     7
176
     1
 40
1.0
176
     1
 90
        1
176
     1
 90
        6
176
     1
 90
        2
176
     1
 62
     7
176
     1
 90
        5
176
     1
 90
        0
176
     1
 90
        0
176
     1
290
     0
176
     1
 90
        1
176
     1
 40
50.0
176
     1
 90
        0
176
     1
290
     0
176
     1
290
     1
176
     1
290
     1
176
     1
290
     0
176
     1
290
     0
176
     1
290
     0
176
     1
290
     0
176
     1
290
     0
176
     1
290
     0
176
     1
 90
       50
176
     1
 40
0.0
176
     1
 40
1.0
176
     1
 90
        0
176
     1
 62
    18
420
        0
176
     1
 90
       50
176
     1
 90
        3
176
     1
 62
     5
420
      255
176
     1
290
     0
176
     1
 90
       50
176
     1
 90
       50
176
     1
 90
       50
176
     1
290
     0
176
     1
 90
       50
176
     1
 62
   256
176
     0
 40
1.0
176
     0
 90
        2
176
     1
  1
strokes_ogs.tif
176
     1
290
     0
176
     1
 40
1.0
176
     1
 40
1.0
176
     1
  0
VISUALSTYLE
  5
39
102
{ACAD_REACTORS
330
29
102
}
330
29
100
AcDbVisualStyle
  2
ColorChange
 70
    16
177
     3
291
     1
 70
    58
 90
        2
176
     1
 90
        2
176
     1
 90
        3
176
     1
 90
        0
176
     1
 40
0.6
176
     1
 40
30.0
176
     1
 62
     8
420
  8421504
176
     1
 90
        1
176
     1
 90
        4
176
     1
 62
     7
176
     1
 62
   257
176
     1
 90
        1
176
     1
 90
        1
176
     1
 40
1.0
176
     1
 90
        8
176
     1
 62
     8
420
  8421504
176
     1
 40
1.0
176
     1
 90
        1
176
     1
 90
        6
176
     1
 90
        2
176
     1
 62
     7
176
     1
 90
        5
176
     1
 90
        0
176
     1
 90
        0
176
     1
290
     0
176
     1
 90
        1
176
     1
 40
0.0
176
     1
 90
        0
176
     1
290
     0
176
     1
290
     1
176
     1
290
     1
176
     1
290
     0
176
     1
290
     0
176
     1
290
     0
176
     1
290
     0
176
     1
290
     0
176
     1
290
     0
176
     1
 90
       50
176
     1
 40
0.0
176
     1
 40
1.0
176
     1
 90
        0
176
     1
 62
    18
420
        0
176
     1
 90
       50
176
     1
 90
        3
176
     1
 62
     5
420
      255
176
     1
290
     0
176
     1
 90
       50
176
     1
 90
       50
176
     1
 90
       50
176
     1
290
     0
176
     1
 90
       50
176
     1
 62
   256
176
     0
 40
1.0
176
     0
 90
        2
176
     1
  1
strokes_ogs.tif
176
     1
290
     0
176
     1
 40
1.0
176
     1
 40
1.0
176
     1
  0
VISUALSTYLE
  5
32
102
{ACAD_REACTORS
330
29
102
}
330
29
100
AcDbVisualStyle
  2
Conceptual
 70
     9
177
     3
291
     0
 70
    58
 90
        3
176
     1
 90
        2
176
     1
 90
        0
176
     1
 90
        0
176
     1
 40
0.6
176
     1
 40
30.0
176
     1
 62
     7
420
 16777215
176
     1
 90
        2
176
     1
 90
        2
176
     1
 62
     7
176
     1
 62
   257
176
     1
 90
        1
176
     1
 90
        1
176
     1
 40
179.0
176
     1
 90
        8
176
     1
 62
     7
176
     1
 40
1.0
176
     1
 90
        1
176
     1
 90
        6
176
     1
 90
        2
176
     1
 62
     7
176
     1
 90
        3
176
     1
 90
        0
176
     1
 90
        0
176
     1
290
     0
176
     1
 90
        1
176
     1
 40
0.0
176
     1
 90
        0
176
     1
290
     0
176
     1
290
     1
176
     1
290
     1
176
     1
290
     0
176
     1
290
     0
176
     1
290
     0
176
     1
290
     0
176
     1
290
     0
176
     1
290
     0
176
     1
 90
       50
176
     1
 40
0.0
176
     1
 40
1.0
176
     1
 90
        0
176
     1
 62
    18
420
        0
176
     1
 90
       50
176
     1
 90
        3
176
     1
 62
     5
420
      255
176
     1
290
     0
176
     1
 90
       50
176
     1
 90
       50
176
     1
 90
       50
176
     1
290
     0
176
     1
 90
       50
176
     1
 62
   256
176
     0
 40
1.0
176
     0
 90
        2
176
     1
  1
strokes_ogs.tif
176
     1
290
     0
176
     1
 40
1.0
176
     1
 40
1.0
176
     1
  0
VISUALSTYLE
  5
34
102
{ACAD_REACTORS
330
29
102
}
330
29
100
AcDbVisualStyle
  2
Dim
 70
    11
177
     3
291
     1
 70
    58
 90
        2
176
     1
 90
        2
176
     1
 90
        0
176
     1
 90
        0
176
     1
 40
0.6
176
     1
 40
30.0
176
     1
 62
     7
420
 16777215
176
     1
 90
        1
176
     1
 90
        4
176
     1
 62
     7
176
     1
 62
   257
176
     1
 90
        1
176
     1
 90
        1
176
     1
 40
1.0
176
     1
 90
        8
176
     1
 62
     7
176
     1
 40
1.0
176
     1
 90
        1
176
     1
 90
        6
176
     1
 90
        2
176
     1
 62
     7
176
     1
 90
        5
176
     1
 90
        0
176
     1
 90
        0
176
     1
290
     0
176
     1
 90
        1
176
     1
 40
-50.0
176
     1
 90
        0
176
     1
290
     0
176
     1
290
     1
176
     1
290
     1
176
     1
290
     0
176
     1
290
     0
176
     1
290
     0
176
     1
290
     0
176
     1
290
     0
176
     1
290
     0
176
     1
 90
       50
176
     1
 40
0.0
176
     1
 40
1.0
176
     1
 90
        0
176
     1
 62
    18
420
        0
176
     1
 90
       50
176
     1
 90
        3
176
     1
 62
     5
420
      255
176
     1
290
     0
176
     1
 90
       50
176
     1
 90
       50
176
     1
 90
       50
176
     1
290
     0
176
     1
 90
       50
176
     1
 62
   256
176
     0
 40
1.0
176
     0
 90
        2
176
     1
  1
strokes_ogs.tif
176
     1
290
     0
176
     1
 40
1.0
176
     1
 40
1.0
176
     1
  0
VISUALSTYLE
  5
41
102
{ACAD_REACTORS
330
29
102
}
330
29
100
AcDbVisualStyle
  2
EdgeColorOff
 70
    22
177
     3
291
     1
 70
    58
 90
        2
176
     0
 90
        2
176
     0
 90
        0
176
     0
 90
        0
176
     0
 40
0.6
176
     0
 40
30.0
176
     0
 62
     7
420
 16777215
176
     0
 90
        1
176
     0
 90
        4
176
     0
 62
     7
176
     0
 62
   257
176
     0
 90
        1
176
     0
 90
        1
176
     0
 40
1.0
176
     0
 90
        8
176
     2
 62
     7
176
     0
 40
1.0
176
     0
 90
        1
176
     0
 90
        6
176
     0
 90
        2
176
     0
 62
     7
176
     0
 90
        5
176
     0
 90
        0
176
     0
 90
        0
176
     0
290
     0
176
     0
 90
        1
176
     0
 40
0.0
176
     0
 90
        0
176
     0
290
     0
176
     0
290
     1
176
     0
290
     1
176
     0
290
     0
176
     0
290
     0
176
     0
290
     0
176
     0
290
     0
176
     0
290
     0
176
     0
290
     0
176
     0
 90
       50
176
     0
 40
0.0
176
     0
 40
1.0
176
     0
 90
        0
176
     0
 62
    18
420
        0
176
     0
 90
       50
176
     0
 90
        3
176
     0
 62
     5
420
      255
176
     0
290
     0
176
     0
 90
       50
176
     0
 90
       50
176
     0
 90
       50
176
     0
290
     0
176
     0
 90
       50
176
     0
 62
   256
176
     0
 40
1.0
176
     0
 90
        2
176
     0
  1
strokes_ogs.tif
176
     0
290
     0
176
     0
 40
1.0
176
     0
 40
1.0
176
     0
  0
VISUALSTYLE
  5
38
102
{ACAD_REACTORS
330
29
102
}
330
29
100
AcDbVisualStyle
  2
Facepattern
 70
    15
177
     3
291
     1
 70
    58
 90
        2
176
     1
 90
        2
176
     1
 90
        0
176
     1
 90
        0
176
     1
 40
0.6
176
     1
 40
30.0
176
     1
 62
     7
420
 16777215
176
     1
 90
        1
176
     1
 90
        4
176
     1
 62
     7
176
     1
 62
   257
176
     1
 90
        1
176
     1
 90
        1
176
     1
 40
1.0
176
     1
 90
        8
176
     1
 62
     7
176
     1
 40
1.0
176
     1
 90
        1
176
     1
 90
        6
176
     1
 90
        2
176
     1
 62
     7
176
     1
 90
        5
176
     1
 90
        0
176
     1
 90
        0
176
     1
290
     0
176
     1
 90
        1
176
     1
 40
0.0
176
     1
 90
        0
176
     1
290
     0
176
     1
290
     1
176
     1
290
     1
176
     1
290
     0
176
     1
290
     0
176
     1
290
     0
176
     1
290
     0
176
     1
290
     0
176
     1
290
     0
176
     1
 90
       50
176
     1
 40
0.0
176
     1
 40
1.0
176
     1
 90
        0
176
     1
 62
    18
420
        0
176
     1
 90
       50
176
     1
 90
        3
176
     1
 62
     5
420
      255
176
     1
290
     0
176
     1
 90
       50
176
     1
 90
       50
176
     1
 90
       50
176
     1
290
     0
176
     1
 90
       50
176
     1
 62
   256
176
     0
 40
1.0
176
     0
 90
        2
176
     1
  1
strokes_ogs.tif
176
     1
290
     0
176
     1
 40
1.0
176
     1
 40
1.0
176
     1
  0
VISUALSTYLE
  5
2A
102
{ACAD_REACTORS
330
29
102
}
330
29
100
AcDbVisualStyle
  2
Flat
 70
     0
177
     3
291
     1
 70
    58
 90
        2
176
     1
 90
        1
176
     1
 90
        1
176
     1
 90
        2
176
     1
 40
0.6
176
     1
 40
30.0
176
     1
 62
     7
420
 16777215
176
     1
 90
        0
176
     1
 90
        0
176
     1
 62
     7
176
     1
 62
   257
176
     1
 90
        1
176
     1
 90
        1
176
     1
 40
1.0
176
     1
 90
        8
176
     1
 62
     7
176
     1
 40
1.0
176
     1
 90
        1
176
     1
 90
        6
176
     1
 90
        2
176
     1
 62
     7
176
     1
 90
        5
176
     1
 90
        0
176
     1
 90
        0
176
     1
290
     0
176
     1
 90
       13
176
     1
 40
0.0
176
     1
 90
        0
176
     1
290
     0
176
     1
290
     1
176
     1
290
     1
176
     1
290
     0
176
     1
290
     0
176
     1
290
     0
176
     1
290
     0
176
     1
290
     0
176
     1
290
     0
176
     1
 90
       50
176
     1
 40
0.0
176
     1
 40
1.0
176
     1
 90
        0
176
     1
 62
    18
420
        0
176
     1
 90
       50
176
     1
 90
        3
176
     1
 62
     5
420
      255
176
     1
290
     0
176
     1
 90
       50
176
     1
 90
       50
176
     1
 90
       50
176
     1
290
     0
176
     1
 90
       50
176
     1
 62
   256
176
     0
 40
1.0
176
     0
 90
        2
176
     1
  1
strokes_ogs.tif
176
     1
290
     0
176
     1
 40
1.0
176
     1
 40
1.0
176
     1
  0
VISUALSTYLE
  5
2B
102
{ACAD_REACTORS
330
29
102
}
330
29
100
AcDbVisualStyle
  2
FlatWithEdges
 70
     1
177
     3
291
     1
 70
    58
 90
        2
176
     1
 90
        1
176
     1
 90
        1
176
     1
 90
        2
176
     1
 40
0.6
176
     1
 40
30.0
176
     1
 62
     7
420
 16777215
176
     1
 90
        1
176
     1
 90
        0
176
     1
 62
     7
176
     1
 62
   257
176
     1
 90
        1
176
     1
 90
        1
176
     1
 40
1.0
176
     1
 90
        0
176
     1
 62
   257
176
     1
 40
1.0
176
     1
 90
        1
176
     1
 90
        6
176
     1
 90
        2
176
     1
 62
     7
176
     1
 90
        5
176
     1
 90
        0
176
     1
 90
        0
176
     1
290
     0
176
     1
 90
       13
176
     1
 40
0.0
176
     1
 90
        0
176
     1
290
     0
176
     1
290
     1
176
     1
290
     1
176
     1
290
     0
176
     1
290
     0
176
     1
290
     0
176
     1
290
     0
176
     1
290
     0
176
     1
290
     0
176
     1
 90
       50
176
     1
 40
0.0
176
     1
 40
1.0
176
     1
 90
        0
176
     1
 62
    18
420
        0
176
     1
 90
       50
176
     1
 90
        3
176
     1
 62
     5
420
      255
176
     1
290
     0
176
     1
 90
       50
176
     1
 90
       50
176
     1
 90
       50
176
     1
290
     0
176
     1
 90
       50
176
     1
 62
   256
176
     0
 40
1.0
176
     0
 90
        2
176
     1
  1
strokes_ogs.tif
176
     1
290
     0
176
     1
 40
1.0
176
     1
 40
1.0
176
     1
  0
VISUALSTYLE
  5
2C
102
{ACAD_REACTORS
330
29
102
}
330
29
100
AcDbVisualStyle
  2
Gouraud
 70
     2
177
     3
291
     1
 70
    58
 90
        2
176
     1
 90
        2
176
     1
 90
        1
176
     1
 90
        2
176
     1
 40
0.6
176
     1
 40
30.0
176
     1
 62
     7
420
 16777215
176
     1
 90
        0
176
     1
 90
        0
176
     1
 62
     7
176
     1
 62
   257
176
     1
 90
        1
176
     1
 90
        1
176
     1
 40
1.0
176
     1
 90
        0
176
     1
 62
     7
176
     1
 40
1.0
176
     1
 90
        1
176
     1
 90
        6
176
     1
 90
        2
176
     1
 62
     7
176
     1
 90
        5
176
     1
 90
        0
176
     1
 90
        0
176
     1
290
     0
176
     1
 90
       13
176
     1
 40
0.0
176
     1
 90
        0
176
     1
290
     0
176
     1
290
     1
176
     1
290
     1
176
     1
290
     0
176
     1
290
     0
176
     1
290
     0
176
     1
290
     0
176
     1
290
     0
176
     1
290
     0
176
     1
 90
       50
176
     1
 40
0.0
176
     1
 40
1.0
176
     1
 90
        0
176
     1
 62
    18
420
        0
176
     1
 90
       50
176
     1
 90
        3
176
     1
 62
     5
420
      255
176
     1
290
     0
176
     1
 90
       50
176
     1
 90
       50
176
     1
 90
       50
176
     1
290
     0
176
     1
 90
       50
176
     1
 62
   256
176
     0
 40
1.0
176
     0
 90
        2
176
     1
  1
strokes_ogs.tif
176
     1
290
     0
176
     1
 40
1.0
176
     1
 40
1.0
176
     1
  0
VISUALSTYLE
  5
2D
102
{ACAD_REACTORS
330
29
102
}
330
29
100
AcDbVisualStyle
  2
GouraudWithEdges
 70
     3
177
     3
291
     1
 70
    58
 90
        2
176
     1
 90
        2
176
     1
 90
        1
176
     1
 90
        2
176
     1
 40
0.6
176
     1
 40
30.0
176
     1
 62
     7
420
 16777215
176
     1
 90
        1
176
     1
 90
        0
176
     1
 62
     7
176
     1
 62
   257
176
     1
 90
        1
176
     1
 90
        1
176
     1
 40
1.0
176
     1
 90
        0
176
     1
 62
   257
176
     1
 40
1.0
176
     1
 90
        1
176
     1
 90
        6
176
     1
 90
        2
176
     1
 62
     7
176
     1
 90
        5
176
     1
 90
        0
176
     1
 90
        0
176
     1
290
     0
176
     1
 90
       13
176
     1
 40
0.0
176
     1
 90
        0
176
     1
290
     0
176
     1
290
     1
176
     1
290
     1
176
     1
290
     0
176
     1
290
     0
176
     1
290
     0
176
     1
290
     0
176
     1
290
     0
176
     1
290
     0
176
     1
 90
       50
176
     1
 40
0.0
176
     1
 40
1.0
176
     1
 90
        0
176
     1
 62
    18
420
        0
176
     1
 90
       50
176
     1
 90
        3
176
     1
 62
     5
420
      255
176
     1
290
     0
176
     1
 90
       50
176
     1
 90
       50
176
     1
 90
       50
176
     1
290
     0
176
     1
 90
       50
176
     1
 62
   256
176
     0
 40
1.0
176
     0
 90
        2
176
     1
  1
strokes_ogs.tif
176
     1
290
     0
176
     1
 40
1.0
176
     1
 40
1.0
176
     1
  0
VISUALSTYLE
  5
31
102
{ACAD_REACTORS
330
29
102
}
330
29
100
AcDbVisualStyle
  2
Hidden
 70
     6
177
     3
291
     0
 70
    58
 90
        1
176
     1
 90
        2
176
     1
 90
        2
176
     1
 90
        0
176
     1
 40
0.6
176
     1
 40
30.0
176
     1
 62
     7
420
 16777215
176
     1
 90
        2
176
     1
 90
        2
176
     1
 62
     7
176
     1
 62
   257
176
     1
 90
        2
176
     1
 90
        1
176
     1
 40
40.0
176
     1
 90
        0
176
     1
 62
   257
176
     1
 40
1.0
176
     1
 90
        1
176
     1
 90
        6
176
     1
 90
        2
176
     1
 62
     7
176
     1
 90
        3
176
     1
 90
        0
176
     1
 90
        0
176
     1
290
     0
176
     1
 90
        1
176
     1
 40
0.0
176
     1
 90
        0
176
     1
290
     0
176
     1
290
     1
176
     1
290
     1
176
     1
290
     0
176
     1
290
     0
176
     1
290
     0
176
     1
290
     0
176
     1
290
     0
176
     1
290
     0
176
     1
 90
       50
176
     1
 40
0.0
176
     1
 40
1.0
176
     1
 90
        0
176
     1
 62
    18
420
        0
176
     1
 90
       50
176
     1
 90
        3
176
     1
 62
     5
420
      255
176
     1
290
     0
176
     1
 90
       50
176
     1
 90
       50
176
     1
 90
       50
176
     1
290
     0
176
     1
 90
       50
176
     1
 62
   256
176
     0
 40
1.0
176
     0
 90
        2
176
     1
  1
strokes_ogs.tif
176
     1
290
     0
176
     1
 40
1.0
176
     1
 40
1.0
176
     1
  0
VISUALSTYLE
  5
3F
102
{ACAD_REACTORS
330
29
102
}
330
29
100
AcDbVisualStyle
  2
JitterOff
 70
    20
177
     3
291
     1
 70
    58
 90
        2
176
     0
 90
        2
176
     0
 90
        0
176
     0
 90
        0
176
     0
 40
0.6
176
     0
 40
30.0
176
     0
 62
     7
420
 16777215
176
     0
 90
        1
176
     0
 90
        4
176
     0
 62
     7
176
     0
 62
   257
176
     0
 90
        1
176
     0
 90
        1
176
     0
 40
1.0
176
     0
 90
       10
176
     2
 62
     7
176
     0
 40
1.0
176
     0
 90
        1
176
     0
 90
        6
176
     0
 90
        2
176
     0
 62
     7
176
     0
 90
        5
176
     0
 90
        0
176
     0
 90
        0
176
     0
290
     0
176
     0
 90
        1
176
     0
 40
0.0
176
     0
 90
        0
176
     0
290
     0
176
     0
290
     1
176
     0
290
     1
176
     0
290
     0
176
     0
290
     0
176
     0
290
     0
176
     0
290
     0
176
     0
290
     0
176
     0
290
     0
176
     0
 90
       50
176
     0
 40
0.0
176
     0
 40
1.0
176
     0
 90
        0
176
     0
 62
    18
420
        0
176
     0
 90
       50
176
     0
 90
        3
176
     0
 62
     5
420
      255
176
     0
290
     0
176
     0
 90
       50
176
     0
 90
       50
176
     0
 90
       50
176
     0
290
     0
176
     0
 90
       50
176
     0
 62
   256
176
     0
 40
1.0
176
     0
 90
        2
176
     0
  1
strokes_ogs.tif
176
     0
290
     0
176
     0
 40
1.0
176
     0
 40
1.0
176
     0
  0
VISUALSTYLE
  5
37
102
{ACAD_REACTORS
330
29
102
}
330
29
100
AcDbVisualStyle
  2
Linepattern
 70
    14
177
     3
291
     1
 70
    58
 90
        2
176
     1
 90
        2
176
     1
 90
        0
176
     1
 90
        0
176
     1
 40
0.6
176
     1
 40
30.0
176
     1
 62
     7
420
 16777215
176
     1
 90
        1
176
     1
 90
        4
176
     1
 62
     7
176
     1
 62
   257
176
     1
 90
        7
176
     1
 90
        7
176
     1
 40
1.0
176
     1
 90
        8
176
     1
 62
     7
176
     1
 40
1.0
176
     1
 90
        1
176
     1
 90
        6
176
     1
 90
        2
176
     1
 62
     7
176
     1
 90
        5
176
     1
 90
        0
176
     1
 90
        0
176
     1
290
     0
176
     1
 90
        1
176
     1
 40
0.0
176
     1
 90
        0
176
     1
290
     0
176
     1
290
     1
176
     1
290
     1
176
     1
290
     0
176
     1
290
     0
176
     1
290
     0
176
     1
290
     0
176
     1
290
     0
176
     1
290
     0
176
     1
 90
       50
176
     1
 40
0.0
176
     1
 40
1.0
176
     1
 90
        0
176
     1
 62
    18
420
        0
176
     1
 90
       50
176
     1
 90
        3
176
     1
 62
     5
420
      255
176
     1
290
     0
176
     1
 90
       50
176
     1
 90
       50
176
     1
 90
       50
176
     1
290
     0
176
     1
 90
       50
176
     1
 62
   256
176
     0
 40
1.0
176
     0
 90
        2
176
     1
  1
strokes_ogs.tif
176
     1
290
     0
176
     1
 40
1.0
176
     1
 40
1.0
176
     1
  0
VISUALSTYLE
  5
40
102
{ACAD_REACTORS
330
29
102
}
330
29
100
AcDbVisualStyle
  2
OverhangOff
 70
    21
177
     3
291
     1
 70
    58
 90
        2
176
     0
 90
        2
176
     0
 90
        0
176
     0
 90
        0
176
     0
 40
0.6
176
     0
 40
30.0
176
     0
 62
     7
420
 16777215
176
     0
 90
        1
176
     0
 90
        4
176
     0
 62
     7
176
     0
 62
   257
176
     0
 90
        1
176
     0
 90
        1
176
     0
 40
1.0
176
     0
 90
        9
176
     2
 62
     7
176
     0
 40
1.0
176
     0
 90
        1
176
     0
 90
        6
176
     0
 90
        2
176
     0
 62
     7
176
     0
 90
        5
176
     0
 90
        0
176
     0
 90
        0
176
     0
290
     0
176
     0
 90
        1
176
     0
 40
0.0
176
     0
 90
        0
176
     0
290
     0
176
     0
290
     1
176
     0
290
     1
176
     0
290
     0
176
     0
290
     0
176
     0
290
     0
176
     0
290
     0
176
     0
290
     0
176
     0
290
     0
176
     0
 90
       50
176
     0
 40
0.0
176
     0
 40
1.0
176
     0
 90
        0
176
     0
 62
    18
420
        0
176
     0
 90
       50
176
     0
 90
        3
176
     0
 62
     5
420
      255
176
     0
290
     0
176
     0
 90
       50
176
     0
 90
       50
176
     0
 90
       50
176
     0
290
     0
176
     0
 90
       50
176
     0
 62
   256
176
     0
 40
1.0
176
     0
 90
        2
176
     0
  1
strokes_ogs.tif
176
     0
290
     0
176
     0
 40
1.0
176
     0
 40
1.0
176
     0
  0
VISUALSTYLE
  5
33
102
{ACAD_REACTORS
330
29
102
}
330
29
100
AcDbVisualStyle
  2
Realistic
 70
     8
177
     3
291
     0
 70
    58
 90
        2
176
     1
 90
        3
176
     1
 90
        0
176
     1
 90
        2
176
     1
 40
0.6
176
     1
 40
30.0
176
     1
 62
     7
420
 16777215
176
     1
 90
        0
176
     1
 90
        0
176
     1
 62
     7
176
     1
 62
   257
176
     1
 90
        1
176
     1
 90
        1
176
     1
 40
1.0
176
     1
 90
        8
176
     1
 62
   257
176
     1
 40
1.0
176
     1
 90
        1
176
     1
 90
        6
176
     1
 90
        2
176
     1
 62
     7
176
     1
 90
        3
176
     1
 90
        0
176
     1
 90
        0
176
     1
290
     0
176
     1
 90
       13
176
     1
 40
0.0
176
     1
 90
        0
176
     1
290
     0
176
     1
290
     1
176
     1
290
     1
176
     1
290
     0
176
     1
290
     0
176
     1
290
     0
176
     1
290
     0
176
     1
290
     0
176
     1
290
     0
176
     1
 90
       50
176
     1
 40
0.0
176
     1
 40
1.0
176
     1
 90
        0
176
     1
 62
    18
420
        0
176
     1
 90
       50
176
     1
 90
        3
176
     1
 62
     5
420
      255
176
     1
290
     0
176
     1
 90
       50
176
     1
 90
       50
176
     1
 90
       50
176
     1
290
     0
176
     1
 90
       50
176
     1
 62
   256
176
     0
 40
1.0
176
     0
 90
        2
176
     1
  1
strokes_ogs.tif
176
     1
290
     0
176
     1
 40
1.0
176
     1
 40
1.0
176
     1
  0
VISUALSTYLE
  5
3E
102
{ACAD_REACTORS
330
29
102
}
330
29
100
AcDbVisualStyle
  2
Shaded
 70
    27
177
     3
291
     0
 70
    58
 90
        2
176
     1
 90
        2
176
     1
 90
        1
176
     1
 90
        2
176
     1
 40
0.6
176
     1
 40
30.0
176
     1
 62
     7
420
 16777215
176
     1
 90
        0
176
     1
 90
        4
176
     1
 62
     7
176
     1
 62
   257
176
     1
 90
        1
176
     1
 90
        1
176
     1
 40
1.0
176
     1
 90
        8
176
     1
 62
   257
176
     1
 40
1.0
176
     1
 90
        1
176
     1
 90
        6
176
     1
 90
        2
176
     1
 62
     8
420
  7895160
176
     1
 90
        3
176
     1
 90
        0
176
     1
 90
        0
176
     1
290
     0
176
     1
 90
        5
176
     1
 40
0.0
176
     1
 90
        0
176
     1
290
     0
176
     1
290
     1
176
     1
290
     1
176
     1
290
     0
176
     1
290
     0
176
     1
290
     0
176
     1
290
     0
176
     1
290
     0
176
     1
290
     0
176
     1
 90
       50
176
     1
 40
0.0
176
     1
 40
1.0
176
     1
 90
        0
176
     1
 62
    18
420
        0
176
     1
 90
       50
176
     1
 90
        3
176
     1
 62
     5
420
      255
176
     1
290
     0
176
     1
 90
       50
176
     1
 90
       50
176
     1
 90
       50
176
     1
290
     0
176
     1
 90
       50
176
     1
 62
   256
176
     0
 40
1.0
176
     0
 90
        2
176
     1
  1
strokes_ogs.tif
176
     1
290
     0
176
     1
 40
1.0
176
     1
 40
1.0
176
     1
  0
VISUALSTYLE
  5
3D
102
{ACAD_REACTORS
330
29
102
}
330
29
100
AcDbVisualStyle
  2
Shaded with edges
 70
    26
177
     3
291
     0
 70
    58
 90
        2
176
     1
 90
        2
176
     1
 90
        1
176
     1
 90
        2
176
     1
 40
0.6
176
     1
 40
30.0
176
     1
 62
     7
420
 16777215
176
     1
 90
        1
176
     1
 90
        2
176
     1
 62
     7
176
     1
 62
   257
176
     1
 90
        2
176
     1
 90
        1
176
     1
 40
1.0
176
     1
 90
        8
176
     1
 62
   257
176
     1
 40
1.0
176
     1
 90
        1
176
     1
 90
        6
176
     1
 90
        2
176
     1
 62
     7
176
     1
 90
        3
176
     1
 90
        0
176
     1
 90
        0
176
     1
290
     0
176
     1
 90
        5
176
     1
 40
0.0
176
     1
 90
        0
176
     1
290
     0
176
     1
290
     1
176
     1
290
     1
176
     1
290
     0
176
     1
290
     0
176
     1
290
     0
176
     1
290
     0
176
     1
290
     0
176
     1
290
     0
176
     1
 90
       50
176
     1
 40
0.0
176
     1
 40
1.0
176
     1
 90
        0
176
     1
 62
    18
420
        0
176
     1
 90
       50
176
     1
 90
        3
176
     1
 62
     5
420
      255
176
     1
290
     0
176
     1
 90
       50
176
     1
 90
       50
176
     1
 90
       50
176
     1
290
     0
176
     1
 90
       50
176
     1
 62
   256
176
     0
 40
1.0
176
     0
 90
        2
176
     1
  1
strokes_ogs.tif
176
     1
290
     0
176
     1
 40
1.0
176
     1
 40
1.0
176
     1
  0
VISUALSTYLE
  5
3A
102
{ACAD_REACTORS
330
29
102
}
330
29
100
AcDbVisualStyle
  2
Shades of Gray
 70
    23
177
     3
291
     0
 70
    58
 90
        2
176
     1
 90
        2
176
     1
 90
        3
176
     1
 90
        0
176
     1
 40
0.6
176
     1
 40
30.0
176
     1
 62
     7
420
 16777215
176
     1
 90
        2
176
     1
 90
        2
176
     1
 62
     7
176
     1
 62
     7
176
     1
 90
        1
176
     1
 90
        1
176
     1
 40
40.0
176
     1
 90
        8
176
     1
 62
     7
176
     1
 40
1.0
176
     1
 90
        1
176
     1
 90
        6
176
     1
 90
        2
176
     1
 62
     7
176
     1
 90
        3
176
     1
 90
        0
176
     1
 90
        0
176
     1
290
     0
176
     1
 90
        1
176
     1
 40
0.0
176
     1
 90
        0
176
     1
290
     0
176
     1
290
     1
176
     1
290
     1
176
     1
290
     0
176
     1
290
     0
176
     1
290
     0
176
     1
290
     0
176
     1
290
     0
176
     1
290
     0
176
     1
 90
       50
176
     1
 40
0.0
176
     1
 40
1.0
176
     1
 90
        0
176
     1
 62
    18
420
        0
176
     1
 90
       50
176
     1
 90
        3
176
     1
 62
     5
420
      255
176
     1
290
     0
176
     1
 90
       50
176
     1
 90
       50
176
     1
 90
       50
176
     1
290
     0
176
     1
 90
       50
176
     1
 62
   256
176
     0
 40
1.0
176
     0
 90
        2
176
     1
  1
strokes_ogs.tif
176
     1
290
     0
176
     1
 40
1.0
176
     1
 40
1.0
176
     1
  0
VISUALSTYLE
  5
3B
102
{ACAD_REACTORS
330
29
102
}
330
29
100
AcDbVisualStyle
  2
Sketchy
 70
    24
177
     3
291
     0
 70
    58
 90
        1
176
     1
 90
        2
176
     1
 90
        2
176
     1
 90
        0
176
     1
 40
0.6
176
     1
 40
30.0
176
     1
 62
     7
420
 16777215
176
     1
 90
        2
176
     1
 90
        2
176
     1
 62
     7
176
     1
 62
     7
176
     1
 90
        1
176
     1
 90
        1
176
     1
 40
40.0
176
     1
 90
       11
176
     1
 62
     7
176
     1
 40
1.0
176
     1
 90
        1
176
     1
 90
        6
176
     1
 90
        2
176
     1
 62
     7
176
     1
 90
        6
176
     1
 90
        0
176
     1
 90
        0
176
     1
290
     0
176
     1
 90
        1
176
     1
 40
0.0
176
     1
 90
        0
176
     1
290
     0
176
     1
290
     1
176
     1
290
     1
176
     1
290
     0
176
     1
290
     0
176
     1
290
     0
176
     1
290
     0
176
     1
290
     0
176
     1
290
     0
176
     1
 90
       50
176
     1
 40
0.0
176
     1
 40
1.0
176
     1
 90
        0
176
     1
 62
    18
420
        0
176
     1
 90
       50
176
     1
 90
        3
176
     1
 62
     5
420
      255
176
     1
290
     0
176
     1
 90
       50
176
     1
 90
       50
176
     1
 90
       50
176
     1
290
     0
176
     1
 90
       50
176
     1
 62
   256
176
     0
 40
1.0
176
     0
 90
        2
176
     1
  1
strokes_ogs.tif
176
     1
290
     0
176
     1
 40
1.0
176
     1
 40
1.0
176
     1
  0
VISUALSTYLE
  5
36
102
{ACAD_REACTORS
330
29
102
}
330
29
100
AcDbVisualStyle
  2
Thicken
 70
    13
177
     3
291
     1
 70
    58
 90
        2
176
     1
 90
        2
176
     1
 90
        0
176
     1
 90
        0
176
     1
 40
0.6
176
     1
 40
30.0
176
     1
 62
     7
420
 16777215
176
     1
 90
        1
176
     1
 90
        4
176
     1
 62
     7
176
     1
 62
   257
176
     1
 90
        1
176
     1
 90
        1
176
     1
 40
1.0
176
     1
 90
       12
176
     1
 62
     7
176
     1
 40
1.0
176
     1
 90
        1
176
     1
 90
        6
176
     1
 90
        2
176
     1
 62
     7
176
     1
 90
        5
176
     1
 90
        0
176
     1
 90
        0
176
     1
290
     0
176
     1
 90
        1
176
     1
 40
0.0
176
     1
 90
        0
176
     1
290
     0
176
     1
290
     1
176
     1
290
     1
176
     1
290
     0
176
     1
290
     0
176
     1
290
     0
176
     1
290
     0
176
     1
290
     0
176
     1
290
     0
176
     1
 90
       50
176
     1
 40
0.0
176
     1
 40
1.0
176
     1
 90
        0
176
     1
 62
    18
420
        0
176
     1
 90
       50
176
     1
 90
        3
176
     1
 62
     5
420
      255
176
     1
290
     0
176
     1
 90
       50
176
     1
 90
       50
176
     1
 90
       50
176
     1
290
     0
176
     1
 90
       50
176
     1
 62
   256
176
     0
 40
1.0
176
     0
 90
        2
176
     1
  1
strokes_ogs.tif
176
     1
290
     0
176
     1
 40
1.0
176
     1
 40
1.0
176
     1
  0
VISUALSTYLE
  5
30
102
{ACAD_REACTORS
330
29
102
}
330
29
100
AcDbVisualStyle
  2
Wireframe
 70
     5
177
     3
291
     0
 70
    58
 90
        0
176
     1
 90
        2
176
     1
 90
        0
176
     1
 90
        0
176
     1
 40
0.6
176
     1
 40
30.0
176
     1
 62
     7
420
 16777215
176
     1
 90
        1
176
     1
 90
        4
176
     1
 62
     7
176
     1
 62
   257
176
     1
 90
        1
176
     1
 90
        1
176
     1
 40
1.0
176
     1
 90
        0
176
     1
 62
   257
176
     1
 40
1.0
176
     1
 90
        1
176
     1
 90
        6
176
     1
 90
        2
176
     1
 62
     7
176
     1
 90
        3
176
     1
 90
        0
176
     1
 90
        0
176
     1
290
     0
176
     1
 90
        1
176
     1
 40
0.0
176
     1
 90
        0
176
     1
290
     0
176
     1
290
     1
176
     1
290
     1
176
     1
290
     0
176
     1
290
     0
176
     1
290
     0
176
     1
290
     0
176
     1
290
     0
176
     1
290
     0
176
     1
 90
       50
176
     1
 40
0.0
176
     1
 40
1.0
176
     1
 90
        0
176
     1
 62
    18
420
        0
176
     1
 90
       50
176
     1
 90
        3
176
     1
 62
     5
420
      255
176
     1
290
     0
176
     1
 90
       50
176
     1
 90
       50
176
     1
 90
       50
176
     1
290
     0
176
     1
 90
       50
176
     1
 62
   256
176
     0
 40
1.0
176
     0
 90
        2
176
     1
  1
strokes_ogs.tif
176
     1
290
     0
176
     1
 40
1.0
176
     1
 40
1.0
176
     1
  0
VISUALSTYLE
  5
3C
102
{ACAD_REACTORS
330
29
102
}
330
29
100
AcDbVisualStyle
  2
X-Ray
 70
    25
177
     3
291
     0
 70
    58
 90
        2
176
     1
 90
        2
176
     1
 90
        1
176
     1
 90
        1
176
     1
 40
0.5
176
     1
 40
30.0
176
     1
 62
     7
420
 16777215
176
     1
 90
        1
176
     1
 90
        0
176
     1
 62
     7
176
     1
 62
   257
176
     1
 90
        1
176
     1
 90
        1
176
     1
 40
1.0
176
     1
 90
        8
176
     1
 62
     7
176
     1
 40
1.0
176
     1
 90
        1
176
     1
 90
        6
176
     1
 90
        2
176
     1
 62
     7
176
     1
 90
        3
176
     1
 90
        0
176
     1
 90
        0
176
     1
290
     0
176
     1
 90
       13
176
     1
 40
0.0
176
     1
 90
        0
176
     1
290
     0
176
     1
290
     1
176
     1
290
     1
176
     1
290
     0
176
     1
290
     0
176
     1
290
     0
176
     1
290
     0
176
     1
290
     0
176
     1
290
     0
176
     1
 90
       50
176
     1
 40
0.0
176
     1
 40
1.0
176
     1
 90
        0
176
     1
 62
    18
420
        0
176
     1
 90
       50
176
     1
 90
        3
176
     1
 62
     5
420
      255
176
     1
290
     0
176
     1
 90
       50
176
     1
 90
       50
176
     1
 90
       50
176
     1
290
     0
176
     1
 90
       50
176
     1
 62
   256
176
     0
 40
1.0
176
     0
 90
        2
176
     1
  1
strokes_ogs.tif
176
     1
290
     0
176
     1
 40
1.0
176
     1
 40
1.0
176
     1
  0
DICTIONARYVAR
  5
1A5
102
{ACAD_REACTORS
330
1A0
102
}
330
1A0
100
DictionaryVariables
280
     0
  1
1:1
  0
DICTIONARYVAR
  5
1A2
102
{ACAD_REACTORS
330
1A0
102
}
330
1A0
100
DictionaryVariables
280
     0
  1
STANDARD
  0
DICTIONARYVAR
  5
1A1
102
{ACAD_REACTORS
330
1A0
102
}
330
1A0
100
DictionaryVariables
280
     0
  1
STANDARD
  0
DICTIONARYVAR
  5
1A3
102
{ACAD_REACTORS
330
1A0
102
}
330
1A0
100
DictionaryVariables
280
     0
  1
Imperial24
  0
DICTIONARYVAR
  5
1A4
102
{ACAD_REACTORS
330
1A0
102
}
330
1A0
100
DictionaryVariables
280
     0
  1
Imperial24
  0
DICTIONARY
  5
1A
330
19
100
AcDbDictionary
280
     1
281
     1
  3
BUMPTILE
360
1C
  3
DIFFUSETILE
360
1B
  3
OPACITYTILE
360
1F
  3
REFLECTIONTILE
360
1E
  3
REFRACTIONTILE
360
20
  3
SPECULARTILE
360
1D
  0
DICTIONARY
  5
12
330
11
100
AcDbDictionary
280
     1
281
     1
  3
BUMPTILE
360
14
  3
DIFFUSETILE
360
13
  3
OPACITYTILE
360
17
  3
REFLECTIONTILE
360
16
  3
REFRACTIONTILE
360
18
  3
SPECULARTILE
360
15
  0
DICTIONARY
  5
22
330
21
100
AcDbDictionary
280
     1
281
     1
  3
BUMPTILE
360
24
  3
DIFFUSETILE
360
23
  3
OPACITYTILE
360
27
  3
REFLECTIONTILE
360
26
  3
REFRACTIONTILE
360
28
  3
SPECULARTILE
360
25
  0
DICTIONARY
  5
1A6
330
65
100
AcDbDictionary
280
     1
281
     1
  3
ACAD_ROUNDTRIP_2008_TABLESTYLE_CELLSTYLEMAP
360
1A7
  0
XRECORD
  5
1C
102
{ACAD_REACTORS
330
1A
102
}
330
1A
100
AcDbXrecord
280
     1
270
     1
271
     1
  0
XRECORD
  5
1B
102
{ACAD_REACTORS
330
1A
102
}
330
1A
100
AcDbXrecord
280
     1
270
     1
271
     1
  0
XRECORD
  5
1F
102
{ACAD_REACTORS
330
1A
102
}
330
1A
100
AcDbXrecord
280
     1
270
     1
271
     1
  0
XRECORD
  5
1E
102
{ACAD_REACTORS
330
1A
102
}
330
1A
100
AcDbXrecord
280
     1
270
     1
271
     1
  0
XRECORD
  5
20
102
{ACAD_REACTORS
330
1A
102
}
330
1A
100
AcDbXrecord
280
     1
270
     1
271
     1
  0
XRECORD
  5
1D
102
{ACAD_REACTORS
330
1A
102
}
330
1A
100
AcDbXrecord
280
     1
270
     1
271
     1
  0
XRECORD
  5
14
102
{ACAD_REACTORS
330
12
102
}
330
12
100
AcDbXrecord
280
     1
270
     1
271
     1
  0
XRECORD
  5
13
102
{ACAD_REACTORS
330
12
102
}
330
12
100
AcDbXrecord
280
     1
270
     1
271
     1
  0
XRECORD
  5
17
102
{ACAD_REACTORS
330
12
102
}
330
12
100
AcDbXrecord
280
     1
270
     1
271
     1
  0
XRECORD
  5
16
102
{ACAD_REACTORS
330
12
102
}
330
12
100
AcDbXrecord
280
     1
270
     1
271
     1
  0
XRECORD
  5
18
102
{ACAD_REACTORS
330
12
102
}
330
12
100
AcDbXrecord
280
     1
270
     1
271
     1
  0
XRECORD
  5
15
102
{ACAD_REACTORS
330
12
102
}
330
12
100
AcDbXrecord
280
     1
270
     1
271
     1
  0
XRECORD
  5
24
102
{ACAD_REACTORS
330
22
102
}
330
22
100
AcDbXrecord
280
     1
270
     1
271
     1
  0
XRECORD
  5
23
102
{ACAD_REACTORS
330
22
102
}
330
22
100
AcDbXrecord
280
     1
270
     1
271
     1
  0
XRECORD
  5
27
102
{ACAD_REACTORS
330
22
102
}
330
22
100
AcDbXrecord
280
     1
270
     1
271
     1
  0
XRECORD
  5
26
102
{ACAD_REACTORS
330
22
102
}
330
22
100
AcDbXrecord
280
     1
270
     1
271
     1
  0
XRECORD
  5
28
102
{ACAD_REACTORS
330
22
102
}
330
22
100
AcDbXrecord
280
     1
270
     1
271
     1
  0
XRECORD
  5
25
102
{ACAD_REACTORS
330
22
102
}
330
22
100
AcDbXrecord
280
     1
270
     1
271
     1
  0
CELLSTYLEMAP
  5
1A7
102
{ACAD_REACTORS
330
1A6
102
}
330
1A6
100
AcDbCellStyleMap
 90
        3
300
CELLSTYLE
  1
TABLEFORMAT_BEGIN
 90
        5
170
     1
 91
        0
 92
    32768
 62
   257
 93
        1
300
CONTENTFORMAT
  1
CONTENTFORMAT_BEGIN
 90
        0
 91
        0
 92
      512
 93
        0
300

 40
0.0
140
1.0
 94
        5
 62
     0
340
55
144
0.25
309
CONTENTFORMAT_END
171
     0
 94
        0
309
TABLEFORMAT_END
  1
CELLSTYLE_BEGIN
 90
        1
 91
        1
300
_TITLE
309
CELLSTYLE_END
300
CELLSTYLE
  1
TABLEFORMAT_BEGIN
 90
        5
170
     1
 91
        0
 92
        0
 62
   257
 93
        1
300
CONTENTFORMAT
  1
CONTENTFORMAT_BEGIN
 90
        0
 91
        0
 92
      512
 93
        0
300

 40
0.0
140
1.0
 94
        5
 62
     0
340
55
144
0.18
309
CONTENTFORMAT_END
171
     0
 94
        0
309
TABLEFORMAT_END
  1
CELLSTYLE_BEGIN
 90
        2
 91
        1
300
_HEADER
309
CELLSTYLE_END
300
CELLSTYLE
  1
TABLEFORMAT_BEGIN
 90
        5
170
     1
 91
        0
 92
        0
 62
   257
 93
        1
300
CONTENTFORMAT
  1
CONTENTFORMAT_BEGIN
 90
        0
 91
        0
 92
      512
 93
        0
300

 40
0.0
140
1.0
 94
        2
 62
     0
340
55
144
0.18
309
CONTENTFORMAT_END
171
     0
 94
        0
309
TABLEFORMAT_END
  1
CELLSTYLE_BEGIN
 90
        3
 91
        2
300
_DATA
309
CELLSTYLE_END
  0
ENDSEC
  0
EOF
