  0
SECTION
  2
HEADER
  9
$ACADVER
  1
AC1032
  9
$ACADMAINTVER
 90
      251
  9
$DWGCODEPAGE
  3
ANSI_1252
  9
$REQUIREDVERSIONS
160
                 0
  9
$INSBASE
 10
0.0
 20
0.0
 30
0.0
  9
$EXTMIN
 10
1.000000000000000E+20
 20
1.000000000000000E+20
 30
1.000000000000000E+20
  9
$EXTMAX
 10
-1.000000000000000E+20
 20
-1.000000000000000E+20
 30
-1.000000000000000E+20
  9
$LIMMIN
 10
0.0
 20
0.0
  9
$LIMMAX
 10
12.0
 20
9.0
  9
$ORTHOMODE
 70
     0
  9
$REGENMODE
 70
     1
  9
$FILLMODE
 70
     1
  9
$QTEXTMODE
 70
     0
  9
$MIRRTEXT
 70
     0
  9
$LTSCALE
 40
1.0
  9
$ATTMODE
 70
     1
  9
$TEXTSIZE
 40
0.2
  9
$TRACEWID
 40
0.05
  9
$TEXTSTYLE
  7
Standard
  9
$CLAYER
  8
0
  9
$CELTYPE
  6
ByLayer
  9
$CECOLOR
 62
   256
  9
$CELTSCALE
 40
1.0
  9
$DISPSILH
 70
     0
  9
$DIMSCALE
 40
1.0
  9
$DIMASZ
 40
0.18
  9
$DIMEXO
 40
0.0625
  9
$DIMDLI
 40
0.38
  9
$DIMRND
 40
0.0
  9
$DIMDLE
 40
0.0
  9
$DIMEXE
 40
0.18
  9
$DIMTP
 40
0.0
  9
$DIMTM
 40
0.0
  9
$DIMTXT
 40
0.18
  9
$DIMCEN
 40
0.09
  9
$DIMTSZ
 40
0.0
  9
$DIMTOL
 70
     0
  9
$DIMLIM
 70
     0
  9
$DIMTIH
 70
     1
  9
$DIMTOH
 70
     1
  9
$DIMSE1
 70
     0
  9
$DIMSE2
 70
     0
  9
$DIMTAD
 70
     0
  9
$DIMZIN
 70
     0
  9
$DIMBLK
  1

  9
$DIMASO
 70
     1
  9
$DIMSHO
 70
     1
  9
$DIMPOST
  1

  9
$DIMAPOST
  1

  9
$DIMALT
 70
     0
  9
$DIMALTD
 70
     2
  9
$DIMALTF
 40
25.4
  9
$DIMLFAC
 40
1.0
  9
$DIMTOFL
 70
     0
  9
$DIMTVP
 40
0.0
  9
$DIMTIX
 70
     0
  9
$DIMSOXD
 70
     0
  9
$DIMSAH
 70
     0
  9
$DIMBLK1
  1

  9
$DIMBLK2
  1

  9
$DIMSTYLE
  2
Standard
  9
$DIMCLRD
 70
     0
  9
$DIMCLRE
 70
     0
  9
$DIMCLRT
 70
     0
  9
$DIMTFAC
 40
1.0
  9
$DIMGAP
 40
0.09
  9
$DIMJUST
 70
     0
  9
$DIMSD1
 70
     0
  9
$DIMSD2
 70
     0
  9
$DIMTOLJ
 70
     1
  9
$DIMTZIN
 70
     0
  9
$DIMALTZ
 70
     0
  9
$DIMALTTZ
 70
     0
  9
$DIMUPT
 70
     0
  9
$DIMDEC
 70
     4
  9
$DIMTDEC
 70
     4
  9
$DIMALTU
 70
     2
  9
$DIMALTTD
 70
     2
  9
$DIMTXSTY
  7
Standard
  9
$DIMAUNIT
 70
     0
  9
$DIMADEC
 70
     0
  9
$DIMALTRND
 40
0.0
  9
$DIMAZIN
 70
     0
  9
$DIMDSEP
 70
    46
  9
$DIMATFIT
 70
     3
  9
$DIMFRAC
 70
     0
  9
$DIMLDRBLK
  1

  9
$DIMLUNIT
 70
     2
  9
$DIMLWD
 70
    -2
  9
$DIMLWE
 70
    -2
  9
$DIMTMOVE
 70
     0
  9
$DIMFXL
 40
1.0
  9
$DIMFXLON
 70
     0
  9
$DIMJOGANG
 40
0.7853981633974483
  9
$DIMTFILL
 70
     0
  9
$DIMTFILLCLR
 70
     0
  9
$DIMARCSYM
 70
     0
  9
$DIMLTYPE
  6

  9
$DIMLTEX1
  6

  9
$DIMLTEX2
  6

  9
$DIMTXTDIRECTION
 70
     0
  9
$LUNITS
 70
     2
  9
$LUPREC
 70
     4
  9
$SKETCHINC
 40
0.1
  9
$FILLETRAD
 40
0.0
  9
$AUNITS
 70
     0
  9
$AUPREC
 70
     0
  9
$MENU
  1
.
  9
$ELEVATION
 40
0.0
  9
$PELEVATION
 40
0.0
  9
$THICKNESS
 40
0.0
  9
$LIMCHECK
 70
     0
  9
$CHAMFERA
 40
0.0
  9
$CHAMFERB
 40
0.0
  9
$CHAMFERC
 40
0.0
  9
$CHAMFERD
 40
0.0
  9
$SKPOLY
 70
     0
  9
$TDCREATE
 40
2460035.483194444
  9
$TDUCREATE
 40
2460035.399861112
  9
$TDUPDATE
 40
2460035.483194444
  9
$TDUUPDATE
 40
2460035.399861112
  9
$TDINDWG
 40
0.0000000000
  9
$TDUSRTIMER
 40
0.0000000000
  9
$USRTIMER
 70
     1
  9
$ANGBASE
 50
0.0
  9
$ANGDIR
 70
     0
  9
$PDMODE
 70
     0
  9
$PDSIZE
 40
0.0
  9
$PLINEWID
 40
0.0
  9
$SPLFRAME
 70
     0
  9
$SPLINETYPE
 70
     6
  9
$SPLINESEGS
 70
     8
  9
$HANDSEED
  5
33F
  9
$SURFTAB1
 70
     6
  9
$SURFTAB2
 70
     6
  9
$SURFTYPE
 70
     6
  9
$SURFU
 70
     6
  9
$SURFV
 70
     6
  9
$UCSBASE
  2

  9
$UCSNAME
  2

  9
$UCSORG
 10
0.0
 20
0.0
 30
0.0
  9
$UCSXDIR
 10
1.0
 20
0.0
 30
0.0
  9
$UCSYDIR
 10
0.0
 20
1.0
 30
0.0
  9
$UCSORTHOREF
  2

  9
$UCSORTHOVIEW
 70
     0
  9
$UCSORGTOP
 10
0.0
 20
0.0
 30
0.0
  9
$UCSORGBOTTOM
 10
0.0
 20
0.0
 30
0.0
  9
$UCSORGLEFT
 10
0.0
 20
0.0
 30
0.0
  9
$UCSORGRIGHT
 10
0.0
 20
0.0
 30
0.0
  9
$UCSORGFRONT
 10
0.0
 20
0.0
 30
0.0
  9
$UCSORGBACK
 10
0.0
 20
0.0
 30
0.0
  9
$PUCSBASE
  2

  9
$PUCSNAME
  2

  9
$PUCSORG
 10
0.0
 20
0.0
 30
0.0
  9
$PUCSXDIR
 10
1.0
 20
0.0
 30
0.0
  9
$PUCSYDIR
 10
0.0
 20
1.0
 30
0.0
  9
$PUCSORTHOREF
  2

  9
$PUCSORTHOVIEW
 70
     0
  9
$PUCSORGTOP
 10
0.0
 20
0.0
 30
0.0
  9
$PUCSORGBOTTOM
 10
0.0
 20
0.0
 30
0.0
  9
$PUCSORGLEFT
 10
0.0
 20
0.0
 30
0.0
  9
$PUCSORGRIGHT
 10
0.0
 20
0.0
 30
0.0
  9
$PUCSORGFRONT
 10
0.0
 20
0.0
 30
0.0
  9
$PUCSORGBACK
 10
0.0
 20
0.0
 30
0.0
  9
$USERI1
 70
     0
  9
$USERI2
 70
     0
  9
$USERI3
 70
     0
  9
$USERI4
 70
     0
  9
$USERI5
 70
     0
  9
$USERR1
 40
0.0
  9
$USERR2
 40
0.0
  9
$USERR3
 40
0.0
  9
$USERR4
 40
0.0
  9
$USERR5
 40
0.0
  9
$WORLDVIEW
 70
     1
  9
$SHADEDGE
 70
     3
  9
$SHADEDIF
 70
    70
  9
$TILEMODE
 70
     1
  9
$MAXACTVP
 70
    64
  9
$PINSBASE
 10
0.0
 20
0.0
 30
0.0
  9
$PLIMCHECK
 70
     0
  9
$PEXTMIN
 10
1.000000000000000E+20
 20
1.000000000000000E+20
 30
1.000000000000000E+20
  9
$PEXTMAX
 10
-1.000000000000000E+20
 20
-1.000000000000000E+20
 30
-1.000000000000000E+20
  9
$PLIMMIN
 10
0.0
 20
0.0
  9
$PLIMMAX
 10
12.0
 20
9.0
  9
$UNITMODE
 70
     0
  9
$VISRETAIN
 70
     1
  9
$PLINEGEN
 70
     0
  9
$PSLTSCALE
 70
     1
  9
$TREEDEPTH
 70
  3020
  9
$CMLSTYLE
  2
Standard
  9
$CMLJUST
 70
     0
  9
$CMLSCALE
 40
1.0
  9
$PROXYGRAPHICS
 70
     1
  9
$MEASUREMENT
 70
     0
  9
$CELWEIGHT
370
    -1
  9
$ENDCAPS
280
     0
  9
$JOINSTYLE
280
     0
  9
$LWDISPLAY
290
     1
  9
$INSUNITS
 70
     4
  9
$HYPERLINKBASE
  1

  9
$STYLESHEET
  1

  9
$XEDIT
290
     1
  9
$CEPSNTYPE
380
     0
  9
$PSTYLEMODE
290
     1
  9
$FINGERPRINTGUID
  2
{11B4EE87-8F06-EF43-8EE4-88917BB70F52}
  9
$VERSIONGUID
  2
{FBA74D56-C038-4D45-8DC4-B5DF6E5E6B51}
  9
$EXTNAMES
290
     1
  9
$PSVPSCALE
 40
0.0
  9
$OLESTARTUP
290
     0
  9
$SORTENTS
280
   127
  9
$INDEXCTL
280
     0
  9
$HIDETEXT
280
     1
  9
$XCLIPFRAME
280
     2
  9
$HALOGAP
280
     0
  9
$OBSCOLOR
 70
   257
  9
$OBSLTYPE
280
     0
  9
$INTERSECTIONDISPLAY
280
     0
  9
$INTERSECTIONCOLOR
 70
   257
  9
$DIMASSOC
280
     2
  9
$PROJECTNAME
  1

  9
$CAMERADISPLAY
290
     0
  9
$LENSLENGTH
 40
50.0
  9
$CAMERAHEIGHT
 40
0.0
  9
$STEPSPERSEC
 40
2.0
  9
$STEPSIZE
 40
6.0
  9
$3DDWFPREC
 40
2.0
  9
$PSOLWIDTH
 40
0.25
  9
$PSOLHEIGHT
 40
4.0
  9
$LOFTANG1
 40
1.570796326794896
  9
$LOFTANG2
 40
1.570796326794896
  9
$LOFTMAG1
 40
0.0
  9
$LOFTMAG2
 40
0.0
  9
$LOFTPARAM
 70
     7
  9
$LOFTNORMALS
280
     1
  9
$LATITUDE
 40
37.795
  9
$LONGITUDE
 40
-122.394
  9
$NORTHDIRECTION
 40
0.0
  9
$TIMEZONE
 70
 -8000
  9
$LIGHTGLYPHDISPLAY
280
     1
  9
$TILEMODELIGHTSYNCH
280
     1
  9
$CMATERIAL
347
11
  9
$SOLIDHIST
280
     0
  9
$SHOWHIST
280
     1
  9
$DWFFRAME
280
     2
  9
$DGNFRAME
280
     0
  9
$REALWORLDSCALE
290
     1
  9
$INTERFERECOLOR
 62
     1
  9
$INTERFEREOBJVS
345
33
  9
$INTERFEREVPVS
346
30
  9
$CSHADOW
280
     0
  9
$SHADOWPLANELOCATION
 40
0.0
  0
ENDSEC
  0
SECTION
  2
CLASSES
  0
CLASS
  1
ACDBDICTIONARYWDFLT
  2
AcDbDictionaryWithDefault
  3
ObjectDBX Classes
 90
        0
 91
        1
280
     0
281
     0
  0
CLASS
  1
MATERIAL
  2
AcDbMaterial
  3
ObjectDBX Classes
 90
     1153
 91
        3
280
     0
281
     0
  0
CLASS
  1
VISUALSTYLE
  2
AcDbVisualStyle
  3
ObjectDBX Classes
 90
     4095
 91
       24
280
     0
281
     0
  0
CLASS
  1
SCALE
  2
AcDbScale
  3
ObjectDBX Classes
 90
     1153
 91
       17
280
     0
281
     0
  0
CLASS
  1
TABLESTYLE
  2
AcDbTableStyle
  3
ObjectDBX Classes
 90
     4095
 91
        1
280
     0
281
     0
  0
CLASS
  1
MLEADERSTYLE
  2
AcDbMLeaderStyle
  3
ACDB_MLEADERSTYLE_CLASS
 90
     4095
 91
        1
280
     0
281
     0
  0
CLASS
  1
ACDBSECTIONVIEWSTYLE
  2
AcDbSectionViewStyle
  3
ObjectDBX Classes
 90
     1025
 91
        1
280
     0
281
     0
  0
CLASS
  1
ACDBDETAILVIEWSTYLE
  2
AcDbDetailViewStyle
  3
ObjectDBX Classes
 90
     1025
 91
        1
280
     0
281
     0
  0
CLASS
  1
DICTIONARYVAR
  2
AcDbDictionaryVar
  3
ObjectDBX Classes
 90
        0
 91
        5
280
     0
281
     0
  0
CLASS
  1
CELLSTYLEMAP
  2
AcDbCellStyleMap
  3
ObjectDBX Classes
 90
     1152
 91
        1
280
     0
281
     0
  0
ENDSEC
  0
SECTION
  2
TABLES
  0
TABLE
  2
VPORT
  5
8
330
0
100
AcDbSymbolTable
 70
     1
  0
VPORT
  5
57
330
8
100
AcDbSymbolTableRecord
100
AcDbViewportTableRecord
  2
*Active
 70
     0
 10
0.0
 20
0.0
 11
1.0
 21
1.0
 12
0.0
 22
0.0
 13
0.0
 23
0.0
 14
1.0
 24
1.0
 15
0.0
 25
0.0
 16
0.0
 26
0.0
 36
1.0
 17
104.9999999737499
 27
31.49999999212523
 37
0.0
 40
302.9399999242649
 41
0.7070707070707066
 42
50.0
 43
0.0
 44
0.0
 50
0.0
 51
0.0
 71
     0
 72
   100
 73
     1
 74
     1
 75
     0
 76
     0
 77
     0
 78
     0
281
     0
 65
     1
110
0.0
120
0.0
130
0.0
111
1.0
121
0.0
131
0.0
112
0.0
122
1.0
132
0.0
 79
     0
146
0.0
 60
     3
 61
     5
292
     1
282
     1
141
0.0
142
0.0
 63
   250
421
  3355443
  0
ENDTAB
  0
TABLE
  2
LTYPE
  5
5
330
0
100
AcDbSymbolTable
 70
     1
  0
LTYPE
  5
5B
330
5
100
AcDbSymbolTableRecord
100
AcDbLinetypeTableRecord
  2
ByBlock
 70
     0
  3

 72
    65
 73
     0
 40
0.0
  0
LTYPE
  5
5C
330
5
100
AcDbSymbolTableRecord
100
AcDbLinetypeTableRecord
  2
ByLayer
 70
     0
  3

 72
    65
 73
     0
 40
0.0
  0
LTYPE
  5
5D
330
5
100
AcDbSymbolTableRecord
100
AcDbLinetypeTableRecord
  2
Continuous
 70
     0
  3
Solid line
 72
    65
 73
     0
 40
0.0
  0
ENDTAB
  0
TABLE
  2
LAYER
  5
2
330
0
100
AcDbSymbolTable
 70
     2
  0
LAYER
  5
54
330
2
100
AcDbSymbolTableRecord
100
AcDbLayerTableRecord
  2
0
 70
     0
 62
     7
  6
Continuous
370
     0
390
F
347
21
348
0
  0
LAYER
  5
311
330
2
100
AcDbSymbolTableRecord
100
AcDbLayerTableRecord
  2
CAPA_BASE
 70
     0
 62
     7
  6
Continuous
370
     0
390
F
347
21
348
0
  0
ENDTAB
  0
TABLE
  2
STYLE
  5
3
330
0
100
AcDbSymbolTable
 70
     2
  0
STYLE
  5
55
330
3
100
AcDbSymbolTableRecord
100
AcDbTextStyleTableRecord
  2
Standard
 70
     0
 40
0.0
 41
1.0
 50
0.0
 71
     0
 42
0.2
  3
txt
  4

  0
STYLE
  5
5A
330
3
100
AcDbSymbolTableRecord
100
AcDbTextStyleTableRecord
  2
Annotative
 70
     0
 40
0.0
 41
1.0
 50
0.0
 71
     0
 42
0.2
  3
txt
  4

1001
AcadAnnotative
1000
AnnotativeData
1002
{
1070
     1
1070
     1
1002
}
  0
ENDTAB
  0
TABLE
  2
VIEW
  5
6
330
0
100
AcDbSymbolTable
 70
     0
  0
ENDTAB
  0
TABLE
  2
UCS
  5
7
330
0
100
AcDbSymbolTable
 70
     0
  0
ENDTAB
  0
TABLE
  2
APPID
  5
9
330
0
100
AcDbSymbolTable
 70
     2
  0
APPID
  5
56
330
9
100
AcDbSymbolTableRecord
100
AcDbRegAppTableRecord
  2
ACAD
 70
     0
  0
APPID
  5
5E
330
9
100
AcDbSymbolTableRecord
100
AcDbRegAppTableRecord
  2
AcadAnnotative
 70
     0
  0
ENDTAB
  0
TABLE
  2
DIMSTYLE
  5
A
330
0
100
AcDbSymbolTable
 70
     2
100
AcDbDimStyleTable
 71
     0
  0
DIMSTYLE
105
58
330
A
100
AcDbSymbolTableRecord
100
AcDbDimStyleTableRecord
  2
Standard
 70
     0
340
55
  0
DIMSTYLE
105
59
330
A
100
AcDbSymbolTableRecord
100
AcDbDimStyleTableRecord
  2
Annotative
 70
     0
340
55
1001
AcadAnnotative
1000
AnnotativeData
1002
{
1070
     1
1070
     1
1002
}
  0
ENDTAB
  0
TABLE
  2
BLOCK_RECORD
  5
1
330
0
100
AcDbSymbolTable
 70
     4
  0
BLOCK_RECORD
  5
70
330
1
100
AcDbSymbolTableRecord
100
AcDbBlockTableRecord
  2
*Model_Space
340
73
 70
     0
280
     1
281
     0
  0
BLOCK_RECORD
  5
6C
330
1
100
AcDbSymbolTableRecord
100
AcDbBlockTableRecord
  2
*Paper_Space
340
6F
 70
     0
280
     1
281
     0
  0
BLOCK_RECORD
  5
74
330
1
100
AcDbSymbolTableRecord
100
AcDbBlockTableRecord
  2
*Paper_Space0
340
77
 70
     0
280
     1
281
     0
  0
BLOCK_RECORD
  5
312
330
1
100
AcDbSymbolTableRecord
100
AcDbBlockTableRecord
  2
Block_0
340
0
102
{BLKREFS
331
313
102
}
 70
     0
280
     1
281
     0
  0
BLOCK_RECORD
  5
31E
330
1
100
AcDbSymbolTableRecord
100
AcDbBlockTableRecord
  2
Block_1
340
0
102
{BLKREFS
331
31F
102
}
 70
     0
280
     1
281
     0
  0
BLOCK_RECORD
  5
32A
330
1
100
AcDbSymbolTableRecord
100
AcDbBlockTableRecord
  2
Block_2
340
0
102
{BLKREFS
331
32B
102
}
 70
     0
280
     1
281
     0
  0
ENDTAB
  0
ENDSEC
  0
SECTION
  2
BLOCKS
  0
BLOCK
  5
71
330
70
100
AcDbEntity
  8
0
100
AcDbBlockBegin
  2
*Model_Space
 70
     0
 10
0.0
 20
0.0
 30
0.0
  3
*Model_Space
  1

  0
ENDBLK
  5
72
330
70
100
AcDbEntity
  8
0
100
AcDbBlockEnd
  0
BLOCK
  5
6D
330
6C
100
AcDbEntity
 67
     1
  8
0
100
AcDbBlockBegin
  2
*Paper_Space
 70
     0
 10
0.0
 20
0.0
 30
0.0
  3
*Paper_Space
  1

  0
ENDBLK
  5
6E
330
6C
100
AcDbEntity
 67
     1
  8
0
100
AcDbBlockEnd
  0
BLOCK
  5
75
330
74
100
AcDbEntity
 67
     1
  8
0
100
AcDbBlockBegin
  2
*Paper_Space0
 70
     0
 10
0.0
 20
0.0
 30
0.0
  3
*Paper_Space0
  1

  0
ENDBLK
  5
76
330
74
100
AcDbEntity
 67
     1
  8
0
100
AcDbBlockEnd
  0
BLOCK
  5
314
330
312
100
AcDbEntity
  8
0
100
AcDbBlockBegin
  2
Block_0
 70
     0
 10
0.0
 20
0.0
 30
0.0
  3
Block_0
  1

  0
LWPOLYLINE
  5
316
330
312
100
AcDbEntity
  8
CAPA_BASE
100
AcDbPolyline
 90
        4
 70
     1
 43
0.0
 10
113.6077944484284
 20
89.30359169973701
 10
111.1077944484279
 20
89.61359169973738
 10
111.1077944484279
 20
88.99359169973665
 10
111.1077944484279
 20
88.99359169973665
  0
HATCH
  5
317
330
312
100
AcDbEntity
  8
CAPA_BASE
 62
    18
420
        0
440
 33554687
100
AcDbHatch
 10
0.0
 20
0.0
 30
0.0
210
0.0
220
0.0
230
1.0
  2
SOLID
 70
     1
 71
     1
 91
        1
 92
        1
 93
        3
 72
     1
 10
113.6077944484284
 20
89.30359169973701
 11
111.1077944484279
 21
89.61359169973738
 72
     1
 10
111.1077944484279
 20
89.61359169973738
 11
111.1077944484279
 21
88.99359169973665
 72
     1
 10
111.1077944484279
 20
88.99359169973665
 11
113.6077944484284
 21
89.30359169973701
 97
        1
330
316
 75
     2
 76
     1
 98
        1
 10
0.0
 20
0.0
450
        0
451
        0
460
0.0
461
0.0
452
        0
462
0.0
453
        0
470

  0
LWPOLYLINE
  5
318
330
312
100
AcDbEntity
  8
CAPA_BASE
100
AcDbPolyline
 90
        4
 70
     1
 43
0.0
 10
13.60779444842839
 20
89.30359169973701
 10
16.10779444842816
 20
88.99359169973665
 10
16.10779444842816
 20
89.61359169973738
 10
16.10779444842816
 20
89.61359169973738
  0
HATCH
  5
319
330
312
100
AcDbEntity
  8
CAPA_BASE
 62
    18
420
        0
440
 33554687
100
AcDbHatch
 10
0.0
 20
0.0
 30
0.0
210
0.0
220
0.0
230
1.0
  2
SOLID
 70
     1
 71
     1
 91
        1
 92
        1
 93
        3
 72
     1
 10
13.60779444842839
 20
89.30359169973701
 11
16.10779444842816
 21
88.99359169973665
 72
     1
 10
16.10779444842816
 20
88.99359169973665
 11
16.10779444842816
 21
89.61359169973738
 72
     1
 10
16.10779444842816
 20
89.61359169973738
 11
13.60779444842839
 21
89.30359169973701
 97
        1
330
318
 75
     2
 76
     1
 98
        1
 10
0.0
 20
0.0
450
        0
451
        0
460
0.0
461
0.0
452
        0
462
0.0
453
        0
470

  0
LINE
  5
31A
330
312
100
AcDbEntity
  8
CAPA_BASE
 62
    18
420
        0
370
    25
100
AcDbLine
 10
113.6077944484284
 20
105.928591699737
 30
0.0
 11
113.6077944484284
 21
88.30359169973698
 31
0.0
  0
LINE
  5
31B
330
312
100
AcDbEntity
  8
CAPA_BASE
 62
    18
420
        0
370
    25
100
AcDbLine
 10
13.60779444842839
 20
105.928591699737
 30
0.0
 11
13.60779444842839
 21
88.30359169973698
 31
0.0
  0
LINE
  5
31C
330
312
100
AcDbEntity
  8
CAPA_BASE
 62
    18
420
        0
370
    25
100
AcDbLine
 10
113.6077944484284
 20
89.30359169973701
 30
0.0
 11
13.60779444842839
 21
89.30359169973701
 31
0.0
  0
MTEXT
  5
31D
330
312
100
AcDbEntity
  8
CAPA_BASE
100
AcDbMText
 10
60.96196045940957
 20
90.09734291367358
 30
0.0
 40
0.2
 41
0.0
 46
0.0
 71
     7
 72
     1
  1
\C18;\c0;\FArial Bold|b1|i0|c1;\H2.997200;\W0.700000;400
 73
     1
 44
1.0
  0
ENDBLK
  5
315
330
312
100
AcDbEntity
  8
0
100
AcDbBlockEnd
  0
BLOCK
  5
320
330
31E
100
AcDbEntity
  8
0
100
AcDbBlockBegin
  2
Block_1
 70
     0
 10
0.0
 20
0.0
 30
0.0
  3
Block_1
  1

  0
LWPOLYLINE
  5
322
330
31E
100
AcDbEntity
  8
CAPA_BASE
100
AcDbPolyline
 90
        4
 70
     1
 43
0.0
 10
123.6077944484281
 20
62.6827085824371
 10
123.2977944484284
 20
60.18270858243669
 10
123.9177944484284
 20
60.18270858243669
 10
123.9177944484284
 20
60.18270858243669
  0
HATCH
  5
323
330
31E
100
AcDbEntity
  8
CAPA_BASE
 62
    18
420
        0
440
 33554687
100
AcDbHatch
 10
0.0
 20
0.0
 30
0.0
210
0.0
220
0.0
230
1.0
  2
SOLID
 70
     1
 71
     1
 91
        1
 92
        1
 93
        3
 72
     1
 10
123.6077944484281
 20
62.6827085824371
 11
123.2977944484284
 21
60.18270858243669
 72
     1
 10
123.2977944484284
 20
60.18270858243669
 11
123.9177944484284
 21
60.18270858243669
 72
     1
 10
123.9177944484284
 20
60.18270858243669
 11
123.6077944484281
 21
62.6827085824371
 97
        1
330
322
 75
     2
 76
     1
 98
        1
 10
0.0
 20
0.0
450
        0
451
        0
460
0.0
461
0.0
452
        0
462
0.0
453
        0
470

  0
LWPOLYLINE
  5
324
330
31E
100
AcDbEntity
  8
CAPA_BASE
100
AcDbPolyline
 90
        4
 70
     1
 43
0.0
 10
123.6077944484281
 20
29.93270858243738
 10
123.9177944484284
 20
32.43270858243715
 10
123.2977944484284
 20
32.43270858243715
 10
123.2977944484284
 20
32.43270858243715
  0
HATCH
  5
325
330
31E
100
AcDbEntity
  8
CAPA_BASE
 62
    18
420
        0
440
 33554687
100
AcDbHatch
 10
0.0
 20
0.0
 30
0.0
210
0.0
220
0.0
230
1.0
  2
SOLID
 70
     1
 71
     1
 91
        1
 92
        1
 93
        3
 72
     1
 10
123.6077944484281
 20
29.93270858243738
 11
123.9177944484284
 21
32.43270858243715
 72
     1
 10
123.9177944484284
 20
32.43270858243715
 11
123.2977944484284
 21
32.43270858243715
 72
     1
 10
123.2977944484284
 20
32.43270858243715
 11
123.6077944484281
 21
29.93270858243738
 97
        1
330
324
 75
     2
 76
     1
 98
        1
 10
0.0
 20
0.0
450
        0
451
        0
460
0.0
461
0.0
452
        0
462
0.0
453
        0
470

  0
LINE
  5
326
330
31E
100
AcDbEntity
  8
CAPA_BASE
 62
    18
420
        0
370
    25
100
AcDbLine
 10
96.48279444842868
 20
62.6827085824371
 30
0.0
 11
124.6077944484281
 21
62.6827085824371
 31
0.0
  0
LINE
  5
327
330
31E
100
AcDbEntity
  8
CAPA_BASE
 62
    18
420
        0
370
    25
100
AcDbLine
 10
114.6077944484284
 20
29.93270858243738
 30
0.0
 11
124.6077944484281
 21
29.93270858243738
 31
0.0
  0
LINE
  5
328
330
31E
100
AcDbEntity
  8
CAPA_BASE
 62
    18
420
        0
370
    25
100
AcDbLine
 10
123.6077944484281
 20
62.6827085824371
 30
0.0
 11
123.6077944484281
 21
29.93270858243738
 31
0.0
  0
MTEXT
  5
329
330
31E
100
AcDbEntity
  8
CAPA_BASE
100
AcDbMText
 10
122.8140447733403
 20
43.6617621418617
 30
0.0
 40
0.2
 41
0.0
 46
0.0
 71
     7
 72
     1
  1
\C18;\c0;\FArial Bold|b1|i0|c1;\H2.997200;\W0.700000;131
 11
0.0000000000000003
 21
1.0
 31
0.0
 73
     1
 44
1.0
  0
ENDBLK
  5
321
330
31E
100
AcDbEntity
  8
0
100
AcDbBlockEnd
  0
BLOCK
  5
32C
330
32A
100
AcDbEntity
  8
0
100
AcDbBlockBegin
  2
Block_2
 70
     0
 10
0.0
 20
0.0
 30
0.0
  3
Block_2
  1

  0
LWPOLYLINE
  5
32E
330
32A
100
AcDbEntity
  8
CAPA_BASE
100
AcDbPolyline
 90
        4
 70
     1
 43
0.0
 10
136.5658579598284
 20
114.928591699737
 10
136.255857959828
 20
112.4285916997369
 10
136.8758579598281
 20
112.4285916997369
 10
136.8758579598281
 20
112.4285916997369
  0
HATCH
  5
32F
330
32A
100
AcDbEntity
  8
CAPA_BASE
 62
    18
420
        0
440
 33554687
100
AcDbHatch
 10
0.0
 20
0.0
 30
0.0
210
0.0
220
0.0
230
1.0
  2
SOLID
 70
     1
 71
     1
 91
        1
 92
        1
 93
        3
 72
     1
 10
136.5658579598284
 20
114.928591699737
 11
136.255857959828
 21
112.4285916997369
 72
     1
 10
136.255857959828
 20
112.4285916997369
 11
136.8758579598281
 21
112.4285916997369
 72
     1
 10
136.8758579598281
 20
112.4285916997369
 11
136.5658579598284
 21
114.928591699737
 97
        1
330
32E
 75
     2
 76
     1
 98
        1
 10
0.0
 20
0.0
450
        0
451
        0
460
0.0
461
0.0
452
        0
462
0.0
453
        0
470

  0
LWPOLYLINE
  5
330
330
32A
100
AcDbEntity
  8
CAPA_BASE
100
AcDbPolyline
 90
        4
 70
     1
 43
0.0
 10
136.5658579598284
 20
99.30359169973705
 10
136.8758579598281
 20
101.8035916997371
 10
136.255857959828
 20
101.8035916997371
 10
136.255857959828
 20
101.8035916997371
  0
HATCH
  5
331
330
32A
100
AcDbEntity
  8
CAPA_BASE
 62
    18
420
        0
440
 33554687
100
AcDbHatch
 10
0.0
 20
0.0
 30
0.0
210
0.0
220
0.0
230
1.0
  2
SOLID
 70
     1
 71
     1
 91
        1
 92
        1
 93
        3
 72
     1
 10
136.5658579598284
 20
99.30359169973705
 11
136.8758579598281
 21
101.8035916997371
 72
     1
 10
136.8758579598281
 20
101.8035916997371
 11
136.255857959828
 21
101.8035916997371
 72
     1
 10
136.255857959828
 20
101.8035916997371
 11
136.5658579598284
 21
99.30359169973705
 97
        1
330
330
 75
     2
 76
     1
 98
        1
 10
0.0
 20
0.0
450
        0
451
        0
460
0.0
461
0.0
452
        0
462
0.0
453
        0
470

  0
LINE
  5
332
330
32A
100
AcDbEntity
  8
CAPA_BASE
 62
    18
420
        0
370
    25
100
AcDbLine
 10
145.565857959828
 20
114.928591699737
 30
0.0
 11
135.5658579598283
 21
114.928591699737
 31
0.0
  0
LINE
  5
333
330
32A
100
AcDbEntity
  8
CAPA_BASE
 62
    18
420
        0
370
    25
100
AcDbLine
 10
150.8158579598284
 20
99.30359169973705
 30
0.0
 11
135.5658579598283
 21
99.30359169973705
 31
0.0
  0
LINE
  5
334
330
32A
100
AcDbEntity
  8
CAPA_BASE
 62
    18
420
        0
370
    25
100
AcDbLine
 10
136.5658579598284
 20
114.928591699737
 30
0.0
 11
136.5658579598284
 21
99.30359169973705
 31
0.0
  0
MTEXT
  5
335
330
32A
100
AcDbEntity
  8
CAPA_BASE
100
AcDbMText
 10
135.772109336819
 20
105.3520534675849
 30
0.0
 40
0.2
 41
0.0
 46
0.0
 71
     7
 72
     1
  1
\C18;\c0;\FArial Bold|b1|i0|c1;\H2.997200;\W0.700000;63
 11
0.0000000000000003
 21
1.0
 31
0.0
 73
     1
 44
1.0
  0
ENDBLK
  5
32D
330
32A
100
AcDbEntity
  8
0
100
AcDbBlockEnd
  0
ENDSEC
  0
SECTION
  2
ENTITIES
  0
SPLINE
  5
78
330
70
100
AcDbEntity
  8
0
 62
    18
420
        0
370
    25
100
AcDbSpline
210
0.0
220
0.0
230
1.0
 70
     8
 71
     3
 72
     8
 73
     4
 74
     0
 42
0.0000000001
 43
0.0000000001
 40
0.0
 40
0.0
 40
0.0
 40
0.0
 40
1.0
 40
1.0
 40
1.0
 40
1.0
 10
14.67029444842831
 20
104.5535916997371
 30
0.0
 10
14.67029444842831
 20
104.139378137364
 30
0.0
 10
15.00608088605512
 20
103.8035916997372
 30
0.0
 10
15.42029444842818
 20
103.8035916997372
 30
0.0
  0
SPLINE
  5
79
330
70
100
AcDbEntity
  8
0
 62
    18
420
        0
370
    25
100
AcDbSpline
210
0.0
220
0.0
230
1.0
 70
     8
 71
     3
 72
     8
 73
     4
 74
     0
 42
0.0000000001
 43
0.0000000001
 40
0.0
 40
0.0
 40
0.0
 40
0.0
 40
1.0
 40
1.0
 40
1.0
 40
1.0
 10
13.92029444842812
 20
104.5535916997371
 30
0.0
 10
13.92029444842812
 20
103.7251645749909
 30
0.0
 10
14.59186732368207
 20
103.053591699737
 30
0.0
 10
15.42029444842818
 20
103.053591699737
 30
0.0
  0
LINE
  5
7A
330
70
100
AcDbEntity
  8
0
 62
    18
420
        0
370
    25
100
AcDbLine
 10
13.92029117022837
 20
106.8035917277372
 30
0.0
 11
13.92029117022837
 21
104.5535915917372
 31
0.0
  0
LINE
  5
7B
330
70
100
AcDbEntity
  8
0
 62
    18
420
        0
370
    25
100
AcDbLine
 10
14.67029641542838
 20
104.5535915917372
 30
0.0
 11
14.67029641542838
 21
106.8035917277372
 31
0.0
  0
LINE
  5
7C
330
70
100
AcDbEntity
  8
0
 62
    18
420
        0
370
    25
100
AcDbLine
 10
15.42029421002832
 20
103.053591811537
 30
0.0
 11
111.7952939418284
 21
103.053591811537
 31
0.0
  0
LINE
  5
7D
330
70
100
AcDbEntity
  8
0
 62
    18
420
        0
370
    25
100
AcDbLine
 10
111.7952939418284
 20
103.8035914688372
 30
0.0
 11
15.42029421002832
 21
103.8035914688372
 31
0.0
  0
LINE
  5
7E
330
70
100
AcDbEntity
  8
0
 62
    18
420
        0
370
    25
100
AcDbLine
 10
112.5452935991282
 20
106.8035917277372
 30
0.0
 11
112.5452935991282
 21
104.5535915917372
 31
0.0
  0
LINE
  5
7F
330
70
100
AcDbEntity
  8
0
 62
    18
420
        0
370
    25
100
AcDbLine
 10
113.2952951190282
 20
104.5535915917372
 30
0.0
 11
113.2952951190282
 21
106.8035917277372
 31
0.0
  0
SPLINE
  5
80
330
70
100
AcDbEntity
  8
0
 62
    18
420
        0
370
    25
100
AcDbSpline
210
0.0
220
0.0
230
1.0
 70
     8
 71
     3
 72
     8
 73
     4
 74
     0
 42
0.0000000001
 43
0.0000000001
 40
0.0
 40
0.0
 40
0.0
 40
0.0
 40
1.0
 40
1.0
 40
1.0
 40
1.0
 10
111.7952944484279
 20
103.8035916997372
 30
0.0
 10
112.2095080108013
 20
103.8035916997372
 30
0.0
 10
112.5452944484285
 20
104.139378137364
 30
0.0
 10
112.5452944484285
 20
104.5535916997371
 30
0.0
  0
SPLINE
  5
81
330
70
100
AcDbEntity
  8
0
 62
    18
420
        0
370
    25
100
AcDbSpline
210
0.0
220
0.0
230
1.0
 70
     8
 71
     3
 72
     8
 73
     4
 74
     0
 42
0.0000000001
 43
0.0000000001
 40
0.0
 40
0.0
 40
0.0
 40
0.0
 40
1.0
 40
1.0
 40
1.0
 40
1.0
 10
111.7952944484279
 20
103.053591699737
 30
0.0
 10
112.6237215731747
 20
103.053591699737
 30
0.0
 10
113.2952944484283
 20
103.7251645749909
 30
0.0
 10
113.2952944484283
 20
104.5535916997371
 30
0.0
  0
SPLINE
  5
82
330
70
100
AcDbEntity
  8
0
 62
    18
420
        0
370
    25
100
AcDbSpline
210
0.0
220
0.0
230
1.0
 70
     8
 71
     3
 72
     8
 73
     4
 74
     0
 42
0.0000000001
 43
0.0000000001
 40
0.0
 40
0.0
 40
0.0
 40
0.0
 40
1.0
 40
1.0
 40
1.0
 40
1.0
 10
14.67029444842831
 20
100.8035916997371
 30
0.0
 10
14.67029444842831
 20
100.389378137364
 30
0.0
 10
15.00608088605512
 20
100.0535916997369
 30
0.0
 10
15.42029444842818
 20
100.0535916997369
 30
0.0
  0
SPLINE
  5
83
330
70
100
AcDbEntity
  8
0
 62
    18
420
        0
370
    25
100
AcDbSpline
210
0.0
220
0.0
230
1.0
 70
     8
 71
     3
 72
     8
 73
     4
 74
     0
 42
0.0000000001
 43
0.0000000001
 40
0.0
 40
0.0
 40
0.0
 40
0.0
 40
1.0
 40
1.0
 40
1.0
 40
1.0
 10
13.92029444842812
 20
100.8035916997371
 30
0.0
 10
13.92029444842812
 20
99.97516457499099
 30
0.0
 10
14.59186732368207
 20
99.30359169973705
 30
0.0
 10
15.42029444842818
 20
99.30359169973705
 30
0.0
  0
LINE
  5
84
330
70
100
AcDbEntity
  8
0
 62
    18
420
        0
370
    25
100
AcDbLine
 10
111.7952939418284
 20
100.0535913197372
 30
0.0
 11
15.42029421002832
 21
100.0535913197372
 31
0.0
  0
LINE
  5
85
330
70
100
AcDbEntity
  8
0
 62
    18
420
        0
370
    25
100
AcDbLine
 10
15.42029421002832
 20
99.30359166253712
 30
0.0
 11
111.7952939418284
 21
99.30359166253712
 31
0.0
  0
LINE
  5
86
330
70
100
AcDbEntity
  8
0
 62
    18
420
        0
370
    25
100
AcDbLine
 10
13.92029117022837
 20
104.5535915917372
 30
0.0
 11
13.92029117022837
 21
100.8035919083371
 31
0.0
  0
LINE
  5
87
330
70
100
AcDbEntity
  8
0
 62
    18
420
        0
370
    25
100
AcDbLine
 10
14.67029641542838
 20
100.8035919083371
 30
0.0
 11
14.67029641542838
 21
103.2545535280371
 31
0.0
  0
SPLINE
  5
88
330
70
100
AcDbEntity
  8
0
 62
    18
420
        0
370
    25
100
AcDbSpline
210
0.0
220
0.0
230
1.0
 70
     8
 71
     3
 72
     8
 73
     4
 74
     0
 42
0.0000000001
 43
0.0000000001
 40
0.0
 40
0.0
 40
0.0
 40
0.0
 40
1.0
 40
1.0
 40
1.0
 40
1.0
 10
111.7952944484279
 20
100.0535916997369
 30
0.0
 10
112.2095080108013
 20
100.0535916997369
 30
0.0
 10
112.5452944484285
 20
100.389378137364
 30
0.0
 10
112.5452944484285
 20
100.8035916997371
 30
0.0
  0
SPLINE
  5
89
330
70
100
AcDbEntity
  8
0
 62
    18
420
        0
370
    25
100
AcDbSpline
210
0.0
220
0.0
230
1.0
 70
     8
 71
     3
 72
     8
 73
     4
 74
     0
 42
0.0000000001
 43
0.0000000001
 40
0.0
 40
0.0
 40
0.0
 40
0.0
 40
1.0
 40
1.0
 40
1.0
 40
1.0
 10
111.7952944484279
 20
99.30359169973705
 30
0.0
 10
112.6237215731747
 20
99.30359169973705
 30
0.0
 10
113.2952944484283
 20
99.97516457499099
 30
0.0
 10
113.2952944484283
 20
100.8035916997371
 30
0.0
  0
LINE
  5
8A
330
70
100
AcDbEntity
  8
0
 62
    18
420
        0
370
    25
100
AcDbLine
 10
112.5452935991282
 20
103.2545535280371
 30
0.0
 11
112.5452935991282
 21
100.8035919083371
 31
0.0
  0
LINE
  5
8B
330
70
100
AcDbEntity
  8
0
 62
    18
420
        0
370
    25
100
AcDbLine
 10
113.2952951190282
 20
100.8035919083371
 30
0.0
 11
113.2952951190282
 21
104.5535915917372
 31
0.0
  0
LINE
  5
8C
330
70
100
AcDbEntity
  8
0
 62
    18
420
        0
370
    25
100
AcDbLine
 10
87.29529446612806
 20
106.5285917292369
 30
0.0
 11
87.29529446612806
 21
106.5445046559371
 31
0.0
  0
SPLINE
  5
8D
330
70
100
AcDbEntity
  8
0
 62
    18
420
        0
370
    25
100
AcDbSpline
210
0.0
220
0.0
230
1.0
 70
     8
 71
     3
 72
     8
 73
     4
 74
     0
 42
0.0000000001
 43
0.0000000001
 40
0.0
 40
0.0
 40
0.0
 40
0.0
 40
1.0
 40
1.0
 40
1.0
 40
1.0
 10
87.29529446620762
 20
106.5285917292055
 30
0.0
 10
87.29529446661189
 20
106.4595561243281
 30
0.0
 10
87.35125888181917
 20
106.4035917091205
 30
0.0
 10
87.42029448669683
 20
106.4035917087162
 30
0.0
  0
LINE
  5
8E
330
70
100
AcDbEntity
  8
0
 62
    18
420
        0
370
    25
100
AcDbLine
 10
87.47752903192871
 20
106.4035917087371
 30
0.0
 11
87.42029448662817
 21
106.4035917087371
 31
0.0
  0
SPLINE
  5
8F
330
70
100
AcDbEntity
  8
0
 62
    18
420
        0
370
    25
100
AcDbSpline
210
0.0
220
0.0
230
1.0
 70
     8
 71
     3
 72
     8
 73
     4
 74
     0
 42
0.0000000001
 43
0.0000000001
 40
0.0
 40
0.0
 40
0.0
 40
0.0
 40
1.0
 40
1.0
 40
1.0
 40
1.0
 10
87.47752899288132
 20
106.4035916997376
 30
0.0
 10
88.15878488389584
 20
105.9369250330703
 30
0.0
 10
89.05680401296047
 20
105.9369250330703
 30
0.0
 10
89.73805990397499
 20
106.4035916997376
 30
0.0
  0
LINE
  5
90
330
70
100
AcDbEntity
  8
0
 62
    18
420
        0
370
    25
100
AcDbLine
 10
89.79529441032823
 20
106.4035917087371
 30
0.0
 11
89.73805986502835
 21
106.4035917087371
 31
0.0
  0
SPLINE
  5
91
330
70
100
AcDbEntity
  8
0
 62
    18
420
        0
370
    25
100
AcDbSpline
210
0.0
220
0.0
230
1.0
 70
     8
 71
     3
 72
    11
 73
     7
 74
     0
 42
0.0000000001
 43
0.0000000001
 40
0.0
 40
0.0
 40
0.0
 40
0.0
 40
1.0
 40
1.0
 40
1.0
 40
2.0
 40
2.0
 40
2.0
 40
2.0
 10
89.79529441024673
 20
106.4035917087291
 30
0.0
 10
89.86432996637004
 20
106.4035916598069
 30
0.0
 10
89.92029438181409
 20
106.4595559959331
 30
0.0
 10
89.92029443073596
 20
106.5285915520561
 30
0.0
 10
89.92029443073596
 20
106.5285916111052
 30
0.0
 10
89.92029443073596
 20
106.5285916701688
 30
0.0
 10
89.92029443073596
 20
106.528591729218
 30
0.0
  0
LINE
  5
92
330
70
100
AcDbEntity
  8
0
 62
    18
420
        0
370
    25
100
AcDbLine
 10
89.92029443082836
 20
106.5445046559371
 30
0.0
 11
89.92029443082836
 21
106.5285917292369
 31
0.0
  0
LINE
  5
93
330
70
100
AcDbEntity
  8
0
 62
    18
420
        0
370
    25
100
AcDbLine
 10
89.92029443082836
 20
109.5785916703369
 30
0.0
 11
89.92029443082836
 21
109.562678743537
 31
0.0
  0
SPLINE
  5
94
330
70
100
AcDbEntity
  8
0
 62
    18
420
        0
370
    25
100
AcDbSpline
210
0.0
220
0.0
230
1.0
 70
     8
 71
     3
 72
     8
 73
     4
 74
     0
 42
0.0000000001
 43
0.0000000001
 40
0.0
 40
0.0
 40
0.0
 40
0.0
 40
1.0
 40
1.0
 40
1.0
 40
1.0
 10
89.9202944307488
 20
109.5785916703686
 30
0.0
 10
89.92029443034452
 20
109.647627275246
 30
0.0
 10
89.86433001513724
 20
109.7035916904536
 30
0.0
 10
89.79529441025958
 20
109.7035916908575
 30
0.0
  0
LINE
  5
95
330
70
100
AcDbEntity
  8
0
 62
    18
420
        0
370
    25
100
AcDbLine
 10
89.73805986502835
 20
109.703591690837
 30
0.0
 11
89.79529441032823
 21
109.703591690837
 31
0.0
  0
SPLINE
  5
96
330
70
100
AcDbEntity
  8
0
 62
    18
420
        0
370
    25
100
AcDbSpline
210
0.0
220
0.0
230
1.0
 70
     8
 71
     3
 72
     8
 73
     4
 74
     0
 42
0.0000000001
 43
0.0000000001
 40
0.0
 40
0.0
 40
0.0
 40
0.0
 40
1.0
 40
1.0
 40
1.0
 40
1.0
 10
89.73805990397499
 20
109.7035916997364
 30
0.0
 10
89.05680401296047
 20
110.1702583664037
 30
0.0
 10
88.15878488389584
 20
110.1702583664037
 30
0.0
 10
87.47752899288132
 20
109.7035916997364
 30
0.0
  0
LINE
  5
97
330
70
100
AcDbEntity
  8
0
 62
    18
420
        0
370
    25
100
AcDbLine
 10
87.42029448662817
 20
109.703591690837
 30
0.0
 11
87.47752903192871
 21
109.703591690837
 31
0.0
  0
LINE
  5
98
330
70
100
AcDbEntity
  8
0
 62
    18
420
        0
370
    25
100
AcDbLine
 10
87.29529446612806
 20
109.562678743537
 30
0.0
 11
87.29529446612806
 21
109.5785916703369
 31
0.0
  0
SPLINE
  5
99
330
70
100
AcDbEntity
  8
0
 62
    18
420
        0
370
    25
100
AcDbSpline
210
0.0
220
0.0
230
1.0
 70
     8
 71
     3
 72
    11
 73
     7
 74
     0
 42
0.0000000001
 43
0.0000000001
 40
0.0
 40
0.0
 40
0.0
 40
0.0
 40
1.0
 40
1.0
 40
1.0
 40
2.0
 40
2.0
 40
2.0
 40
2.0
 10
87.42029448660955
 20
109.703591690845
 30
0.0
 10
87.35125893048691
 20
109.7035917397672
 30
0.0
 10
87.2952945150422
 20
109.647627403641
 30
0.0
 10
87.29529446612035
 20
109.578591847518
 30
0.0
 10
87.29529446612035
 20
109.5785917884689
 30
0.0
 10
87.29529446612035
 20
109.5785917294053
 30
0.0
 10
87.29529446612035
 20
109.5785916703558
 30
0.0
  0
SPLINE
  5
9A
330
70
100
AcDbEntity
  8
0
 62
    18
420
        0
370
    25
100
AcDbSpline
210
0.0
220
0.0
230
1.0
 70
     8
 71
     3
 72
     8
 73
     4
 74
     0
 42
0.0000000001
 43
0.0000000001
 40
0.0
 40
0.0
 40
0.0
 40
0.0
 40
1.0
 40
1.0
 40
1.0
 40
1.0
 10
89.79529444842784
 20
109.3035916997371
 30
0.0
 10
89.86433004215726
 20
109.3035916997371
 30
0.0
 10
89.92029444842824
 20
109.359556106008
 30
0.0
 10
89.92029444842824
 20
109.4285916997371
 30
0.0
  0
LINE
  5
9B
330
70
100
AcDbEntity
  8
0
 62
    18
420
        0
370
    25
100
AcDbLine
 10
89.92029443082836
 20
109.4285916923371
 30
0.0
 11
89.92029443082836
 21
109.562678743537
 31
0.0
  0
LINE
  5
9C
330
70
100
AcDbEntity
  8
0
 62
    18
420
        0
370
    25
100
AcDbLine
 10
89.92029443082836
 20
106.6785917072371
 30
0.0
 11
89.92029443082836
 21
106.5445046559371
 31
0.0
  0
SPLINE
  5
9D
330
70
100
AcDbEntity
  8
0
 62
    18
420
        0
370
    25
100
AcDbSpline
210
0.0
220
0.0
230
1.0
 70
     8
 71
     3
 72
     8
 73
     4
 74
     0
 42
0.0000000001
 43
0.0000000001
 40
0.0
 40
0.0
 40
0.0
 40
0.0
 40
1.0
 40
1.0
 40
1.0
 40
1.0
 10
89.92029444842824
 20
106.6785916997372
 30
0.0
 10
89.92029444842824
 20
106.747627293466
 30
0.0
 10
89.86433004215726
 20
106.803591699737
 30
0.0
 10
89.79529444842784
 20
106.803591699737
 30
0.0
  0
LINE
  5
9E
330
70
100
AcDbEntity
  8
0
 62
    18
420
        0
370
    25
100
AcDbLine
 10
87.29529446612806
 20
106.6785917072371
 30
0.0
 11
87.29529446612806
 21
106.5445046559371
 31
0.0
  0
LINE
  5
9F
330
70
100
AcDbEntity
  8
0
 62
    18
420
        0
370
    25
100
AcDbLine
 10
87.29529446612806
 20
109.4285916923371
 30
0.0
 11
87.29529446612806
 21
109.562678743537
 31
0.0
  0
SPLINE
  5
A0
330
70
100
AcDbEntity
  8
0
 62
    18
420
        0
370
    25
100
AcDbSpline
210
0.0
220
0.0
230
1.0
 70
     8
 71
     3
 72
     8
 73
     4
 74
     0
 42
0.0000000001
 43
0.0000000001
 40
0.0
 40
0.0
 40
0.0
 40
0.0
 40
1.0
 40
1.0
 40
1.0
 40
1.0
 10
87.29529444842871
 20
109.4285916997371
 30
0.0
 10
87.29529444842871
 20
109.359556106008
 30
0.0
 10
87.35125885469967
 20
109.3035916997371
 30
0.0
 10
87.42029444842847
 20
109.3035916997371
 30
0.0
  0
CIRCLE
  5
A1
330
70
100
AcDbEntity
  8
0
 62
    18
420
        0
370
    25
100
AcDbCircle
 10
88.60779444842815
 20
108.0535916997371
 30
0.0
 40
0.537500000000019
  0
SPLINE
  5
A2
330
70
100
AcDbEntity
  8
0
 62
    18
420
        0
370
    25
100
AcDbSpline
210
0.0
220
0.0
230
1.0
 70
     8
 71
     3
 72
     8
 73
     4
 74
     0
 42
0.0000000001
 43
0.0000000001
 40
0.0
 40
0.0
 40
0.0
 40
0.0
 40
1.0
 40
1.0
 40
1.0
 40
1.0
 10
87.42029444842847
 20
106.803591699737
 30
0.0
 10
87.35125885469967
 20
106.803591699737
 30
0.0
 10
87.29529444842871
 20
106.747627293466
 30
0.0
 10
87.29529444842871
 20
106.6785916997372
 30
0.0
  0
LINE
  5
A3
330
70
100
AcDbEntity
  8
0
 62
    18
420
        0
370
    25
100
AcDbLine
 10
89.73805986502835
 20
106.4035917087371
 30
0.0
 11
87.47752903192871
 21
106.4035917087371
 31
0.0
  0
LINE
  5
A4
330
70
100
AcDbEntity
  8
0
 62
    18
420
        0
370
    25
100
AcDbLine
 10
87.47752903192871
 20
109.703591690837
 30
0.0
 11
89.73805986502835
 21
109.703591690837
 31
0.0
  0
CIRCLE
  5
A5
330
70
100
AcDbEntity
  8
0
 62
    18
420
        0
370
    25
100
AcDbCircle
 10
88.60779444842831
 20
108.0535916997371
 30
0.0
 40
0.4124999999998542
  0
SPLINE
  5
A6
330
70
100
AcDbEntity
  8
0
 62
    18
420
        0
370
    25
100
AcDbSpline
210
0.0
220
0.0
230
1.0
 70
     8
 71
     3
 72
    11
 73
     7
 74
     0
 42
0.0000000001
 43
0.0000000001
 40
0.0
 40
0.0
 40
0.0
 40
0.0
 40
1.0
 40
1.0
 40
1.0
 40
2.0
 40
2.0
 40
2.0
 40
2.0
 10
95.36820308992295
 20
109.3035916997383
 30
0.0
 10
94.67784715263377
 20
113.0372622950599
 30
0.0
 10
91.09146504374923
 20
115.5043562785208
 30
0.0
 10
87.35779444842668
 20
114.814000341232
 30
0.0
 10
84.55681340360618
 20
114.2960987628361
 30
0.0
 10
82.36528738532893
 20
112.1045727445594
 30
0.0
 10
81.84738580693336
 20
109.3035916997383
 30
0.0
  0
SPLINE
  5
A7
330
70
100
AcDbEntity
  8
0
 62
    18
420
        0
370
    25
100
AcDbSpline
210
0.0
220
0.0
230
1.0
 70
     8
 71
     3
 72
     8
 73
     4
 74
     0
 42
0.0000000001
 43
0.0000000001
 40
0.0
 40
0.0
 40
0.0
 40
0.0
 40
1.0
 40
1.0
 40
1.0
 40
1.0
 10
94.01178602873338
 20
103.8035916997381
 30
0.0
 10
94.70023265785011
 20
104.6789704732056
 30
0.0
 10
95.16571878724152
 20
105.708490396044
 30
0.0
 10
95.36820308992295
 20
106.8035916997357
 30
0.0
  0
SPLINE
  5
A8
330
70
100
AcDbEntity
  8
0
 62
    18
420
        0
370
    25
100
AcDbSpline
210
0.0
220
0.0
230
1.0
 70
     8
 71
     3
 72
     8
 73
     4
 74
     0
 42
0.0000000001
 43
0.0000000001
 40
0.0
 40
0.0
 40
0.0
 40
0.0
 40
1.0
 40
1.0
 40
1.0
 40
1.0
 10
83.88914792638603
 20
103.0535916997351
 30
0.0
 10
86.53821264051543
 20
100.5535916997375
 30
0.0
 10
90.67737625634086
 20
100.5535916997375
 30
0.0
 10
93.32644097047028
 20
103.0535916997351
 30
0.0
  0
SPLINE
  5
A9
330
70
100
AcDbEntity
  8
0
 62
    18
420
        0
370
    25
100
AcDbSpline
210
0.0
220
0.0
230
1.0
 70
     8
 71
     3
 72
     8
 73
     4
 74
     0
 42
0.0000000001
 43
0.0000000001
 40
0.0
 40
0.0
 40
0.0
 40
0.0
 40
1.0
 40
1.0
 40
1.0
 40
1.0
 10
81.84738580693336
 20
106.803591699736
 30
0.0
 10
82.04987010961543
 20
105.708490396044
 30
0.0
 10
82.5153562390062
 20
104.6789704732056
 30
0.0
 10
83.20380286812293
 20
103.8035916997381
 30
0.0
  0
LINE
  5
AA
330
70
100
AcDbEntity
  8
0
 62
    18
420
        0
370
    25
100
AcDbLine
 10
39.92029543192844
 20
109.5785916703369
 30
0.0
 11
39.92029543192844
 21
109.562678743537
 31
0.0
  0
SPLINE
  5
AB
330
70
100
AcDbEntity
  8
0
 62
    18
420
        0
370
    25
100
AcDbSpline
210
0.0
220
0.0
230
1.0
 70
     8
 71
     3
 72
     8
 73
     4
 74
     0
 42
0.0000000001
 43
0.0000000001
 40
0.0
 40
0.0
 40
0.0
 40
0.0
 40
1.0
 40
1.0
 40
1.0
 40
1.0
 10
39.92029543195988
 20
109.5785916703539
 30
0.0
 10
39.9202924025446
 20
109.6476268388586
 30
0.0
 10
39.86432848454049
 20
109.7035898187102
 30
0.0
 10
39.79529331599475
 20
109.7035916908431
 30
0.0
  0
LINE
  5
AC
330
70
100
AcDbEntity
  8
0
 62
    18
420
        0
370
    25
100
AcDbLine
 10
39.73806168112824
 20
109.703591690837
 30
0.0
 11
39.79529331602812
 21
109.703591690837
 31
0.0
  0
SPLINE
  5
AD
330
70
100
AcDbEntity
  8
0
 62
    18
420
        0
370
    25
100
AcDbSpline
210
0.0
220
0.0
230
1.0
 70
     8
 71
     3
 72
     8
 73
     4
 74
     0
 42
0.0000000001
 43
0.0000000001
 40
0.0
 40
0.0
 40
0.0
 40
0.0
 40
1.0
 40
1.0
 40
1.0
 40
1.0
 10
39.73805990397483
 20
109.7035916997364
 30
0.0
 10
39.05680401296063
 20
110.1702583664041
 30
0.0
 10
38.158784883896
 20
110.1702583664041
 30
0.0
 10
37.4775289928818
 20
109.7035916997364
 30
0.0
  0
LINE
  5
AE
330
70
100
AcDbEntity
  8
0
 62
    18
420
        0
370
    25
100
AcDbLine
 10
37.42029409082837
 20
109.703591690837
 30
0.0
 11
37.47752945102829
 21
109.703591690837
 31
0.0
  0
LINE
  5
AF
330
70
100
AcDbEntity
  8
0
 62
    18
420
        0
370
    25
100
AcDbLine
 10
37.2952957001283
 20
109.562678743537
 30
0.0
 11
37.2952957001283
 21
109.5785916703369
 31
0.0
  0
LINE
  5
B0
330
70
100
AcDbEntity
  8
0
 62
    18
420
        0
370
    25
100
AcDbLine
 10
37.2952957001283
 20
106.5285917292369
 30
0.0
 11
37.2952957001283
 21
106.5445046559371
 31
0.0
  0
SPLINE
  5
B1
330
70
100
AcDbEntity
  8
0
 62
    18
420
        0
370
    25
100
AcDbSpline
210
0.0
220
0.0
230
1.0
 70
     8
 71
     3
 72
    11
 73
     7
 74
     0
 42
0.0000000001
 43
0.0000000001
 40
0.0
 40
0.0
 40
0.0
 40
0.0
 40
1.0
 40
1.0
 40
1.0
 40
2.0
 40
2.0
 40
2.0
 40
2.0
 10
37.2952957002021
 20
106.5285917291451
 30
0.0
 10
37.29529293794538
 20
106.4595588863872
 30
0.0
 10
37.35125287486243
 20
106.4035944709672
 30
0.0
 10
37.42028571762006
 20
106.4035917087108
 30
0.0
 10
37.42028850870543
 20
106.4035917085991
 30
0.0
 10
37.42029129979112
 20
106.4035917085808
 30
0.0
 10
37.4202940908765
 20
106.4035917086559
 30
0.0
  0
LINE
  5
B2
330
70
100
AcDbEntity
  8
0
 62
    18
420
        0
370
    25
100
AcDbLine
 10
37.47752945102829
 20
106.4035917087371
 30
0.0
 11
37.42029409082837
 21
106.4035917087371
 31
0.0
  0
SPLINE
  5
B3
330
70
100
AcDbEntity
  8
0
 62
    18
420
        0
370
    25
100
AcDbSpline
210
0.0
220
0.0
230
1.0
 70
     8
 71
     3
 72
     8
 73
     4
 74
     0
 42
0.0000000001
 43
0.0000000001
 40
0.0
 40
0.0
 40
0.0
 40
0.0
 40
1.0
 40
1.0
 40
1.0
 40
1.0
 10
37.4775289928818
 20
106.4035916997376
 30
0.0
 10
38.158784883896
 20
105.9369250330703
 30
0.0
 10
39.05680401296063
 20
105.9369250330703
 30
0.0
 10
39.73805990397483
 20
106.4035916997376
 30
0.0
  0
LINE
  5
B4
330
70
100
AcDbEntity
  8
0
 62
    18
420
        0
370
    25
100
AcDbLine
 10
39.79529331602812
 20
106.4035917087371
 30
0.0
 11
39.73806168112824
 21
106.4035917087371
 31
0.0
  0
SPLINE
  5
B5
330
70
100
AcDbEntity
  8
0
 62
    18
420
        0
370
    25
100
AcDbSpline
210
0.0
220
0.0
230
1.0
 70
     8
 71
     3
 72
     8
 73
     4
 74
     0
 42
0.0000000001
 43
0.0000000001
 40
0.0
 40
0.0
 40
0.0
 40
0.0
 40
1.0
 40
1.0
 40
1.0
 40
1.0
 10
39.79529331596972
 20
106.4035917087076
 30
0.0
 10
39.86432918386635
 20
106.4035918924729
 30
0.0
 10
39.9202940908753
 20
106.4595558613127
 30
0.0
 10
39.92029543193453
 20
106.5285917291968
 30
0.0
  0
LINE
  5
B6
330
70
100
AcDbEntity
  8
0
 62
    18
420
        0
370
    25
100
AcDbLine
 10
39.92029543192844
 20
106.5445046559371
 30
0.0
 11
39.92029543192844
 21
106.5285917292369
 31
0.0
  0
SPLINE
  5
B7
330
70
100
AcDbEntity
  8
0
 62
    18
420
        0
370
    25
100
AcDbSpline
210
0.0
220
0.0
230
1.0
 70
     8
 71
     3
 72
    11
 73
     7
 74
     0
 42
0.0000000001
 43
0.0000000001
 40
0.0
 40
0.0
 40
0.0
 40
0.0
 40
1.0
 40
1.0
 40
1.0
 40
2.0
 40
2.0
 40
2.0
 40
2.0
 10
37.42029409081939
 20
109.7035916908338
 30
0.0
 10
37.35125950125623
 20
109.7035918062013
 30
0.0
 10
37.29529581549873
 20
109.6476283074911
 30
0.0
 10
37.29529570013151
 20
109.5785937179279
 30
0.0
 10
37.29529570013023
 20
109.5785930354002
 30
0.0
 10
37.29529570013472
 20
109.5785923528727
 30
0.0
 10
37.29529570014467
 20
109.5785916703449
 30
0.0
  0
SPLINE
  5
B8
330
70
100
AcDbEntity
  8
0
 62
    18
420
        0
370
    25
100
AcDbSpline
210
0.0
220
0.0
230
1.0
 70
     8
 71
     3
 72
     8
 73
     4
 74
     0
 42
0.0000000001
 43
0.0000000001
 40
0.0
 40
0.0
 40
0.0
 40
0.0
 40
1.0
 40
1.0
 40
1.0
 40
1.0
 10
37.42029444842831
 20
106.803591699737
 30
0.0
 10
37.35125885469952
 20
106.803591699737
 30
0.0
 10
37.29529444842823
 20
106.747627293466
 30
0.0
 10
37.29529444842823
 20
106.6785916997372
 30
0.0
  0
LINE
  5
B9
330
70
100
AcDbEntity
  8
0
 62
    18
420
        0
370
    25
100
AcDbLine
 10
37.2952957001283
 20
106.6785917072371
 30
0.0
 11
37.2952957001283
 21
106.5445046559371
 31
0.0
  0
LINE
  5
BA
330
70
100
AcDbEntity
  8
0
 62
    18
420
        0
370
    25
100
AcDbLine
 10
37.2952957001283
 20
109.4285916923371
 30
0.0
 11
37.2952957001283
 21
109.562678743537
 31
0.0
  0
SPLINE
  5
BB
330
70
100
AcDbEntity
  8
0
 62
    18
420
        0
370
    25
100
AcDbSpline
210
0.0
220
0.0
230
1.0
 70
     8
 71
     3
 72
     8
 73
     4
 74
     0
 42
0.0000000001
 43
0.0000000001
 40
0.0
 40
0.0
 40
0.0
 40
0.0
 40
1.0
 40
1.0
 40
1.0
 40
1.0
 10
37.29529444842823
 20
109.4285916997371
 30
0.0
 10
37.29529444842823
 20
109.359556106008
 30
0.0
 10
37.35125885469952
 20
109.3035916997371
 30
0.0
 10
37.42029444842831
 20
109.3035916997371
 30
0.0
  0
SPLINE
  5
BC
330
70
100
AcDbEntity
  8
0
 62
    18
420
        0
370
    25
100
AcDbSpline
210
0.0
220
0.0
230
1.0
 70
     8
 71
     3
 72
     8
 73
     4
 74
     0
 42
0.0000000001
 43
0.0000000001
 40
0.0
 40
0.0
 40
0.0
 40
0.0
 40
1.0
 40
1.0
 40
1.0
 40
1.0
 10
39.79529444842832
 20
109.3035916997371
 30
0.0
 10
39.86433004215711
 20
109.3035916997371
 30
0.0
 10
39.9202944484284
 20
109.359556106008
 30
0.0
 10
39.9202944484284
 20
109.4285916997371
 30
0.0
  0
LINE
  5
BD
330
70
100
AcDbEntity
  8
0
 62
    18
420
        0
370
    25
100
AcDbLine
 10
39.92029543192844
 20
109.4285916923371
 30
0.0
 11
39.92029543192844
 21
109.562678743537
 31
0.0
  0
LINE
  5
BE
330
70
100
AcDbEntity
  8
0
 62
    18
420
        0
370
    25
100
AcDbLine
 10
39.92029543192844
 20
106.6785917072371
 30
0.0
 11
39.92029543192844
 21
106.5445046559371
 31
0.0
  0
SPLINE
  5
BF
330
70
100
AcDbEntity
  8
0
 62
    18
420
        0
370
    25
100
AcDbSpline
210
0.0
220
0.0
230
1.0
 70
     8
 71
     3
 72
     8
 73
     4
 74
     0
 42
0.0000000001
 43
0.0000000001
 40
0.0
 40
0.0
 40
0.0
 40
0.0
 40
1.0
 40
1.0
 40
1.0
 40
1.0
 10
39.9202944484284
 20
106.6785916997372
 30
0.0
 10
39.9202944484284
 20
106.747627293466
 30
0.0
 10
39.86433004215711
 20
106.803591699737
 30
0.0
 10
39.79529444842832
 20
106.803591699737
 30
0.0
  0
CIRCLE
  5
C0
330
70
100
AcDbEntity
  8
0
 62
    18
420
        0
370
    25
100
AcDbCircle
 10
38.60779444842824
 20
108.0535916997371
 30
0.0
 40
0.5374999999999789
  0
LINE
  5
C1
330
70
100
AcDbEntity
  8
0
 62
    18
420
        0
370
    25
100
AcDbLine
 10
37.47752945102829
 20
109.703591690837
 30
0.0
 11
39.73806168112824
 21
109.703591690837
 31
0.0
  0
CIRCLE
  5
C2
330
70
100
AcDbEntity
  8
0
 62
    18
420
        0
370
    25
100
AcDbCircle
 10
38.60779444842832
 20
108.0535916997371
 30
0.0
 40
0.4124999999999344
  0
LINE
  5
C3
330
70
100
AcDbEntity
  8
0
 62
    18
420
        0
370
    25
100
AcDbLine
 10
39.73806168112824
 20
106.4035917087371
 30
0.0
 11
37.47752945102829
 21
106.4035917087371
 31
0.0
  0
SPLINE
  5
C4
330
70
100
AcDbEntity
  8
0
 62
    18
420
        0
370
    25
100
AcDbSpline
210
0.0
220
0.0
230
1.0
 70
     8
 71
     3
 72
     8
 73
     4
 74
     0
 42
0.0000000001
 43
0.0000000001
 40
0.0
 40
0.0
 40
0.0
 40
0.0
 40
1.0
 40
1.0
 40
1.0
 40
1.0
 10
44.01178602873321
 20
103.8035916997381
 30
0.0
 10
44.70023265784995
 20
104.6789704732056
 30
0.0
 10
45.16571878724136
 20
105.708490396044
 30
0.0
 10
45.36820308992311
 20
106.803591699736
 30
0.0
  0
SPLINE
  5
C5
330
70
100
AcDbEntity
  8
0
 62
    18
420
        0
370
    25
100
AcDbSpline
210
0.0
220
0.0
230
1.0
 70
     8
 71
     3
 72
     8
 73
     4
 74
     0
 42
0.0000000001
 43
0.0000000001
 40
0.0
 40
0.0
 40
0.0
 40
0.0
 40
1.0
 40
1.0
 40
1.0
 40
1.0
 10
33.88914792638587
 20
103.0535916997351
 30
0.0
 10
36.5382126405156
 20
100.5535916997375
 30
0.0
 10
40.67737625634103
 20
100.5535916997375
 30
0.0
 10
43.32644097047043
 20
103.0535916997351
 30
0.0
  0
SPLINE
  5
C6
330
70
100
AcDbEntity
  8
0
 62
    18
420
        0
370
    25
100
AcDbSpline
210
0.0
220
0.0
230
1.0
 70
     8
 71
     3
 72
     8
 73
     4
 74
     0
 42
0.0000000001
 43
0.0000000001
 40
0.0
 40
0.0
 40
0.0
 40
0.0
 40
1.0
 40
1.0
 40
1.0
 40
1.0
 10
31.84738580693352
 20
106.803591699736
 30
0.0
 10
32.04987010961527
 20
105.708490396044
 30
0.0
 10
32.51535623900636
 20
104.6789704732056
 30
0.0
 10
33.20380286812309
 20
103.8035916997381
 30
0.0
  0
SPLINE
  5
C7
330
70
100
AcDbEntity
  8
0
 62
    18
420
        0
370
    25
100
AcDbSpline
210
0.0
220
0.0
230
1.0
 70
     8
 71
     3
 72
    11
 73
     7
 74
     0
 42
0.0000000001
 43
0.0000000001
 40
0.0
 40
0.0
 40
0.0
 40
0.0
 40
1.0
 40
1.0
 40
1.0
 40
2.0
 40
2.0
 40
2.0
 40
2.0
 10
45.36820308992311
 20
109.3035916997383
 30
0.0
 10
44.67784715263394
 20
113.0372622950603
 30
0.0
 10
41.09146504374907
 20
115.5043562785208
 30
0.0
 10
37.35779444842715
 20
114.814000341232
 30
0.0
 10
34.55681340360603
 20
114.2960987628361
 30
0.0
 10
32.36528738532909
 20
112.1045727445594
 30
0.0
 10
31.84738580693352
 20
109.3035916997383
 30
0.0
  0
SPLINE
  5
C8
330
70
100
AcDbEntity
  8
0
 62
    18
420
        0
370
    25
100
AcDbSpline
210
0.0
220
0.0
230
1.0
 70
     8
 71
     3
 72
     8
 73
     4
 74
     0
 42
0.0000000001
 43
0.0000000001
 40
0.0
 40
0.0
 40
0.0
 40
0.0
 40
1.0
 40
1.0
 40
1.0
 40
1.0
 10
13.73279730949017
 20
109.3035916717949
 30
0.0
 10
13.66376139553784
 20
109.3035901443073
 30
0.0
 10
13.60779621038219
 20
109.2476275651121
 30
0.0
 10
13.60779146823495
 20
109.1785916513057
 30
0.0
  0
LINE
  5
C9
330
70
100
AcDbEntity
  8
0
 62
    18
420
        0
370
    25
100
AcDbLine
 10
13.73279730952835
 20
109.3035916718369
 30
0.0
 11
14.85779772672814
 21
109.3035916718369
 31
0.0
  0
SPLINE
  5
CA
330
70
100
AcDbEntity
  8
0
 62
    18
420
        0
370
    25
100
AcDbSpline
210
0.0
220
0.0
230
1.0
 70
     8
 71
     3
 72
     8
 73
     4
 74
     0
 42
0.0000000001
 43
0.0000000001
 40
0.0
 40
0.0
 40
0.0
 40
0.0
 40
1.0
 40
1.0
 40
1.0
 40
1.0
 10
14.98279611736404
 20
109.1785916513554
 30
0.0
 10
14.98279537637138
 20
109.247626312992
 30
0.0
 10
14.92683238831014
 20
109.3035900307369
 30
0.0
 10
14.85779772668931
 20
109.3035916718446
 30
0.0
  0
SPLINE
  5
CB
330
70
100
AcDbEntity
  8
0
 62
    18
420
        0
370
    25
100
AcDbSpline
210
0.0
220
0.0
230
1.0
 70
     8
 71
     3
 72
     8
 73
     4
 74
     0
 42
0.0000000001
 43
0.0000000001
 40
0.0
 40
0.0
 40
0.0
 40
0.0
 40
1.0
 40
1.0
 40
1.0
 40
1.0
 10
14.85779772672076
 20
106.8035917276926
 30
0.0
 10
14.9268307308965
 20
106.803597369892
 30
0.0
 10
14.98279137528963
 20
106.8595587439383
 30
0.0
 10
14.98279611739548
 20
106.9285917481818
 30
0.0
  0
LINE
  5
CC
330
70
100
AcDbEntity
  8
0
 62
    18
420
        0
370
    25
100
AcDbLine
 10
14.85779772672814
 20
106.8035917277372
 30
0.0
 11
13.73279730952835
 21
106.8035917277372
 31
0.0
  0
SPLINE
  5
CD
330
70
100
AcDbEntity
  8
0
 62
    18
420
        0
370
    25
100
AcDbSpline
210
0.0
220
0.0
230
1.0
 70
     8
 71
     3
 72
     8
 73
     4
 74
     0
 42
0.0000000001
 43
0.0000000001
 40
0.0
 40
0.0
 40
0.0
 40
0.0
 40
1.0
 40
1.0
 40
1.0
 40
1.0
 10
13.60779146824715
 20
106.9285917481638
 30
0.0
 10
13.6077940390119
 20
106.8595549348443
 30
0.0
 10
13.66376049613824
 20
106.8035910837376
 30
0.0
 10
13.73279730950236
 20
106.8035917276746
 30
0.0
  0
LINE
  5
CE
330
70
100
AcDbEntity
  8
0
 62
    18
420
        0
370
    25
100
AcDbLine
 10
13.60779146822822
 20
109.1785916513371
 30
0.0
 11
13.60779146822822
 21
106.928591748237
 31
0.0
  0
LINE
  5
CF
330
70
100
AcDbEntity
  8
0
 62
    18
420
        0
370
    25
100
AcDbLine
 10
14.98279611742821
 20
109.1785916513371
 30
0.0
 11
14.98279611742821
 21
106.928591748237
 31
0.0
  0
SPLINE
  5
D0
330
70
100
AcDbEntity
  8
0
 62
    18
420
        0
370
    25
100
AcDbSpline
210
0.0
220
0.0
230
1.0
 70
     8
 71
     3
 72
     8
 73
     4
 74
     0
 42
0.0000000001
 43
0.0000000001
 40
0.0
 40
0.0
 40
0.0
 40
0.0
 40
1.0
 40
1.0
 40
1.0
 40
1.0
 10
112.2327938971563
 20
106.9285917481504
 30
0.0
 10
112.2327950955241
 20
106.8595565485666
 30
0.0
 10
112.28875895089
 20
106.8035927974408
 30
0.0
 10
112.3577941504764
 20
106.8035917276615
 30
0.0
  0
LINE
  5
D1
330
70
100
AcDbEntity
  8
0
 62
    18
420
        0
370
    25
100
AcDbLine
 10
112.2327938971281
 20
109.1785916513371
 30
0.0
 11
112.2327938971281
 21
106.928591748237
 31
0.0
  0
SPLINE
  5
D2
330
70
100
AcDbEntity
  8
0
 62
    18
420
        0
370
    25
100
AcDbSpline
210
0.0
220
0.0
230
1.0
 70
     8
 71
     3
 72
     8
 73
     4
 74
     0
 42
0.0000000001
 43
0.0000000001
 40
0.0
 40
0.0
 40
0.0
 40
0.0
 40
1.0
 40
1.0
 40
1.0
 40
1.0
 10
112.3577941504738
 20
109.3035916718126
 30
0.0
 10
112.2887586750955
 20
109.3035912678454
 30
0.0
 10
112.2327944297101
 20
109.247627126701
 30
0.0
 10
112.2327938971544
 20
109.1785916513237
 30
0.0
  0
LINE
  5
D3
330
70
100
AcDbEntity
  8
0
 62
    18
420
        0
370
    25
100
AcDbLine
 10
112.3577941504283
 20
109.3035916718369
 30
0.0
 11
113.4827945677282
 21
109.3035916718369
 31
0.0
  0
SPLINE
  5
D4
330
70
100
AcDbEntity
  8
0
 62
    18
420
        0
370
    25
100
AcDbSpline
210
0.0
220
0.0
230
1.0
 70
     8
 71
     3
 72
     8
 73
     4
 74
     0
 42
0.0000000001
 43
0.0000000001
 40
0.0
 40
0.0
 40
0.0
 40
0.0
 40
1.0
 40
1.0
 40
1.0
 40
1.0
 10
113.607794820968
 20
109.1785916512874
 30
0.0
 10
113.6077947420185
 20
109.2476273145565
 30
0.0
 10
113.551830230917
 20
109.3035917214162
 30
0.0
 10
113.482794567648
 20
109.3035916717766
 30
0.0
  0
LINE
  5
D5
330
70
100
AcDbEntity
  8
0
 62
    18
420
        0
370
    25
100
AcDbLine
 10
113.6077948210284
 20
109.1785916513371
 30
0.0
 11
113.6077948210284
 21
106.928591748237
 31
0.0
  0
SPLINE
  5
D6
330
70
100
AcDbEntity
  8
0
 62
    18
420
        0
370
    25
100
AcDbSpline
210
0.0
220
0.0
230
1.0
 70
     8
 71
     3
 72
    11
 73
     7
 74
     0
 42
0.0000000001
 43
0.0000000001
 40
0.0
 40
0.0
 40
0.0
 40
0.0
 40
1.0
 40
1.0
 40
1.0
 40
2.0
 40
2.0
 40
2.0
 40
2.0
 10
113.482794567689
 20
106.8035917276589
 30
0.0
 10
113.5518295934911
 20
106.8035910198289
 30
0.0
 10
113.6077941131766
 20
106.8595543918954
 30
0.0
 10
113.6077948210065
 20
106.9285894176977
 30
0.0
 10
113.6077948210142
 20
106.9285901945145
 30
0.0
 10
113.6077948210149
 20
106.928590971331
 30
0.0
 10
113.6077948210085
 20
106.9285917481481
 30
0.0
  0
LINE
  5
D7
330
70
100
AcDbEntity
  8
0
 62
    18
420
        0
370
    25
100
AcDbLine
 10
113.4827945677282
 20
106.8035917277372
 30
0.0
 11
112.3577941504283
 21
106.8035917277372
 31
0.0
  0
LINE
  5
D8
330
70
100
AcDbEntity
  8
0
 62
    18
420
        0
370
    25
100
AcDbLine
 10
14.98279611742821
 20
106.928591748237
 30
0.0
 11
17.35779534252817
 21
106.928591748237
 31
0.0
  0
LINE
  5
D9
330
70
100
AcDbEntity
  8
0
 62
    18
420
        0
370
    25
100
AcDbLine
 10
17.35779534252817
 20
106.928591748237
 30
0.0
 11
17.35779534252817
 21
106.8035917277372
 31
0.0
  0
LINE
  5
DA
330
70
100
AcDbEntity
  8
0
 62
    18
420
        0
370
    25
100
AcDbLine
 10
17.35779534252817
 20
106.8035917277372
 30
0.0
 11
14.85779772672814
 21
106.8035917277372
 31
0.0
  0
LINE
  5
DB
330
70
100
AcDbEntity
  8
0
 62
    18
420
        0
370
    25
100
AcDbLine
 10
17.35779534252817
 20
109.3035916718369
 30
0.0
 11
17.35779534252817
 21
109.1785916513371
 31
0.0
  0
LINE
  5
DC
330
70
100
AcDbEntity
  8
0
 62
    18
420
        0
370
    25
100
AcDbLine
 10
17.35779534252817
 20
109.1785916513371
 30
0.0
 11
14.98279611742821
 21
109.1785916513371
 31
0.0
  0
LINE
  5
DD
330
70
100
AcDbEntity
  8
0
 62
    18
420
        0
370
    25
100
AcDbLine
 10
14.85779772672814
 20
109.3035916718369
 30
0.0
 11
17.35779534252817
 21
109.3035916718369
 31
0.0
  0
LINE
  5
DE
330
70
100
AcDbEntity
  8
0
 62
    18
420
        0
370
    25
100
AcDbLine
 10
17.35779534252817
 20
109.1785916513371
 30
0.0
 11
17.35779534252817
 21
106.928591748237
 31
0.0
  0
LINE
  5
DF
330
70
100
AcDbEntity
  8
0
 62
    18
420
        0
370
    25
100
AcDbLine
 10
112.2327938971281
 20
109.1785916513371
 30
0.0
 11
109.8577946720284
 21
109.1785916513371
 31
0.0
  0
LINE
  5
E0
330
70
100
AcDbEntity
  8
0
 62
    18
420
        0
370
    25
100
AcDbLine
 10
109.8577946720284
 20
109.3035916718369
 30
0.0
 11
109.8577946720284
 21
109.1785916513371
 31
0.0
  0
LINE
  5
E1
330
70
100
AcDbEntity
  8
0
 62
    18
420
        0
370
    25
100
AcDbLine
 10
109.8577946720284
 20
109.3035916718369
 30
0.0
 11
112.3577941504283
 21
109.3035916718369
 31
0.0
  0
LINE
  5
E2
330
70
100
AcDbEntity
  8
0
 62
    18
420
        0
370
    25
100
AcDbLine
 10
109.8577946720284
 20
106.928591748237
 30
0.0
 11
112.2327938971281
 21
106.928591748237
 31
0.0
  0
LINE
  5
E3
330
70
100
AcDbEntity
  8
0
 62
    18
420
        0
370
    25
100
AcDbLine
 10
109.8577946720284
 20
106.928591748237
 30
0.0
 11
109.8577946720284
 21
106.8035917277372
 31
0.0
  0
LINE
  5
E4
330
70
100
AcDbEntity
  8
0
 62
    18
420
        0
370
    25
100
AcDbLine
 10
112.3577941504283
 20
106.8035917277372
 30
0.0
 11
109.8577946720284
 21
106.8035917277372
 31
0.0
  0
LINE
  5
E5
330
70
100
AcDbEntity
  8
0
 62
    18
420
        0
370
    25
100
AcDbLine
 10
109.8577946720284
 20
109.1785916513371
 30
0.0
 11
109.8577946720284
 21
106.928591748237
 31
0.0
  0
LINE
  5
E6
330
70
100
AcDbEntity
  8
0
 62
    18
420
        0
370
    25
100
AcDbLine
 10
17.35779534252817
 20
106.928591748237
 30
0.0
 11
109.8577946720284
 21
106.928591748237
 31
0.0
  0
LINE
  5
E7
330
70
100
AcDbEntity
  8
0
 62
    18
420
        0
370
    25
100
AcDbLine
 10
109.8577946720284
 20
106.8035917277372
 30
0.0
 11
17.35779534252817
 21
106.8035917277372
 31
0.0
  0
LINE
  5
E8
330
70
100
AcDbEntity
  8
0
 62
    18
420
        0
370
    25
100
AcDbLine
 10
17.35779534252817
 20
109.3035916718369
 30
0.0
 11
109.8577946720284
 21
109.3035916718369
 31
0.0
  0
LINE
  5
E9
330
70
100
AcDbEntity
  8
0
 62
    18
420
        0
370
    25
100
AcDbLine
 10
109.8577946720284
 20
109.1785916513371
 30
0.0
 11
17.35779534252817
 21
109.1785916513371
 31
0.0
  0
CIRCLE
  5
EA
330
70
100
AcDbEntity
  8
0
 62
    18
420
        0
370
    25
100
AcDbCircle
 10
88.60779444842815
 20
108.0535916997372
 30
0.0
 40
1.000000000000035
  0
CIRCLE
  5
EB
330
70
100
AcDbEntity
  8
0
 62
    18
420
        0
370
    25
100
AcDbCircle
 10
38.60779444842832
 20
108.0535916997372
 30
0.0
 40
1.000000000000035
  0
CIRCLE
  5
EC
330
70
100
AcDbEntity
  8
0
 62
    18
420
        0
370
    25
100
AcDbCircle
 10
38.60779444842832
 20
108.0535916997371
 30
0.0
 40
0.5624999999999396
  0
CIRCLE
  5
ED
330
70
100
AcDbEntity
  8
0
 62
    18
420
        0
370
    25
100
AcDbCircle
 10
88.60779444842831
 20
108.0535916997371
 30
0.0
 40
0.5624999999998595
  0
LINE
  5
EE
330
70
100
AcDbEntity
  8
0
 62
     8
420
  8421504
370
    25
100
AcDbLine
 10
89.92029443082836
 20
106.5445046559371
 30
0.0
 11
90.1690439383282
 21
106.8035917277372
 31
0.0
  0
LINE
  5
EF
330
70
100
AcDbEntity
  8
0
 62
     8
420
  8421504
370
    25
100
AcDbLine
 10
90.1690439383282
 20
109.3035916718369
 30
0.0
 11
89.92029443082836
 21
109.562678743537
 31
0.0
  0
LINE
  5
F0
330
70
100
AcDbEntity
  8
0
 62
     8
420
  8421504
370
    25
100
AcDbLine
 10
87.29529446612806
 20
109.562678743537
 30
0.0
 11
87.04654495852874
 21
109.3035916718369
 31
0.0
  0
LINE
  5
F1
330
70
100
AcDbEntity
  8
0
 62
     8
420
  8421504
370
    25
100
AcDbLine
 10
87.04654495852874
 20
106.8035917277372
 30
0.0
 11
87.29529446612806
 21
106.5445046559371
 31
0.0
  0
SPLINE
  5
F2
330
70
100
AcDbEntity
  8
0
 62
     8
420
  8421504
370
    25
100
AcDbSpline
210
0.0
220
0.0
230
1.0
 70
     8
 71
     3
 72
     8
 73
     4
 74
     0
 42
0.0000000001
 43
0.0000000001
 40
0.0
 40
0.0
 40
0.0
 40
0.0
 40
1.0
 40
1.0
 40
1.0
 40
1.0
 10
82.08826872982648
 20
106.8035916997315
 30
0.0
 10
82.2999630019833
 20
105.6994746982913
 30
0.0
 10
82.7886010531108
 20
104.6672082835907
 30
0.0
 10
83.50836157844133
 20
103.8035916997352
 30
0.0
  0
SPLINE
  5
F3
330
70
100
AcDbEntity
  8
0
 62
     8
420
  8421504
370
    25
100
AcDbSpline
210
0.0
220
0.0
230
1.0
 70
     8
 71
     3
 72
     8
 73
     4
 74
     0
 42
0.0000000001
 43
0.0000000001
 40
0.0
 40
0.0
 40
0.0
 40
0.0
 40
1.0
 40
1.0
 40
1.0
 40
1.0
 10
84.24124940737945
 20
103.0535916997357
 30
0.0
 10
86.74250465258946
 20
100.8692229622625
 30
0.0
 10
90.47308424426685
 20
100.8692229622625
 30
0.0
 10
92.97433948947686
 20
103.0535916997357
 30
0.0
  0
SPLINE
  5
F4
330
70
100
AcDbEntity
  8
0
 62
     8
420
  8421504
370
    25
100
AcDbSpline
210
0.0
220
0.0
230
1.0
 70
     8
 71
     3
 72
     8
 73
     4
 74
     0
 42
0.0000000001
 43
0.0000000001
 40
0.0
 40
0.0
 40
0.0
 40
0.0
 40
1.0
 40
1.0
 40
1.0
 40
1.0
 10
93.70722731841562
 20
103.8035916997352
 30
0.0
 10
94.42698784374549
 20
104.6672082835907
 30
0.0
 10
94.91562589487299
 20
105.6994746982913
 30
0.0
 10
95.12732016702983
 20
106.8035916997315
 30
0.0
  0
SPLINE
  5
F5
330
70
100
AcDbEntity
  8
0
 62
     8
420
  8421504
370
    25
100
AcDbSpline
210
0.0
220
0.0
230
1.0
 70
     8
 71
     3
 72
    11
 73
     7
 74
     0
 42
0.0000000001
 43
0.0000000001
 40
0.0
 40
0.0
 40
0.0
 40
0.0
 40
1.0
 40
1.0
 40
1.0
 40
2.0
 40
2.0
 40
2.0
 40
2.0
 10
95.12732016702983
 20
109.3035916997425
 30
0.0
 10
94.43696422973809
 20
112.9042263302557
 30
0.0
 10
90.95842907893569
 20
115.2634733556299
 30
0.0
 10
87.35779444842282
 20
114.5731174183385
 30
0.0
 10
84.68802899124833
 20
114.0612386459362
 30
0.0
 10
82.60014750222945
 20
111.973357156917
 30
0.0
 10
82.08826872982648
 20
109.3035916997425
 30
0.0
  0
LINE
  5
F6
330
70
100
AcDbEntity
  8
0
 62
     8
420
  8421504
370
    25
100
AcDbLine
 10
37.2952957001283
 20
109.562678743537
 30
0.0
 11
37.04654316582842
 21
109.3035916718369
 31
0.0
  0
LINE
  5
F7
330
70
100
AcDbEntity
  8
0
 62
     8
420
  8421504
370
    25
100
AcDbLine
 10
37.04654316582842
 20
106.8035917277372
 30
0.0
 11
37.2952957001283
 21
106.5445046559371
 31
0.0
  0
LINE
  5
F8
330
70
100
AcDbEntity
  8
0
 62
     8
420
  8421504
370
    25
100
AcDbLine
 10
39.92029543192844
 20
106.5445046559371
 30
0.0
 11
40.16904424102839
 21
106.8035917277372
 31
0.0
  0
LINE
  5
F9
330
70
100
AcDbEntity
  8
0
 62
     8
420
  8421504
370
    25
100
AcDbLine
 10
40.16904424102839
 20
109.3035916718369
 30
0.0
 11
39.92029543192844
 21
109.562678743537
 31
0.0
  0
SPLINE
  5
FA
330
70
100
AcDbEntity
  8
0
 62
     8
420
  8421504
370
    25
100
AcDbSpline
210
0.0
220
0.0
230
1.0
 70
     8
 71
     3
 72
    11
 73
     7
 74
     0
 42
0.0000000001
 43
0.0000000001
 40
0.0
 40
0.0
 40
0.0
 40
0.0
 40
1.0
 40
1.0
 40
1.0
 40
2.0
 40
2.0
 40
2.0
 40
2.0
 10
45.12732016702967
 20
109.3035916997425
 30
0.0
 10
44.43696422973824
 20
112.9042263302557
 30
0.0
 10
40.95842907893617
 20
115.2634733556299
 30
0.0
 10
37.35779444842298
 20
114.5731174183385
 30
0.0
 10
34.68802899124817
 20
114.0612386459362
 30
0.0
 10
32.60014750222896
 20
111.973357156917
 30
0.0
 10
32.08826872982696
 20
109.3035916997425
 30
0.0
  0
SPLINE
  5
FB
330
70
100
AcDbEntity
  8
0
 62
     8
420
  8421504
370
    25
100
AcDbSpline
210
0.0
220
0.0
230
1.0
 70
     8
 71
     3
 72
     8
 73
     4
 74
     0
 42
0.0000000001
 43
0.0000000001
 40
0.0
 40
0.0
 40
0.0
 40
0.0
 40
1.0
 40
1.0
 40
1.0
 40
1.0
 10
32.08826872982696
 20
106.8035916997315
 30
0.0
 10
32.29996300198346
 20
105.6994746982913
 30
0.0
 10
32.78860105311129
 20
104.6672082835907
 30
0.0
 10
33.50836157844117
 20
103.8035916997352
 30
0.0
  0
SPLINE
  5
FC
330
70
100
AcDbEntity
  8
0
 62
     8
420
  8421504
370
    25
100
AcDbSpline
210
0.0
220
0.0
230
1.0
 70
     8
 71
     3
 72
     8
 73
     4
 74
     0
 42
0.0000000001
 43
0.0000000001
 40
0.0
 40
0.0
 40
0.0
 40
0.0
 40
1.0
 40
1.0
 40
1.0
 40
1.0
 10
34.24124940737993
 20
103.0535916997357
 30
0.0
 10
36.74250465258995
 20
100.8692229622625
 30
0.0
 10
40.47308424426669
 20
100.8692229622625
 30
0.0
 10
42.9743394894767
 20
103.0535916997357
 30
0.0
  0
SPLINE
  5
FD
330
70
100
AcDbEntity
  8
0
 62
     8
420
  8421504
370
    25
100
AcDbSpline
210
0.0
220
0.0
230
1.0
 70
     8
 71
     3
 72
     8
 73
     4
 74
     0
 42
0.0000000001
 43
0.0000000001
 40
0.0
 40
0.0
 40
0.0
 40
0.0
 40
1.0
 40
1.0
 40
1.0
 40
1.0
 10
43.70722731841513
 20
103.8035916997352
 30
0.0
 10
44.42698784374534
 20
104.6672082835907
 30
0.0
 10
44.91562589487316
 20
105.6994746982913
 30
0.0
 10
45.12732016702967
 20
106.8035916997315
 30
0.0
  0
LINE
  5
FE
330
70
100
AcDbEntity
  8
0
 62
     8
420
  8421504
370
    25
100
AcDbLine
 10
14.29529379282821
 20
104.5535915917372
 30
0.0
 11
14.67029641542838
 21
104.5535915917372
 31
0.0
  0
LINE
  5
FF
330
70
100
AcDbEntity
  8
0
 62
     8
420
  8421504
370
    25
100
AcDbLine
 10
13.92029117022837
 20
104.5535915917372
 30
0.0
 11
14.29529379282821
 21
104.5535915917372
 31
0.0
  0
LINE
  5
100
330
70
100
AcDbEntity
  8
0
 62
     8
420
  8421504
370
    25
100
AcDbLine
 10
15.42029421002832
 20
103.4285916401372
 30
0.0
 11
15.42029421002832
 21
103.8035914688372
 31
0.0
  0
LINE
  5
101
330
70
100
AcDbEntity
  8
0
 62
     8
420
  8421504
370
    25
100
AcDbLine
 10
15.42029421002832
 20
103.053591811537
 30
0.0
 11
15.42029421002832
 21
103.4285916401372
 31
0.0
  0
LINE
  5
102
330
70
100
AcDbEntity
  8
0
 62
     8
420
  8421504
370
    25
100
AcDbLine
 10
111.7952939418284
 20
103.4285916401372
 30
0.0
 11
111.7952939418284
 21
103.8035914688372
 31
0.0
  0
LINE
  5
103
330
70
100
AcDbEntity
  8
0
 62
     8
420
  8421504
370
    25
100
AcDbLine
 10
111.7952939418284
 20
103.053591811537
 30
0.0
 11
111.7952939418284
 21
103.4285916401372
 31
0.0
  0
LINE
  5
104
330
70
100
AcDbEntity
  8
0
 62
     8
420
  8421504
370
    25
100
AcDbLine
 10
112.9202943590282
 20
104.5535915917372
 30
0.0
 11
112.5452935991282
 21
104.5535915917372
 31
0.0
  0
LINE
  5
105
330
70
100
AcDbEntity
  8
0
 62
     8
420
  8421504
370
    25
100
AcDbLine
 10
113.2952951190282
 20
104.5535915917372
 30
0.0
 11
112.9202943590282
 21
104.5535915917372
 31
0.0
  0
LINE
  5
106
330
70
100
AcDbEntity
  8
0
 62
     8
420
  8421504
370
    25
100
AcDbLine
 10
15.42029421002832
 20
99.67859149113699
 30
0.0
 11
15.42029421002832
 21
99.30359166253712
 31
0.0
  0
LINE
  5
107
330
70
100
AcDbEntity
  8
0
 62
     8
420
  8421504
370
    25
100
AcDbLine
 10
15.42029421002832
 20
100.0535913197372
 30
0.0
 11
15.42029421002832
 21
99.67859149113699
 31
0.0
  0
LINE
  5
108
330
70
100
AcDbEntity
  8
0
 62
     8
420
  8421504
370
    25
100
AcDbLine
 10
14.29529379282821
 20
100.8035919083371
 30
0.0
 11
13.92029117022837
 21
100.8035919083371
 31
0.0
  0
LINE
  5
109
330
70
100
AcDbEntity
  8
0
 62
     8
420
  8421504
370
    25
100
AcDbLine
 10
14.67029641542838
 20
100.8035919083371
 30
0.0
 11
14.29529379282821
 21
100.8035919083371
 31
0.0
  0
LINE
  5
10A
330
70
100
AcDbEntity
  8
0
 62
     8
420
  8421504
370
    25
100
AcDbLine
 10
111.7952939418284
 20
99.67859149113699
 30
0.0
 11
111.7952939418284
 21
99.30359166253712
 31
0.0
  0
LINE
  5
10B
330
70
100
AcDbEntity
  8
0
 62
     8
420
  8421504
370
    25
100
AcDbLine
 10
111.7952939418284
 20
100.0535913197372
 30
0.0
 11
111.7952939418284
 21
99.67859149113699
 31
0.0
  0
LINE
  5
10C
330
70
100
AcDbEntity
  8
0
 62
     8
420
  8421504
370
    25
100
AcDbLine
 10
112.9202943590282
 20
100.8035919083371
 30
0.0
 11
113.2952951190282
 21
100.8035919083371
 31
0.0
  0
LINE
  5
10D
330
70
100
AcDbEntity
  8
0
 62
     8
420
  8421504
370
    25
100
AcDbLine
 10
112.5452935991282
 20
100.8035919083371
 30
0.0
 11
112.9202943590282
 21
100.8035919083371
 31
0.0
  0
LINE
  5
10E
330
70
100
AcDbEntity
  8
0
 62
    18
420
        0
370
    25
100
AcDbLine
 10
95.4827944112287
 20
61.59274615033677
 30
0.0
 11
95.4827944112287
 21
62.6827085824371
 31
0.0
  0
LINE
  5
10F
330
70
100
AcDbEntity
  8
0
 62
    18
420
        0
370
    25
100
AcDbLine
 10
81.73279448572834
 20
62.6827085824371
 30
0.0
 11
81.73279448572834
 21
61.59274615033677
 31
0.0
  0
SPLINE
  5
110
330
70
100
AcDbEntity
  8
0
 62
    18
420
        0
370
    25
100
AcDbSpline
210
0.0
220
0.0
230
1.0
 70
     8
 71
     3
 72
     8
 73
     4
 74
     0
 42
0.0000000001
 43
0.0000000001
 40
0.0
 40
0.0
 40
0.0
 40
0.0
 40
1.0
 40
1.0
 40
1.0
 40
1.0
 10
81.73279444842831
 20
61.59274609363753
 30
0.0
 10
81.73279444842831
 20
61.45983408094346
 30
0.0
 10
81.83679343882969
 20
61.35015732985316
 30
0.0
 10
81.96951789532233
 20
61.34309887627342
 30
0.0
  0
SPLINE
  5
111
330
70
100
AcDbEntity
  8
0
 62
    18
420
        0
370
    25
100
AcDbSpline
210
0.0
220
0.0
230
1.0
 70
     8
 71
     3
 72
     8
 73
     4
 74
     0
 42
0.0000000001
 43
0.0000000001
 40
0.0
 40
0.0
 40
0.0
 40
0.0
 40
1.0
 40
1.0
 40
1.0
 40
1.0
 10
95.24607100153399
 20
61.34309887627342
 30
0.0
 10
95.37879545802725
 20
61.35015732985316
 30
0.0
 10
95.48279444842799
 20
61.45983408094346
 30
0.0
 10
95.48279444842799
 20
61.59274609363753
 30
0.0
  0
SPLINE
  5
112
330
70
100
AcDbEntity
  8
0
 62
    18
420
        0
370
    25
100
AcDbSpline
210
0.0
220
0.0
230
1.0
 70
     8
 71
     3
 72
     8
 73
     4
 74
     0
 42
0.0000000001
 43
0.0000000001
 40
0.0
 40
0.0
 40
0.0
 40
0.0
 40
1.0
 40
1.0
 40
1.0
 40
1.0
 10
81.96951789543012
 20
61.34309887630166
 30
0.0
 10
83.51448425853147
 20
61.26093562135667
 30
0.0
 10
85.06084290317964
 20
61.20746297595655
 30
0.0
 10
86.60779444850382
 20
61.18270858246688
 30
0.0
  0
SPLINE
  5
113
330
70
100
AcDbEntity
  8
0
 62
    18
420
        0
370
    25
100
AcDbSpline
210
0.0
220
0.0
230
1.0
 70
     8
 71
     3
 72
     8
 73
     4
 74
     0
 42
0.0000000001
 43
0.0000000001
 40
0.0
 40
0.0
 40
0.0
 40
0.0
 40
1.0
 40
1.0
 40
1.0
 40
1.0
 10
90.60779444835251
 20
61.18270858246688
 30
0.0
 10
92.15474599374918
 20
61.20746297595784
 30
0.0
 10
93.70110463847051
 20
61.26093562136116
 30
0.0
 10
95.24607100164436
 20
61.34309887631321
 30
0.0
  0
LINE
  5
114
330
70
100
AcDbEntity
  8
0
 62
    18
420
        0
370
    25
100
AcDbLine
 10
45.48279459752821
 20
61.59274615033677
 30
0.0
 11
45.48279459752821
 21
62.6827085824371
 31
0.0
  0
LINE
  5
115
330
70
100
AcDbEntity
  8
0
 62
    18
420
        0
370
    25
100
AcDbLine
 10
31.73279280932828
 20
62.6827085824371
 30
0.0
 11
31.73279280932828
 21
61.59274615033677
 31
0.0
  0
SPLINE
  5
116
330
70
100
AcDbEntity
  8
0
 62
    18
420
        0
370
    25
100
AcDbSpline
210
0.0
220
0.0
230
1.0
 70
     8
 71
     3
 72
     8
 73
     4
 74
     0
 42
0.0000000001
 43
0.0000000001
 40
0.0
 40
0.0
 40
0.0
 40
0.0
 40
1.0
 40
1.0
 40
1.0
 40
1.0
 10
31.73279444842815
 20
61.59274609363753
 30
0.0
 10
31.73279444842815
 20
61.45983408094346
 30
0.0
 10
31.83679343882921
 20
61.35015732985316
 30
0.0
 10
31.96951789532216
 20
61.34309887627342
 30
0.0
  0
SPLINE
  5
117
330
70
100
AcDbEntity
  8
0
 62
    18
420
        0
370
    25
100
AcDbSpline
210
0.0
220
0.0
230
1.0
 70
     8
 71
     3
 72
     8
 73
     4
 74
     0
 42
0.0000000001
 43
0.0000000001
 40
0.0
 40
0.0
 40
0.0
 40
0.0
 40
1.0
 40
1.0
 40
1.0
 40
1.0
 10
45.24607100153414
 20
61.34309887627342
 30
0.0
 10
45.37879545802709
 20
61.35015732985316
 30
0.0
 10
45.48279444842815
 20
61.45983408094346
 30
0.0
 10
45.48279444842815
 20
61.59274609363753
 30
0.0
  0
SPLINE
  5
118
330
70
100
AcDbEntity
  8
0
 62
    18
420
        0
370
    25
100
AcDbSpline
210
0.0
220
0.0
230
1.0
 70
     8
 71
     3
 72
     8
 73
     4
 74
     0
 42
0.0000000001
 43
0.0000000001
 40
0.0
 40
0.0
 40
0.0
 40
0.0
 40
1.0
 40
1.0
 40
1.0
 40
1.0
 10
31.96951789542997
 20
61.34309887630166
 30
0.0
 10
33.51448425853163
 20
61.26093562135667
 30
0.0
 10
35.06084290317981
 20
61.20746297595655
 30
0.0
 10
36.60779444850397
 20
61.18270858246688
 30
0.0
  0
SPLINE
  5
119
330
70
100
AcDbEntity
  8
0
 62
    18
420
        0
370
    25
100
AcDbSpline
210
0.0
220
0.0
230
1.0
 70
     8
 71
     3
 72
     8
 73
     4
 74
     0
 42
0.0000000001
 43
0.0000000001
 40
0.0
 40
0.0
 40
0.0
 40
0.0
 40
1.0
 40
1.0
 40
1.0
 40
1.0
 10
40.60779444835266
 20
61.18270858246688
 30
0.0
 10
42.15474599374966
 20
61.20746297595784
 30
0.0
 10
43.70110463847034
 20
61.26093562136116
 30
0.0
 10
45.24607100164452
 20
61.34309887631321
 30
0.0
  0
LINE
  5
11A
330
70
100
AcDbEntity
  8
0
 62
    18
420
        0
370
    25
100
AcDbLine
 10
111.7952939418284
 20
31.55770883583742
 30
0.0
 11
112.2327938971281
 21
31.55770883583742
 31
0.0
  0
LINE
  5
11B
330
70
100
AcDbEntity
  8
0
 62
    18
420
        0
370
    25
100
AcDbLine
 10
112.2327938971281
 20
32.30770849303716
 30
0.0
 11
111.7952939418284
 21
32.30770849303716
 31
0.0
  0
LINE
  5
11C
330
70
100
AcDbEntity
  8
0
 62
    18
420
        0
370
    25
100
AcDbLine
 10
14.98279611742821
 20
31.55770883583742
 30
0.0
 11
15.42029421002832
 21
31.55770883583742
 31
0.0
  0
LINE
  5
11D
330
70
100
AcDbEntity
  8
0
 62
    18
420
        0
370
    25
100
AcDbLine
 10
15.42029421002832
 20
32.30770849303716
 30
0.0
 11
14.98279611742821
 21
32.30770849303716
 31
0.0
  0
LINE
  5
11E
330
70
100
AcDbEntity
  8
0
 62
    18
420
        0
370
    25
100
AcDbLine
 10
15.42029421002832
 20
31.55770883583742
 30
0.0
 11
111.7952939418284
 21
31.55770883583742
 31
0.0
  0
LINE
  5
11F
330
70
100
AcDbEntity
  8
0
 62
    18
420
        0
370
    25
100
AcDbLine
 10
111.7952939418284
 20
32.30770849303716
 30
0.0
 11
15.42029421002832
 21
32.30770849303716
 31
0.0
  0
LINE
  5
120
330
70
100
AcDbEntity
  8
0
 62
    18
420
        0
370
    25
100
AcDbLine
 10
112.2327938971281
 20
36.55770779273719
 30
0.0
 11
111.7952939418284
 21
36.55770779273719
 31
0.0
  0
LINE
  5
121
330
70
100
AcDbEntity
  8
0
 62
    18
420
        0
370
    25
100
AcDbLine
 10
111.7952939418284
 20
35.8077081354367
 30
0.0
 11
112.2327938971281
 21
35.8077081354367
 31
0.0
  0
LINE
  5
122
330
70
100
AcDbEntity
  8
0
 62
    18
420
        0
370
    25
100
AcDbLine
 10
15.42029421002832
 20
36.55770779273719
 30
0.0
 11
14.98279611742821
 21
36.55770779273719
 31
0.0
  0
LINE
  5
123
330
70
100
AcDbEntity
  8
0
 62
    18
420
        0
370
    25
100
AcDbLine
 10
14.98279611742821
 20
35.8077081354367
 30
0.0
 11
15.42029421002832
 21
35.8077081354367
 31
0.0
  0
LINE
  5
124
330
70
100
AcDbEntity
  8
0
 62
    18
420
        0
370
    25
100
AcDbLine
 10
111.7952939418284
 20
36.55770779273719
 30
0.0
 11
15.42029421002832
 21
36.55770779273719
 31
0.0
  0
LINE
  5
125
330
70
100
AcDbEntity
  8
0
 62
    18
420
        0
370
    25
100
AcDbLine
 10
15.42029421002832
 20
35.8077081354367
 30
0.0
 11
111.7952939418284
 21
35.8077081354367
 31
0.0
  0
LINE
  5
126
330
70
100
AcDbEntity
  8
0
 62
    18
420
        0
370
    25
100
AcDbLine
 10
112.2327938971281
 20
29.93270926793752
 30
0.0
 11
113.6077948210284
 21
29.93270926793752
 31
0.0
  0
LINE
  5
127
330
70
100
AcDbEntity
  8
0
 62
    18
420
        0
370
    25
100
AcDbLine
 10
13.60779146822822
 20
29.93270926793752
 30
0.0
 11
14.98279611742821
 21
29.93270926793752
 31
0.0
  0
LINE
  5
128
330
70
100
AcDbEntity
  8
0
 62
    18
420
        0
370
    25
100
AcDbLine
 10
112.2327938971281
 20
40.80770895503735
 30
0.0
 11
111.7952939418284
 21
40.80770895503735
 31
0.0
  0
LINE
  5
129
330
70
100
AcDbEntity
  8
0
 62
    18
420
        0
370
    25
100
AcDbLine
 10
111.7952939418284
 20
40.05770929773684
 30
0.0
 11
112.2327938971281
 21
40.05770929773684
 31
0.0
  0
LINE
  5
12A
330
70
100
AcDbEntity
  8
0
 62
    18
420
        0
370
    25
100
AcDbLine
 10
15.42029421002832
 20
40.80770895503735
 30
0.0
 11
14.98279611742821
 21
40.80770895503735
 31
0.0
  0
LINE
  5
12B
330
70
100
AcDbEntity
  8
0
 62
    18
420
        0
370
    25
100
AcDbLine
 10
14.98279611742821
 20
40.05770929773684
 30
0.0
 11
15.42029421002832
 21
40.05770929773684
 31
0.0
  0
LINE
  5
12C
330
70
100
AcDbEntity
  8
0
 62
    18
420
        0
370
    25
100
AcDbLine
 10
111.7952939418284
 20
40.80770895503735
 30
0.0
 11
15.42029421002832
 21
40.80770895503735
 31
0.0
  0
LINE
  5
12D
330
70
100
AcDbEntity
  8
0
 62
    18
420
        0
370
    25
100
AcDbLine
 10
15.42029421002832
 20
40.05770929773684
 30
0.0
 11
111.7952939418284
 21
40.05770929773684
 31
0.0
  0
LINE
  5
12E
330
70
100
AcDbEntity
  8
0
 62
    18
420
        0
370
    25
100
AcDbLine
 10
112.2327938971281
 20
45.05770825463662
 30
0.0
 11
111.7952939418284
 21
45.05770825463662
 31
0.0
  0
LINE
  5
12F
330
70
100
AcDbEntity
  8
0
 62
    18
420
        0
370
    25
100
AcDbLine
 10
111.7952939418284
 20
44.30770859733741
 30
0.0
 11
112.2327938971281
 21
44.30770859733741
 31
0.0
  0
LINE
  5
130
330
70
100
AcDbEntity
  8
0
 62
    18
420
        0
370
    25
100
AcDbLine
 10
15.42029421002832
 20
45.05770825463662
 30
0.0
 11
14.98279611742821
 21
45.05770825463662
 31
0.0
  0
LINE
  5
131
330
70
100
AcDbEntity
  8
0
 62
    18
420
        0
370
    25
100
AcDbLine
 10
14.98279611742821
 20
44.30770859733741
 30
0.0
 11
15.42029421002832
 21
44.30770859733741
 31
0.0
  0
LINE
  5
132
330
70
100
AcDbEntity
  8
0
 62
    18
420
        0
370
    25
100
AcDbLine
 10
111.7952939418284
 20
45.05770825463662
 30
0.0
 11
15.42029421002832
 21
45.05770825463662
 31
0.0
  0
LINE
  5
133
330
70
100
AcDbEntity
  8
0
 62
    18
420
        0
370
    25
100
AcDbLine
 10
15.42029421002832
 20
44.30770859733741
 30
0.0
 11
111.7952939418284
 21
44.30770859733741
 31
0.0
  0
LINE
  5
134
330
70
100
AcDbEntity
  8
0
 62
    18
420
        0
370
    25
100
AcDbLine
 10
112.2327938971281
 20
49.30770848563704
 30
0.0
 11
111.7952939418284
 21
49.30770848563704
 31
0.0
  0
LINE
  5
135
330
70
100
AcDbEntity
  8
0
 62
    18
420
        0
370
    25
100
AcDbLine
 10
111.7952939418284
 20
48.55770882833719
 30
0.0
 11
112.2327938971281
 21
48.55770882833719
 31
0.0
  0
LINE
  5
136
330
70
100
AcDbEntity
  8
0
 62
    18
420
        0
370
    25
100
AcDbLine
 10
15.42029421002832
 20
49.30770848563704
 30
0.0
 11
14.98279611742821
 21
49.30770848563704
 31
0.0
  0
LINE
  5
137
330
70
100
AcDbEntity
  8
0
 62
    18
420
        0
370
    25
100
AcDbLine
 10
14.98279611742821
 20
48.55770882833719
 30
0.0
 11
15.42029421002832
 21
48.55770882833719
 31
0.0
  0
LINE
  5
138
330
70
100
AcDbEntity
  8
0
 62
    18
420
        0
370
    25
100
AcDbLine
 10
111.7952939418284
 20
49.30770848563704
 30
0.0
 11
15.42029421002832
 21
49.30770848563704
 31
0.0
  0
LINE
  5
139
330
70
100
AcDbEntity
  8
0
 62
    18
420
        0
370
    25
100
AcDbLine
 10
15.42029421002832
 20
48.55770882833719
 30
0.0
 11
111.7952939418284
 21
48.55770882833719
 31
0.0
  0
LINE
  5
13A
330
70
100
AcDbEntity
  8
0
 62
    18
420
        0
370
    25
100
AcDbLine
 10
112.2327938971281
 20
53.55770871653735
 30
0.0
 11
111.7952939418284
 21
53.55770871653735
 31
0.0
  0
LINE
  5
13B
330
70
100
AcDbEntity
  8
0
 62
    18
420
        0
370
    25
100
AcDbLine
 10
111.7952939418284
 20
52.80770812803723
 30
0.0
 11
112.2327938971281
 21
52.80770812803723
 31
0.0
  0
LINE
  5
13C
330
70
100
AcDbEntity
  8
0
 62
    18
420
        0
370
    25
100
AcDbLine
 10
15.42029421002832
 20
53.55770871653735
 30
0.0
 11
14.98279611742821
 21
53.55770871653735
 31
0.0
  0
LINE
  5
13D
330
70
100
AcDbEntity
  8
0
 62
    18
420
        0
370
    25
100
AcDbLine
 10
14.98279611742821
 20
52.80770812803723
 30
0.0
 11
15.42029421002832
 21
52.80770812803723
 31
0.0
  0
LINE
  5
13E
330
70
100
AcDbEntity
  8
0
 62
    18
420
        0
370
    25
100
AcDbLine
 10
111.7952939418284
 20
53.55770871653735
 30
0.0
 11
15.42029421002832
 21
53.55770871653735
 31
0.0
  0
LINE
  5
13F
330
70
100
AcDbEntity
  8
0
 62
    18
420
        0
370
    25
100
AcDbLine
 10
15.42029421002832
 20
52.80770812803723
 30
0.0
 11
111.7952939418284
 21
52.80770812803723
 31
0.0
  0
LINE
  5
140
330
70
100
AcDbEntity
  8
0
 62
    18
420
        0
370
    25
100
AcDbLine
 10
112.2030027506281
 20
57.80770848193698
 30
0.0
 11
111.7952939418284
 21
57.80770848193698
 31
0.0
  0
LINE
  5
141
330
70
100
AcDbEntity
  8
0
 62
    18
420
        0
370
    25
100
AcDbLine
 10
111.7952939418284
 20
57.05770835893753
 30
0.0
 11
112.2327938971281
 21
57.05770835893753
 31
0.0
  0
LINE
  5
142
330
70
100
AcDbEntity
  8
0
 62
    18
420
        0
370
    25
100
AcDbLine
 10
15.42029421002832
 20
57.80770848193698
 30
0.0
 11
15.01258353862843
 21
57.80770848193698
 31
0.0
  0
LINE
  5
143
330
70
100
AcDbEntity
  8
0
 62
    18
420
        0
370
    25
100
AcDbLine
 10
14.98279611742821
 20
57.05770835893753
 30
0.0
 11
15.42029421002832
 21
57.05770835893753
 31
0.0
  0
LINE
  5
144
330
70
100
AcDbEntity
  8
0
 62
    18
420
        0
370
    25
100
AcDbLine
 10
111.7952939418284
 20
57.80770848193698
 30
0.0
 11
15.42029421002832
 21
57.80770848193698
 31
0.0
  0
LINE
  5
145
330
70
100
AcDbEntity
  8
0
 62
    18
420
        0
370
    25
100
AcDbLine
 10
15.42029421002832
 20
57.05770835893753
 30
0.0
 11
111.7952939418284
 21
57.05770835893753
 31
0.0
  0
LINE
  5
146
330
70
100
AcDbEntity
  8
0
 62
    18
420
        0
370
    25
100
AcDbLine
 10
95.4827944112287
 20
62.6827085824371
 30
0.0
 11
81.73279448572834
 21
62.6827085824371
 31
0.0
  0
LINE
  5
147
330
70
100
AcDbEntity
  8
0
 62
    18
420
        0
370
    25
100
AcDbLine
 10
90.26138899542868
 20
61.18270856943718
 30
0.0
 11
89.92029443082836
 21
61.18270856943718
 31
0.0
  0
LINE
  5
148
330
70
100
AcDbEntity
  8
0
 62
    18
420
        0
370
    25
100
AcDbLine
 10
89.92029443082836
 20
61.18290170243707
 30
0.0
 11
89.92029443082836
 21
61.18270856943718
 31
0.0
  0
SPLINE
  5
149
330
70
100
AcDbEntity
  8
0
 62
    18
420
        0
370
    25
100
AcDbSpline
210
0.0
220
0.0
230
1.0
 70
     8
 71
     3
 72
     8
 73
     4
 74
     0
 42
0.0000000001
 43
0.0000000001
 40
0.0
 40
0.0
 40
0.0
 40
0.0
 40
1.0
 40
1.0
 40
1.0
 40
1.0
 10
89.92029443075777
 20
61.18290170244861
 30
0.0
 10
89.87863965981558
 20
61.18421547367216
 30
0.0
 10
89.83695567002012
 20
61.18432805525171
 30
0.0
 10
89.79529441026857
 20
61.18323930688168
 30
0.0
  0
LWPOLYLINE
  5
14A
330
70
100
AcDbEntity
  8
0
 62
    18
420
        0
370
    25
100
AcDbPolyline
 90
        9
 70
     0
 43
0.0
 10
89.73805986502835
 20
61.18270856943718
 10
89.74521428502864
 20
61.18277352913724
 10
89.75236858862791
 20
61.18283883813719
 10
89.75952289222849
 20
61.18290449643703
 10
89.76667719582842
 20
61.182970620337
 10
89.77383149952846
 20
61.18303720993722
 10
89.78098580312838
 20
61.18310414873659
 10
89.78814010672831
 20
61.18317155313738
 10
89.79529441032823
 20
61.18323930693687
  0
LINE
  5
14B
330
70
100
AcDbEntity
  8
0
 62
    18
420
        0
370
    25
100
AcDbLine
 10
89.73805986502835
 20
61.18270856943718
 30
0.0
 11
87.47752903192871
 21
61.18270856943718
 31
0.0
  0
LWPOLYLINE
  5
14C
330
70
100
AcDbEntity
  8
0
 62
    18
420
        0
370
    25
100
AcDbPolyline
 90
        9
 70
     0
 43
0.0
 10
87.42029448662817
 20
61.18323930693687
 10
87.4274487902281
 20
61.18317155313738
 10
87.43460309382866
 20
61.18310414873659
 10
87.44175739742797
 20
61.18303720993722
 10
87.44891170102853
 20
61.182970620337
 10
87.45606600462782
 20
61.18290449643703
 10
87.46322030822838
 20
61.18283883813719
 10
87.47037461182832
 20
61.18277352913724
 10
87.47752903192871
 20
61.18270856943718
  0
SPLINE
  5
14D
330
70
100
AcDbEntity
  8
0
 62
    18
420
        0
370
    25
100
AcDbSpline
210
0.0
220
0.0
230
1.0
 70
     8
 71
     3
 72
     8
 73
     4
 74
     0
 42
0.0000000001
 43
0.0000000001
 40
0.0
 40
0.0
 40
0.0
 40
0.0
 40
1.0
 40
1.0
 40
1.0
 40
1.0
 10
87.42029448669169
 20
61.18323930692404
 30
0.0
 10
87.3786300927383
 20
61.18400804033604
 30
0.0
 10
87.33695409990664
 20
61.1838954803548
 30
0.0
 10
87.29529446620507
 20
61.18290170249096
 30
0.0
  0
LINE
  5
14E
330
70
100
AcDbEntity
  8
0
 62
    18
420
        0
370
    25
100
AcDbLine
 10
87.29529446612806
 20
61.18270856943718
 30
0.0
 11
87.29529446612806
 21
61.18290170243707
 31
0.0
  0
LINE
  5
14F
330
70
100
AcDbEntity
  8
0
 62
    18
420
        0
370
    25
100
AcDbLine
 10
87.29529446612806
 20
61.18270856943718
 30
0.0
 11
86.95419990152839
 21
61.18270856943718
 31
0.0
  0
LINE
  5
150
330
70
100
AcDbEntity
  8
0
 62
    18
420
        0
370
    25
100
AcDbLine
 10
89.92029443082836
 20
61.18270856943718
 30
0.0
 11
89.79529441032823
 21
61.18270856943718
 31
0.0
  0
LINE
  5
151
330
70
100
AcDbEntity
  8
0
 62
    18
420
        0
370
    25
100
AcDbLine
 10
87.42029448662817
 20
61.18270856943718
 30
0.0
 11
87.29529446612806
 21
61.18270856943718
 31
0.0
  0
LINE
  5
152
330
70
100
AcDbEntity
  8
0
 62
    18
420
        0
370
    25
100
AcDbLine
 10
87.42029448662817
 20
61.18270856943718
 30
0.0
 11
87.47752903192871
 21
61.18270856943718
 31
0.0
  0
LINE
  5
153
330
70
100
AcDbEntity
  8
0
 62
    18
420
        0
370
    25
100
AcDbLine
 10
89.73805986502835
 20
61.18270856943718
 30
0.0
 11
89.79529441032823
 21
61.18270856943718
 31
0.0
  0
LINE
  5
154
330
70
100
AcDbEntity
  8
0
 62
    18
420
        0
370
    25
100
AcDbLine
 10
45.48279459752821
 20
62.6827085824371
 30
0.0
 11
31.73279280932828
 21
62.6827085824371
 31
0.0
  0
LINE
  5
155
330
70
100
AcDbEntity
  8
0
 62
    18
420
        0
370
    25
100
AcDbLine
 10
39.92029543192844
 20
61.18290170243707
 30
0.0
 11
39.92029543192844
 21
61.18270856943718
 31
0.0
  0
SPLINE
  5
156
330
70
100
AcDbEntity
  8
0
 62
    18
420
        0
370
    25
100
AcDbSpline
210
0.0
220
0.0
230
1.0
 70
     8
 71
     3
 72
     8
 73
     4
 74
     0
 42
0.0000000001
 43
0.0000000001
 40
0.0
 40
0.0
 40
0.0
 40
0.0
 40
1.0
 40
1.0
 40
1.0
 40
1.0
 10
39.92029543192458
 20
61.18290170243835
 30
0.0
 10
39.87863996051622
 20
61.18421537001659
 30
0.0
 10
39.83695527550756
 20
61.18432795158652
 30
0.0
 10
39.79529331595882
 20
61.18323930687141
 30
0.0
  0
LWPOLYLINE
  5
157
330
70
100
AcDbEntity
  8
0
 62
    18
420
        0
370
    25
100
AcDbPolyline
 90
        9
 70
     0
 43
0.0
 10
39.73806168112824
 20
61.18270856943718
 10
39.74521423852839
 20
61.18277352913724
 10
39.75236679582813
 20
61.18283883813719
 10
39.75952307852832
 20
61.18290449643703
 10
39.76667563592816
 20
61.182970620337
 10
39.77383191852825
 20
61.18303720993722
 10
39.78098447592841
 20
61.18310414873659
 10
39.78814075862828
 20
61.18317155313738
 10
39.79529331602844
 20
61.18323930693687
  0
LINE
  5
158
330
70
100
AcDbEntity
  8
0
 62
    18
420
        0
370
    25
100
AcDbLine
 10
39.73806168112824
 20
61.18270856943718
 30
0.0
 11
37.47752945102829
 21
61.18270856943718
 31
0.0
  0
LWPOLYLINE
  5
159
330
70
100
AcDbEntity
  8
0
 62
    18
420
        0
370
    25
100
AcDbPolyline
 90
        9
 70
     0
 43
0.0
 10
37.42029409082837
 20
61.18323930693687
 10
37.42745037352824
 20
61.18317155313738
 10
37.4346029309284
 20
61.18310414873659
 10
37.44175921352816
 20
61.18303720993722
 10
37.44891177092833
 20
61.182970620337
 10
37.45606432832817
 20
61.18290449643703
 10
37.46322061092826
 20
61.18283883813719
 10
37.47037316832841
 20
61.18277352913724
 10
37.47752945102829
 20
61.18270856943718
  0
SPLINE
  5
15A
330
70
100
AcDbEntity
  8
0
 62
    18
420
        0
370
    25
100
AcDbSpline
210
0.0
220
0.0
230
1.0
 70
     8
 71
     3
 72
     8
 73
     4
 74
     0
 42
0.0000000001
 43
0.0000000001
 40
0.0
 40
0.0
 40
0.0
 40
0.0
 40
1.0
 40
1.0
 40
1.0
 40
1.0
 10
37.42029409089158
 20
61.18323930690543
 30
0.0
 10
37.37863024040657
 20
61.18400806169628
 30
0.0
 10
37.33695479027101
 20
61.18389550171375
 30
0.0
 10
37.29529570021557
 20
61.18290170247171
 30
0.0
  0
LINE
  5
15B
330
70
100
AcDbEntity
  8
0
 62
    18
420
        0
370
    25
100
AcDbLine
 10
37.2952957001283
 20
61.18270856943718
 30
0.0
 11
37.2952957001283
 21
61.18290170243707
 31
0.0
  0
LINE
  5
15C
330
70
100
AcDbEntity
  8
0
 62
    18
420
        0
370
    25
100
AcDbLine
 10
37.2952957001283
 20
61.18270856943718
 30
0.0
 11
36.95420066982838
 21
61.18270856943718
 31
0.0
  0
LINE
  5
15D
330
70
100
AcDbEntity
  8
0
 62
    18
420
        0
370
    25
100
AcDbLine
 10
40.26139046222835
 20
61.18270856943718
 30
0.0
 11
39.92029543192844
 21
61.18270856943718
 31
0.0
  0
LINE
  5
15E
330
70
100
AcDbEntity
  8
0
 62
    18
420
        0
370
    25
100
AcDbLine
 10
37.42029409082837
 20
61.18270856943718
 30
0.0
 11
37.2952957001283
 21
61.18270856943718
 31
0.0
  0
LINE
  5
15F
330
70
100
AcDbEntity
  8
0
 62
    18
420
        0
370
    25
100
AcDbLine
 10
39.92029543192844
 20
61.18270856943718
 30
0.0
 11
39.79529331602812
 21
61.18270856943718
 31
0.0
  0
LINE
  5
160
330
70
100
AcDbEntity
  8
0
 62
    18
420
        0
370
    25
100
AcDbLine
 10
37.42029409082837
 20
61.18270856943718
 30
0.0
 11
37.47752945102829
 21
61.18270856943718
 31
0.0
  0
LINE
  5
161
330
70
100
AcDbEntity
  8
0
 62
    18
420
        0
370
    25
100
AcDbLine
 10
39.73806168112824
 20
61.18270856943718
 30
0.0
 11
39.79529331602812
 21
61.18270856943718
 31
0.0
  0
SPLINE
  5
162
330
70
100
AcDbEntity
  8
0
 62
    18
420
        0
370
    25
100
AcDbSpline
210
0.0
220
0.0
230
1.0
 70
     8
 71
     3
 72
     8
 73
     4
 74
     0
 42
0.0000000001
 43
0.0000000001
 40
0.0
 40
0.0
 40
0.0
 40
0.0
 40
1.0
 40
1.0
 40
1.0
 40
1.0
 10
17.35779444842837
 20
61.18270858243736
 30
0.0
 10
15.28672663656277
 20
61.18270858243736
 30
0.0
 10
13.60779444842839
 20
59.503776394303
 30
0.0
 10
13.60779444842839
 20
57.43270858243675
 30
0.0
  0
LINE
  5
163
330
70
100
AcDbEntity
  8
0
 62
    18
420
        0
370
    25
100
AcDbLine
 10
17.35779534252817
 20
61.18270856943718
 30
0.0
 11
17.35779534252817
 21
61.05770854893705
 31
0.0
  0
SPLINE
  5
164
330
70
100
AcDbEntity
  8
0
 62
    18
420
        0
370
    25
100
AcDbSpline
210
0.0
220
0.0
230
1.0
 70
     8
 71
     3
 72
     8
 73
     4
 74
     0
 42
0.0000000001
 43
0.0000000001
 40
0.0
 40
0.0
 40
0.0
 40
0.0
 40
1.0
 40
1.0
 40
1.0
 40
1.0
 10
17.35779444842837
 20
61.05770858243696
 30
0.0
 10
15.35576223029155
 20
61.05770858243696
 30
0.0
 10
13.73279444842816
 20
59.43474080057356
 30
0.0
 10
13.73279444842816
 20
57.43270858243675
 30
0.0
  0
LINE
  5
165
330
70
100
AcDbEntity
  8
0
 62
    18
420
        0
370
    25
100
AcDbLine
 10
13.60779146822822
 20
57.43270865323669
 30
0.0
 11
13.73279730952835
 21
57.43270865323669
 31
0.0
  0
LINE
  5
166
330
70
100
AcDbEntity
  8
0
 62
    18
420
        0
370
    25
100
AcDbLine
 10
17.35779534252817
 20
61.18270856943718
 30
0.0
 11
36.95420066982838
 21
61.18270856943718
 31
0.0
  0
LINE
  5
167
330
70
100
AcDbEntity
  8
0
 62
    18
420
        0
370
    25
100
AcDbLine
 10
40.26139046222835
 20
61.18270856943718
 30
0.0
 11
86.95419990152839
 21
61.18270856943718
 31
0.0
  0
LINE
  5
168
330
70
100
AcDbEntity
  8
0
 62
    18
420
        0
370
    25
100
AcDbLine
 10
90.26138899542868
 20
61.18270856943718
 30
0.0
 11
109.8577946720284
 21
61.18270856943718
 31
0.0
  0
LINE
  5
169
330
70
100
AcDbEntity
  8
0
 62
    18
420
        0
370
    25
100
AcDbLine
 10
109.8577946720284
 20
61.18270856943718
 30
0.0
 11
109.8577946720284
 21
61.05770854893705
 31
0.0
  0
LINE
  5
16A
330
70
100
AcDbEntity
  8
0
 62
    18
420
        0
370
    25
100
AcDbLine
 10
109.8577946720284
 20
61.05770854893705
 30
0.0
 11
17.35779534252817
 21
61.05770854893705
 31
0.0
  0
SPLINE
  5
16B
330
70
100
AcDbEntity
  8
0
 62
    18
420
        0
370
    25
100
AcDbSpline
210
0.0
220
0.0
230
1.0
 70
     8
 71
     3
 72
     8
 73
     4
 74
     0
 42
0.0000000001
 43
0.0000000001
 40
0.0
 40
0.0
 40
0.0
 40
0.0
 40
1.0
 40
1.0
 40
1.0
 40
1.0
 10
113.6077944484284
 20
57.43270858243675
 30
0.0
 10
113.6077944484284
 20
59.503776394303
 30
0.0
 10
111.928862260294
 20
61.18270858243736
 30
0.0
 10
109.8577944484284
 20
61.18270858243736
 30
0.0
  0
LINE
  5
16C
330
70
100
AcDbEntity
  8
0
 62
    18
420
        0
370
    25
100
AcDbLine
 10
113.6077948210284
 20
57.43270865323669
 30
0.0
 11
113.4827945677282
 21
57.43270865323669
 31
0.0
  0
SPLINE
  5
16D
330
70
100
AcDbEntity
  8
0
 62
    18
420
        0
370
    25
100
AcDbSpline
210
0.0
220
0.0
230
1.0
 70
     8
 71
     3
 72
     8
 73
     4
 74
     0
 42
0.0000000001
 43
0.0000000001
 40
0.0
 40
0.0
 40
0.0
 40
0.0
 40
1.0
 40
1.0
 40
1.0
 40
1.0
 10
113.482794448428
 20
57.43270858243675
 30
0.0
 10
113.482794448428
 20
59.43474080057356
 30
0.0
 10
111.8598266665646
 20
61.05770858243696
 30
0.0
 10
109.8577944484284
 20
61.05770858243696
 30
0.0
  0
LINE
  5
16E
330
70
100
AcDbEntity
  8
0
 62
    18
420
        0
370
    25
100
AcDbLine
 10
17.35779534252817
 20
59.9327085973374
 30
0.0
 11
109.8577946720284
 21
59.9327085973374
 31
0.0
  0
LINE
  5
16F
330
70
100
AcDbEntity
  8
0
 62
    18
420
        0
370
    25
100
AcDbLine
 10
17.35779534252817
 20
61.05770854893705
 30
0.0
 11
17.35779534252817
 21
59.9327085973374
 31
0.0
  0
LINE
  5
170
330
70
100
AcDbEntity
  8
0
 62
    18
420
        0
370
    25
100
AcDbLine
 10
109.8577946720284
 20
59.9327085973374
 30
0.0
 11
109.8577946720284
 21
61.05770854893705
 31
0.0
  0
SPLINE
  5
171
330
70
100
AcDbEntity
  8
0
 62
    18
420
        0
370
    25
100
AcDbSpline
210
0.0
220
0.0
230
1.0
 70
     8
 71
     3
 72
     8
 73
     4
 74
     0
 42
0.0000000001
 43
0.0000000001
 40
0.0
 40
0.0
 40
0.0
 40
0.0
 40
1.0
 40
1.0
 40
1.0
 40
1.0
 10
17.35779444842837
 20
59.93270858243715
 30
0.0
 10
15.9770825738513
 20
59.93270858243715
 30
0.0
 10
14.85779444842828
 20
58.81342045701382
 30
0.0
 10
14.85779444842828
 20
57.43270858243675
 30
0.0
  0
LINE
  5
172
330
70
100
AcDbEntity
  8
0
 62
    18
420
        0
370
    25
100
AcDbLine
 10
14.85779772672814
 20
57.43270865323669
 30
0.0
 11
13.73279730952835
 21
57.43270865323669
 31
0.0
  0
SPLINE
  5
173
330
70
100
AcDbEntity
  8
0
 62
    18
420
        0
370
    25
100
AcDbSpline
210
0.0
220
0.0
230
1.0
 70
     8
 71
     3
 72
     8
 73
     4
 74
     0
 42
0.0000000001
 43
0.0000000001
 40
0.0
 40
0.0
 40
0.0
 40
0.0
 40
1.0
 40
1.0
 40
1.0
 40
1.0
 10
112.3577944484282
 20
57.43270858243675
 30
0.0
 10
112.3577944484282
 20
58.81342045701382
 30
0.0
 10
111.2385063230055
 20
59.93270858243715
 30
0.0
 10
109.8577944484284
 20
59.93270858243715
 30
0.0
  0
LINE
  5
174
330
70
100
AcDbEntity
  8
0
 62
    18
420
        0
370
    25
100
AcDbLine
 10
113.4827945677282
 20
57.43270865323669
 30
0.0
 11
112.3577941504283
 21
57.43270865323669
 31
0.0
  0
LINE
  5
175
330
70
100
AcDbEntity
  8
0
 62
    18
420
        0
370
    25
100
AcDbLine
 10
112.3577941504283
 20
57.43270865323669
 30
0.0
 11
112.2327938971281
 21
57.43270865323669
 31
0.0
  0
SPLINE
  5
176
330
70
100
AcDbEntity
  8
0
 62
    18
420
        0
370
    25
100
AcDbSpline
210
0.0
220
0.0
230
1.0
 70
     8
 71
     3
 72
     8
 73
     4
 74
     0
 42
0.0000000001
 43
0.0000000001
 40
0.0
 40
0.0
 40
0.0
 40
0.0
 40
1.0
 40
1.0
 40
1.0
 40
1.0
 10
112.2327944484284
 20
57.43270858243675
 30
0.0
 10
112.2327944484284
 20
58.74438486328503
 30
0.0
 10
111.1694707292767
 20
59.80770858243739
 30
0.0
 10
109.8577944484284
 20
59.80770858243739
 30
0.0
  0
LINE
  5
177
330
70
100
AcDbEntity
  8
0
 62
    18
420
        0
370
    25
100
AcDbLine
 10
109.8577946720284
 20
59.9327085973374
 30
0.0
 11
109.8577946720284
 21
59.80770857683665
 31
0.0
  0
LINE
  5
178
330
70
100
AcDbEntity
  8
0
 62
    18
420
        0
370
    25
100
AcDbLine
 10
109.8577946720284
 20
59.80770857683665
 30
0.0
 11
17.35779534252817
 21
59.80770857683665
 31
0.0
  0
LINE
  5
179
330
70
100
AcDbEntity
  8
0
 62
    18
420
        0
370
    25
100
AcDbLine
 10
17.35779534252817
 20
59.9327085973374
 30
0.0
 11
17.35779534252817
 21
59.80770857683665
 31
0.0
  0
SPLINE
  5
17A
330
70
100
AcDbEntity
  8
0
 62
    18
420
        0
370
    25
100
AcDbSpline
210
0.0
220
0.0
230
1.0
 70
     8
 71
     3
 72
     8
 73
     4
 74
     0
 42
0.0000000001
 43
0.0000000001
 40
0.0
 40
0.0
 40
0.0
 40
0.0
 40
1.0
 40
1.0
 40
1.0
 40
1.0
 10
17.35779444842837
 20
59.80770858243739
 30
0.0
 10
16.04611816758009
 20
59.80770858243739
 30
0.0
 10
14.98279444842836
 20
58.74438486328503
 30
0.0
 10
14.98279444842836
 20
57.43270858243675
 30
0.0
  0
LINE
  5
17B
330
70
100
AcDbEntity
  8
0
 62
    18
420
        0
370
    25
100
AcDbLine
 10
14.85779772672814
 20
57.43270865323669
 30
0.0
 11
14.98279611742821
 21
57.43270865323669
 31
0.0
  0
LINE
  5
17C
330
70
100
AcDbEntity
  8
0
 62
    18
420
        0
370
    25
100
AcDbLine
 10
112.2327938971281
 20
30.13362907483655
 30
0.0
 11
112.2327938971281
 21
57.43270865323669
 31
0.0
  0
LINE
  5
17D
330
70
100
AcDbEntity
  8
0
 62
    18
420
        0
370
    25
100
AcDbLine
 10
112.3577941504283
 20
57.43270865323669
 30
0.0
 11
112.3577941504283
 21
30.18270977453662
 31
0.0
  0
LWPOLYLINE
  5
17E
330
70
100
AcDbEntity
  8
0
 62
    18
420
        0
370
    25
100
AcDbPolyline
 90
        6
 70
     0
 43
0.0
 10
112.3577941504283
 20
30.18270977453662
 10
112.3187177178285
 20
30.18010579663736
 10
112.2840818313282
 20
30.17280050233728
 10
112.2563209680281
 20
30.16156502683678
 10
112.2380204794283
 20
30.14706619703672
 10
112.2327938971281
 20
30.13362907483655
  0
LINE
  5
17F
330
70
100
AcDbEntity
  8
0
 62
    18
420
        0
370
    25
100
AcDbLine
 10
14.85779772672814
 20
30.18270977453662
 30
0.0
 11
14.85779772672814
 21
57.43270865323669
 31
0.0
  0
LINE
  5
180
330
70
100
AcDbEntity
  8
0
 62
    18
420
        0
370
    25
100
AcDbLine
 10
14.98279611742821
 20
57.43270865323669
 30
0.0
 11
14.98279611742821
 21
30.13362907483655
 31
0.0
  0
LWPOLYLINE
  5
181
330
70
100
AcDbEntity
  8
0
 62
    18
420
        0
370
    25
100
AcDbPolyline
 90
        6
 70
     0
 43
0.0
 10
14.98279611742821
 20
30.13362907483655
 10
14.97487615022844
 20
30.15014328673703
 10
14.95177935042828
 20
30.1653163941375
 10
14.91669456632824
 20
30.17660774903677
 10
14.87623046312844
 20
30.18213980513688
 10
14.85779772672814
 20
30.18270977453662
  0
LINE
  5
182
330
70
100
AcDbEntity
  8
0
 62
    18
420
        0
370
    25
100
AcDbLine
 10
13.73279730952835
 20
30.18270977453662
 30
0.0
 11
14.85779772672814
 21
30.18270977453662
 31
0.0
  0
LINE
  5
183
330
70
100
AcDbEntity
  8
0
 62
    18
420
        0
370
    25
100
AcDbLine
 10
13.73279730952835
 20
57.43270865323669
 30
0.0
 11
13.73279730952835
 21
30.18270977453662
 31
0.0
  0
LINE
  5
184
330
70
100
AcDbEntity
  8
0
 62
    18
420
        0
370
    25
100
AcDbLine
 10
113.4827945677282
 20
30.18270977453662
 30
0.0
 11
113.4827945677282
 21
57.43270865323669
 31
0.0
  0
LINE
  5
185
330
70
100
AcDbEntity
  8
0
 62
    18
420
        0
370
    25
100
AcDbLine
 10
112.3577941504283
 20
30.18270977453662
 30
0.0
 11
113.4827945677282
 21
30.18270977453662
 31
0.0
  0
LINE
  5
186
330
70
100
AcDbEntity
  8
0
 62
    18
420
        0
370
    25
100
AcDbLine
 10
13.60779146822822
 20
30.13362907483655
 30
0.0
 11
13.60779146822822
 21
57.43270865323669
 31
0.0
  0
LWPOLYLINE
  5
187
330
70
100
AcDbEntity
  8
0
 62
    18
420
        0
370
    25
100
AcDbPolyline
 90
        6
 70
     0
 43
0.0
 10
13.73279730952835
 20
30.18270977453662
 10
13.69371901422841
 20
30.18010579663736
 10
13.65908126502813
 20
30.17280050233728
 10
13.63132040172833
 20
30.16156502683678
 10
13.61302177582821
 20
30.14706619703672
 10
13.60779146822822
 20
30.13362907483655
  0
LINE
  5
188
330
70
100
AcDbEntity
  8
0
 62
    18
420
        0
370
    25
100
AcDbLine
 10
113.6077948210284
 20
57.43270865323669
 30
0.0
 11
113.6077948210284
 21
30.13362907483655
 31
0.0
  0
LWPOLYLINE
  5
189
330
70
100
AcDbEntity
  8
0
 62
    18
420
        0
370
    25
100
AcDbPolyline
 90
        6
 70
     0
 43
0.0
 10
113.6077948210284
 20
30.13362907483655
 10
113.5998767164284
 20
30.15014328673703
 10
113.5767799166282
 20
30.1653163941375
 10
113.5416914073279
 20
30.17660774903677
 10
113.501229166728
 20
30.18213980513688
 10
113.4827945677282
 20
30.18270977453662
  0
LINE
  5
18A
330
70
100
AcDbEntity
  8
0
 62
    18
420
        0
370
    25
100
AcDbLine
 10
112.2327938971281
 20
30.13362907483655
 30
0.0
 11
112.2327938971281
 21
29.93270926793752
 31
0.0
  0
LINE
  5
18B
330
70
100
AcDbEntity
  8
0
 62
    18
420
        0
370
    25
100
AcDbLine
 10
113.6077948210284
 20
30.13362907483655
 30
0.0
 11
113.6077948210284
 21
29.93270926793752
 31
0.0
  0
LINE
  5
18C
330
70
100
AcDbEntity
  8
0
 62
    18
420
        0
370
    25
100
AcDbLine
 10
14.98279611742821
 20
30.13362907483655
 30
0.0
 11
14.98279611742821
 21
29.93270926793752
 31
0.0
  0
LINE
  5
18D
330
70
100
AcDbEntity
  8
0
 62
    18
420
        0
370
    25
100
AcDbLine
 10
13.60779146822822
 20
30.13362907483655
 30
0.0
 11
13.60779146822822
 21
29.93270926793752
 31
0.0
  0
LINE
  5
18E
330
70
100
AcDbEntity
  8
0
 62
     8
420
  8421504
370
    25
100
AcDbLine
 10
81.73279448572834
 20
61.59274615033677
 30
0.0
 11
95.4827944112287
 21
61.59274615033677
 31
0.0
  0
LINE
  5
18F
330
70
100
AcDbEntity
  8
0
 62
     8
420
  8421504
370
    25
100
AcDbLine
 10
95.24607083922841
 20
61.34309884773706
 30
0.0
 11
81.96951805772865
 21
61.34309884773706
 31
0.0
  0
LINE
  5
190
330
70
100
AcDbEntity
  8
0
 62
     8
420
  8421504
370
    25
100
AcDbLine
 10
31.73279280932828
 20
61.59274615033677
 30
0.0
 11
45.48279459752821
 21
61.59274615033677
 31
0.0
  0
LINE
  5
191
330
70
100
AcDbEntity
  8
0
 62
     8
420
  8421504
370
    25
100
AcDbLine
 10
45.24607102542845
 20
61.34309884773706
 30
0.0
 11
31.96951638132825
 21
61.34309884773706
 31
0.0
  0
LINE
  5
192
330
70
100
AcDbEntity
  8
0
 62
     8
420
  8421504
370
    25
100
AcDbLine
 10
111.7952939418284
 20
31.55770883583742
 30
0.0
 11
111.7952939418284
 21
32.30770849303716
 31
0.0
  0
LINE
  5
193
330
70
100
AcDbEntity
  8
0
 62
     8
420
  8421504
370
    25
100
AcDbLine
 10
15.42029421002832
 20
31.55770883583742
 30
0.0
 11
15.42029421002832
 21
32.30770849303716
 31
0.0
  0
LINE
  5
194
330
70
100
AcDbEntity
  8
0
 62
     8
420
  8421504
370
    25
100
AcDbLine
 10
111.7952939418284
 20
36.55770779273719
 30
0.0
 11
111.7952939418284
 21
35.8077081354367
 31
0.0
  0
LINE
  5
195
330
70
100
AcDbEntity
  8
0
 62
     8
420
  8421504
370
    25
100
AcDbLine
 10
15.42029421002832
 20
36.55770779273719
 30
0.0
 11
15.42029421002832
 21
35.8077081354367
 31
0.0
  0
LINE
  5
196
330
70
100
AcDbEntity
  8
0
 62
     8
420
  8421504
370
    25
100
AcDbLine
 10
111.7952939418284
 20
40.80770895503735
 30
0.0
 11
111.7952939418284
 21
40.05770929773684
 31
0.0
  0
LINE
  5
197
330
70
100
AcDbEntity
  8
0
 62
     8
420
  8421504
370
    25
100
AcDbLine
 10
15.42029421002832
 20
40.80770895503735
 30
0.0
 11
15.42029421002832
 21
40.05770929773684
 31
0.0
  0
LINE
  5
198
330
70
100
AcDbEntity
  8
0
 62
     8
420
  8421504
370
    25
100
AcDbLine
 10
111.7952939418284
 20
45.05770825463662
 30
0.0
 11
111.7952939418284
 21
44.30770859733741
 31
0.0
  0
LINE
  5
199
330
70
100
AcDbEntity
  8
0
 62
     8
420
  8421504
370
    25
100
AcDbLine
 10
15.42029421002832
 20
45.05770825463662
 30
0.0
 11
15.42029421002832
 21
44.30770859733741
 31
0.0
  0
LINE
  5
19A
330
70
100
AcDbEntity
  8
0
 62
     8
420
  8421504
370
    25
100
AcDbLine
 10
111.7952939418284
 20
49.30770848563704
 30
0.0
 11
111.7952939418284
 21
48.55770882833719
 31
0.0
  0
LINE
  5
19B
330
70
100
AcDbEntity
  8
0
 62
     8
420
  8421504
370
    25
100
AcDbLine
 10
15.42029421002832
 20
49.30770848563704
 30
0.0
 11
15.42029421002832
 21
48.55770882833719
 31
0.0
  0
LINE
  5
19C
330
70
100
AcDbEntity
  8
0
 62
     8
420
  8421504
370
    25
100
AcDbLine
 10
111.7952939418284
 20
53.55770871653735
 30
0.0
 11
111.7952939418284
 21
52.80770812803723
 31
0.0
  0
LINE
  5
19D
330
70
100
AcDbEntity
  8
0
 62
     8
420
  8421504
370
    25
100
AcDbLine
 10
15.42029421002832
 20
53.55770871653735
 30
0.0
 11
15.42029421002832
 21
52.80770812803723
 31
0.0
  0
LINE
  5
19E
330
70
100
AcDbEntity
  8
0
 62
     8
420
  8421504
370
    25
100
AcDbLine
 10
111.7952939418284
 20
57.80770848193698
 30
0.0
 11
111.7952939418284
 21
57.05770835893753
 31
0.0
  0
LINE
  5
19F
330
70
100
AcDbEntity
  8
0
 62
     8
420
  8421504
370
    25
100
AcDbLine
 10
15.42029421002832
 20
57.80770848193698
 30
0.0
 11
15.42029421002832
 21
57.05770835893753
 31
0.0
  0
SPLINE
  5
1A0
330
70
100
AcDbEntity
  8
0
 62
    18
420
        0
370
    25
100
AcDbSpline
210
0.0
220
0.0
230
1.0
 70
     8
 71
     3
 72
     8
 73
     4
 74
     0
 42
0.0000000001
 43
0.0000000001
 40
0.0
 40
0.0
 40
0.0
 40
0.0
 40
1.0
 40
1.0
 40
1.0
 40
1.0
 10
163.7678816162134
 20
-18.81393702854056
 30
0.0
 10
163.3985972293228
 20
-19.32859148809714
 30
0.0
 10
163.1805714377315
 20
-19.93624911310392
 30
0.0
 10
163.1384281472361
 20
-20.56828084823264
 30
0.0
  0
LWPOLYLINE
  5
1A1
330
70
100
AcDbEntity
  8
0
 62
    18
420
        0
370
    25
100
AcDbPolyline
 90
       17
 70
     0
 43
0.0
 10
163.5111088564281
 20
-23.82776810946277
 10
163.6583287861285
 20
-24.27541022116246
 10
163.9296624589281
 20
-24.94628493496287
 10
164.2474436874285
 20
-25.60639994296328
 10
164.6080270986282
 20
-26.2483522830634
 10
165.0073405824282
 20
-26.86492383216236
 10
165.440899450828
 20
-27.44911970846308
 10
165.9039078533283
 20
-27.99431940406305
 10
166.3913096499282
 20
-28.4943148996634
 10
166.8978447164285
 20
-28.94335600406349
 10
167.4181093656285
 20
-29.33618362116233
 10
167.9466000487281
 20
-29.668049562863
 10
168.4777243953284
 20
-29.93471674656328
 10
169.005712742728
 20
-30.132448711463
 10
169.5242971157284
 20
-30.25805736956238
 10
170.0268395914281
 20
-30.30927851296267
 10
170.3897822383281
 20
-30.29101526716348
  0
LINE
  5
1A2
330
70
100
AcDbEntity
  8
0
 62
    18
420
        0
370
    25
100
AcDbLine
 10
171.4574144300281
 20
-29.96668333286266
 30
0.0
 11
172.2281342570286
 21
-29.52175624726278
 31
0.0
  0
LINE
  5
1A3
330
70
100
AcDbEntity
  8
0
 62
    18
420
        0
370
    25
100
AcDbLine
 10
165.3536928468284
 20
-17.61358398046244
 30
0.0
 11
164.5829730197284
 21
-18.05851106606232
 31
0.0
  0
SPLINE
  5
1A4
330
70
100
AcDbEntity
  8
0
 62
    18
420
        0
370
    25
100
AcDbSpline
210
0.0
220
0.0
230
1.0
 70
     8
 71
     3
 72
     8
 73
     4
 74
     0
 42
0.0000000001
 43
0.0000000001
 40
0.0
 40
0.0
 40
0.0
 40
0.0
 40
1.0
 40
1.0
 40
1.0
 40
1.0
 10
128.3927016481071
 20
1.563001049293243
 30
0.0
 10
128.035664729475
 20
1.056005937428769
 30
0.0
 10
127.8247462617658
 20
0.4606814835599855
 30
0.0
 10
127.7829634376525
 20
-0.1580055134971402
 30
0.0
  0
LWPOLYLINE
  5
1A5
330
70
100
AcDbEntity
  8
0
 62
    18
420
        0
370
    25
100
AcDbPolyline
 90
       18
 70
     0
 43
0.0
 10
128.1565959082285
 20
-3.418042219763123
 10
128.2578040740282
 20
-3.739547447462865
 10
128.5201141230283
 20
-4.411600513962723
 10
128.8294967688284
 20
-5.074285798062416
 10
129.1823971058284
 20
-5.720178322062368
 10
129.5748168634282
 20
-6.342018271762357
 10
130.0023466745284
 20
-6.932764796462776
 10
130.4602427137282
 20
-7.485719244562316
 10
130.9434895061281
 20
-7.994592697163572
 10
131.4468628180283
 20
-8.453546838862809
 10
131.9649824232281
 20
-8.857230029963091
 10
132.4923604233285
 20
-9.20079845536277
 10
133.0234247909285
 20
-9.479920402762987
 10
133.5524706373282
 20
-9.690770564762654
 10
134.0732967781281
 20
-9.830027355763325
 10
134.5793584333285
 20
-9.89523452446298
 10
135.0636039908284
 20
-9.885152792763005
 10
135.0711377399284
 20
-9.883747202263231
  0
LINE
  5
1A6
330
70
100
AcDbEntity
  8
0
 62
    18
420
        0
370
    25
100
AcDbLine
 10
136.1020745146284
 20
-9.55648004306311
 30
0.0
 11
136.8727943416282
 21
-9.111552957463231
 31
0.0
  0
LINE
  5
1A7
330
70
100
AcDbEntity
  8
0
 62
    18
420
        0
370
    25
100
AcDbLine
 10
129.998353589928
 20
2.79661892923695
 30
0.0
 11
129.2276337628281
 21
2.351691843637071
 31
0.0
  0
LINE
  5
1A8
330
70
100
AcDbEntity
  8
0
 62
    18
420
        0
370
    25
100
AcDbLine
 10
163.8639140337286
 20
-47.78306073576255
 30
0.0
 11
163.8639140337286
 21
-48.90229918246334
 31
0.0
  0
LINE
  5
1A9
330
70
100
AcDbEntity
  8
0
 62
    18
420
        0
370
    25
100
AcDbLine
 10
164.6139132517283
 20
-48.90229842216292
 30
0.0
 11
164.6139132517283
 21
-47.35009423066336
 31
0.0
  0
LWPOLYLINE
  5
1AA
330
70
100
AcDbEntity
  8
0
 62
    18
420
        0
370
    25
100
AcDbPolyline
 90
        8
 70
     0
 43
0.0
 10
163.8639140337286
 20
-48.90229918246334
 10
163.8594385653286
 20
-48.97627101266273
 10
163.8359759415285
 20
-49.06588235766267
 10
163.8192792041283
 20
-49.09188619326321
 10
163.8152212528281
 20
-49.09359159716253
 10
163.7731916252283
 20
-49.09280929526306
 10
163.6781307255282
 20
-49.061591025463
 10
163.6309025476283
 20
-49.03690931916274
  0
SPLINE
  5
1AB
330
70
100
AcDbEntity
  8
0
 62
    18
420
        0
370
    25
100
AcDbSpline
210
0.0
220
0.0
230
1.0
 70
     8
 71
     3
 72
    11
 73
     7
 74
     0
 42
0.0000000001
 43
0.0000000001
 40
0.0
 40
0.0
 40
0.0
 40
0.0
 40
1.0
 40
1.0
 40
1.0
 40
2.0
 40
2.0
 40
2.0
 40
2.0
 10
163.2559338901916
 20
-49.68644556667134
 30
0.0
 10
163.6489762911351
 20
-49.95952008305158
 30
0.0
 10
164.1889707457572
 20
-49.86226689714268
 30
0.0
 10
164.4620452621368
 20
-49.46922449619987
 30
0.0
 10
164.5770700378907
 20
-49.30366670402773
 30
0.0
 10
164.6307747821654
 20
-49.10318587915117
 30
0.0
 10
164.6139132517463
 20
-48.9022984221565
 30
0.0
  0
LINE
  5
1AC
330
70
100
AcDbEntity
  8
0
 62
    18
420
        0
370
    25
100
AcDbLine
 10
95.10851804302848
 20
-10.34577978766315
 30
0.0
 11
163.2559338902282
 21
-49.68644556666236
 31
0.0
  0
LINE
  5
1AD
330
70
100
AcDbEntity
  8
0
 62
    18
420
        0
370
    25
100
AcDbLine
 10
163.6309025476283
 20
-49.03690931916274
 30
0.0
 11
95.48348670042789
 21
-9.696243540262353
 31
0.0
  0
LINE
  5
1AE
330
70
100
AcDbEntity
  8
0
 62
    18
420
        0
370
    25
100
AcDbLine
 10
94.12550602172824
 20
-7.523934730062474
 30
0.0
 11
94.12550602172824
 21
-8.643173176763264
 31
0.0
  0
LINE
  5
1AF
330
70
100
AcDbEntity
  8
0
 62
    18
420
        0
370
    25
100
AcDbLine
 10
94.87550787392821
 20
-8.643173937062403
 30
0.0
 11
94.87550787392821
 21
-7.090969745562844
 31
0.0
  0
SPLINE
  5
1B0
330
70
100
AcDbEntity
  8
0
 62
    18
420
        0
370
    25
100
AcDbSpline
210
0.0
220
0.0
230
1.0
 70
     8
 71
     3
 72
     8
 73
     4
 74
     0
 42
0.0000000001
 43
0.0000000001
 40
0.0
 40
0.0
 40
0.0
 40
0.0
 40
1.0
 40
1.0
 40
1.0
 40
1.0
 10
94.87550787392436
 20
-8.64317393704187
 30
0.0
 10
94.89559890338464
 20
-9.071963445611048
 30
0.0
 10
95.12219330327795
 20
-9.46444368402485
 30
0.0
 10
95.48348670040672
 20
-9.696243540181498
 30
0.0
  0
SPLINE
  5
1B1
330
70
100
AcDbEntity
  8
0
 62
    18
420
        0
370
    25
100
AcDbSpline
210
0.0
220
0.0
230
1.0
 70
     8
 71
     3
 72
     8
 73
     4
 74
     0
 42
0.0000000001
 43
0.0000000001
 40
0.0
 40
0.0
 40
0.0
 40
0.0
 40
1.0
 40
1.0
 40
1.0
 40
1.0
 10
94.12550602172053
 20
-8.643173176733746
 30
0.0
 10
94.14695582674212
 20
-9.339636158487101
 30
0.0
 10
94.51608455022654
 20
-9.978978293998563
 30
0.0
 10
95.1085180429656
 20
-10.3457797876824
 30
0.0
  0
LINE
  5
1B2
330
70
100
AcDbEntity
  8
0
 62
    18
420
        0
370
    25
100
AcDbLine
 10
166.8691173586284
 20
-46.04819378406296
 30
0.0
 11
166.8691173586284
 21
-50.22946001676253
 31
0.0
  0
LINE
  5
1B3
330
70
100
AcDbEntity
  8
0
 62
    18
420
        0
370
    25
100
AcDbLine
 10
167.619116576528
 20
-50.2294592564634
 30
0.0
 11
167.619116576528
 21
-45.61522727896249
 31
0.0
  0
SPLINE
  5
1B4
330
70
100
AcDbEntity
  8
0
 62
    18
420
        0
370
    25
100
AcDbSpline
210
0.0
220
0.0
230
1.0
 70
     8
 71
     3
 72
    11
 73
     7
 74
     0
 42
0.0000000001
 43
0.0000000001
 40
0.0
 40
0.0
 40
0.0
 40
0.0
 40
1.0
 40
1.0
 40
1.0
 40
2.0
 40
2.0
 40
2.0
 40
2.0
 10
166.2611372149901
 20
-51.01360678119004
 30
0.0
 10
166.6541792256997
 20
-51.28668153411465
 30
0.0
 10
167.1941735557321
 20
-51.18942885631076
 30
0.0
 10
167.4672483086561
 20
-50.79638684560054
 30
0.0
 10
167.582273551264
 20
-50.63082868926034
 30
0.0
 10
167.6359784136261
 20
-50.43034725513418
 30
0.0
 10
167.619116576546
 20
-50.22945925644414
 30
0.0
  0
LWPOLYLINE
  5
1B5
330
70
100
AcDbEntity
  8
0
 62
    18
420
        0
370
    25
100
AcDbPolyline
 90
        8
 70
     0
 43
0.0
 10
166.8691173586284
 20
-50.22946001676253
 10
166.8646432072284
 20
-50.30343127676355
 10
166.8411792663283
 20
-50.39304357216339
 10
166.8244838460281
 20
-50.41904664746351
 10
166.8204258947286
 20
-50.42075205126273
 10
166.7783962671282
 20
-50.41996974946337
 10
166.683334050328
 20
-50.38875262026282
 10
166.6361071895281
 20
-50.36406977336305
  0
LINE
  5
1B6
330
70
100
AcDbEntity
  8
0
 62
    18
420
        0
370
    25
100
AcDbLine
 10
166.6361071895281
 20
-50.36406977336305
 30
0.0
 11
164.5804591907281
 21
-49.17736944326317
 31
0.0
  0
LINE
  5
1B7
330
70
100
AcDbEntity
  8
0
 62
    18
420
        0
370
    25
100
AcDbLine
 10
163.8639140337286
 20
-48.76371672906323
 30
0.0
 11
98.48869134232842
 21
-11.02340399436255
 31
0.0
  0
LINE
  5
1B8
330
70
100
AcDbEntity
  8
0
 62
    18
420
        0
370
    25
100
AcDbLine
 10
164.1197506726282
 20
-49.77741064336328
 30
0.0
 11
166.261137215028
 21
-51.01360678116309
 31
0.0
  0
LINE
  5
1B9
330
70
100
AcDbEntity
  8
0
 62
    18
420
        0
370
    25
100
AcDbLine
 10
97.13070934652799
 20
-5.789067778362875
 30
0.0
 11
97.13070934652799
 21
-9.970334011062448
 31
0.0
  0
LINE
  5
1BA
330
70
100
AcDbEntity
  8
0
 62
    18
420
        0
370
    25
100
AcDbLine
 10
97.88071119872796
 20
-9.970334771362869
 30
0.0
 11
97.88071119872796
 21
-5.356102793863246
 31
0.0
  0
SPLINE
  5
1BB
330
70
100
AcDbEntity
  8
0
 62
    18
420
        0
370
    25
100
AcDbSpline
210
0.0
220
0.0
230
1.0
 70
     8
 71
     3
 72
     8
 73
     4
 74
     0
 42
0.0000000001
 43
0.0000000001
 40
0.0
 40
0.0
 40
0.0
 40
0.0
 40
1.0
 40
1.0
 40
1.0
 40
1.0
 10
97.13070934652799
 20
-9.970334011035497
 30
0.0
 10
97.13488992201249
 20
-10.24298967316275
 30
0.0
 10
97.1993564084158
 20
-10.51134166161229
 30
0.0
 10
97.31948508100726
 20
-10.75614298783975
 30
0.0
  0
SPLINE
  5
1BC
330
70
100
AcDbEntity
  8
0
 62
    18
420
        0
370
    25
100
AcDbSpline
210
0.0
220
0.0
230
1.0
 70
     8
 71
     3
 72
     8
 73
     4
 74
     0
 42
0.0000000001
 43
0.0000000001
 40
0.0
 40
0.0
 40
0.0
 40
0.0
 40
1.0
 40
1.0
 40
1.0
 40
1.0
 10
97.88071119872604
 20
-9.97033477137827
 30
0.0
 10
97.90080604796594
 20
-10.39912339330932
 30
0.0
 10
98.12740011561317
 20
-10.79160206433856
 30
0.0
 10
98.48869134229698
 20
-11.02340399441004
 30
0.0
  0
LINE
  5
1BD
330
70
100
AcDbEntity
  8
0
 62
    18
420
        0
370
    25
100
AcDbLine
 10
181.8098942864284
 20
-34.37872329636283
 30
0.0
 11
162.5303482342281
 21
-45.5085683269626
 31
0.0
  0
LINE
  5
1BE
330
70
100
AcDbEntity
  8
0
 62
    18
420
        0
370
    25
100
AcDbLine
 10
163.4508327715284
 20
-48.02152663686337
 30
0.0
 11
182.7303788237281
 21
-36.89168160626231
 31
0.0
  0
LINE
  5
1BF
330
70
100
AcDbEntity
  8
0
 62
    18
420
        0
370
    25
100
AcDbLine
 10
182.8419090984281
 20
-31.94638976726314
 30
0.0
 11
182.730379235328
 21
-31.87847347176337
 31
0.0
  0
LINE
  5
1C0
330
70
100
AcDbEntity
  8
0
 62
    18
420
        0
370
    25
100
AcDbLine
 10
183.8546223002283
 20
-35.30368603166349
 30
0.0
 11
183.8546223002283
 21
-33.46646928396282
 31
0.0
  0
LWPOLYLINE
  5
1C1
330
70
100
AcDbEntity
  8
0
 62
    18
420
        0
370
    25
100
AcDbPolyline
 90
        3
 70
     0
 43
0.0
 10
182.1111863014284
 20
-34.16162219056295
 10
182.0904286492283
 20
-34.18323357306303
 10
181.8098942864284
 20
-34.37872329636283
  0
SPLINE
  5
1C2
330
70
100
AcDbEntity
  8
0
 62
    18
420
        0
370
    25
100
AcDbSpline
210
0.0
220
0.0
230
1.0
 70
     8
 71
     3
 72
     8
 73
     4
 74
     0
 42
0.0000000001
 43
0.0000000001
 40
0.0
 40
0.0
 40
0.0
 40
0.0
 40
1.0
 40
1.0
 40
1.0
 40
1.0
 10
182.1111863013706
 20
-34.16162219056037
 30
0.0
 10
182.3389910238497
 20
-34.00606248065272
 30
0.0
 10
182.4751398157016
 20
-33.7479242832207
 30
0.0
 10
182.4748722803515
 20
-33.47207333913023
 30
0.0
  0
LINE
  5
1C3
330
70
100
AcDbEntity
  8
0
 62
    18
420
        0
370
    25
100
AcDbLine
 10
182.7303788237281
 20
-36.89168160626231
 30
0.0
 11
182.8456102832283
 21
-36.81979456006287
 31
0.0
  0
LINE
  5
1C4
330
70
100
AcDbEntity
  8
0
 62
    18
420
        0
370
    25
100
AcDbLine
 10
182.730379235328
 20
-31.87847347176337
 30
0.0
 11
117.3230024497283
 21
5.880401426337031
 31
0.0
  0
LINE
  5
1C5
330
70
100
AcDbEntity
  8
0
 62
    18
420
        0
370
    25
100
AcDbLine
 10
116.4025175008281
 20
3.367442878736819
 30
0.0
 11
181.7988873735281
 21
-34.38507786376325
 31
0.0
  0
LINE
  5
1C6
330
70
100
AcDbEntity
  8
0
 62
    18
420
        0
370
    25
100
AcDbLine
 10
112.0714862744281
 20
5.880402709337256
 30
0.0
 11
92.7919402222284
 21
-5.249442321162415
 31
0.0
  0
LINE
  5
1C7
330
70
100
AcDbEntity
  8
0
 62
    18
420
        0
370
    25
100
AcDbLine
 10
93.71242739372833
 20
-7.762402151762851
 30
0.0
 11
112.991973445928
 21
3.367442878736819
 31
0.0
  0
SPLINE
  5
1C8
330
70
100
AcDbEntity
  8
0
 62
    18
420
        0
370
    25
100
AcDbSpline
210
0.0
220
0.0
230
1.0
 70
     8
 71
     3
 72
     8
 73
     4
 74
     0
 42
0.0000000001
 43
0.0000000001
 40
0.0
 40
0.0
 40
0.0
 40
0.0
 40
1.0
 40
1.0
 40
1.0
 40
1.0
 10
116.3865646717262
 20
6.268085605392225
 30
0.0
 10
116.0843899899642
 20
6.368625418148496
 30
0.0
 10
115.7713068206092
 20
6.432782695567537
 30
0.0
 10
115.4539427475494
 20
6.459199307350423
 30
0.0
  0
SPLINE
  5
1C9
330
70
100
AcDbEntity
  8
0
 62
    18
420
        0
370
    25
100
AcDbSpline
210
0.0
220
0.0
230
1.0
 70
     8
 71
     3
 72
     8
 73
     4
 74
     0
 42
0.0000000001
 43
0.0000000001
 40
0.0
 40
0.0
 40
0.0
 40
0.0
 40
1.0
 40
1.0
 40
1.0
 40
1.0
 10
117.3230024497809
 20
5.880401426356281
 30
0.0
 10
117.0292534860882
 20
6.050227578008994
 30
0.0
 10
116.7143938757241
 20
6.180579099942371
 30
0.0
 10
116.3865646717807
 20
6.268085605401209
 30
0.0
  0
LINE
  5
1CA
330
70
100
AcDbEntity
  8
0
 62
    18
420
        0
370
    25
100
AcDbLine
 10
116.3745955430281
 20
3.382796985937289
 30
0.0
 11
116.4025175008281
 21
3.367442878736819
 31
0.0
  0
LINE
  5
1CB
330
70
100
AcDbEntity
  8
0
 62
    18
420
        0
370
    25
100
AcDbLine
 10
112.991973445928
 20
3.367442878736819
 30
0.0
 11
113.1338028595282
 21
3.44201910163665
 31
0.0
  0
LINE
  5
1CC
330
70
100
AcDbEntity
  8
0
 62
    18
420
        0
370
    25
100
AcDbLine
 10
169.8743220005282
 20
-44.31332607196283
 30
0.0
 11
169.8743220005282
 21
-48.49459230466241
 31
0.0
  0
LINE
  5
1CD
330
70
100
AcDbEntity
  8
0
 62
    18
420
        0
370
    25
100
AcDbLine
 10
170.6243212184279
 20
-48.49459154436327
 30
0.0
 11
170.6243212184279
 21
-43.88035956686236
 31
0.0
  0
SPLINE
  5
1CE
330
70
100
AcDbEntity
  8
0
 62
    18
420
        0
370
    25
100
AcDbSpline
210
0.0
220
0.0
230
1.0
 70
     8
 71
     3
 72
    11
 73
     7
 74
     0
 42
0.0000000001
 43
0.0000000001
 40
0.0
 40
0.0
 40
0.0
 40
0.0
 40
1.0
 40
1.0
 40
1.0
 40
2.0
 40
2.0
 40
2.0
 40
2.0
 10
169.2663405398682
 20
-49.27873982946349
 30
0.0
 10
169.6593837527207
 20
-49.55181437319422
 30
0.0
 10
170.1993788876985
 20
-49.45456055127559
 30
0.0
 10
170.4724534314292
 20
-49.06151733842307
 30
0.0
 10
170.5874779771526
 20
-48.89595955192868
 30
0.0
 10
170.6411826368642
 20
-48.69547887438879
 30
0.0
 10
170.6243212185113
 20
-48.49459154437738
 30
0.0
  0
LWPOLYLINE
  5
1CF
330
70
100
AcDbEntity
  8
0
 62
    18
420
        0
370
    25
100
AcDbPolyline
 90
        8
 70
     0
 43
0.0
 10
169.8743220005282
 20
-48.49459230466241
 10
169.8698465320282
 20
-48.56856432506267
 10
169.8463839083283
 20
-48.65817586016337
 10
169.8296871708285
 20
-48.68417969576263
 10
169.8256292195283
 20
-48.68588509956314
 10
169.783599592028
 20
-48.68510279776248
 10
169.6885373751284
 20
-48.65388566846312
 10
169.6413105143285
 20
-48.62920282166345
  0
LINE
  5
1D0
330
70
100
AcDbEntity
  8
0
 62
    18
420
        0
370
    25
100
AcDbLine
 10
169.6413105143285
 20
-48.62920282166345
 30
0.0
 11
167.6191178936282
 21
-47.46181587026231
 31
0.0
  0
LINE
  5
1D1
330
70
100
AcDbEntity
  8
0
 62
    18
420
        0
370
    25
100
AcDbLine
 10
166.8691173586284
 20
-47.02884977726353
 30
0.0
 11
166.0197516769281
 21
-46.53852140616319
 31
0.0
  0
LINE
  5
1D2
330
70
100
AcDbEntity
  8
0
 62
    18
420
        0
370
    25
100
AcDbLine
 10
163.3829875406281
 20
-45.01634987066239
 30
0.0
 11
101.4938946671281
 21
-9.288537042662955
 31
0.0
  0
LINE
  5
1D3
330
70
100
AcDbEntity
  8
0
 62
    18
420
        0
370
    25
100
AcDbLine
 10
101.118924692628
 20
-9.938074050463001
 30
0.0
 11
162.6329264195282
 21
-45.44935136856248
 31
0.0
  0
LINE
  5
1D4
330
70
100
AcDbEntity
  8
0
 62
    18
420
        0
370
    25
100
AcDbLine
 10
165.269690555728
 20
-46.97152290406328
 30
0.0
 11
166.8691173586284
 21
-47.89485234376321
 31
0.0
  0
LINE
  5
1D5
330
70
100
AcDbEntity
  8
0
 62
    18
420
        0
370
    25
100
AcDbLine
 10
167.619116576528
 20
-48.32781767636275
 30
0.0
 11
169.2663405398284
 21
-49.27873982946349
 31
0.0
  0
LINE
  5
1D6
330
70
100
AcDbEntity
  8
0
 62
    18
420
        0
370
    25
100
AcDbLine
 10
100.1359139885279
 20
-4.054200066262749
 30
0.0
 11
100.1359139885279
 21
-8.235466298962322
 31
0.0
  0
LINE
  5
1D7
330
70
100
AcDbEntity
  8
0
 62
    18
420
        0
370
    25
100
AcDbLine
 10
100.8859158406284
 20
-8.235467059262743
 30
0.0
 11
100.8859158406284
 21
-3.62123508176312
 31
0.0
  0
SPLINE
  5
1D8
330
70
100
AcDbEntity
  8
0
 62
    18
420
        0
370
    25
100
AcDbSpline
210
0.0
220
0.0
230
1.0
 70
     8
 71
     3
 72
     8
 73
     4
 74
     0
 42
0.0000000001
 43
0.0000000001
 40
0.0
 40
0.0
 40
0.0
 40
0.0
 40
1.0
 40
1.0
 40
1.0
 40
1.0
 10
100.1359139884882
 20
-8.235466298964889
 30
0.0
 10
100.1573653099883
 20
-8.931928813112152
 30
0.0
 10
100.5264930015135
 20
-9.571270446152734
 30
0.0
 10
101.118924692644
 20
-9.938074050483534
 30
0.0
  0
SPLINE
  5
1D9
330
70
100
AcDbEntity
  8
0
 62
    18
420
        0
370
    25
100
AcDbSpline
210
0.0
220
0.0
230
1.0
 70
     8
 71
     3
 72
     8
 73
     4
 74
     0
 42
0.0000000001
 43
0.0000000001
 40
0.0
 40
0.0
 40
0.0
 40
0.0
 40
1.0
 40
1.0
 40
1.0
 40
1.0
 10
100.8859158406272
 20
-8.235467059321781
 30
0.0
 10
100.9060061540546
 20
-8.664256879029005
 30
0.0
 10
101.1326007149836
 20
-9.056737538086794
 30
0.0
 10
101.4938946671082
 20
-9.288537042693757
 30
0.0
  0
LINE
  5
1DA
330
70
100
AcDbEntity
  8
0
 62
    18
420
        0
370
    25
100
AcDbLine
 10
172.879525325328
 20
-42.57845912026323
 30
0.0
 11
172.879525325328
 21
-46.7597253529628
 31
0.0
  0
LINE
  5
1DB
330
70
100
AcDbEntity
  8
0
 62
    18
420
        0
370
    25
100
AcDbLine
 10
173.6295245433284
 20
-46.75972459256356
 30
0.0
 11
173.6295245433284
 21
-42.14549261516276
 31
0.0
  0
SPLINE
  5
1DC
330
70
100
AcDbEntity
  8
0
 62
    18
420
        0
370
    25
100
AcDbSpline
210
0.0
220
0.0
230
1.0
 70
     8
 71
     3
 72
    11
 73
     7
 74
     0
 42
0.0000000001
 43
0.0000000001
 40
0.0
 40
0.0
 40
0.0
 40
0.0
 40
1.0
 40
1.0
 40
1.0
 40
2.0
 40
2.0
 40
2.0
 40
2.0
 10
172.2715451816897
 20
-47.54387211738005
 30
0.0
 10
172.6645878428742
 20
-47.81694649469511
 30
0.0
 10
173.2045823957296
 20
-47.71969298508499
 30
0.0
 10
173.4776567730447
 20
-47.32665032390113
 30
0.0
 10
173.5926813751079
 20
-47.16109258779552
 30
0.0
 10
173.6463860356249
 20
-46.96061190716263
 30
0.0
 10
173.6295245432444
 20
-46.75972459263286
 30
0.0
  0
LWPOLYLINE
  5
1DD
330
70
100
AcDbEntity
  8
0
 62
    18
420
        0
370
    25
100
AcDbPolyline
 90
        8
 70
     0
 43
0.0
 10
172.879525325328
 20
-46.7597253529628
 10
172.8750498568279
 20
-46.83369737326297
 10
172.851587233128
 20
-46.92330890836238
 10
172.8348904956283
 20
-46.94931274396293
 10
172.8308325444282
 20
-46.95101814786354
 10
172.7888029168284
 20
-46.95023584596277
 10
172.6937420170282
 20
-46.91901795646309
 10
172.6465138391283
 20
-46.89433586986246
  0
LINE
  5
1DE
330
70
100
AcDbEntity
  8
0
 62
    18
420
        0
370
    25
100
AcDbLine
 10
172.6465138391283
 20
-46.89433586986246
 30
0.0
 11
170.6243212184279
 21
-45.72694891846261
 31
0.0
  0
LINE
  5
1DF
330
70
100
AcDbEntity
  8
0
 62
    18
420
        0
370
    25
100
AcDbLine
 10
169.8743206834282
 20
-45.29398282556265
 30
0.0
 11
169.0249550017284
 21
-44.8036544544623
 31
0.0
  0
LINE
  5
1E0
330
70
100
AcDbEntity
  8
0
 62
    18
420
        0
370
    25
100
AcDbLine
 10
166.388190865528
 20
-43.28148291896279
 30
0.0
 11
104.4990979919285
 21
-7.553670090963358
 31
0.0
  0
LINE
  5
1E1
330
70
100
AcDbEntity
  8
0
 62
    18
420
        0
370
    25
100
AcDbLine
 10
104.1241293345285
 20
-8.203206338362875
 30
0.0
 11
165.6381310614281
 21
-43.71448365646236
 31
0.0
  0
LINE
  5
1E2
330
70
100
AcDbEntity
  8
0
 62
    18
420
        0
370
    25
100
AcDbLine
 10
168.2748951976286
 20
-45.23665519206327
 30
0.0
 11
169.8743220005282
 21
-46.15998463166309
 31
0.0
  0
LINE
  5
1E3
330
70
100
AcDbEntity
  8
0
 62
    18
420
        0
370
    25
100
AcDbLine
 10
170.6243212184279
 20
-46.59294996426262
 30
0.0
 11
172.2715451817282
 21
-47.54387211736336
 31
0.0
  0
LINE
  5
1E4
330
70
100
AcDbEntity
  8
0
 62
    18
420
        0
370
    25
100
AcDbLine
 10
103.1411173133283
 20
-2.319333114563152
 30
0.0
 11
103.1411173133283
 21
-6.500599347162618
 31
0.0
  0
LINE
  5
1E5
330
70
100
AcDbEntity
  8
0
 62
    18
420
        0
370
    25
100
AcDbLine
 10
103.8911191654282
 20
-6.500600107563146
 30
0.0
 11
103.8911191654282
 21
-1.886368130063522
 31
0.0
  0
SPLINE
  5
1E6
330
70
100
AcDbEntity
  8
0
 62
    18
420
        0
370
    25
100
AcDbSpline
210
0.0
220
0.0
230
1.0
 70
     8
 71
     3
 72
     8
 73
     4
 74
     0
 42
0.0000000001
 43
0.0000000001
 40
0.0
 40
0.0
 40
0.0
 40
0.0
 40
1.0
 40
1.0
 40
1.0
 40
1.0
 10
103.1411173133258
 20
-6.500599347208821
 30
0.0
 10
103.1625669816674
 20
-7.197062468435461
 30
0.0
 10
103.5316957236462
 20
-7.836404778757293
 30
0.0
 10
104.1241293345708
 20
-8.203206338388541
 30
0.0
  0
SPLINE
  5
1E7
330
70
100
AcDbEntity
  8
0
 62
    18
420
        0
370
    25
100
AcDbSpline
210
0.0
220
0.0
230
1.0
 70
     8
 71
     3
 72
     8
 73
     4
 74
     0
 42
0.0000000001
 43
0.0000000001
 40
0.0
 40
0.0
 40
0.0
 40
0.0
 40
1.0
 40
1.0
 40
1.0
 40
1.0
 10
103.8911191654468
 20
-6.500600107560579
 30
0.0
 10
103.9112111902869
 20
-6.929389425482257
 30
0.0
 10
104.1378053300893
 20
-7.321869355111763
 30
0.0
 10
104.4990979919292
 20
-7.553670090932556
 30
0.0
  0
LINE
  5
1E8
330
70
100
AcDbEntity
  8
0
 62
    18
420
        0
370
    25
100
AcDbLine
 10
175.8847293086284
 20
-40.84359178836336
 30
0.0
 11
175.8847293086284
 21
-45.02485802106295
 31
0.0
  0
LINE
  5
1E9
330
70
100
AcDbEntity
  8
0
 62
    18
420
        0
370
    25
100
AcDbLine
 10
176.6347285266282
 20
-45.02485726066241
 30
0.0
 11
176.6347285266282
 21
-40.41062528326289
 31
0.0
  0
SPLINE
  5
1EA
330
70
100
AcDbEntity
  8
0
 62
    18
420
        0
370
    25
100
AcDbSpline
210
0.0
220
0.0
230
1.0
 70
     8
 71
     3
 72
    11
 73
     7
 74
     0
 42
0.0000000001
 43
0.0000000001
 40
0.0
 40
0.0
 40
0.0
 40
0.0
 40
1.0
 40
1.0
 40
1.0
 40
2.0
 40
2.0
 40
2.0
 40
2.0
 10
175.2767485065325
 20
-45.80900516563167
 30
0.0
 10
175.6697914000364
 20
-46.08207965128222
 30
0.0
 10
176.209786229047
 20
-45.98482604116278
 30
0.0
 10
176.4828607146969
 20
-45.59178314765821
 30
0.0
 10
176.5978853314403
 20
-45.42622535824666
 30
0.0
 10
176.6515900050569
 20
-45.22574462875352
 30
0.0
 10
176.634728526632
 20
-45.02485726071504
 30
0.0
  0
LWPOLYLINE
  5
1EB
330
70
100
AcDbEntity
  8
0
 62
    18
420
        0
370
    25
100
AcDbPolyline
 90
        8
 70
     0
 43
0.0
 10
175.8847293086284
 20
-45.02485802106295
 10
175.8802544987285
 20
-45.09882966116284
 10
175.8567912164284
 20
-45.18844157646252
 10
175.8400944790281
 20
-45.21444541206307
 10
175.8360371863281
 20
-45.21615043576342
 10
175.7940069001282
 20
-45.21536851406291
 10
175.6989453419281
 20
-45.18415100466339
 10
175.6517184810281
 20
-45.15946815776233
  0
LINE
  5
1EC
330
70
100
AcDbEntity
  8
0
 62
    18
420
        0
370
    25
100
AcDbLine
 10
175.6517184810281
 20
-45.15946815776233
 30
0.0
 11
173.6295258604285
 21
-43.99208120646259
 31
0.0
  0
LINE
  5
1ED
330
70
100
AcDbEntity
  8
0
 62
    18
420
        0
370
    25
100
AcDbLine
 10
172.879525325328
 20
-43.55911511346252
 30
0.0
 11
172.0301596436283
 21
-43.06878674236346
 31
0.0
  0
LINE
  5
1EE
330
70
100
AcDbEntity
  8
0
 62
    18
420
        0
370
    25
100
AcDbLine
 10
169.3933955074285
 20
-41.54661520686267
 30
0.0
 11
107.5043026338284
 21
-5.818802378863232
 31
0.0
  0
LINE
  5
1EF
330
70
100
AcDbEntity
  8
0
 62
    18
420
        0
370
    25
100
AcDbLine
 10
107.1293326593282
 20
-6.468339386663275
 30
0.0
 11
168.6433343862285
 21
-41.97961670476276
 31
0.0
  0
LINE
  5
1F0
330
70
100
AcDbEntity
  8
0
 62
    18
420
        0
370
    25
100
AcDbLine
 10
171.2800985224283
 20
-43.50178824026357
 30
0.0
 11
172.879525325328
 21
-44.42511767996348
 31
0.0
  0
LINE
  5
1F1
330
70
100
AcDbEntity
  8
0
 62
    18
420
        0
370
    25
100
AcDbLine
 10
173.6295245433284
 20
-44.85808301256303
 30
0.0
 11
175.276748506528
 21
-45.80900516566248
 31
0.0
  0
LINE
  5
1F2
330
70
100
AcDbEntity
  8
0
 62
    18
420
        0
370
    25
100
AcDbLine
 10
106.1463212966281
 20
-0.5844657825631848
 30
0.0
 11
106.1463212966281
 21
-4.765732015262756
 31
0.0
  0
LINE
  5
1F3
330
70
100
AcDbEntity
  8
0
 62
    18
420
        0
370
    25
100
AcDbLine
 10
106.8963231488281
 20
-4.765732775663284
 30
0.0
 11
106.8963231488281
 21
-0.1515007981623767
 31
0.0
  0
SPLINE
  5
1F4
330
70
100
AcDbEntity
  8
0
 62
    18
420
        0
370
    25
100
AcDbSpline
210
0.0
220
0.0
230
1.0
 70
     8
 71
     3
 72
     8
 73
     4
 74
     0
 42
0.0000000001
 43
0.0000000001
 40
0.0
 40
0.0
 40
0.0
 40
0.0
 40
1.0
 40
1.0
 40
1.0
 40
1.0
 10
106.1463212966345
 20
-4.765732015294841
 30
0.0
 10
106.167772238417
 20
-5.462194705838754
 30
0.0
 10
106.5369003418411
 20
-6.101536481235133
 30
0.0
 10
107.1293326593327
 20
-6.468339386642742
 30
0.0
  0
SPLINE
  5
1F5
330
70
100
AcDbEntity
  8
0
 62
    18
420
        0
370
    25
100
AcDbSpline
210
0.0
220
0.0
230
1.0
 70
     8
 71
     3
 72
     8
 73
     4
 74
     0
 42
0.0000000001
 43
0.0000000001
 40
0.0
 40
0.0
 40
0.0
 40
0.0
 40
1.0
 40
1.0
 40
1.0
 40
1.0
 10
106.8963231488383
 20
-4.765732775637616
 30
0.0
 10
106.9164139973722
 20
-5.194522504517475
 30
0.0
 10
107.1430087380507
 20
-5.587002908100759
 30
0.0
 10
107.504302633865
 20
-5.81880237884013
 30
0.0
  0
LINE
  5
1F6
330
70
100
AcDbEntity
  8
0
 62
    18
420
        0
370
    25
100
AcDbLine
 10
178.8899332920283
 20
-39.10872445646351
 30
0.0
 11
178.8899332920283
 21
-43.28999068916308
 31
0.0
  0
LINE
  5
1F7
330
70
100
AcDbEntity
  8
0
 62
    18
420
        0
370
    25
100
AcDbLine
 10
179.6399318514286
 20
-43.28999030896282
 30
0.0
 11
179.6399318514286
 21
-38.6757583314632
 31
0.0
  0
SPLINE
  5
1F8
330
70
100
AcDbEntity
  8
0
 62
    18
420
        0
370
    25
100
AcDbSpline
210
0.0
220
0.0
230
1.0
 70
     8
 71
     3
 72
    11
 73
     7
 74
     0
 42
0.0000000001
 43
0.0000000001
 40
0.0
 40
0.0
 40
0.0
 40
0.0
 40
1.0
 40
1.0
 40
1.0
 40
2.0
 40
2.0
 40
2.0
 40
2.0
 10
178.2819524899407
 20
-44.07413783368562
 30
0.0
 10
178.6749948258877
 20
-44.34721239880546
 30
0.0
 10
179.2149892673313
 20
-44.24995930509716
 30
0.0
 10
179.4880638324505
 20
-43.85691696915077
 30
0.0
 10
179.6030887547864
 20
-43.69135902292851
 30
0.0
 10
179.6567935162253
 20
-43.49087796554898
 30
0.0
 10
179.6399318514953
 20
-43.28999030893843
 30
0.0
  0
LWPOLYLINE
  5
1F9
330
70
100
AcDbEntity
  8
0
 62
    18
420
        0
370
    25
100
AcDbPolyline
 90
        8
 70
     0
 43
0.0
 10
178.8899332920283
 20
-43.28999068916308
 10
178.8854578235282
 20
-43.36396270946324
 10
178.8619945413283
 20
-43.45357462476292
 10
178.8452984623285
 20
-43.4795780801632
 10
178.8412405111284
 20
-43.48128348406254
 10
178.799210883528
 20
-43.48050118216305
 10
178.7041493252285
 20
-43.44928367276352
 10
178.6569218058285
 20
-43.42460120606274
  0
LINE
  5
1FA
330
70
100
AcDbEntity
  8
0
 62
    18
420
        0
370
    25
100
AcDbLine
 10
178.6569218058285
 20
-43.42460120606274
 30
0.0
 11
176.6347291852283
 21
-42.25721425466288
 31
0.0
  0
LINE
  5
1FB
330
70
100
AcDbEntity
  8
0
 62
    18
420
        0
370
    25
100
AcDbLine
 10
175.8847286501284
 20
-41.82424816176292
 30
0.0
 11
175.0353629684281
 21
-41.33391979066258
 31
0.0
  0
LINE
  5
1FC
330
70
100
AcDbEntity
  8
0
 62
    18
420
        0
370
    25
100
AcDbLine
 10
172.3985988322283
 20
-39.81174825516307
 30
0.0
 11
110.5095059586282
 21
-4.083935427063528
 31
0.0
  0
LINE
  5
1FD
330
70
100
AcDbEntity
  8
0
 62
    18
420
        0
370
    25
100
AcDbLine
 10
110.1345366427281
 20
-4.733472054763414
 30
0.0
 11
171.6485383696283
 21
-40.2447493728629
 31
0.0
  0
LINE
  5
1FE
330
70
100
AcDbEntity
  8
0
 62
    18
420
        0
370
    25
100
AcDbLine
 10
174.2853025058282
 20
-41.76692090836241
 30
0.0
 11
175.8847293086284
 21
-42.69025034806234
 31
0.0
  0
LINE
  5
1FF
330
70
100
AcDbEntity
  8
0
 62
    18
420
        0
370
    25
100
AcDbLine
 10
176.6347285266282
 20
-43.12321568066316
 30
0.0
 11
178.2819524899285
 21
-44.07413783376262
 31
0.0
  0
LINE
  5
200
330
70
100
AcDbEntity
  8
0
 62
    18
420
        0
370
    25
100
AcDbLine
 10
109.151525280028
 20
1.150401549336677
 30
0.0
 11
109.151525280028
 21
-3.030864683362894
 31
0.0
  0
LINE
  5
201
330
70
100
AcDbEntity
  8
0
 62
    18
420
        0
370
    25
100
AcDbLine
 10
109.9015264736285
 20
-3.03086582386358
 30
0.0
 11
109.9015264736285
 21
1.583366153537221
 31
0.0
  0
SPLINE
  5
202
330
70
100
AcDbEntity
  8
0
 62
    18
420
        0
370
    25
100
AcDbSpline
210
0.0
220
0.0
230
1.0
 70
     8
 71
     3
 72
     8
 73
     4
 74
     0
 42
0.0000000001
 43
0.0000000001
 40
0.0
 40
0.0
 40
0.0
 40
0.0
 40
1.0
 40
1.0
 40
1.0
 40
1.0
 10
109.1515252799959
 20
-3.030864683365461
 30
0.0
 10
109.1729757749132
 20
-3.727327501053055
 30
0.0
 10
109.5421039916646
 20
-4.366669472736186
 30
0.0
 10
110.1345366426947
 20
-4.733472054715928
 30
0.0
  0
SPLINE
  5
203
330
70
100
AcDbEntity
  8
0
 62
    18
420
        0
370
    25
100
AcDbSpline
210
0.0
220
0.0
230
1.0
 70
     8
 71
     3
 72
     8
 73
     4
 74
     0
 42
0.0000000001
 43
0.0000000001
 40
0.0
 40
0.0
 40
0.0
 40
0.0
 40
1.0
 40
1.0
 40
1.0
 40
1.0
 10
109.9015264735964
 20
-3.030865823884115
 30
0.0
 10
109.9216199105902
 20
-3.459654793825237
 30
0.0
 10
110.1482140143253
 20
-3.852134094172581
 30
0.0
 10
110.5095059586217
 20
-4.083935427085346
 30
0.0
  0
LINE
  5
204
330
70
100
AcDbEntity
  8
0
 62
    18
420
        0
370
    25
100
AcDbLine
 10
181.8951369461281
 20
-37.37385731466314
 30
0.0
 11
181.8951369461281
 21
-41.55512354736271
 31
0.0
  0
LINE
  5
205
330
70
100
AcDbEntity
  8
0
 62
    18
420
        0
370
    25
100
AcDbLine
 10
182.6451358348284
 20
-41.55512297706295
 30
0.0
 11
182.6451358348284
 21
-36.94089099956333
 31
0.0
  0
SPLINE
  5
206
330
70
100
AcDbEntity
  8
0
 62
    18
420
        0
370
    25
100
AcDbSpline
210
0.0
220
0.0
230
1.0
 70
     8
 71
     3
 72
    11
 73
     7
 74
     0
 42
0.0000000001
 43
0.0000000001
 40
0.0
 40
0.0
 40
0.0
 40
0.0
 40
1.0
 40
1.0
 40
1.0
 40
2.0
 40
2.0
 40
2.0
 40
2.0
 10
181.2871564732834
 20
-42.33927050185505
 30
0.0
 10
181.6801987176446
 20
-42.6123451198586
 30
0.0
 10
182.2201931277155
 20
-42.51509214326808
 30
0.0
 10
182.4932677457197
 20
-42.12204989890754
 30
0.0
 10
182.6082927582426
 20
-41.95649189351677
 30
0.0
 10
182.6619975481017
 20
-41.75601073004643
 30
0.0
 10
182.6451358348387
 20
-41.55512297710788
 30
0.0
  0
LWPOLYLINE
  5
207
330
70
100
AcDbEntity
  8
0
 62
    18
420
        0
370
    25
100
AcDbPolyline
 90
        8
 70
     0
 43
0.0
 10
181.8951369461281
 20
-41.55512354736271
 10
181.8906618069281
 20
-41.62909537756338
 10
181.867198524628
 20
-41.71870729286307
 10
181.8505024457284
 20
-41.74471074826334
 10
181.8464444944282
 20
-41.74641615216267
 10
181.8044148669286
 20
-41.7456338502632
 10
181.7093533086284
 20
-41.71441634086238
 10
181.6621257892284
 20
-41.68973387416287
  0
LINE
  5
208
330
70
100
AcDbEntity
  8
0
 62
    18
420
        0
370
    25
100
AcDbLine
 10
181.6621257892284
 20
-41.68973387416287
 30
0.0
 11
179.6399331685281
 21
-40.52234692276303
 31
0.0
  0
LINE
  5
209
330
70
100
AcDbEntity
  8
0
 62
    18
420
        0
370
    25
100
AcDbLine
 10
178.8899326335283
 20
-40.08938082986306
 30
0.0
 11
178.0405669518279
 21
-39.59905245876273
 31
0.0
  0
LINE
  5
20A
330
70
100
AcDbEntity
  8
0
 62
    18
420
        0
370
    25
100
AcDbLine
 10
175.403802815528
 20
-38.07688092326321
 30
0.0
 11
113.514709942028
 21
-2.349068095162383
 31
0.0
  0
LINE
  5
20B
330
70
100
AcDbEntity
  8
0
 62
    18
420
        0
370
    25
100
AcDbLine
 10
113.139740626128
 20
-2.998604722863552
 30
0.0
 11
174.6537423529281
 21
-38.50988204096303
 31
0.0
  0
LINE
  5
20C
330
70
100
AcDbEntity
  8
0
 62
    18
420
        0
370
    25
100
AcDbLine
 10
177.2905064891286
 20
-40.03205357646255
 30
0.0
 11
178.8899332920283
 21
-40.95538301616247
 31
0.0
  0
LINE
  5
20D
330
70
100
AcDbEntity
  8
0
 62
    18
420
        0
370
    25
100
AcDbLine
 10
179.639932510028
 20
-41.38834834876329
 30
0.0
 11
181.2871564732282
 21
-42.33927050176265
 31
0.0
  0
LINE
  5
20E
330
70
100
AcDbEntity
  8
0
 62
    18
420
        0
370
    25
100
AcDbLine
 10
112.1567289341284
 20
2.885268691137048
 30
0.0
 11
112.1567289341284
 21
-1.295997541562522
 31
0.0
  0
LINE
  5
20F
330
70
100
AcDbEntity
  8
0
 62
    18
420
        0
370
    25
100
AcDbLine
 10
112.9067304570283
 20
-1.295998491962435
 30
0.0
 11
112.9067304570283
 21
3.318233485437083
 31
0.0
  0
SPLINE
  5
210
330
70
100
AcDbEntity
  8
0
 62
    18
420
        0
370
    25
100
AcDbSpline
210
0.0
220
0.0
230
1.0
 70
     8
 71
     3
 72
     8
 73
     4
 74
     0
 42
0.0000000001
 43
0.0000000001
 40
0.0
 40
0.0
 40
0.0
 40
0.0
 40
1.0
 40
1.0
 40
1.0
 40
1.0
 10
112.1567289340931
 20
-1.295997541543271
 30
0.0
 10
112.1781792391548
 20
-1.992460447429832
 30
0.0
 10
112.5473076618563
 20
-2.63180249029022
 30
0.0
 10
113.1397406260663
 20
-2.998604722809649
 30
0.0
  0
SPLINE
  5
211
330
70
100
AcDbEntity
  8
0
 62
    18
420
        0
370
    25
100
AcDbSpline
210
0.0
220
0.0
230
1.0
 70
     8
 71
     3
 72
     8
 73
     4
 74
     0
 42
0.0000000001
 43
0.0000000001
 40
0.0
 40
0.0
 40
0.0
 40
0.0
 40
1.0
 40
1.0
 40
1.0
 40
1.0
 10
112.9067304570412
 20
-1.295998492022755
 30
0.0
 10
112.9268236578474
 20
-1.724787531214754
 30
0.0
 10
113.1534178197011
 20
-2.117266932227993
 30
0.0
 10
113.5147099420672
 20
-2.349068095223986
 30
0.0
  0
SPLINE
  5
212
330
70
100
AcDbEntity
  8
0
 62
    18
420
        0
370
    25
100
AcDbSpline
210
0.0
220
0.0
230
1.0
 70
     8
 71
     3
 72
     8
 73
     4
 74
     0
 42
0.0000000001
 43
0.0000000001
 40
0.0
 40
0.0
 40
0.0
 40
0.0
 40
1.0
 40
1.0
 40
1.0
 40
1.0
 10
165.54973710161
 20
-17.75162091375706
 30
0.0
 10
164.8519021170301
 20
-17.8205269291462
 30
0.0
 10
164.2189993476991
 20
-18.19086955425686
 30
0.0
 10
163.8170795007801
 20
-18.76548433070612
 30
0.0
  0
SPLINE
  5
213
330
70
100
AcDbEntity
  8
0
 62
    18
420
        0
370
    25
100
AcDbSpline
210
0.0
220
0.0
230
1.0
 70
     8
 71
     3
 72
     8
 73
     4
 74
     0
 42
0.0000000001
 43
0.0000000001
 40
0.0
 40
0.0
 40
0.0
 40
0.0
 40
1.0
 40
1.0
 40
1.0
 40
1.0
 10
170.4578800209906
 20
-30.27678580850665
 30
0.0
 10
171.1810222819999
 20
-30.21681878229501
 30
0.0
 10
171.8378953962554
 20
-29.83197054338184
 30
0.0
 10
172.2437659633997
 20
-29.23047253289724
 30
0.0
  0
LWPOLYLINE
  5
214
330
70
100
AcDbEntity
  8
0
 62
    18
420
        0
370
    25
100
AcDbPolyline
 90
       22
 70
     0
 43
0.0
 10
173.6522726462282
 20
-26.37407298296244
 10
173.6205851308285
 20
-25.71586452526344
 10
173.5259351629285
 20
-25.02965089526296
 10
173.3695571840281
 20
-24.32437825266324
 10
173.1534897188285
 20
-23.60924078286241
 10
172.8805490327281
 20
-22.8935613064624
 10
172.5542939004282
 20
-22.18666998896258
 10
172.1789772022284
 20
-21.49778191076265
 10
171.7594922532282
 20
-20.83587824986303
 10
171.3013071129279
 20
-20.20958756056345
 10
170.8103951094284
 20
-19.62707456266356
 10
170.2931561429284
 20
-19.09593311326305
 10
169.7563331328282
 20
-18.62308778246239
 10
169.2069243905282
 20
-18.21470258246279
 10
168.6520923387282
 20
-17.87610165556313
 10
168.0990699878286
 20
-17.61169893506287
 10
167.5550669493283
 20
-17.4249412256627
 10
167.0271749552283
 20
-17.31826354746284
 10
166.522276124928
 20
-17.29305633126347
 10
166.0469523638283
 20
-17.34964847766258
 10
165.6074004112286
 20
-17.48730204136232
 10
165.3536928468284
 20
-17.61358398046244
  0
LWPOLYLINE
  5
215
330
70
100
AcDbEntity
  8
0
 62
    18
420
        0
370
    25
100
AcDbPolyline
 90
        3
 70
     0
 43
0.0
 10
172.2281342570286
 20
-29.52175624726278
 10
172.5542939004282
 20
-29.2937767008627
 10
172.7185381934283
 20
-29.14310408476307
  0
LINE
  5
216
330
70
100
AcDbEntity
  8
0
 62
    18
420
        0
370
    25
100
AcDbLine
 10
173.6469055085285
 20
-26.6346957164631
 30
0.0
 11
173.6522726462282
 21
-26.37407298296244
 31
0.0
  0
LWPOLYLINE
  5
217
330
70
100
AcDbEntity
  8
0
 62
    18
420
        0
370
    25
100
AcDbPolyline
 90
        9
 70
     0
 43
0.0
 10
168.6584675744282
 20
-23.47044046736237
 10
168.6584504522281
 20
-23.47207451046291
 10
168.658433330028
 20
-23.47370864856316
 10
168.658416207928
 20
-23.47534269156231
 10
168.6583991680284
 20
-23.47697668706291
 10
168.6583820459285
 20
-23.47861082516315
 10
168.6583650060282
 20
-23.48024482066247
 10
168.6583480485286
 20
-23.48187876866322
 10
168.6583310087284
 20
-23.48351285926232
  0
SPLINE
  5
218
330
70
100
AcDbEntity
  8
0
 62
    18
420
        0
370
    25
100
AcDbSpline
210
0.0
220
0.0
230
1.0
 70
     8
 71
     3
 72
     8
 73
     4
 74
     0
 42
0.0000000001
 43
0.0000000001
 40
0.0
 40
0.0
 40
0.0
 40
0.0
 40
1.0
 40
1.0
 40
1.0
 40
1.0
 10
168.6584675743499
 20
-23.47044046737263
 30
0.0
 10
168.6567843080092
 20
-23.40777222628545
 30
0.0
 10
168.6236460669373
 20
-23.35016786157689
 30
0.0
 10
168.570317934598
 20
-23.31720952230461
 30
0.0
  0
LWPOLYLINE
  5
219
330
70
100
AcDbEntity
  8
0
 62
    18
420
        0
370
    25
100
AcDbPolyline
 90
        9
 70
     0
 43
0.0
 10
168.5294717115286
 20
-23.29406279796304
 10
168.5345765839284
 20
-23.29695674446279
 10
168.5396816209285
 20
-23.29985050076293
 10
168.5447869049282
 20
-23.30274411456354
 10
168.5498925181285
 20
-23.30563753826337
 10
168.5549984607283
 20
-23.30853077186243
 10
168.5601046501281
 20
-23.31142386296324
 10
168.5652111689281
 20
-23.31431676396326
 10
168.5703179346282
 20
-23.31720952236237
  0
LWPOLYLINE
  5
21A
330
70
100
AcDbEntity
  8
0
 62
    18
420
        0
370
    25
100
AcDbPolyline
 90
        9
 70
     0
 43
0.0
 10
168.5294717115286
 20
-23.29406279796304
 10
168.345954907728
 20
-23.06522619666262
 10
168.1485833975282
 20
-22.86147395586255
 10
167.9417985081284
 20
-22.68739102416277
 10
167.7302533709282
 20
-22.54689450166333
 10
167.5187082337286
 20
-22.44314620766305
 10
167.3119233443281
 20
-22.37848038786342
 10
167.1145518341283
 20
-22.3543523336626
 10
166.9310350303284
 20
-22.3713049433635
  0
LWPOLYLINE
  5
21B
330
70
100
AcDbEntity
  8
0
 62
    18
420
        0
370
    25
100
AcDbPolyline
 90
        9
 70
     0
 43
0.0
 10
166.8909393833281
 20
-22.34772492076272
 10
166.895950330828
 20
-22.35067299376276
 10
166.900961525228
 20
-22.35362092436337
 10
166.905973048928
 20
-22.35656866476309
 10
166.9109848196283
 20
-22.35951626266329
 10
166.9159969195284
 20
-22.3624636704627
 10
166.9210093487281
 20
-22.36541088816263
 10
166.9260220249279
 20
-22.36835796326291
 10
166.9310350303284
 20
-22.3713049433635
  0
LWPOLYLINE
  5
21C
330
70
100
AcDbEntity
  8
0
 62
    18
420
        0
370
    25
100
AcDbPolyline
 90
        6
 70
     0
 43
0.0
 10
166.8023122988282
 20
-22.39890483506261
 10
166.8076041155284
 20
-22.36781852726259
 10
166.822169720628
 20
-22.34604309806333
 10
166.8443654693282
 20
-22.33603494536299
 10
166.8716879870282
 20
-22.33892012126271
 10
166.8909393833281
 20
-22.34772492076272
  0
LWPOLYLINE
  5
21D
330
70
100
AcDbEntity
  8
0
 62
    18
420
        0
370
    25
100
AcDbPolyline
 90
        9
 70
     0
 43
0.0
 10
166.8021757331285
 20
-22.41197722686246
 10
166.802192772928
 20
-22.41034313636346
 10
166.8022097305284
 20
-22.40870918836271
 10
166.8022267703286
 20
-22.40707519286339
 10
166.8022438924286
 20
-22.40544105476315
 10
166.8022609323282
 20
-22.40380705926256
 10
166.8022780544281
 20
-22.40217301616329
 10
166.8022951766282
 20
-22.40053887806305
 10
166.8023122988282
 20
-22.39890483506261
  0
SPLINE
  5
21E
330
70
100
AcDbEntity
  8
0
 62
    18
420
        0
370
    25
100
AcDbSpline
210
0.0
220
0.0
230
1.0
 70
     8
 71
     3
 72
    11
 73
     7
 74
     0
 42
0.0000000001
 43
0.0000000001
 40
0.0
 40
0.0
 40
0.0
 40
0.0
 40
1.0
 40
1.0
 40
1.0
 40
2.0
 40
2.0
 40
2.0
 40
2.0
 10
168.5699426466212
 20
-23.64404251182079
 30
0.0
 10
168.5933049738085
 20
-23.66309856582041
 30
0.0
 10
168.6276918659875
 20
-23.65960764165668
 30
0.0
 10
168.6467479199865
 20
-23.63624531446937
 30
0.0
 10
168.6566142408435
 20
-23.62414940961969
 30
0.0
 10
168.6608304322558
 20
-23.60840846151488
 30
0.0
 10
168.6583310087573
 20
-23.59300040895805
 30
0.0
  0
LINE
  5
21F
330
70
100
AcDbEntity
  8
0
 62
    18
420
        0
370
    25
100
AcDbLine
 10
168.6583310087284
 20
-23.59300040896318
 30
0.0
 11
168.6583310087284
 21
-23.48351285926232
 31
0.0
  0
LINE
  5
220
330
70
100
AcDbEntity
  8
0
 62
    18
420
        0
370
    25
100
AcDbLine
 10
166.8021757331285
 20
-22.52146477656332
 30
0.0
 11
166.8021757331285
 21
-22.41197722686246
 31
0.0
  0
SPLINE
  5
221
330
70
100
AcDbEntity
  8
0
 62
    18
420
        0
370
    25
100
AcDbSpline
210
0.0
220
0.0
230
1.0
 70
     8
 71
     3
 72
     8
 73
     4
 74
     0
 42
0.0000000001
 43
0.0000000001
 40
0.0
 40
0.0
 40
0.0
 40
0.0
 40
1.0
 40
1.0
 40
1.0
 40
1.0
 10
166.802175733124
 20
-22.5214647765646
 30
0.0
 10
166.8050135416768
 20
-22.58382604430911
 30
0.0
 10
166.8379765573712
 20
-22.64091966209671
 30
0.0
 10
166.8905640952608
 20
-22.67455791013258
 30
0.0
  0
LINE
  5
222
330
70
100
AcDbEntity
  8
0
 62
    18
420
        0
370
    25
100
AcDbLine
 10
166.8905640952281
 20
-22.67455791016339
 30
0.0
 11
168.5699426465281
 21
-23.64404251176304
 31
0.0
  0
LINE
  5
223
330
70
100
AcDbEntity
  8
0
 62
    18
420
        0
370
    25
100
AcDbLine
 10
166.9310350303284
 20
-22.3713049433635
 30
0.0
 11
168.5294717115286
 21
-23.29406279796304
 31
0.0
  0
SPLINE
  5
224
330
70
100
AcDbEntity
  8
0
 62
    18
420
        0
370
    25
100
AcDbSpline
210
0.0
220
0.0
230
1.0
 70
     8
 71
     3
 72
     8
 73
     4
 74
     0
 42
0.0000000001
 43
0.0000000001
 40
0.0
 40
0.0
 40
0.0
 40
0.0
 40
1.0
 40
1.0
 40
1.0
 40
1.0
 10
135.1353101034826
 20
-9.863370005220106
 30
0.0
 10
135.8331445068925
 20
-9.794461431473152
 30
0.0
 10
136.4660467526419
 20
-9.42411995161432
 30
0.0
 10
136.8679696799441
 20
-8.849507728782009
 30
0.0
  0
SPLINE
  5
225
330
70
100
AcDbEntity
  8
0
 62
    18
420
        0
370
    25
100
AcDbSpline
210
0.0
220
0.0
230
1.0
 70
     8
 71
     3
 72
     8
 73
     4
 74
     0
 42
0.0000000001
 43
0.0000000001
 40
0.0
 40
0.0
 40
0.0
 40
0.0
 40
1.0
 40
1.0
 40
1.0
 40
1.0
 10
130.2271673487383
 20
2.66179479450411
 30
0.0
 10
129.5040256783513
 20
2.601825965045023
 30
0.0
 10
128.847153326331
 20
2.216978102275295
 30
0.0
 10
128.4412815709629
 20
1.615481423853943
 30
0.0
  0
LWPOLYLINE
  5
226
330
70
100
AcDbEntity
  8
0
 62
    18
420
        0
370
    25
100
AcDbPolyline
 90
        3
 70
     0
 43
0.0
 10
136.8727943416282
 20
-9.111552957463231
 10
137.0171367610283
 20
-9.020914290162712
 10
137.3631992658281
 20
-8.732901365263273
  0
LWPOLYLINE
  5
227
330
70
100
AcDbEntity
  8
0
 62
    18
420
        0
370
    25
100
AcDbPolyline
 90
       23
 70
     0
 43
0.0
 10
138.2915652638281
 20
-6.224492236662881
 10
138.2890048427284
 20
-5.638812522962986
 10
138.2257345206282
 20
-4.965504283262416
 10
138.1000131056281
 20
-4.268623228763383
 10
137.913486959228
 20
-3.557258495063321
 10
137.6685847934283
 20
-2.840682083362514
 10
137.3684965978281
 20
-2.128234269862813
 10
137.0171367610283
 20
-1.429204121663182
 10
136.6190887528281
 20
-0.7527059268624807
 10
136.179536635528
 20
-0.107556385962432
 10
135.7042123805286
 20
0.4978331786373737
 10
135.1993142088284
 20
1.055569363437131
 10
134.6714222970282
 20
1.558382760637052
 10
134.1274171182281
 20
1.999718825837437
 10
133.574395148028
 20
2.373821900936592
 10
133.0195634975285
 20
2.675816193936598
 10
132.470155619628
 20
2.901764326536959
 10
131.9333312101284
 20
3.048722458236904
 10
131.4160919143284
 20
3.114772598036856
 10
130.9251812279284
 20
3.099053774436657
 10
130.4669949352284
 20
3.001773053137277
 10
130.0475099861281
 20
2.8241964052374
 10
129.998353589928
 20
2.79661892923695
  0
LWPOLYLINE
  5
228
330
70
100
AcDbEntity
  8
0
 62
    18
420
        0
370
    25
100
AcDbPolyline
 90
        9
 70
     0
 43
0.0
 10
133.3031292230281
 20
-3.060238080562983
 10
133.303112100828
 20
-3.061872123563426
 10
133.3030949786286
 20
-3.063506261662384
 10
133.3030778565279
 20
-3.065140304662827
 10
133.3030608166283
 20
-3.066774300163424
 10
133.3030436945284
 20
-3.068408438262381
 10
133.3030266547283
 20
-3.070042433762977
 10
133.3030096971285
 20
-3.071676381762444
 10
133.3029926573283
 20
-3.073310472362839
  0
SPLINE
  5
229
330
70
100
AcDbEntity
  8
0
 62
    18
420
        0
370
    25
100
AcDbSpline
210
0.0
220
0.0
230
1.0
 70
     8
 71
     3
 72
     8
 73
     4
 74
     0
 42
0.0000000001
 43
0.0000000001
 40
0.0
 40
0.0
 40
0.0
 40
0.0
 40
1.0
 40
1.0
 40
1.0
 40
1.0
 10
133.3031292230191
 20
-3.06023808049753
 30
0.0
 10
133.3014440172221
 20
-2.997569779289562
 30
0.0
 10
133.2683056307725
 20
-2.939965808580363
 30
0.0
 10
133.2149781015418
 20
-2.907006280048543
 30
0.0
  0
LWPOLYLINE
  5
22A
330
70
100
AcDbEntity
  8
0
 62
    18
420
        0
370
    25
100
AcDbPolyline
 90
        9
 70
     0
 43
0.0
 10
133.174133936328
 20
-2.883860743762692
 10
133.1792374916284
 20
-2.886753929863188
 10
133.1843412939283
 20
-2.889646973362757
 10
133.1894479773286
 20
-2.892541395062455
 10
133.1945523557286
 20
-2.895434105962995
 10
133.1996596977283
 20
-2.898328147462428
 10
133.2047646524279
 20
-2.901220525662551
 10
133.2098725705284
 20
-2.90411423446285
 10
133.2149781015283
 20
-2.90700628006266
  0
LWPOLYLINE
  5
22B
330
70
100
AcDbEntity
  8
0
 62
    18
420
        0
370
    25
100
AcDbPolyline
 90
        9
 70
     0
 43
0.0
 10
133.174133936328
 20
-2.883860743762692
 10
132.9906160212286
 20
-2.655023500863336
 10
132.7932449638283
 20
-2.451271521363115
 10
132.5864593541284
 20
-2.277188173962992
 10
132.3749137847284
 20
-2.136691401963267
 10
132.1633682153285
 20
-2.032942858462694
 10
131.9565852398281
 20
-1.968278143563573
 10
131.7592115483284
 20
-1.944148830063049
 10
131.5756962673284
 20
-1.961102318863396
  0
LWPOLYLINE
  5
22C
330
70
100
AcDbEntity
  8
0
 62
    18
420
        0
370
    25
100
AcDbPolyline
 90
        9
 70
     0
 43
0.0
 10
131.535600044128
 20
-1.937521963563476
 10
131.5406123910284
 20
-1.940470844562713
 10
131.5456223506281
 20
-1.94341806226264
 10
131.5506352737281
 20
-1.946366610562743
 10
131.5556458096281
 20
-1.949313495563536
 10
131.5606566748281
 20
-1.952260190562376
 10
131.5656705034283
 20
-1.955208216162677
 10
131.5706819448285
 20
-1.958154578462383
 10
131.5756962673284
 20
-1.961102318863396
  0
LWPOLYLINE
  5
22D
330
70
100
AcDbEntity
  8
0
 62
    18
420
        0
370
    25
100
AcDbPolyline
 90
        6
 70
     0
 43
0.0
 10
131.4469741120285
 20
-1.988702543262918
 10
131.4522650232284
 20
-1.957615712662992
 10
131.4668302991281
 20
-1.935840093362955
 10
131.4890271179281
 20
-1.925832558463498
 10
131.5163494710284
 20
-1.928717639263428
 10
131.535600044128
 20
-1.937521963563476
  0
LWPOLYLINE
  5
22E
330
70
100
AcDbEntity
  8
0
 62
    18
420
        0
370
    25
100
AcDbPolyline
 90
        9
 70
     0
 43
0.0
 10
131.4468375463281
 20
-2.001774935062774
 10
131.4468545862283
 20
-2.000140844462379
 10
131.446871543728
 20
-1.998506896462912
 10
131.4468885835281
 20
-1.996872900962316
 10
131.4469057057282
 20
-1.995238762863358
 10
131.4469227455284
 20
-1.993604767362762
 10
131.4469398677284
 20
-1.991970724362319
 10
131.4469569898284
 20
-1.990336586263362
 10
131.4469741120285
 20
-1.988702543262918
  0
LINE
  5
22F
330
70
100
AcDbEntity
  8
0
 62
    18
420
        0
370
    25
100
AcDbLine
 10
131.4468375463281
 20
-2.111262484762346
 30
0.0
 11
131.4468375463281
 21
-2.001774935062774
 31
0.0
  0
SPLINE
  5
230
330
70
100
AcDbEntity
  8
0
 62
    18
420
        0
370
    25
100
AcDbSpline
210
0.0
220
0.0
230
1.0
 70
     8
 71
     3
 72
     8
 73
     4
 74
     0
 42
0.0000000001
 43
0.0000000001
 40
0.0
 40
0.0
 40
0.0
 40
0.0
 40
1.0
 40
1.0
 40
1.0
 40
1.0
 10
131.4468375463473
 20
-2.111262484781597
 30
0.0
 10
131.449674876815
 20
-2.173623422443816
 30
0.0
 10
131.4826375181942
 20
-2.230716888201371
 30
0.0
 10
131.5352247560311
 20
-2.264354953053984
 30
0.0
  0
LINE
  5
231
330
70
100
AcDbEntity
  8
0
 62
    18
420
        0
370
    25
100
AcDbLine
 10
131.5352247560279
 20
-2.264354953062968
 30
0.0
 11
133.2146028134283
 21
-3.233839269563436
 31
0.0
  0
SPLINE
  5
232
330
70
100
AcDbEntity
  8
0
 62
    18
420
        0
370
    25
100
AcDbSpline
210
0.0
220
0.0
230
1.0
 70
     8
 71
     3
 72
    11
 73
     7
 74
     0
 42
0.0000000001
 43
0.0000000001
 40
0.0
 40
0.0
 40
0.0
 40
0.0
 40
1.0
 40
1.0
 40
1.0
 40
2.0
 40
2.0
 40
2.0
 40
2.0
 10
133.2146028134655
 20
-3.233839269546752
 30
0.0
 10
133.2379647916231
 20
-3.252895977261864
 30
0.0
 10
133.2723519307985
 20
-3.249405865983235
 30
0.0
 10
133.2914086385129
 20
-3.226043887826299
 30
0.0
 10
133.3012755288932
 20
-3.213947880424127
 30
0.0
 10
133.3054920754726
 20
-3.198206520687346
 30
0.0
 10
133.3029926573264
 20
-3.182798022066261
 30
0.0
  0
LINE
  5
233
330
70
100
AcDbEntity
  8
0
 62
    18
420
        0
370
    25
100
AcDbLine
 10
133.3029926573283
 20
-3.182798022062411
 30
0.0
 11
133.3029926573283
 21
-3.073310472362839
 31
0.0
  0
LINE
  5
234
330
70
100
AcDbEntity
  8
0
 62
    18
420
        0
370
    25
100
AcDbLine
 10
131.5756962673284
 20
-1.961102318863396
 30
0.0
 11
133.174133936328
 21
-2.883860743762692
 31
0.0
  0
SPLINE
  5
235
330
70
100
AcDbEntity
  8
0
 62
    18
420
        0
370
    25
100
AcDbSpline
210
0.0
220
0.0
230
1.0
 70
     8
 71
     3
 72
     8
 73
     4
 74
     0
 42
0.0000000001
 43
0.0000000001
 40
0.0
 40
0.0
 40
0.0
 40
0.0
 40
1.0
 40
1.0
 40
1.0
 40
1.0
 10
162.4806360263675
 20
-47.41676535465819
 30
0.0
 10
162.5075731977887
 20
-47.47233759209395
 30
0.0
 10
162.5504181236559
 20
-47.51865082190589
 30
0.0
 10
162.6037298487107
 20
-47.54982364259246
 30
0.0
  0
SPLINE
  5
236
330
70
100
AcDbEntity
  8
0
 62
    18
420
        0
370
    25
100
AcDbSpline
210
0.0
220
0.0
230
1.0
 70
     8
 71
     3
 72
     8
 73
     4
 74
     0
 42
0.0000000001
 43
0.0000000001
 40
0.0
 40
0.0
 40
0.0
 40
0.0
 40
1.0
 40
1.0
 40
1.0
 40
1.0
 10
162.4806360263707
 20
-45.57954860703453
 30
0.0
 10
162.2897197023118
 20
-46.17707473558234
 30
0.0
 10
162.2897197023118
 20
-46.81923922614374
 30
0.0
 10
162.4806360263707
 20
-47.41676535469156
 30
0.0
  0
LWPOLYLINE
  5
237
330
70
100
AcDbEntity
  8
0
 62
    18
420
        0
370
    25
100
AcDbPolyline
 90
        6
 70
     0
 43
0.0
 10
162.6037298487281
 20
-45.50847165856246
 10
162.574257347828
 20
-45.49869927856255
 10
162.5446004544285
 20
-45.50206252806254
 10
162.5170258788282
 20
-45.51814712946348
 10
162.4938332583283
 20
-45.54699021826354
 10
162.4806360264285
 20
-45.57954860706276
  0
LINE
  5
238
330
70
100
AcDbEntity
  8
0
 62
    18
420
        0
370
    25
100
AcDbLine
 10
162.6037298487281
 20
-45.50847165856246
 30
0.0
 11
163.399225272628
 21
-45.96770139176332
 31
0.0
  0
SPLINE
  5
239
330
70
100
AcDbEntity
  8
0
 62
    18
420
        0
370
    25
100
AcDbSpline
210
0.0
220
0.0
230
1.0
 70
     8
 71
     3
 72
     8
 73
     4
 74
     0
 42
0.0000000001
 43
0.0000000001
 40
0.0
 40
0.0
 40
0.0
 40
0.0
 40
1.0
 40
1.0
 40
1.0
 40
1.0
 10
163.4529085038462
 20
-46.14082956107862
 30
0.0
 10
163.4751939057713
 20
-46.07759706822255
 30
0.0
 10
163.4533755192805
 20
-46.00723287394101
 30
0.0
 10
163.3992252726447
 20
-45.96770139179027
 30
0.0
  0
SPLINE
  5
23A
330
70
100
AcDbEntity
  8
0
 62
    18
420
        0
370
    25
100
AcDbSpline
210
0.0
220
0.0
230
1.0
 70
     8
 71
     3
 72
     8
 73
     4
 74
     0
 42
0.0000000001
 43
0.0000000001
 40
0.0
 40
0.0
 40
0.0
 40
0.0
 40
1.0
 40
1.0
 40
1.0
 40
1.0
 10
163.4529085037698
 20
-46.14082956103499
 30
0.0
 10
163.261992179711
 20
-46.73835568958152
 30
0.0
 10
163.261992179711
 20
-47.3805201801442
 30
0.0
 10
163.4529085037698
 20
-47.97804630869074
 30
0.0
  0
LWPOLYLINE
  5
23B
330
70
100
AcDbEntity
  8
0
 62
    18
420
        0
370
    25
100
AcDbPolyline
 90
        6
 70
     0
 43
0.0
 10
163.399225272628
 20
-48.00905337586264
 10
163.4250165097286
 20
-48.02095242476263
 10
163.4443408397285
 20
-48.02355251646321
 10
163.4560273706284
 20
-48.01664140876322
 10
163.4587142322281
 20
-47.99963452196296
 10
163.4529085038282
 20
-47.9780463086625
  0
LINE
  5
23C
330
70
100
AcDbEntity
  8
0
 62
    18
420
        0
370
    25
100
AcDbLine
 10
163.399225272628
 20
-48.00905337586264
 30
0.0
 11
162.6037298487281
 21
-47.54982364266306
 31
0.0
  0
LINE
  5
23D
330
70
100
AcDbEntity
  8
0
 62
    18
420
        0
370
    25
100
AcDbLine
 10
182.7562727938282
 20
-34.99723455446247
 30
0.0
 11
163.4529085038282
 21
-46.14082956106322
 31
0.0
  0
LINE
  5
23E
330
70
100
AcDbEntity
  8
0
 62
    18
420
        0
370
    25
100
AcDbLine
 10
182.7562727938282
 20
-34.99723455446247
 30
0.0
 11
182.7562727938282
 21
-36.83445130216314
 31
0.0
  0
LINE
  5
23F
330
70
100
AcDbEntity
  8
0
 62
    18
420
        0
370
    25
100
AcDbLine
 10
163.4529085038282
 20
-47.9780463086625
 30
0.0
 11
182.7562727938282
 21
-36.83445130216314
 31
0.0
  0
LINE
  5
240
330
70
100
AcDbEntity
  8
0
 62
    18
420
        0
370
    25
100
AcDbLine
 10
163.399225272628
 20
-45.96770139176332
 30
0.0
 11
182.6678842670282
 21
-34.84414132586271
 31
0.0
  0
SPLINE
  5
241
330
70
100
AcDbEntity
  8
0
 62
    18
420
        0
370
    25
100
AcDbSpline
210
0.0
220
0.0
230
1.0
 70
     8
 71
     3
 72
     8
 73
     4
 74
     0
 42
0.0000000001
 43
0.0000000001
 40
0.0
 40
0.0
 40
0.0
 40
0.0
 40
1.0
 40
1.0
 40
1.0
 40
1.0
 10
182.7562727937987
 20
-34.99723455452278
 30
0.0
 10
182.7534344252987
 20
-34.93487338341816
 30
0.0
 10
182.7204714774248
 20
-34.87777995400131
 30
0.0
 10
182.6678842670263
 20
-34.84414132591147
 30
0.0
  0
LINE
  5
242
330
70
100
AcDbEntity
  8
0
 62
    18
420
        0
370
    25
100
AcDbLine
 10
181.8723888432284
 20
-34.38491159266312
 30
0.0
 11
162.6037298487281
 21
-45.50847165856246
 31
0.0
  0
LINE
  5
243
330
70
100
AcDbEntity
  8
0
 62
    18
420
        0
370
    25
100
AcDbLine
 10
182.6678842670282
 20
-34.84414132586271
 30
0.0
 11
181.8723888432284
 21
-34.38491159266312
 31
0.0
  0
LWPOLYLINE
  5
244
330
70
100
AcDbEntity
  8
0
 62
    18
420
        0
370
    25
100
AcDbPolyline
 90
       11
 70
     0
 43
0.0
 10
182.8701497095284
 20
-32.0043968204629
 10
183.138435720728
 20
-32.19401465576253
 10
183.4458961574283
 20
-32.48365726496275
 10
183.6710833939283
 20
-32.79749990606251
 10
183.8084533911279
 20
-33.12781548826346
 10
183.8546223002283
 20
-33.46646928396282
 10
183.8084530618285
 20
-33.80512288956269
 10
183.6710841348282
 20
-34.13543813916333
 10
183.445896980628
 20
-34.44928139806268
 10
183.138435720728
 20
-34.73892353206295
 10
182.9334999625285
 20
-34.8875770893628
  0
LINE
  5
245
330
70
100
AcDbEntity
  8
0
 62
    18
420
        0
370
    25
100
AcDbLine
 10
182.7075345733281
 20
-31.90791128076356
 30
0.0
 11
182.6678842670282
 21
-31.88466200566301
 31
0.0
  0
SPLINE
  5
246
330
70
100
AcDbEntity
  8
0
 62
    18
420
        0
370
    25
100
AcDbSpline
210
0.0
220
0.0
230
1.0
 70
     8
 71
     3
 72
     8
 73
     4
 74
     0
 42
0.0000000001
 43
0.0000000001
 40
0.0
 40
0.0
 40
0.0
 40
0.0
 40
1.0
 40
1.0
 40
1.0
 40
1.0
 10
182.7303792353273
 20
-31.87847347180059
 30
0.0
 10
182.7099352812801
 20
-31.8692395758084
 30
0.0
 10
182.6861201678958
 20
-31.87159785585588
 30
0.0
 10
182.6678842670186
 20
-31.88466200571177
 30
0.0
  0
SPLINE
  5
247
330
70
100
AcDbEntity
  8
0
 62
    18
420
        0
370
    25
100
AcDbSpline
210
0.0
220
0.0
230
1.0
 70
     8
 71
     3
 72
     8
 73
     4
 74
     0
 42
0.0000000001
 43
0.0000000001
 40
0.0
 40
0.0
 40
0.0
 40
0.0
 40
1.0
 40
1.0
 40
1.0
 40
1.0
 10
182.8752652009275
 20
-36.76252700560141
 30
0.0
 10
183.4300446986902
 20
-36.47609522407677
 30
0.0
 10
183.7995961275606
 20
-35.92561494793133
 30
0.0
 10
183.8546223001532
 20
-35.30368603162755
 30
0.0
  0
LWPOLYLINE
  5
248
330
70
100
AcDbEntity
  8
0
 62
    18
420
        0
370
    25
100
AcDbPolyline
 90
        9
 70
     0
 43
0.0
 10
181.8723891724283
 20
-32.34389154886321
 10
182.1832964311282
 20
-32.56259221996343
 10
182.4143210885285
 20
-32.81210554626341
 10
182.556585800028
 20
-33.08284374436332
 10
182.6046226706283
 20
-33.36440195086268
 10
182.5565859646283
 20
-33.64596006246246
 10
182.4143209238281
 20
-33.91669769026262
 10
182.1832965957285
 20
-34.16621158686234
 10
181.8723888432284
 20
-34.38491159266312
  0
LINE
  5
249
330
70
100
AcDbEntity
  8
0
 62
    18
420
        0
370
    25
100
AcDbLine
 10
181.8723891724283
 20
-32.34389154886321
 30
0.0
 11
182.6678842670282
 21
-31.88466200566301
 31
0.0
  0
SPLINE
  5
24A
330
70
100
AcDbEntity
  8
0
 62
    18
420
        0
370
    25
100
AcDbSpline
210
0.0
220
0.0
230
1.0
 70
     8
 71
     3
 72
     8
 73
     4
 74
     0
 42
0.0000000001
 43
0.0000000001
 40
0.0
 40
0.0
 40
0.0
 40
0.0
 40
1.0
 40
1.0
 40
1.0
 40
1.0
 10
181.8723891724482
 20
-32.3438915488093
 30
0.0
 10
181.8198015767184
 20
-32.37752974157692
 30
0.0
 10
181.7868385420797
 20
-32.4346233921746
 30
0.0
 10
181.7840008103121
 20
-32.49698468237729
 30
0.0
  0
LINE
  5
24B
330
70
100
AcDbEntity
  8
0
 62
    18
420
        0
370
    25
100
AcDbLine
 10
181.7840008103281
 20
-32.49698468236317
 30
0.0
 11
181.7840008103281
 21
-34.33420143006255
 31
0.0
  0
LINE
  5
24C
330
70
100
AcDbEntity
  8
0
 62
    18
420
        0
370
    25
100
AcDbLine
 10
116.465012386828
 20
5.414983349237199
 30
0.0
 11
181.8723891724283
 21
-32.34389154886321
 31
0.0
  0
LINE
  5
24D
330
70
100
AcDbEntity
  8
0
 62
    18
420
        0
370
    25
100
AcDbLine
 10
181.7840008103281
 20
-32.49698468236317
 30
0.0
 11
116.3766240247285
 21
5.261890215737236
 31
0.0
  0
SPLINE
  5
24E
330
70
100
AcDbEntity
  8
0
 62
    18
420
        0
370
    25
100
AcDbSpline
210
0.0
220
0.0
230
1.0
 70
     8
 71
     3
 72
     8
 73
     4
 74
     0
 42
0.0000000001
 43
0.0000000001
 40
0.0
 40
0.0
 40
0.0
 40
0.0
 40
1.0
 40
1.0
 40
1.0
 40
1.0
 10
116.4650123868485
 20
5.414983349291102
 30
0.0
 10
116.4124247911181
 20
5.381345156522202
 30
0.0
 10
116.3794617564801
 20
5.324251505924523
 30
0.0
 10
116.3766240247118
 20
5.261890215721835
 30
0.0
  0
LINE
  5
24F
330
70
100
AcDbEntity
  8
0
 62
    18
420
        0
370
    25
100
AcDbLine
 10
116.3766240247285
 20
3.424673468036568
 30
0.0
 11
181.7840008103281
 21
-34.33420143006255
 31
0.0
  0
LINE
  5
250
330
70
100
AcDbEntity
  8
0
 62
    18
420
        0
370
    25
100
AcDbLine
 10
116.3766240247285
 20
5.261890215737236
 30
0.0
 11
116.3766240247285
 21
3.424673468036568
 31
0.0
  0
LWPOLYLINE
  5
251
330
70
100
AcDbEntity
  8
0
 62
    18
420
        0
370
    25
100
AcDbPolyline
 90
       22
 70
     0
 43
0.0
 10
167.4650883668286
 20
-25.14946085216306
 10
167.4336735712285
 20
-24.89064583956257
 10
167.3422205899279
 20
-24.61855697226263
 10
167.1988554093286
 20
-24.35737050446303
 10
167.0163166675285
 20
-24.13029406906246
 10
166.8108237087282
 20
-23.95750434376258
 10
166.600635492228
 20
-23.85435440076232
 10
166.4044281446283
 20
-23.83000965986299
 10
166.2396356133285
 20
-23.88663322006232
 10
166.1209003678284
 20
-24.01919385126248
 10
166.058772579228
 20
-24.21591293026244
 10
166.058772579228
 20
-24.45931112716262
 10
166.1209003678284
 20
-24.72776142396275
 10
166.2396356133285
 20
-24.99741085166311
 10
166.4044281446283
 20
-25.24429981856267
 10
166.600635492228
 20
-25.44649125916297
 10
166.8108237087282
 20
-25.58601946546354
 10
167.0163166675285
 20
-25.65048686026307
 10
167.1988554093286
 20
-25.63416517006264
 10
167.3422205899279
 20
-25.53850461636312
 10
167.4336735712285
 20
-25.37200511376346
 10
167.4650883668286
 20
-25.14946085216306
  0
LWPOLYLINE
  5
252
330
70
100
AcDbEntity
  8
0
 62
    18
420
        0
370
    25
100
AcDbPolyline
 90
       22
 70
     0
 43
0.0
 10
132.1097501800281
 20
-4.739258560263265
 10
132.0783349728281
 20
-4.480443310063444
 10
131.9868815799284
 20
-4.208354205262988
 10
131.843516440528
 20
-3.947167761162614
 10
131.6609784396285
 20
-3.720091753463441
 10
131.455483577228
 20
-3.547300929262931
 10
131.2452972437282
 20
-3.444152073262346
 10
131.0490878588283
 20
-3.419806156263433
 10
130.884296315328
 20
-3.47643028666242
 10
130.7655607405284
 20
-3.608990727763083
 10
130.7034336516284
 20
-3.805710210662533
 10
130.7034336516284
 20
-4.049108407562714
 10
130.7655607405284
 20
-4.317558300463354
 10
130.884296315328
 20
-4.587207918263205
 10
131.0490878588283
 20
-4.83409631486301
 10
131.2452972437282
 20
-5.036288931662999
 10
131.455483577228
 20
-5.175816050862506
 10
131.6609784396285
 20
-5.240284544662766
 10
131.843516440528
 20
-5.223962426763504
 10
131.9868815799284
 20
-5.128301849263373
 10
132.0783349728281
 20
-4.961802584363157
 10
132.1097501800281
 20
-4.739258560263265
  0
LINE
  5
253
330
70
100
AcDbEntity
  8
0
 62
    18
420
        0
370
    25
100
AcDbLine
 10
117.260507481428
 20
5.874212892437398
 30
0.0
 11
116.465012386828
 21
5.414983349237199
 31
0.0
  0
LINE
  5
254
330
70
100
AcDbEntity
  8
0
 62
    18
420
        0
370
    25
100
AcDbLine
 10
182.6678842670282
 20
-31.88466200566301
 30
0.0
 11
117.260507481428
 21
5.874212892437398
 31
0.0
  0
LWPOLYLINE
  5
255
330
70
100
AcDbEntity
  8
0
 62
    18
420
        0
370
    25
100
AcDbPolyline
 90
       11
 70
     0
 43
0.0
 10
166.8969364394283
 20
-24.02085438826314
 10
166.845411443828
 20
-24.04128312936322
 10
166.7591905986284
 20
-24.14051790306267
 10
166.7289138914282
 20
-24.29880763706286
 10
166.7591905986284
 20
-24.49205411316259
 10
166.845411443828
 20
-24.69083735576321
 10
166.9744500400283
 20
-24.86489440146236
 10
167.1266614386281
 20
-24.98772659556342
 10
167.278872837328
 20
-25.04063394156321
 10
167.4079114335283
 20
-25.01556168786259
 10
167.4513232637282
 20
-24.98118457296306
  0
LWPOLYLINE
  5
256
330
70
100
AcDbEntity
  8
0
 62
    18
420
        0
370
    25
100
AcDbPolyline
 90
        6
 70
     0
 43
0.0
 10
92.86532578802811
 20
-5.249347933762361
 10
92.83585197002855
 20
-5.239574793563417
 10
92.80619375952834
 20
-5.242937282662881
 10
92.77861918392863
 20
-5.259021884062541
 10
92.75542788052826
 20
-5.287865733263125
 10
92.74222801442816
 20
-5.320422601262574
  0
LINE
  5
257
330
70
100
AcDbEntity
  8
0
 62
    18
420
        0
370
    25
100
AcDbLine
 10
92.86532578802811
 20
-5.249347933762361
 30
0.0
 11
93.66082121182861
 21
-5.708577667063334
 31
0.0
  0
SPLINE
  5
258
330
70
100
AcDbEntity
  8
0
 62
    18
420
        0
370
    25
100
AcDbSpline
210
0.0
220
0.0
230
1.0
 70
     8
 71
     3
 72
     8
 73
     4
 74
     0
 42
0.0000000001
 43
0.0000000001
 40
0.0
 40
0.0
 40
0.0
 40
0.0
 40
1.0
 40
1.0
 40
1.0
 40
1.0
 10
93.71450312599286
 20
-5.881705075969122
 30
0.0
 10
93.73678755590368
 20
-5.818473076706664
 30
0.0
 10
93.7149699272614
 20
-5.748109909173111
 30
0.0
 10
93.66082121187995
 20
-5.708577667019699
 30
0.0
  0
SPLINE
  5
259
330
70
100
AcDbEntity
  8
0
 62
    18
420
        0
370
    25
100
AcDbSpline
210
0.0
220
0.0
230
1.0
 70
     8
 71
     3
 72
     8
 73
     4
 74
     0
 42
0.0000000001
 43
0.0000000001
 40
0.0
 40
0.0
 40
0.0
 40
0.0
 40
1.0
 40
1.0
 40
1.0
 40
1.0
 10
93.71450312596977
 20
-5.88170507593447
 30
0.0
 10
93.52358680191091
 20
-6.479231204482283
 30
0.0
 10
93.52358680191091
 20
-7.121395695043689
 30
0.0
 10
93.71450312596977
 20
-7.718921823591503
 30
0.0
  0
LWPOLYLINE
  5
25A
330
70
100
AcDbEntity
  8
0
 62
    18
420
        0
370
    25
100
AcDbPolyline
 90
        6
 70
     0
 43
0.0
 10
93.66082121182861
 20
-7.749929651062539
 10
93.68660718062812
 20
-7.761825658763409
 10
93.70593414482836
 20
-7.764427271063543
 10
93.7176193586287
 20
-7.757515403063136
 10
93.72030622012838
 20
-7.740508516162769
 10
93.7145031259287
 20
-7.718921823663372
  0
LINE
  5
25B
330
70
100
AcDbEntity
  8
0
 62
    18
420
        0
370
    25
100
AcDbLine
 10
93.66082121182861
 20
-7.749929651062539
 30
0.0
 11
92.86532578802811
 21
-7.290699917862955
 31
0.0
  0
SPLINE
  5
25C
330
70
100
AcDbEntity
  8
0
 62
    18
420
        0
370
    25
100
AcDbSpline
210
0.0
220
0.0
230
1.0
 70
     8
 71
     3
 72
     8
 73
     4
 74
     0
 42
0.0000000001
 43
0.0000000001
 40
0.0
 40
0.0
 40
0.0
 40
0.0
 40
1.0
 40
1.0
 40
1.0
 40
1.0
 10
92.74222801438451
 20
-7.157639348972225
 30
0.0
 10
92.76916621725282
 20
-7.213212742342817
 30
0.0
 10
92.81201252579286
 20
-7.259526774064241
 30
0.0
 10
92.86532578799473
 20
-7.290699917923275
 30
0.0
  0
SPLINE
  5
25D
330
70
100
AcDbEntity
  8
0
 62
    18
420
        0
370
    25
100
AcDbSpline
210
0.0
220
0.0
230
1.0
 70
     8
 71
     3
 72
     8
 73
     4
 74
     0
 42
0.0000000001
 43
0.0000000001
 40
0.0
 40
0.0
 40
0.0
 40
0.0
 40
1.0
 40
1.0
 40
1.0
 40
1.0
 10
92.74222801437039
 20
-5.320422601334445
 30
0.0
 10
92.5513116903109
 20
-5.917948729882258
 30
0.0
 10
92.5513116903109
 20
-6.560113220443663
 30
0.0
 10
92.74222801437039
 20
-7.157639348991477
 30
0.0
  0
LINE
  5
25E
330
70
100
AcDbEntity
  8
0
 62
    18
420
        0
370
    25
100
AcDbLine
 10
113.0178674160281
 20
5.261889930536664
 30
0.0
 11
93.7145031259287
 21
-5.881705075962705
 31
0.0
  0
LINE
  5
25F
330
70
100
AcDbEntity
  8
0
 62
    18
420
        0
370
    25
100
AcDbLine
 10
113.0178674160281
 20
5.261889930536664
 30
0.0
 11
113.0178674160281
 21
3.424673182937385
 31
0.0
  0
LINE
  5
260
330
70
100
AcDbEntity
  8
0
 62
    18
420
        0
370
    25
100
AcDbLine
 10
93.7145031259287
 20
-7.718921823663372
 30
0.0
 11
113.0178674160281
 21
3.424673182937385
 31
0.0
  0
LINE
  5
261
330
70
100
AcDbEntity
  8
0
 62
    18
420
        0
370
    25
100
AcDbLine
 10
93.66082121182861
 20
-5.708577667063334
 30
0.0
 11
112.9294802063282
 21
5.414982398837286
 31
0.0
  0
SPLINE
  5
262
330
70
100
AcDbEntity
  8
0
 62
    18
420
        0
370
    25
100
AcDbSpline
210
0.0
220
0.0
230
1.0
 70
     8
 71
     3
 72
     8
 73
     4
 74
     0
 42
0.0000000001
 43
0.0000000001
 40
0.0
 40
0.0
 40
0.0
 40
0.0
 40
1.0
 40
1.0
 40
1.0
 40
1.0
 10
113.0178674159678
 20
5.261889930526397
 30
0.0
 10
113.0150296763502
 20
5.32425074852458
 30
0.0
 10
112.9820671359122
 20
5.381344039446098
 30
0.0
 10
112.9294802062846
 20
5.414982398797501
 30
0.0
  0
LINE
  5
263
330
70
100
AcDbEntity
  8
0
 62
    18
420
        0
370
    25
100
AcDbLine
 10
112.1339847824283
 20
5.87421213203687
 30
0.0
 11
92.86532578802811
 21
-5.249347933762361
 31
0.0
  0
LINE
  5
264
330
70
100
AcDbEntity
  8
0
 62
    18
420
        0
370
    25
100
AcDbLine
 10
112.9294802063282
 20
5.414982398837286
 30
0.0
 11
112.1339847824283
 21
5.87421213203687
 31
0.0
  0
SPLINE
  5
265
330
70
100
AcDbEntity
  8
0
 62
    18
420
        0
370
    25
100
AcDbSpline
210
0.0
220
0.0
230
1.0
 70
     8
 71
     3
 72
     8
 73
     4
 74
     0
 42
0.0000000001
 43
0.0000000001
 40
0.0
 40
0.0
 40
0.0
 40
0.0
 40
1.0
 40
1.0
 40
1.0
 40
1.0
 10
112.1339847824167
 20
5.874212132092056
 30
0.0
 10
112.1157475735509
 20
5.887276013364818
 30
0.0
 10
112.0919319537082
 20
5.889634988655995
 30
0.0
 10
112.0714862744306
 20
5.880402709415544
 30
0.0
  0
LWPOLYLINE
  5
266
330
70
100
AcDbEntity
  8
0
 62
    18
420
        0
370
    25
100
AcDbPolyline
 90
       11
 70
     0
 43
0.0
 10
131.5415978205283
 20
-3.610651846863059
 10
131.4900732982285
 20
-3.631080861262759
 10
131.4038513829283
 20
-3.73031501716261
 10
131.3735741406282
 20
-3.888604442262999
 10
131.4038513829283
 20
-4.081851227362636
 10
131.4900732982285
 20
-4.280635087762861
 10
131.6191111433284
 20
-4.454691699763289
 10
131.7713218525285
 20
-4.577523495863357
 10
131.9235325617285
 20
-4.630430443863433
 10
132.052573041028
 20
-4.605359277262595
 10
132.0959842949283
 20
-4.570981829662644
  0
SPLINE
  5
267
330
70
100
AcDbEntity
  8
0
 62
    18
420
        0
370
    25
100
AcDbSpline
210
0.0
220
0.0
230
1.0
 70
     8
 71
     3
 72
     8
 73
     4
 74
     0
 42
0.0000000001
 43
0.0000000001
 40
0.0
 40
0.0
 40
0.0
 40
0.0
 40
1.0
 40
1.0
 40
1.0
 40
1.0
 10
116.4650123868492
 20
5.414983349247466
 30
0.0
 10
115.3564845250696
 20
5.989354844239685
 30
0.0
 10
114.0380077592773
 20
5.989354489806204
 30
0.0
 10
112.9294802063038
 20
5.414982398823169
 30
0.0
  0
SPLINE
  5
268
330
70
100
AcDbEntity
  8
0
 62
    18
420
        0
370
    25
100
AcDbSpline
210
0.0
220
0.0
230
1.0
 70
     8
 71
     3
 72
     8
 73
     4
 74
     0
 42
0.0000000001
 43
0.0000000001
 40
0.0
 40
0.0
 40
0.0
 40
0.0
 40
1.0
 40
1.0
 40
1.0
 40
1.0
 10
115.4331012956459
 20
6.4435714060345
 30
0.0
 10
114.3009112153438
 20
6.603657313658197
 30
0.0
 10
113.1470270434763
 20
6.404520771574643
 30
0.0
 10
112.1339847824674
 20
5.874212132042003
 30
0.0
  0
SPLINE
  5
269
330
70
100
AcDbEntity
  8
0
 62
    18
420
        0
370
    25
100
AcDbSpline
210
0.0
220
0.0
230
1.0
 70
     8
 71
     3
 72
     8
 73
     4
 74
     0
 42
0.0000000001
 43
0.0000000001
 40
0.0
 40
0.0
 40
0.0
 40
0.0
 40
1.0
 40
1.0
 40
1.0
 40
1.0
 10
116.3766240247438
 20
5.261890215729535
 30
0.0
 10
115.323522430339
 20
5.807543904960272
 30
0.0
 10
114.0709689177825
 20
5.807543798629458
 30
0.0
 10
113.0178674160204
 20
5.261889930602118
 30
0.0
  0
SPLINE
  5
26A
330
70
100
AcDbEntity
  8
0
 62
    18
420
        0
370
    25
100
AcDbSpline
210
0.0
220
0.0
230
1.0
 70
     8
 71
     3
 72
     8
 73
     4
 74
     0
 42
0.0000000001
 43
0.0000000001
 40
0.0
 40
0.0
 40
0.0
 40
0.0
 40
1.0
 40
1.0
 40
1.0
 40
1.0
 10
116.3766240247438
 20
3.424673468030151
 30
0.0
 10
115.323522430339
 20
3.970327157259605
 30
0.0
 10
114.0709689177825
 20
3.970327050928791
 30
0.0
 10
113.0178674160204
 20
3.42467318290145
 30
0.0
  0
SPLINE
  5
26B
330
70
100
AcDbEntity
  8
0
 62
    18
420
        0
370
    25
100
AcDbSpline
210
0.0
220
0.0
230
1.0
 70
     8
 71
     3
 72
     8
 73
     4
 74
     0
 42
0.0000000001
 43
0.0000000001
 40
0.0
 40
0.0
 40
0.0
 40
0.0
 40
1.0
 40
1.0
 40
1.0
 40
1.0
 10
116.4254243130715
 20
3.395984390279921
 30
0.0
 10
115.3791451257946
 20
3.9162952496818
 30
0.0
 10
114.1544975373527
 20
3.93917901863078
 30
0.0
 10
113.0895104730605
 20
3.458319287492239
 30
0.0
  0
LWPOLYLINE
  5
26C
330
70
100
AcDbEntity
  8
0
 62
     8
420
  8421504
370
    25
100
AcDbPolyline
 90
       22
 70
     0
 43
0.0
 10
163.5592650882283
 20
-23.8555680713628
 10
163.6489812407285
 20
-24.12564584356237
 10
163.921911390028
 20
-24.82909479626303
 10
164.2478764335282
 20
-25.52288013336259
 10
164.6224684034282
 20
-26.19761967726353
 10
165.040621775528
 20
-26.84418872896233
 10
165.4966812987281
 20
-27.45384306606314
 10
165.9844797037285
 20
-28.01833908906311
 10
166.4974205149283
 20
-28.53004208446354
 10
167.0285670360286
 20
-28.98203272836287
 10
167.5707363161279
 20
-29.36819821476233
 10
168.1165965325285
 20
-29.68331661016314
 10
168.658765812728
 20
-29.92312645046307
 10
169.1899123337282
 20
-30.08438452636295
 10
169.702853144928
 20
-30.16491038566231
 10
170.1906515500285
 20
-30.16361441306341
 10
170.6467110732279
 20
-30.08051519336272
 10
171.0648644452282
 20
-29.91673574866247
 10
171.4394564152284
 20
-29.67449088726255
 10
171.7654214586285
 20
-29.35705677846314
 10
172.038351608028
 20
-28.96872626866315
 10
172.1280677605283
 20
-28.80223256136302
  0
LWPOLYLINE
  5
26D
330
70
100
AcDbEntity
  8
0
 62
     8
420
  8421504
370
    25
100
AcDbPolyline
 90
       26
 70
     0
 43
0.0
 10
172.4822873268282
 20
-25.96237594286311
 10
172.4111101900282
 20
-25.50119761986256
 10
172.2545557212279
 20
-24.80696235226276
 10
172.038351608028
 20
-24.10336263826358
 10
171.7654214586285
 20
-23.39991368556292
 10
171.4394564152284
 20
-22.70612834836326
 10
171.0648644452282
 20
-22.03138880446232
 10
170.6467110732279
 20
-21.38481975276352
 10
170.1906515500285
 20
-20.7751654156627
 10
169.702853144928
 20
-20.21066939266273
 10
169.1899123337282
 20
-19.69896639726358
 10
168.658765812728
 20
-19.24697575336297
 10
168.1165965325285
 20
-18.86081026696351
 10
167.5707363161279
 20
-18.5456918715627
 10
167.0285670360286
 20
-18.30588203136288
 10
166.4974205149283
 20
-18.14462395536289
 10
165.9844797037285
 20
-18.06409809606353
 10
165.4966812987281
 20
-18.06539406876253
 10
165.040621775528
 20
-18.14849328836312
 10
164.6224684034282
 20
-18.31227273316348
 10
164.2478764335282
 20
-18.55451759446329
 10
163.921911390028
 20
-18.8719517032627
 10
163.6489812407285
 20
-19.2602822130627
 10
163.4327771274286
 20
-19.71425797136238
 10
163.2762226586282
 20
-20.22773929676252
 10
163.2050455219283
 20
-20.60673824686288
  0
LWPOLYLINE
  5
26E
330
70
100
AcDbEntity
  8
0
 62
     8
420
  8421504
370
    25
100
AcDbPolyline
 90
       19
 70
     0
 43
0.0
 10
165.549737101628
 20
-17.75162091376348
 10
166.0007121673279
 20
-17.74035787236355
 10
166.517951133928
 20
-17.80640782216283
 10
167.0547741439281
 20
-17.9533651459624
 10
167.6041828862281
 20
-18.17931377746323
 10
168.1590149380281
 20
-18.4813083021628
 10
168.7120372889284
 20
-18.85541159706312
 10
169.2560403275281
 20
-19.29674642666302
 10
169.7839323216281
 20
-19.7995598714629
 10
170.2888311518283
 20
-20.35729643636281
 10
170.764154912928
 20
-20.96268571586344
 10
171.2037068656285
 20
-21.60783516176251
 10
171.6017568494281
 20
-22.28433449706261
 10
171.953116027728
 20
-22.98336426506327
 10
172.253203235428
 20
-23.69581150836332
 10
172.4981067183284
 20
-24.41238868036327
 10
172.684633523328
 20
-25.12375379416349
 10
172.8103526333284
 20
-25.82063351816245
 10
172.8512196006284
 20
-26.17535596416342
  0
LWPOLYLINE
  5
26F
330
70
100
AcDbEntity
  8
0
 62
     8
420
  8421504
370
    25
100
AcDbPolyline
 90
        3
 70
     0
 43
0.0
 10
172.4073889196285
 20
-28.96348128226244
 10
172.253203235428
 20
-29.21671164166233
 10
172.2437659634286
 20
-29.23047253286259
  0
LWPOLYLINE
  5
270
330
70
100
AcDbEntity
  8
0
 62
     8
420
  8421504
370
    25
100
AcDbPolyline
 90
        3
 70
     0
 43
0.0
 10
168.8737529357284
 20
-23.87921338936273
 10
168.8635579258281
 20
-23.85735441246294
 10
168.6583310087284
 20
-23.48351285926232
  0
LWPOLYLINE
  5
271
330
70
100
AcDbEntity
  8
0
 62
     8
420
  8421504
370
    25
100
AcDbPolyline
 90
        3
 70
     0
 43
0.0
 10
166.8021757331285
 20
-22.41197722686246
 10
166.5969488159281
 20
-22.5488688251628
 10
166.5867538061285
 20
-22.55895689436334
  0
LINE
  5
272
330
70
100
AcDbEntity
  8
0
 62
     8
420
  8421504
370
    25
100
AcDbLine
 10
168.5699426465281
 20
-23.64404251176304
 30
0.0
 11
168.6583310087284
 21
-23.59301699646239
 31
0.0
  0
LINE
  5
273
330
70
100
AcDbEntity
  8
0
 62
     8
420
  8421504
370
    25
100
AcDbLine
 10
167.1734527546285
 20
-22.51124976326313
 30
0.0
 11
166.8905640952281
 21
-22.67455791016339
 31
0.0
  0
LINE
  5
274
330
70
100
AcDbEntity
  8
0
 62
     8
420
  8421504
370
    25
100
AcDbLine
 10
166.8872015670279
 20
-22.34989930366332
 30
0.0
 11
166.8023122988282
 21
-22.39890483506261
 31
0.0
  0
LINE
  5
275
330
70
100
AcDbEntity
  8
0
 62
     8
420
  8421504
370
    25
100
AcDbLine
 10
166.8021757331285
 20
-22.52146477656332
 30
0.0
 11
166.9966617070279
 21
-22.40919041366267
 31
0.0
  0
LWPOLYLINE
  5
276
330
70
100
AcDbEntity
  8
0
 62
     8
420
  8421504
370
    25
100
AcDbPolyline
 90
       26
 70
     0
 43
0.0
 10
137.126948399228
 20
-5.552173223363305
 10
137.0557702746279
 20
-5.090994330063008
 10
136.8992158058282
 20
-4.396759062463202
 10
136.6830130096284
 20
-3.693160108763164
 10
136.4100831896283
 20
-2.989711346163277
 10
136.084116829028
 20
-2.295925248663197
 10
135.7095261762281
 20
-1.621186465062676
 10
135.2913714870282
 20
-0.9746166530634576
 10
134.8353136102283
 20
-0.3649632664626568
 10
134.3475138880283
 20
0.1995335169365589
 10
133.8345735708283
 20
0.7112362272365189
 10
133.3034258149284
 20
1.16322758393643
 10
132.7612566582284
 20
1.549392999036703
 10
132.2153970181281
 20
1.864511061837208
 10
131.6732278614281
 20
2.104320830736562
 10
131.1420827397283
 20
2.26557809883746
 10
130.6291397883282
 20
2.346105193737303
 10
130.1413427003284
 20
2.344808460736595
 10
129.6852821893283
 20
2.261709811336939
 10
129.2671301344281
 20
2.097929606237441
 10
128.8925368473284
 20
1.855685505236772
 10
128.5665731209284
 20
1.538250636136937
 10
128.2936433009283
 20
1.149919936237449
 10
128.0774378705282
 20
0.6959449383370057
 10
127.920883401828
 20
0.1824636129368732
 10
127.849705277228
 20
-0.1965347669625561
  0
LWPOLYLINE
  5
277
330
70
100
AcDbEntity
  8
0
 62
     8
420
  8421504
370
    25
100
AcDbPolyline
 90
       22
 70
     0
 43
0.0
 10
128.203925831328
 20
-3.445365161663409
 10
128.2936433009283
 20
-3.715443694263504
 10
128.5665731209284
 20
-4.418892456863391
 10
128.8925368473284
 20
-5.11267703366252
 10
129.2671301344281
 20
-5.787417337962708
 10
129.6852821893283
 20
-6.433985629263544
 10
130.1413427003284
 20
-7.043640536662833
 10
130.6291397883282
 20
-7.608135799362382
 10
131.1420827397283
 20
-8.119840030263187
 10
131.6732278614281
 20
-8.571829866263431
 10
132.2153970181281
 20
-8.957995281362421
 10
132.7612566582284
 20
-9.273113344162926
 10
133.3034258149284
 20
-9.512923113063564
 10
133.8345735708283
 20
-9.674181901862846
 10
134.3475138880283
 20
-9.754707476063021
 10
134.8353136102283
 20
-9.753412263763264
 10
135.2913714870282
 20
-9.670312093662657
 10
135.7095261762281
 20
-9.506533409262827
 10
136.084116829028
 20
-9.264287787562491
 10
136.4100831896283
 20
-8.946854439162322
 10
136.6830130096284
 20
-8.558523739262835
 10
136.7727278450285
 20
-8.392029271563464
  0
LWPOLYLINE
  5
278
330
70
100
AcDbEntity
  8
0
 62
     8
420
  8421504
370
    25
100
AcDbPolyline
 90
        3
 70
     0
 43
0.0
 10
137.0520486749281
 20
-8.553277802463499
 10
137.0274296470282
 20
-8.597746278963487
 10
136.8679696799281
 20
-8.849507728762757
  0
LWPOLYLINE
  5
279
330
70
100
AcDbEntity
  8
0
 62
     8
420
  8421504
370
    25
100
AcDbPolyline
 90
       20
 70
     0
 43
0.0
 10
130.2271673487281
 20
2.661794794437374
 10
130.396218358128
 20
2.672218732436794
 10
130.9011165298281
 20
2.647011896437688
 10
131.4290084416283
 20
2.540334265737679
 10
131.9730109862282
 20
2.353576841436691
 10
132.5260329564283
 20
2.089174340737603
 10
133.0808646069284
 20
1.750573645537502
 10
133.630275119128
 20
1.34218742373742
 10
134.167096894428
 20
0.8693428058374424
 10
134.684336190228
 20
0.338201166337434
 10
135.175246876628
 20
-0.2443110712633116
 10
135.633433169328
 20
-0.8706024258623394
 10
136.0529181183283
 20
-1.532506086763243
 10
136.4282358043281
 20
-2.221394735162821
 10
136.7544892903286
 20
-2.928285102262726
 10
137.0274296470282
 20
-3.643964388563249
 10
137.243498100128
 20
-4.359102428662543
 10
137.3998760790283
 20
-5.064375071263549
 10
137.4945273640284
 20
-5.750589461563172
 10
137.4958813315281
 20
-5.765153624762497
  0
LWPOLYLINE
  5
27A
330
70
100
AcDbEntity
  8
0
 62
     8
420
  8421504
370
    25
100
AcDbPolyline
 90
        3
 70
     0
 43
0.0
 10
131.4468375463281
 20
-2.001774935062774
 10
131.2416087359281
 20
-2.138665440363552
 10
131.2314144669284
 20
-2.148753937162816
  0
LWPOLYLINE
  5
27B
330
70
100
AcDbEntity
  8
0
 62
     8
420
  8421504
370
    25
100
AcDbPolyline
 90
        3
 70
     0
 43
0.0
 10
133.5184131026286
 20
-3.469010147163126
 10
133.5082188336282
 20
-3.447151597863344
 10
133.3029926573283
 20
-3.073310472362839
  0
LINE
  5
27C
330
70
100
AcDbEntity
  8
0
 62
     8
420
  8421504
370
    25
100
AcDbLine
 10
133.2146028134283
 20
-3.233839269563436
 30
0.0
 11
133.3029911756286
 21
-3.182813754162688
 31
0.0
  0
LINE
  5
27D
330
70
100
AcDbEntity
  8
0
 62
     8
420
  8421504
370
    25
100
AcDbLine
 10
131.8181134154284
 20
-2.101046806062612
 30
0.0
 11
131.5352247560279
 21
-2.264354953062968
 31
0.0
  0
LINE
  5
27E
330
70
100
AcDbEntity
  8
0
 62
     8
420
  8421504
370
    25
100
AcDbLine
 10
131.5318633802282
 20
-1.939697011763522
 30
0.0
 11
131.4469741120285
 21
-1.988702543262918
 31
0.0
  0
LINE
  5
27F
330
70
100
AcDbEntity
  8
0
 62
     8
420
  8421504
370
    25
100
AcDbLine
 10
131.4468375463281
 20
-2.111262484762346
 30
0.0
 11
131.6413235202281
 21
-1.998988121862981
 31
0.0
  0
LWPOLYLINE
  5
280
330
70
100
AcDbEntity
  8
0
 62
     8
420
  8421504
370
    25
100
AcDbPolyline
 90
        3
 70
     0
 43
0.0
 10
163.9737487210281
 20
-49.05537525336296
 10
163.8924593040283
 20
-48.98514347206242
 10
163.8639140337286
 20
-48.90229918246334
  0
LWPOLYLINE
  5
281
330
70
100
AcDbEntity
  8
0
 62
     8
420
  8421504
370
    25
100
AcDbPolyline
 90
        7
 70
     0
 43
0.0
 10
164.6139132517283
 20
-48.90229842216292
 10
164.5853692986281
 20
-48.98514347206242
 10
164.5040785645282
 20
-49.05537601366338
 10
164.3824203692281
 20
-49.102303395163
 10
164.2389129842284
 20
-49.11878146866296
 10
164.0954069163282
 20
-49.10230263486258
 10
163.9737487210281
 20
-49.05537525336296
  0
LWPOLYLINE
  5
282
330
70
100
AcDbEntity
  8
0
 62
     8
420
  8421504
370
    25
100
AcDbPolyline
 90
        8
 70
     0
 43
0.0
 10
163.1782532971281
 20
-49.51475389396302
 10
163.198437686328
 20
-49.38592272766256
 10
163.2559180851282
 20
-49.25340073226319
 10
163.3419437542282
 20
-49.13736292756265
 10
163.4434175603284
 20
-49.05547515856237
 10
163.5448926836282
 20
-49.02020300446334
 10
163.6309183526281
 20
-49.03691768576315
 10
163.6319680726284
 20
-49.03753109756284
  0
LWPOLYLINE
  5
283
330
70
100
AcDbEntity
  8
0
 62
     8
420
  8421504
370
    25
100
AcDbPolyline
 90
        3
 70
     0
 43
0.0
 10
163.2558588161282
 20
-49.68640221326349
 10
163.198437686328
 20
-49.62028028026357
 10
163.1782532971281
 20
-49.51475389396302
  0
LWPOLYLINE
  5
284
330
70
100
AcDbEntity
  8
0
 62
     8
420
  8421504
370
    25
100
AcDbPolyline
 90
        7
 70
     0
 43
0.0
 10
95.03083744992842
 20
-10.17408811496252
 10
95.05102183912827
 20
-10.04525694866335
 10
95.10850223792854
 20
-9.912734953262697
 10
95.1945279070285
 20
-9.796697148563437
 10
95.29600171312809
 20
-9.714809379563154
 10
95.3974768364279
 20
-9.679537225462848
 10
95.48348670042789
 20
-9.696243540262353
  0
LWPOLYLINE
  5
285
330
70
100
AcDbEntity
  8
0
 62
     8
420
  8421504
370
    25
100
AcDbPolyline
 90
        4
 70
     0
 43
0.0
 10
95.10851804302848
 20
-10.34577978766315
 10
95.10850223792854
 20
-10.34577104086247
 10
95.05102183912827
 20
-10.27961450136318
 10
95.03083744992842
 20
-10.17408811496252
  0
LWPOLYLINE
  5
286
330
70
100
AcDbEntity
  8
0
 62
     8
420
  8421504
370
    25
100
AcDbPolyline
 90
        7
 70
     0
 43
0.0
 10
94.2353420260278
 20
-8.796250007963301
 10
94.357000221428
 20
-8.843177389462921
 10
94.50050760642833
 20
-8.859656983562437
 10
94.64401104012834
 20
-8.843176629162499
 10
94.76567318672875
 20
-8.796251528562864
 10
94.84695996952837
 20
-8.726016706063193
 10
94.87550787392821
 20
-8.643173937062403
  0
LWPOLYLINE
  5
287
330
70
100
AcDbEntity
  8
0
 62
     8
420
  8421504
370
    25
100
AcDbPolyline
 90
        3
 70
     0
 43
0.0
 10
94.12550602172824
 20
-8.643173176763264
 10
94.15405260912871
 20
-8.726018226662755
 10
94.2353420260278
 20
-8.796250007963301
  0
LWPOLYLINE
  5
288
330
70
100
AcDbEntity
  8
0
 62
     8
420
  8421504
370
    25
100
AcDbPolyline
 90
        7
 70
     0
 43
0.0
 10
166.9789520458285
 20
-50.38253608756332
 10
167.1006102411279
 20
-50.42946346916305
 10
167.2441163090281
 20
-50.44594230286332
 10
167.3876236940285
 20
-50.42946422946346
 10
167.5092832064281
 20
-50.38253608756332
 10
167.5905726234285
 20
-50.31230430636288
 10
167.619116576528
 20
-50.2294592564634
  0
LWPOLYLINE
  5
289
330
70
100
AcDbEntity
  8
0
 62
     8
420
  8421504
370
    25
100
AcDbPolyline
 90
        3
 70
     0
 43
0.0
 10
166.8691173586284
 20
-50.22946001676253
 10
166.897662628828
 20
-50.31230430636288
 10
166.9789520458285
 20
-50.38253608756332
  0
LWPOLYLINE
  5
28A
330
70
100
AcDbEntity
  8
0
 62
     8
420
  8421504
370
    25
100
AcDbPolyline
 90
        4
 70
     0
 43
0.0
 10
166.1834566219285
 20
-50.84191510846246
 10
166.2036410111284
 20
-50.94744111456275
 10
166.261121409928
 20
-51.01359841456267
 10
166.2611767277284
 20
-51.01362883826236
  0
LWPOLYLINE
  5
28B
330
70
100
AcDbEntity
  8
0
 62
     8
420
  8421504
370
    25
100
AcDbPolyline
 90
        7
 70
     0
 43
0.0
 10
166.636005773628
 20
-50.36401196866311
 10
166.550096008428
 20
-50.34736421896279
 10
166.4486222022283
 20
-50.38263561276266
 10
166.347147079028
 20
-50.46452414206338
 10
166.261121409928
 20
-50.58056194676264
 10
166.2036410111284
 20
-50.71308394216329
 10
166.1834566219285
 20
-50.84191510846246
  0
LWPOLYLINE
  5
28C
330
70
100
AcDbEntity
  8
0
 62
     8
420
  8421504
370
    25
100
AcDbPolyline
 90
        5
 70
     0
 43
0.0
 10
98.48869134232842
 20
-11.02340399436255
 10
98.40268016122829
 20
-11.00669843996358
 10
98.30120635502796
 20
-11.04196983376346
 10
98.19973123182826
 20
-11.12385836306288
 10
98.12496403962796
 20
-11.22113508376275
  0
LWPOLYLINE
  5
28D
330
70
100
AcDbEntity
  8
0
 62
     8
420
  8421504
370
    25
100
AcDbPolyline
 90
        3
 70
     0
 43
0.0
 10
97.24054535092832
 20
-10.12341084216238
 10
97.15925593392846
 20
-10.05317906096322
 10
97.13070934652799
 20
-9.970334011062448
  0
LWPOLYLINE
  5
28E
330
70
100
AcDbEntity
  8
0
 62
     8
420
  8421504
370
    25
100
AcDbPolyline
 90
        7
 70
     0
 43
0.0
 10
97.88071119872796
 20
-9.970334771362869
 10
97.85216329432813
 20
-10.05317754026355
 10
97.77087782862864
 20
-10.12341160256291
 10
97.6492143649281
 20
-10.17033746336286
 10
97.50571093122873
 20
-10.1868178178629
 10
97.36220354622838
 20
-10.17033822376339
 10
97.24054535092832
 20
-10.12341084216238
  0
SPLINE
  5
28F
330
70
100
AcDbEntity
  8
0
 62
     8
420
  8421504
370
    25
100
AcDbSpline
210
0.0
220
0.0
230
1.0
 70
     8
 71
     3
 72
     8
 73
     4
 74
     0
 42
0.0000000001
 43
0.0000000001
 40
0.0
 40
0.0
 40
0.0
 40
0.0
 40
1.0
 40
1.0
 40
1.0
 40
1.0
 10
181.8723888431956
 20
-34.38491159265286
 30
0.0
 10
181.8541531222855
 20
-34.37184733754292
 30
0.0
 10
181.8303380270882
 20
-34.36948913431066
 30
0.0
 10
181.8098942864772
 20
-34.37872329634743
 30
0.0
  0
SPLINE
  5
290
330
70
100
AcDbEntity
  8
0
 62
     8
420
  8421504
370
    25
100
AcDbSpline
210
0.0
220
0.0
230
1.0
 70
     8
 71
     3
 72
     8
 73
     4
 74
     0
 42
0.0000000001
 43
0.0000000001
 40
0.0
 40
0.0
 40
0.0
 40
0.0
 40
1.0
 40
1.0
 40
1.0
 40
1.0
 10
182.7303788237512
 20
-36.89168160626745
 30
0.0
 10
182.7489973050412
 20
-36.87891795679357
 30
0.0
 10
182.7589764743919
 20
-36.8568622080734
 30
0.0
 10
182.7562727938051
 20
-36.83445130214132
 30
0.0
  0
LINE
  5
291
330
70
100
AcDbEntity
  8
0
 62
     8
420
  8421504
370
    25
100
AcDbLine
 10
182.9334999625285
 20
-34.8875770893628
 30
0.0
 11
182.7562727938282
 21
-34.99723455446247
 31
0.0
  0
LWPOLYLINE
  5
292
330
70
100
AcDbEntity
  8
0
 62
     8
420
  8421504
370
    25
100
AcDbPolyline
 90
       11
 70
     0
 43
0.0
 10
182.6678842670282
 20
-34.84414132586271
 10
183.0373092967285
 20
-34.59444133616295
 10
183.3345203114285
 20
-34.31445285016277
 10
183.552202527828
 20
-34.01107195516259
 10
183.684992265528
 20
-33.69176698896273
 10
183.729622485428
 20
-33.3644017608633
 10
183.684991936328
 20
-33.03703596246283
 10
183.5522023631283
 20
-32.71773185166319
 10
183.3345200644283
 20
-32.41434986366345
 10
183.0373088028282
 20
-32.13436228046323
 10
182.7075345733281
 20
-31.90791128076356
  0
LINE
  5
293
330
70
100
AcDbEntity
  8
0
 62
     8
420
  8421504
370
    25
100
AcDbLine
 10
182.7562727938282
 20
-36.83445130216314
 30
0.0
 11
182.8752652009282
 21
-36.76252700566301
 31
0.0
  0
SPLINE
  5
294
330
70
100
AcDbEntity
  8
0
 62
     8
420
  8421504
370
    25
100
AcDbSpline
210
0.0
220
0.0
230
1.0
 70
     8
 71
     3
 72
     8
 73
     4
 74
     0
 42
0.0000000001
 43
0.0000000001
 40
0.0
 40
0.0
 40
0.0
 40
0.0
 40
1.0
 40
1.0
 40
1.0
 40
1.0
 10
182.4795994774487
 20
-33.47251873362168
 30
0.0
 10
182.4447864774791
 20
-33.04416065412327
 30
0.0
 10
182.1776303798842
 20
-32.6694907726398
 30
0.0
 10
181.784000810271
 20
-32.49698468241451
 30
0.0
  0
SPLINE
  5
295
330
70
100
AcDbEntity
  8
0
 62
     8
420
  8421504
370
    25
100
AcDbSpline
210
0.0
220
0.0
230
1.0
 70
     8
 71
     3
 72
     8
 73
     4
 74
     0
 42
0.0000000001
 43
0.0000000001
 40
0.0
 40
0.0
 40
0.0
 40
0.0
 40
1.0
 40
1.0
 40
1.0
 40
1.0
 10
181.7840008103101
 20
-34.33420143006255
 30
0.0
 10
181.7826085228988
 20
-34.35238515441714
 30
0.0
 10
181.7885719200831
 20
-34.37036697569611
 30
0.0
 10
181.8005539850623
 20
-34.38411529975713
 30
0.0
  0
SPLINE
  5
296
330
70
100
AcDbEntity
  8
0
 62
     8
420
  8421504
370
    25
100
AcDbSpline
210
0.0
220
0.0
230
1.0
 70
     8
 71
     3
 72
     8
 73
     4
 74
     0
 42
0.0000000001
 43
0.0000000001
 40
0.0
 40
0.0
 40
0.0
 40
0.0
 40
1.0
 40
1.0
 40
1.0
 40
1.0
 10
117.323002449727
 20
5.880401426299812
 30
0.0
 10
117.3025584956798
 20
5.889635322290726
 30
0.0
 10
117.2787433822955
 20
5.887277042244523
 30
0.0
 10
117.2605074814183
 20
5.874212892387345
 30
0.0
  0
SPLINE
  5
297
330
70
100
AcDbEntity
  8
0
 62
     8
420
  8421504
370
    25
100
AcDbSpline
210
0.0
220
0.0
230
1.0
 70
     8
 71
     3
 72
     8
 73
     4
 74
     0
 42
0.0000000001
 43
0.0000000001
 40
0.0
 40
0.0
 40
0.0
 40
0.0
 40
1.0
 40
1.0
 40
1.0
 40
1.0
 10
116.3766240247342
 20
3.4246734680109
 30
0.0
 10
116.3736811104368
 20
3.402226482036968
 30
0.0
 10
116.383714217043
 20
3.380050988878892
 30
0.0
 10
116.4025175008794
 20
3.367442878757354
 30
0.0
  0
SPLINE
  5
298
330
70
100
AcDbEntity
  8
0
 62
     8
420
  8421504
370
    25
100
AcDbSpline
210
0.0
220
0.0
230
1.0
 70
     8
 71
     3
 72
     8
 73
     4
 74
     0
 42
0.0000000001
 43
0.0000000001
 40
0.0
 40
0.0
 40
0.0
 40
0.0
 40
1.0
 40
1.0
 40
1.0
 40
1.0
 10
112.9919734459132
 20
3.367442878833074
 30
0.0
 10
113.010899605589
 20
3.379946503317735
 30
0.0
 10
113.0209695237278
 20
3.402202823087493
 30
0.0
 10
113.0178674159671
 20
3.424673182959203
 30
0.0
  0
SPLINE
  5
299
330
70
100
AcDbEntity
  8
0
 62
     8
420
  8421504
370
    25
100
AcDbSpline
210
0.0
220
0.0
230
1.0
 70
     8
 71
     3
 72
     8
 73
     4
 74
     0
 42
0.0000000001
 43
0.0000000001
 40
0.0
 40
0.0
 40
0.0
 40
0.0
 40
1.0
 40
1.0
 40
1.0
 40
1.0
 10
117.260507481426
 20
5.87421289234756
 30
0.0
 10
116.694934663208
 20
6.182782662774622
 30
0.0
 10
116.0738518677117
 20
6.376291243429203
 30
0.0
 10
115.4331012956061
 20
6.443571405998564
 30
0.0
  0
LWPOLYLINE
  5
29A
330
70
100
AcDbEntity
  8
0
 62
     8
420
  8421504
370
    25
100
AcDbPolyline
 90
        7
 70
     0
 43
0.0
 10
169.9841566877284
 20
-48.6476683755633
 10
170.1058148830284
 20
-48.69459575706292
 10
170.249320950928
 20
-48.7110745908633
 10
170.3928283359284
 20
-48.69459651736335
 10
170.5144865312284
 20
-48.64766913586244
 10
170.5957772653284
 20
-48.57743659426276
 10
170.6243212184279
 20
-48.49459154436327
  0
LWPOLYLINE
  5
29B
330
70
100
AcDbEntity
  8
0
 62
     8
420
  8421504
370
    25
100
AcDbPolyline
 90
        3
 70
     0
 43
0.0
 10
169.8743220005282
 20
-48.49459230466241
 10
169.9028672707285
 20
-48.57743659426276
 10
169.9841566877284
 20
-48.6476683755633
  0
LWPOLYLINE
  5
29C
330
70
100
AcDbEntity
  8
0
 62
     8
420
  8421504
370
    25
100
AcDbPolyline
 90
        4
 70
     0
 43
0.0
 10
169.1886612638284
 20
-49.10704739636233
 10
169.2088456530282
 20
-49.21257340246262
 10
169.2663260518285
 20
-49.27873070256265
 10
169.2663800525282
 20
-49.27876188656275
  0
LWPOLYLINE
  5
29D
330
70
100
AcDbEntity
  8
0
 62
     8
420
  8421504
370
    25
100
AcDbPolyline
 90
        7
 70
     0
 43
0.0
 10
169.6412090984284
 20
-48.62914501696351
 10
169.5553006503285
 20
-48.61249650686266
 10
169.4538255270281
 20
-48.64776866096296
 10
169.3523517209285
 20
-48.72965642996325
 10
169.2663260518285
 20
-48.84569423466251
 10
169.2088456530282
 20
-48.97821623006316
 10
169.1886612638284
 20
-49.10704739636233
  0
LWPOLYLINE
  5
29E
330
70
100
AcDbEntity
  8
0
 62
     8
420
  8421504
370
    25
100
AcDbPolyline
 90
        4
 70
     0
 43
0.0
 10
101.041245416628
 20
-9.766381617363128
 10
101.0614298058285
 20
-9.871907623563521
 10
101.1189102046281
 20
-9.938064923563445
 10
101.118924692628
 20
-9.938074050463001
  0
LWPOLYLINE
  5
29F
330
70
100
AcDbEntity
  8
0
 62
     8
420
  8421504
370
    25
100
AcDbPolyline
 90
        7
 70
     0
 43
0.0
 10
101.4938946671281
 20
-9.288537042662955
 10
101.4078848031281
 20
-9.271830727963557
 10
101.3064096799284
 20
-9.307102882062579
 10
101.2049358737281
 20
-9.388990651062862
 10
101.1189102046281
 20
-9.505028455663302
 10
101.0614298058285
 20
-9.637550451162775
 10
101.041245416628
 20
-9.766381617363128
  0
LWPOLYLINE
  5
2A0
330
70
100
AcDbEntity
  8
0
 62
     8
420
  8421504
370
    25
100
AcDbPolyline
 90
        3
 70
     0
 43
0.0
 10
100.2457499928282
 20
-8.388543130162359
 10
100.1644605758283
 20
-8.318311348863094
 10
100.1359139885279
 20
-8.235466298962322
  0
LWPOLYLINE
  5
2A1
330
70
100
AcDbEntity
  8
0
 62
     8
420
  8421504
370
    25
100
AcDbPolyline
 90
        7
 70
     0
 43
0.0
 10
100.8859158406284
 20
-8.235467059262743
 10
100.857367936228
 20
-8.318309828263533
 10
100.7760811534283
 20
-8.388544650763204
 10
100.6544190068279
 20
-8.435469751362839
 10
100.5109155731286
 20
-8.451950105762778
 10
100.3674081881282
 20
-8.435470511663261
 10
100.2457499928282
 20
-8.388543130162359
  0
LWPOLYLINE
  5
2A2
330
70
100
AcDbEntity
  8
0
 62
     8
420
  8421504
370
    25
100
AcDbPolyline
 90
        7
 70
     0
 43
0.0
 10
172.9893600125281
 20
-46.91280142376231
 10
173.1110182078282
 20
-46.95972880536332
 10
173.2545242757284
 20
-46.97620763906232
 10
173.3980316607281
 20
-46.95972956566246
 10
173.5196911731283
 20
-46.91280142376231
 10
173.6009805901282
 20
-46.84256964256316
 10
173.6295245433284
 20
-46.75972459256356
  0
LWPOLYLINE
  5
2A3
330
70
100
AcDbEntity
  8
0
 62
     8
420
  8421504
370
    25
100
AcDbPolyline
 90
        3
 70
     0
 43
0.0
 10
172.879525325328
 20
-46.7597253529628
 10
172.9080705955283
 20
-46.84256964256316
 10
172.9893600125281
 20
-46.91280142376231
  0
LWPOLYLINE
  5
2A4
330
70
100
AcDbEntity
  8
0
 62
     8
420
  8421504
370
    25
100
AcDbPolyline
 90
        4
 70
     0
 43
0.0
 10
172.1938645886281
 20
-47.37218044466273
 10
172.214048977828
 20
-47.47770645076303
 10
172.2715293766283
 20
-47.54386375076295
 10
172.2715833773279
 20
-47.54389493486316
  0
LWPOLYLINE
  5
2A5
330
70
100
AcDbEntity
  8
0
 62
     8
420
  8421504
370
    25
100
AcDbPolyline
 90
        7
 70
     0
 43
0.0
 10
172.6464137403283
 20
-46.89427730486338
 10
172.5605039751283
 20
-46.87762955516306
 10
172.4590301690281
 20
-46.91290094896294
 10
172.3575550457282
 20
-46.99478947826237
 10
172.2715293766283
 20
-47.11082728296291
 10
172.214048977828
 20
-47.24334927836356
 10
172.1938645886281
 20
-47.37218044466273
  0
LWPOLYLINE
  5
2A6
330
70
100
AcDbEntity
  8
0
 62
     8
420
  8421504
370
    25
100
AcDbPolyline
 90
        4
 70
     0
 43
0.0
 10
104.0464487414284
 20
-8.031514665663531
 10
104.0666331306283
 20
-8.137040671762534
 10
104.1241135294285
 20
-8.203197971762458
 10
104.1241293345285
 20
-8.203206338362875
  0
LWPOLYLINE
  5
2A7
330
70
100
AcDbEntity
  8
0
 62
     8
420
  8421504
370
    25
100
AcDbPolyline
 90
        7
 70
     0
 43
0.0
 10
104.4990979919285
 20
-7.553670090963358
 10
104.4130881279285
 20
-7.53696377616257
 10
104.3116143218283
 20
-7.572235169962453
 10
104.2101391985285
 20
-7.654123699263159
 10
104.1241135294285
 20
-7.77016150396242
 10
104.0666331306283
 20
-7.902683499363072
 10
104.0464487414284
 20
-8.031514665663531
  0
LWPOLYLINE
  5
2A8
330
70
100
AcDbEntity
  8
0
 62
     8
420
  8421504
370
    25
100
AcDbPolyline
 90
        3
 70
     0
 43
0.0
 10
103.2509533176285
 20
-6.653676178362655
 10
103.169663900628
 20
-6.583444397163496
 10
103.1411173133283
 20
-6.500599347162618
  0
LWPOLYLINE
  5
2A9
330
70
100
AcDbEntity
  8
0
 62
     8
420
  8421504
370
    25
100
AcDbPolyline
 90
        7
 70
     0
 43
0.0
 10
103.8911191654282
 20
-6.500600107563146
 10
103.8625712610284
 20
-6.583442876462546
 10
103.7812857953282
 20
-6.653676938763183
 10
103.6596223316283
 20
-6.700602799563135
 10
103.5161188979283
 20
-6.71708315406318
 10
103.372611512928
 20
-6.700603559962379
 10
103.2509533176285
 20
-6.653676178362655
  0
LWPOLYLINE
  5
2AA
330
70
100
AcDbEntity
  8
0
 62
     8
420
  8421504
370
    25
100
AcDbPolyline
 90
        7
 70
     0
 43
0.0
 10
175.994563995928
 20
-45.17793409186245
 10
176.1162221912281
 20
-45.22486147346346
 10
176.2597282591283
 20
-45.24134030716245
 10
176.403235644128
 20
-45.2248622337626
 10
176.5248944980282
 20
-45.17793447206272
 10
176.606184573528
 20
-45.10770231066329
 10
176.6347285266282
 20
-45.02485726066241
  0
LWPOLYLINE
  5
2AB
330
70
100
AcDbEntity
  8
0
 62
     8
420
  8421504
370
    25
100
AcDbPolyline
 90
        3
 70
     0
 43
0.0
 10
175.8847293086284
 20
-45.02485802106295
 10
175.9132745789282
 20
-45.10770231066329
 10
175.994563995928
 20
-45.17793409186245
  0
LWPOLYLINE
  5
2AC
330
70
100
AcDbEntity
  8
0
 62
     8
420
  8421504
370
    25
100
AcDbPolyline
 90
        4
 70
     0
 43
0.0
 10
175.199068572028
 20
-45.63731311276288
 10
175.2192529612285
 20
-45.74283911886317
 10
175.2767333600281
 20
-45.80899641886309
 10
175.2767880192285
 20
-45.80902722276303
  0
LWPOLYLINE
  5
2AD
330
70
100
AcDbEntity
  8
0
 62
     8
420
  8421504
370
    25
100
AcDbPolyline
 90
        7
 70
     0
 43
0.0
 10
175.6516170652281
 20
-45.1594103531625
 10
175.5657079585281
 20
-45.1427622232632
 10
175.4642334938284
 20
-45.17803399716323
 10
175.3627590291281
 20
-45.2599221463625
 10
175.2767333600281
 20
-45.37595995106305
 10
175.2192529612285
 20
-45.50848194646241
 10
175.199068572028
 20
-45.63731311276288
  0
LWPOLYLINE
  5
2AE
330
70
100
AcDbEntity
  8
0
 62
     8
420
  8421504
370
    25
100
AcDbPolyline
 90
        4
 70
     0
 43
0.0
 10
107.0516527248283
 20
-6.296647333762385
 10
107.0718371140281
 20
-6.402173339862672
 10
107.1293175128284
 20
-6.468330639862596
 10
107.1293326593282
 20
-6.468339386663275
  0
LWPOLYLINE
  5
2AF
330
70
100
AcDbEntity
  8
0
 62
     8
420
  8421504
370
    25
100
AcDbPolyline
 90
        7
 70
     0
 43
0.0
 10
107.5043026338284
 20
-5.818802378863232
 10
107.4182921113284
 20
-5.802096444262708
 10
107.3168176466281
 20
-5.837368218262855
 10
107.2153431819284
 20
-5.919256367363297
 10
107.1293175128284
 20
-6.035294172062557
 10
107.0718371140281
 20
-6.167816167463209
 10
107.0516527248283
 20
-6.296647333762385
  0
LWPOLYLINE
  5
2B0
330
70
100
AcDbEntity
  8
0
 62
     8
420
  8421504
370
    25
100
AcDbPolyline
 90
        3
 70
     0
 43
0.0
 10
106.2561573009283
 20
-4.918808846462793
 10
106.1748678840286
 20
-4.848577065262351
 10
106.1463212966281
 20
-4.765732015262756
  0
LWPOLYLINE
  5
2B1
330
70
100
AcDbEntity
  8
0
 62
     8
420
  8421504
370
    25
100
AcDbPolyline
 90
        7
 70
     0
 43
0.0
 10
106.8963231488281
 20
-4.765732775663284
 10
106.8677752444282
 20
-4.848575544562684
 10
106.786489120128
 20
-4.91880998696348
 10
106.6648263150282
 20
-4.965735467663273
 10
106.5213228813282
 20
-4.982215822163318
 10
106.3778154963285
 20
-4.965736228062517
 10
106.2561573009283
 20
-4.918808846462793
  0
LWPOLYLINE
  5
2B2
330
70
100
AcDbEntity
  8
0
 62
     8
420
  8421504
370
    25
100
AcDbPolyline
 90
        7
 70
     0
 43
0.0
 10
178.9997673207284
 20
-43.44306714016285
 10
179.1214261745285
 20
-43.48999414156231
 10
179.2649322425281
 20
-43.50647297526259
 10
179.4084396275285
 20
-43.48999490186273
 10
179.5300984813279
 20
-43.44306714016285
 10
179.6113878983284
 20
-43.37283535896241
 10
179.6399318514286
 20
-43.28999030896282
  0
LWPOLYLINE
  5
2B3
330
70
100
AcDbEntity
  8
0
 62
     8
420
  8421504
370
    25
100
AcDbPolyline
 90
        3
 70
     0
 43
0.0
 10
178.8899332920283
 20
-43.28999068916308
 10
178.9184785622285
 20
-43.37283497876343
 10
178.9997673207284
 20
-43.44306714016285
  0
LWPOLYLINE
  5
2B4
330
70
100
AcDbEntity
  8
0
 62
     8
420
  8421504
370
    25
100
AcDbPolyline
 90
        4
 70
     0
 43
0.0
 10
178.2042718968284
 20
-43.90244616096317
 10
178.2244569445282
 20
-44.0079717869633
 10
178.281937343428
 20
-44.07412908696322
 10
178.2819913440282
 20
-44.07416027106343
  0
LWPOLYLINE
  5
2B5
330
70
100
AcDbEntity
  8
0
 62
     8
420
  8421504
370
    25
100
AcDbPolyline
 90
        7
 70
     0
 43
0.0
 10
178.6568210485286
 20
-43.42454302116252
 10
178.5709112833285
 20
-43.40789527146349
 10
178.4694374771282
 20
-43.44316666526338
 10
178.3679630124285
 20
-43.52505481446264
 10
178.281937343428
 20
-43.64109261916318
 10
178.2244569445282
 20
-43.77361461456255
 10
178.2042718968284
 20
-43.90244616096317
  0
LWPOLYLINE
  5
2B6
330
70
100
AcDbEntity
  8
0
 62
     8
420
  8421504
370
    25
100
AcDbPolyline
 90
        4
 70
     0
 43
0.0
 10
110.056856049628
 20
-4.561780382062787
 10
110.0770410973285
 20
-4.66730600796281
 10
110.1345214962282
 20
-4.733463307962734
 10
110.1345366427281
 20
-4.733472054763414
  0
LWPOLYLINE
  5
2B7
330
70
100
AcDbEntity
  8
0
 62
     8
420
  8421504
370
    25
100
AcDbPolyline
 90
        7
 70
     0
 43
0.0
 10
110.5095059586282
 20
-4.083935427063528
 10
110.4234954361281
 20
-4.06722949256311
 10
110.3220216299285
 20
-4.102500886262888
 10
110.2205471652281
 20
-4.184389035463435
 10
110.1345214962282
 20
-4.300426840162695
 10
110.0770410973285
 20
-4.432948835563347
 10
110.056856049628
 20
-4.561780382062787
  0
LWPOLYLINE
  5
2B8
330
70
100
AcDbEntity
  8
0
 62
     8
420
  8421504
370
    25
100
AcDbPolyline
 90
        3
 70
     0
 43
0.0
 10
109.2613606258282
 20
-3.183941894763195
 10
109.1800718673283
 20
-3.113709733362489
 10
109.151525280028
 20
-3.030864683362894
  0
LWPOLYLINE
  5
2B9
330
70
100
AcDbEntity
  8
0
 62
     8
420
  8421504
370
    25
100
AcDbPolyline
 90
        7
 70
     0
 43
0.0
 10
109.9015264736285
 20
-3.03086582386358
 10
109.872978569228
 20
-3.113708592863086
 10
109.7916931035285
 20
-3.183942655062334
 10
109.6700302984281
 20
-3.230868135763411
 10
109.5265268646279
 20
-3.247348490263456
 10
109.3830194796282
 20
-3.230868896162655
 10
109.2613606258282
 20
-3.183941894763195
  0
LWPOLYLINE
  5
2BA
330
70
100
AcDbEntity
  8
0
 62
     8
420
  8421504
370
    25
100
AcDbPolyline
 90
        7
 70
     0
 43
0.0
 10
182.0049713040281
 20
-41.708199808263
 10
182.1266298286283
 20
-41.75512699966311
 10
182.2701358965285
 20
-41.7716058334635
 10
182.4136432815282
 20
-41.75512776006236
 10
182.5353021354284
 20
-41.70819999836248
 10
182.6165918817283
 20
-41.63796802706254
 10
182.6451358348284
 20
-41.55512297706295
  0
LWPOLYLINE
  5
2BB
330
70
100
AcDbEntity
  8
0
 62
     8
420
  8421504
370
    25
100
AcDbPolyline
 90
        3
 70
     0
 43
0.0
 10
181.8951369461281
 20
-41.55512354736271
 10
181.9236822163283
 20
-41.63796783696306
 10
182.0049713040281
 20
-41.708199808263
  0
LWPOLYLINE
  5
2BC
330
70
100
AcDbEntity
  8
0
 62
     8
420
  8421504
370
    25
100
AcDbPolyline
 90
        4
 70
     0
 43
0.0
 10
181.2094758802283
 20
-42.16757882906331
 10
181.2296605986281
 20
-42.27310464516293
 10
181.2871409975284
 20
-42.33926194516285
 10
181.2871953274281
 20
-42.33929293906347
  0
LWPOLYLINE
  5
2BD
330
70
100
AcDbEntity
  8
0
 62
     8
420
  8421504
370
    25
100
AcDbPolyline
 90
        7
 70
     0
 43
0.0
 10
181.6620247026284
 20
-41.68967587936344
 10
181.5761152666283
 20
-41.67302793956235
 10
181.474641131228
 20
-41.70829952346301
 10
181.3731666665283
 20
-41.79018767266355
 10
181.2871409975284
 20
-41.9062254772627
 10
181.2296605986281
 20
-42.03874747276347
 10
181.2094758802283
 20
-42.16757882906331
  0
LWPOLYLINE
  5
2BE
330
70
100
AcDbEntity
  8
0
 62
     8
420
  8421504
370
    25
100
AcDbPolyline
 90
        4
 70
     0
 43
0.0
 10
113.0620600330285
 20
-2.826913050162925
 10
113.0822447514283
 20
-2.932438866162438
 10
113.1397251503281
 20
-2.998596166162362
 10
113.139740626128
 20
-2.998604722863552
  0
LWPOLYLINE
  5
2BF
330
70
100
AcDbEntity
  8
0
 62
     8
420
  8421504
370
    25
100
AcDbPolyline
 90
        7
 70
     0
 43
0.0
 10
113.514709942028
 20
-2.349068095162383
 10
113.4286994194285
 20
-2.332362160663248
 10
113.3272252840283
 20
-2.367633744462516
 10
113.2257508193279
 20
-2.449521893663063
 10
113.1397251503281
 20
-2.565559698362323
 10
113.0822447514283
 20
-2.698081693762976
 10
113.0620600330285
 20
-2.826913050162925
  0
LWPOLYLINE
  5
2C0
330
70
100
AcDbEntity
  8
0
 62
     8
420
  8421504
370
    25
100
AcDbPolyline
 90
        3
 70
     0
 43
0.0
 10
112.2665646091279
 20
-1.449074562863333
 10
112.1852755214281
 20
-1.378842591563401
 10
112.1567289341284
 20
-1.295997541562522
  0
LWPOLYLINE
  5
2C1
330
70
100
AcDbEntity
  8
0
 62
     8
420
  8421504
370
    25
100
AcDbPolyline
 90
        7
 70
     0
 43
0.0
 10
112.9067304570283
 20
-1.295998491962435
 10
112.8781825526285
 20
-1.378841260963224
 10
112.7968967576283
 20
-1.449075513263246
 10
112.6752339524284
 20
-1.496000993963039
 10
112.5317305187284
 20
-1.512481348362979
 10
112.388223133728
 20
-1.496001754263462
 10
112.2665646091286
 20
-1.449074562863333
  0
LINE
  5
2C2
330
70
100
AcDbEntity
  8
0
 62
    18
420
        0
370
    25
100
AcDbLine
 10
147.6558204486283
 20
114.928591699737
 30
0.0
 11
146.5658579598281
 21
114.928591699737
 31
0.0
  0
LINE
  5
2C3
330
70
100
AcDbEntity
  8
0
 62
    18
420
        0
370
    25
100
AcDbLine
 10
146.5658579598281
 20
101.178591699737
 30
0.0
 11
147.6558204486283
 21
101.178591699737
 31
0.0
  0
SPLINE
  5
2C4
330
70
100
AcDbEntity
  8
0
 62
    18
420
        0
370
    25
100
AcDbSpline
210
0.0
220
0.0
230
1.0
 70
     8
 71
     3
 72
     8
 73
     4
 74
     0
 42
0.0000000001
 43
0.0000000001
 40
0.0
 40
0.0
 40
0.0
 40
0.0
 40
1.0
 40
1.0
 40
1.0
 40
1.0
 10
147.6558204486283
 20
101.178591699737
 30
0.0
 10
147.7887324613217
 20
101.178591699737
 30
0.0
 10
147.8984092124127
 20
101.2825906901381
 30
0.0
 10
147.9054676659924
 20
101.415315146631
 30
0.0
  0
SPLINE
  5
2C5
330
70
100
AcDbEntity
  8
0
 62
    18
420
        0
370
    25
100
AcDbSpline
210
0.0
220
0.0
230
1.0
 70
     8
 71
     3
 72
     8
 73
     4
 74
     0
 42
0.0000000001
 43
0.0000000001
 40
0.0
 40
0.0
 40
0.0
 40
0.0
 40
1.0
 40
1.0
 40
1.0
 40
1.0
 10
147.9054676659924
 20
114.691868252843
 30
0.0
 10
147.8984092124127
 20
114.824592709336
 30
0.0
 10
147.7887324613217
 20
114.928591699737
 30
0.0
 10
147.6558204486283
 20
114.928591699737
 30
0.0
  0
SPLINE
  5
2C6
330
70
100
AcDbEntity
  8
0
 62
    18
420
        0
370
    25
100
AcDbSpline
210
0.0
220
0.0
230
1.0
 70
     8
 71
     3
 72
     8
 73
     4
 74
     0
 42
0.0000000001
 43
0.0000000001
 40
0.0
 40
0.0
 40
0.0
 40
0.0
 40
1.0
 40
1.0
 40
1.0
 40
1.0
 10
147.9054676660636
 20
101.4153151467388
 30
0.0
 10
147.9876309210093
 20
102.9602815098405
 30
0.0
 10
148.0411035664087
 20
104.5066401544883
 30
0.0
 10
148.0658579598984
 20
106.0535916998128
 30
0.0
  0
SPLINE
  5
2C7
330
70
100
AcDbEntity
  8
0
 62
    18
420
        0
370
    25
100
AcDbSpline
210
0.0
220
0.0
230
1.0
 70
     8
 71
     3
 72
     8
 73
     4
 74
     0
 42
0.0000000001
 43
0.0000000001
 40
0.0
 40
0.0
 40
0.0
 40
0.0
 40
1.0
 40
1.0
 40
1.0
 40
1.0
 10
148.0658579598984
 20
110.0535916996612
 30
0.0
 10
148.0411035664087
 20
111.6005432449857
 30
0.0
 10
147.9876309210093
 20
113.1469018896338
 30
0.0
 10
147.9054676660636
 20
114.6918682527355
 30
0.0
  0
LINE
  5
2C8
330
70
100
AcDbEntity
  8
0
 62
    18
420
        0
370
    25
100
AcDbLine
 10
176.9408579598284
 20
106.803591699737
 30
0.0
 11
176.9408579598284
 21
104.5535916997371
 31
0.0
  0
LINE
  5
2C9
330
70
100
AcDbEntity
  8
0
 62
    18
420
        0
370
    25
100
AcDbLine
 10
177.6908579598283
 20
104.5535916997371
 30
0.0
 11
177.6908579598283
 21
106.803591699737
 31
0.0
  0
LINE
  5
2CA
330
70
100
AcDbEntity
  8
0
 62
    18
420
        0
370
    25
100
AcDbLine
 10
177.6908579598283
 20
103.4285916997369
 30
0.0
 11
177.6908579598283
 21
104.5535916997371
 31
0.0
  0
LINE
  5
2CB
330
70
100
AcDbEntity
  8
0
 62
    18
420
        0
370
    25
100
AcDbLine
 10
176.9408579598284
 20
104.5535916997371
 30
0.0
 11
176.9408579598284
 21
103.4285916997369
 31
0.0
  0
LINE
  5
2CC
330
70
100
AcDbEntity
  8
0
 62
    18
420
        0
370
    25
100
AcDbLine
 10
172.6908579598281
 20
106.803591699737
 30
0.0
 11
172.6908579598281
 21
100.8035916997371
 31
0.0
  0
LINE
  5
2CD
330
70
100
AcDbEntity
  8
0
 62
    18
420
        0
370
    25
100
AcDbLine
 10
173.440857959828
 20
100.8035916997371
 30
0.0
 11
173.440857959828
 21
106.803591699737
 31
0.0
  0
LINE
  5
2CE
330
70
100
AcDbEntity
  8
0
 62
    18
420
        0
370
    25
100
AcDbLine
 10
172.6908579598281
 20
100.8035916997371
 30
0.0
 11
172.6908579598281
 21
99.67859169973699
 31
0.0
  0
LINE
  5
2CF
330
70
100
AcDbEntity
  8
0
 62
    18
420
        0
370
    25
100
AcDbLine
 10
173.440857959828
 20
99.67859169973699
 30
0.0
 11
173.440857959828
 21
100.8035916997371
 31
0.0
  0
LINE
  5
2D0
330
70
100
AcDbEntity
  8
0
 62
    18
420
        0
370
    25
100
AcDbLine
 10
168.4408579598284
 20
106.803591699737
 30
0.0
 11
168.4408579598284
 21
100.8035916997371
 31
0.0
  0
LINE
  5
2D1
330
70
100
AcDbEntity
  8
0
 62
    18
420
        0
370
    25
100
AcDbLine
 10
169.1908579598283
 20
100.8035916997371
 30
0.0
 11
169.1908579598283
 21
106.803591699737
 31
0.0
  0
LINE
  5
2D2
330
70
100
AcDbEntity
  8
0
 62
    18
420
        0
370
    25
100
AcDbLine
 10
168.4408579598284
 20
100.8035916997371
 30
0.0
 11
168.4408579598284
 21
99.67859169973699
 31
0.0
  0
LINE
  5
2D3
330
70
100
AcDbEntity
  8
0
 62
    18
420
        0
370
    25
100
AcDbLine
 10
169.1908579598283
 20
99.67859169973699
 30
0.0
 11
169.1908579598283
 21
100.8035916997371
 31
0.0
  0
LINE
  5
2D4
330
70
100
AcDbEntity
  8
0
 62
    18
420
        0
370
    25
100
AcDbLine
 10
164.1908579598281
 20
106.803591699737
 30
0.0
 11
164.1908579598281
 21
100.8035916997371
 31
0.0
  0
LINE
  5
2D5
330
70
100
AcDbEntity
  8
0
 62
    18
420
        0
370
    25
100
AcDbLine
 10
164.940857959828
 20
100.8035916997371
 30
0.0
 11
164.940857959828
 21
106.803591699737
 31
0.0
  0
LINE
  5
2D6
330
70
100
AcDbEntity
  8
0
 62
    18
420
        0
370
    25
100
AcDbLine
 10
164.1908579598281
 20
100.8035916997371
 30
0.0
 11
164.1908579598281
 21
99.67859169973699
 31
0.0
  0
LINE
  5
2D7
330
70
100
AcDbEntity
  8
0
 62
    18
420
        0
370
    25
100
AcDbLine
 10
164.940857959828
 20
99.67859169973699
 30
0.0
 11
164.940857959828
 21
100.8035916997371
 31
0.0
  0
LINE
  5
2D8
330
70
100
AcDbEntity
  8
0
 62
    18
420
        0
370
    25
100
AcDbLine
 10
159.9408579598285
 20
106.803591699737
 30
0.0
 11
159.9408579598285
 21
100.8035916997371
 31
0.0
  0
LINE
  5
2D9
330
70
100
AcDbEntity
  8
0
 62
    18
420
        0
370
    25
100
AcDbLine
 10
160.6908579598283
 20
100.8035916997371
 30
0.0
 11
160.6908579598283
 21
106.803591699737
 31
0.0
  0
LINE
  5
2DA
330
70
100
AcDbEntity
  8
0
 62
    18
420
        0
370
    25
100
AcDbLine
 10
159.9408579598285
 20
100.8035916997371
 30
0.0
 11
159.9408579598285
 21
99.67859169973699
 31
0.0
  0
LINE
  5
2DB
330
70
100
AcDbEntity
  8
0
 62
    18
420
        0
370
    25
100
AcDbLine
 10
160.6908579598283
 20
99.67859169973699
 30
0.0
 11
160.6908579598283
 21
100.8035916997371
 31
0.0
  0
LINE
  5
2DC
330
70
100
AcDbEntity
  8
0
 62
    18
420
        0
370
    25
100
AcDbLine
 10
155.6908579598282
 20
106.803591699737
 30
0.0
 11
155.6908579598282
 21
100.8035916997371
 31
0.0
  0
LINE
  5
2DD
330
70
100
AcDbEntity
  8
0
 62
    18
420
        0
370
    25
100
AcDbLine
 10
156.440857959828
 20
100.8035916997371
 30
0.0
 11
156.440857959828
 21
106.803591699737
 31
0.0
  0
LINE
  5
2DE
330
70
100
AcDbEntity
  8
0
 62
    18
420
        0
370
    25
100
AcDbLine
 10
155.6908579598282
 20
100.8035916997371
 30
0.0
 11
155.6908579598282
 21
99.67859169973699
 31
0.0
  0
LINE
  5
2DF
330
70
100
AcDbEntity
  8
0
 62
    18
420
        0
370
    25
100
AcDbLine
 10
156.440857959828
 20
99.67859169973699
 30
0.0
 11
156.440857959828
 21
100.8035916997371
 31
0.0
  0
LINE
  5
2E0
330
70
100
AcDbEntity
  8
0
 62
    18
420
        0
370
    25
100
AcDbLine
 10
151.4408579598285
 20
106.803591699737
 30
0.0
 11
151.4408579598285
 21
100.8035916997371
 31
0.0
  0
LINE
  5
2E1
330
70
100
AcDbEntity
  8
0
 62
    18
420
        0
370
    25
100
AcDbLine
 10
152.1908579598284
 20
100.8035916997371
 30
0.0
 11
152.1908579598284
 21
106.803591699737
 31
0.0
  0
LINE
  5
2E2
330
70
100
AcDbEntity
  8
0
 62
    18
420
        0
370
    25
100
AcDbLine
 10
151.4408579598285
 20
100.8035916997371
 30
0.0
 11
151.4408579598285
 21
99.67859169973699
 31
0.0
  0
LINE
  5
2E3
330
70
100
AcDbEntity
  8
0
 62
    18
420
        0
370
    25
100
AcDbLine
 10
152.1908579598284
 20
99.67859169973699
 30
0.0
 11
152.1908579598284
 21
100.8035916997371
 31
0.0
  0
LINE
  5
2E4
330
70
100
AcDbEntity
  8
0
 62
    18
420
        0
370
    25
100
AcDbLine
 10
146.5658579598281
 20
108.0535916997372
 30
0.0
 11
146.5658579598281
 21
101.178591699737
 31
0.0
  0
LINE
  5
2E5
330
70
100
AcDbEntity
  8
0
 62
    18
420
        0
370
    25
100
AcDbLine
 10
146.5658579598281
 20
114.928591699737
 30
0.0
 11
146.5658579598281
 21
108.0535916997372
 31
0.0
  0
LINE
  5
2E6
330
70
100
AcDbEntity
  8
0
 62
    18
420
        0
370
    25
100
AcDbLine
 10
148.0658579598284
 20
110.0535916997369
 30
0.0
 11
148.0658579598284
 21
109.7035916997371
 31
0.0
  0
LINE
  5
2E7
330
70
100
AcDbEntity
  8
0
 62
    18
420
        0
370
    25
100
AcDbLine
 10
148.0653272658283
 20
109.7035916997371
 30
0.0
 11
148.0658579598284
 21
109.7035916997371
 31
0.0
  0
SPLINE
  5
2E8
330
70
100
AcDbEntity
  8
0
 62
    18
420
        0
370
    25
100
AcDbSpline
210
0.0
220
0.0
230
1.0
 70
     8
 71
     3
 72
     8
 73
     4
 74
     0
 42
0.0000000001
 43
0.0000000001
 40
0.0
 40
0.0
 40
0.0
 40
0.0
 40
1.0
 40
1.0
 40
1.0
 40
1.0
 10
148.0653272657557
 20
109.7035916997499
 30
0.0
 10
148.0645042104275
 20
109.6619277583413
 30
0.0
 10
148.0646167535186
 20
109.6202505884975
 30
0.0
 10
148.065664809941
 20
109.5785916997521
 30
0.0
  0
LWPOLYLINE
  5
2E9
330
70
100
AcDbEntity
  8
0
 62
    18
420
        0
370
    25
100
AcDbPolyline
 90
        9
 70
     0
 43
0.0
 10
148.0658579598284
 20
109.562678758237
 10
148.0658339269282
 20
109.5646678772369
 10
148.0658098623281
 20
109.5666569959371
 10
148.065785766028
 20
109.5686461141371
 10
148.0657616381281
 20
109.5706352320372
 10
148.0657374786283
 20
109.5726243495371
 10
148.0657132874279
 20
109.5746134666369
 10
148.0656890645283
 20
109.576602583437
 10
148.0656648099281
 20
109.578591699737
  0
LINE
  5
2EA
330
70
100
AcDbEntity
  8
0
 62
    18
420
        0
370
    25
100
AcDbLine
 10
148.0658579598284
 20
109.562678758237
 30
0.0
 11
148.0658579598284
 21
109.178591699737
 31
0.0
  0
LINE
  5
2EB
330
70
100
AcDbEntity
  8
0
 62
    18
420
        0
370
    25
100
AcDbLine
 10
148.0658579598284
 20
106.928591699737
 30
0.0
 11
148.0658579598284
 21
106.5445046413371
 31
0.0
  0
LWPOLYLINE
  5
2EC
330
70
100
AcDbEntity
  8
0
 62
    18
420
        0
370
    25
100
AcDbPolyline
 90
        9
 70
     0
 43
0.0
 10
148.0656648099281
 20
106.528591699737
 10
148.0656890645283
 20
106.5305808161371
 10
148.0657132874279
 20
106.5325699328371
 10
148.0657374786283
 20
106.534559049937
 10
148.0657616381281
 20
106.5365481674369
 10
148.065785766028
 20
106.5385372853369
 10
148.0658098623281
 20
106.540526403637
 10
148.0658339269282
 20
106.5425155222371
 10
148.0658579598284
 20
106.5445046413371
  0
SPLINE
  5
2ED
330
70
100
AcDbEntity
  8
0
 62
    18
420
        0
370
    25
100
AcDbSpline
210
0.0
220
0.0
230
1.0
 70
     8
 71
     3
 72
     8
 73
     4
 74
     0
 42
0.0000000001
 43
0.0000000001
 40
0.0
 40
0.0
 40
0.0
 40
0.0
 40
1.0
 40
1.0
 40
1.0
 40
1.0
 10
148.0656648099692
 20
106.5285916997265
 30
0.0
 10
148.0648660168542
 20
106.4869297122064
 30
0.0
 10
148.0647534868634
 20
106.4452573936783
 30
0.0
 10
148.065327265784
 20
106.403591699728
 30
0.0
  0
LINE
  5
2EE
330
70
100
AcDbEntity
  8
0
 62
    18
420
        0
370
    25
100
AcDbLine
 10
148.0658579598284
 20
106.403591699737
 30
0.0
 11
148.0653272658283
 21
106.403591699737
 31
0.0
  0
LINE
  5
2EF
330
70
100
AcDbEntity
  8
0
 62
    18
420
        0
370
    25
100
AcDbLine
 10
148.0658579598284
 20
106.403591699737
 30
0.0
 11
148.0658579598284
 21
106.0535916997371
 31
0.0
  0
SPLINE
  5
2F0
330
70
100
AcDbEntity
  8
0
 62
    18
420
        0
370
    25
100
AcDbSpline
210
0.0
220
0.0
230
1.0
 70
     8
 71
     3
 72
    11
 73
     7
 74
     0
 42
0.0000000001
 43
0.0000000001
 40
0.0
 40
0.0
 40
0.0
 40
0.0
 40
1.0
 40
1.0
 40
1.0
 40
2.0
 40
2.0
 40
2.0
 40
2.0
 10
176.9408579598284
 20
103.4285916997369
 30
0.0
 10
176.9408579598284
 20
103.2214849185506
 30
0.0
 10
177.108751178642
 20
103.053591699737
 30
0.0
 10
177.3158579598284
 20
103.053591699737
 30
0.0
 10
177.5229647410147
 20
103.053591699737
 30
0.0
 10
177.6908579598283
 20
103.2214849185506
 30
0.0
 10
177.6908579598283
 20
103.4285916997369
 30
0.0
  0
SPLINE
  5
2F1
330
70
100
AcDbEntity
  8
0
 62
    18
420
        0
370
    25
100
AcDbSpline
210
0.0
220
0.0
230
1.0
 70
     8
 71
     3
 72
    11
 73
     7
 74
     0
 42
0.0000000001
 43
0.0000000001
 40
0.0
 40
0.0
 40
0.0
 40
0.0
 40
1.0
 40
1.0
 40
1.0
 40
2.0
 40
2.0
 40
2.0
 40
2.0
 10
172.6908579598281
 20
99.67859169973699
 30
0.0
 10
172.6908579598281
 20
99.47148491855061
 30
0.0
 10
172.8587511786417
 20
99.30359169973705
 30
0.0
 10
173.065857959828
 20
99.30359169973705
 30
0.0
 10
173.2729647410151
 20
99.30359169973705
 30
0.0
 10
173.440857959828
 20
99.47148491855061
 30
0.0
 10
173.440857959828
 20
99.67859169973699
 30
0.0
  0
LINE
  5
2F2
330
70
100
AcDbEntity
  8
0
 62
    18
420
        0
370
    25
100
AcDbLine
 10
151.8158579598284
 20
106.803591699737
 30
0.0
 11
148.1908579598282
 21
106.803591699737
 31
0.0
  0
SPLINE
  5
2F3
330
70
100
AcDbEntity
  8
0
 62
    18
420
        0
370
    25
100
AcDbSpline
210
0.0
220
0.0
230
1.0
 70
     8
 71
     3
 72
     8
 73
     4
 74
     0
 42
0.0000000001
 43
0.0000000001
 40
0.0
 40
0.0
 40
0.0
 40
0.0
 40
1.0
 40
1.0
 40
1.0
 40
1.0
 10
148.0658579598284
 20
106.928591699737
 30
0.0
 10
148.0658579598284
 20
106.8595561060083
 30
0.0
 10
148.1218223660994
 20
106.803591699737
 30
0.0
 10
148.1908579598282
 20
106.803591699737
 30
0.0
  0
LINE
  5
2F4
330
70
100
AcDbEntity
  8
0
 62
    18
420
        0
370
    25
100
AcDbLine
 10
148.0658579598284
 20
106.928591699737
 30
0.0
 11
151.8158579598284
 21
106.928591699737
 31
0.0
  0
LINE
  5
2F5
330
70
100
AcDbEntity
  8
0
 62
    18
420
        0
370
    25
100
AcDbLine
 10
151.8158579598284
 20
106.803591699737
 30
0.0
 11
151.8158579598284
 21
106.928591699737
 31
0.0
  0
LINE
  5
2F6
330
70
100
AcDbEntity
  8
0
 62
    18
420
        0
370
    25
100
AcDbLine
 10
148.0658579598284
 20
109.178591699737
 30
0.0
 11
148.0658579598284
 21
106.928591699737
 31
0.0
  0
LINE
  5
2F7
330
70
100
AcDbEntity
  8
0
 62
    18
420
        0
370
    25
100
AcDbLine
 10
151.8158579598284
 20
109.178591699737
 30
0.0
 11
148.0658579598284
 21
109.178591699737
 31
0.0
  0
LINE
  5
2F8
330
70
100
AcDbEntity
  8
0
 62
    18
420
        0
370
    25
100
AcDbLine
 10
151.8158579598284
 20
109.178591699737
 30
0.0
 11
151.8158579598284
 21
106.928591699737
 31
0.0
  0
SPLINE
  5
2F9
330
70
100
AcDbEntity
  8
0
 62
    18
420
        0
370
    25
100
AcDbSpline
210
0.0
220
0.0
230
1.0
 70
     8
 71
     3
 72
     8
 73
     4
 74
     0
 42
0.0000000001
 43
0.0000000001
 40
0.0
 40
0.0
 40
0.0
 40
0.0
 40
1.0
 40
1.0
 40
1.0
 40
1.0
 10
148.1908579598282
 20
109.3035916997371
 30
0.0
 10
148.1218223660994
 20
109.3035916997371
 30
0.0
 10
148.0658579598284
 20
109.2476272934657
 30
0.0
 10
148.0658579598284
 20
109.178591699737
 30
0.0
  0
LINE
  5
2FA
330
70
100
AcDbEntity
  8
0
 62
    18
420
        0
370
    25
100
AcDbLine
 10
148.1908579598282
 20
109.3035916997371
 30
0.0
 11
151.8158579598284
 21
109.3035916997371
 31
0.0
  0
LINE
  5
2FB
330
70
100
AcDbEntity
  8
0
 62
    18
420
        0
370
    25
100
AcDbLine
 10
151.8158579598284
 20
109.178591699737
 30
0.0
 11
151.8158579598284
 21
109.3035916997371
 31
0.0
  0
LINE
  5
2FC
330
70
100
AcDbEntity
  8
0
 62
    18
420
        0
370
    25
100
AcDbLine
 10
179.114935689228
 20
109.178591699737
 30
0.0
 11
151.8158579598284
 21
109.178591699737
 31
0.0
  0
SPLINE
  5
2FD
330
70
100
AcDbEntity
  8
0
 62
    18
420
        0
370
    25
100
AcDbSpline
210
0.0
220
0.0
230
1.0
 70
     8
 71
     3
 72
     8
 73
     4
 74
     0
 42
0.0000000001
 43
0.0000000001
 40
0.0
 40
0.0
 40
0.0
 40
0.0
 40
1.0
 40
1.0
 40
1.0
 40
1.0
 10
179.1149356892408
 20
106.9285916997364
 30
0.0
 10
179.3828320500243
 20
107.6546688796965
 30
0.0
 10
179.3828320500243
 20
108.4525145197775
 30
0.0
 10
179.1149356892408
 20
109.1785916997376
 30
0.0
  0
LINE
  5
2FE
330
70
100
AcDbEntity
  8
0
 62
    18
420
        0
370
    25
100
AcDbLine
 10
151.8158579598284
 20
106.928591699737
 30
0.0
 11
179.114935689228
 21
106.928591699737
 31
0.0
  0
LINE
  5
2FF
330
70
100
AcDbEntity
  8
0
 62
    18
420
        0
370
    25
100
AcDbLine
 10
179.0658579598283
 20
106.803591699737
 30
0.0
 11
151.8158579598284
 21
106.803591699737
 31
0.0
  0
SPLINE
  5
300
330
70
100
AcDbEntity
  8
0
 62
    18
420
        0
370
    25
100
AcDbSpline
210
0.0
220
0.0
230
1.0
 70
     8
 71
     3
 72
     8
 73
     4
 74
     0
 42
0.0000000001
 43
0.0000000001
 40
0.0
 40
0.0
 40
0.0
 40
0.0
 40
1.0
 40
1.0
 40
1.0
 40
1.0
 10
179.065857959895
 20
106.8035916997434
 30
0.0
 10
179.0830763779009
 20
106.8449159029577
 30
0.0
 10
179.0994391131028
 20
106.8865914638424
 30
0.0
 10
179.1149356893082
 20
106.9285916997451
 30
0.0
  0
LINE
  5
301
330
70
100
AcDbEntity
  8
0
 62
    18
420
        0
370
    25
100
AcDbLine
 10
151.8158579598284
 20
109.3035916997371
 30
0.0
 11
179.0658579598283
 21
109.3035916997371
 31
0.0
  0
SPLINE
  5
302
330
70
100
AcDbEntity
  8
0
 62
    18
420
        0
370
    25
100
AcDbSpline
210
0.0
220
0.0
230
1.0
 70
     8
 71
     3
 72
     8
 73
     4
 74
     0
 42
0.0000000001
 43
0.0000000001
 40
0.0
 40
0.0
 40
0.0
 40
0.0
 40
1.0
 40
1.0
 40
1.0
 40
1.0
 10
179.114935689244
 20
109.1785916997758
 30
0.0
 10
179.0994391130386
 20
109.2205919356781
 30
0.0
 10
179.0830763778367
 20
109.2622674965629
 30
0.0
 10
179.0658579598308
 20
109.3035916997772
 30
0.0
  0
SPLINE
  5
303
330
70
100
AcDbEntity
  8
0
 62
    18
420
        0
370
    25
100
AcDbSpline
210
0.0
220
0.0
230
1.0
 70
     8
 71
     3
 72
    11
 73
     7
 74
     0
 42
0.0000000001
 43
0.0000000001
 40
0.0
 40
0.0
 40
0.0
 40
0.0
 40
1.0
 40
1.0
 40
1.0
 40
2.0
 40
2.0
 40
2.0
 40
2.0
 10
168.4408579598284
 20
99.67859169973699
 30
0.0
 10
168.4408579598284
 20
99.47148491855061
 30
0.0
 10
168.608751178642
 20
99.30359169973705
 30
0.0
 10
168.8158579598284
 20
99.30359169973705
 30
0.0
 10
169.0229647410147
 20
99.30359169973705
 30
0.0
 10
169.1908579598283
 20
99.47148491855061
 30
0.0
 10
169.1908579598283
 20
99.67859169973699
 30
0.0
  0
SPLINE
  5
304
330
70
100
AcDbEntity
  8
0
 62
    18
420
        0
370
    25
100
AcDbSpline
210
0.0
220
0.0
230
1.0
 70
     8
 71
     3
 72
    11
 73
     7
 74
     0
 42
0.0000000001
 43
0.0000000001
 40
0.0
 40
0.0
 40
0.0
 40
0.0
 40
1.0
 40
1.0
 40
1.0
 40
2.0
 40
2.0
 40
2.0
 40
2.0
 10
164.1908579598281
 20
99.67859169973699
 30
0.0
 10
164.1908579598281
 20
99.47148491855061
 30
0.0
 10
164.3587511786417
 20
99.30359169973705
 30
0.0
 10
164.5658579598281
 20
99.30359169973705
 30
0.0
 10
164.7729647410151
 20
99.30359169973705
 30
0.0
 10
164.940857959828
 20
99.47148491855061
 30
0.0
 10
164.940857959828
 20
99.67859169973699
 30
0.0
  0
SPLINE
  5
305
330
70
100
AcDbEntity
  8
0
 62
    18
420
        0
370
    25
100
AcDbSpline
210
0.0
220
0.0
230
1.0
 70
     8
 71
     3
 72
    11
 73
     7
 74
     0
 42
0.0000000001
 43
0.0000000001
 40
0.0
 40
0.0
 40
0.0
 40
0.0
 40
1.0
 40
1.0
 40
1.0
 40
2.0
 40
2.0
 40
2.0
 40
2.0
 10
159.9408579598285
 20
99.67859169973699
 30
0.0
 10
159.9408579598285
 20
99.47148491855061
 30
0.0
 10
160.1087511786414
 20
99.30359169973705
 30
0.0
 10
160.3158579598284
 20
99.30359169973705
 30
0.0
 10
160.5229647410148
 20
99.30359169973705
 30
0.0
 10
160.6908579598283
 20
99.47148491855061
 30
0.0
 10
160.6908579598283
 20
99.67859169973699
 30
0.0
  0
SPLINE
  5
306
330
70
100
AcDbEntity
  8
0
 62
    18
420
        0
370
    25
100
AcDbSpline
210
0.0
220
0.0
230
1.0
 70
     8
 71
     3
 72
    11
 73
     7
 74
     0
 42
0.0000000001
 43
0.0000000001
 40
0.0
 40
0.0
 40
0.0
 40
0.0
 40
1.0
 40
1.0
 40
1.0
 40
2.0
 40
2.0
 40
2.0
 40
2.0
 10
155.6908579598282
 20
99.67859169973699
 30
0.0
 10
155.6908579598282
 20
99.47148491855061
 30
0.0
 10
155.8587511786417
 20
99.30359169973705
 30
0.0
 10
156.0658579598281
 20
99.30359169973705
 30
0.0
 10
156.2729647410151
 20
99.30359169973705
 30
0.0
 10
156.440857959828
 20
99.47148491855061
 30
0.0
 10
156.440857959828
 20
99.67859169973699
 30
0.0
  0
SPLINE
  5
307
330
70
100
AcDbEntity
  8
0
 62
    18
420
        0
370
    25
100
AcDbSpline
210
0.0
220
0.0
230
1.0
 70
     8
 71
     3
 72
    11
 73
     7
 74
     0
 42
0.0000000001
 43
0.0000000001
 40
0.0
 40
0.0
 40
0.0
 40
0.0
 40
1.0
 40
1.0
 40
1.0
 40
2.0
 40
2.0
 40
2.0
 40
2.0
 10
151.4408579598285
 20
99.67859169973699
 30
0.0
 10
151.4408579598285
 20
99.47148491855061
 30
0.0
 10
151.6087511786414
 20
99.30359169973705
 30
0.0
 10
151.8158579598284
 20
99.30359169973705
 30
0.0
 10
152.0229647410148
 20
99.30359169973705
 30
0.0
 10
152.1908579598284
 20
99.47148491855061
 30
0.0
 10
152.1908579598284
 20
99.67859169973699
 30
0.0
  0
LINE
  5
308
330
70
100
AcDbEntity
  8
0
 62
     8
420
  8421504
370
    25
100
AcDbLine
 10
147.6558204486283
 20
101.178591699737
 30
0.0
 11
147.6558204486283
 21
114.928591699737
 31
0.0
  0
LINE
  5
309
330
70
100
AcDbEntity
  8
0
 62
     8
420
  8421504
370
    25
100
AcDbLine
 10
147.9054676660283
 20
114.6918682528369
 30
0.0
 11
147.9054676660283
 21
101.4153151466371
 31
0.0
  0
LINE
  5
30A
330
70
100
AcDbEntity
  8
0
 62
     8
420
  8421504
370
    25
100
AcDbLine
 10
176.9408579598284
 20
104.5535916997371
 30
0.0
 11
177.6908579598283
 21
104.5535916997371
 31
0.0
  0
LINE
  5
30B
330
70
100
AcDbEntity
  8
0
 62
     8
420
  8421504
370
    25
100
AcDbLine
 10
173.440857959828
 20
100.8035916997371
 30
0.0
 11
172.6908579598281
 21
100.8035916997371
 31
0.0
  0
LINE
  5
30C
330
70
100
AcDbEntity
  8
0
 62
     8
420
  8421504
370
    25
100
AcDbLine
 10
169.1908579598283
 20
100.8035916997371
 30
0.0
 11
168.4408579598284
 21
100.8035916997371
 31
0.0
  0
LINE
  5
30D
330
70
100
AcDbEntity
  8
0
 62
     8
420
  8421504
370
    25
100
AcDbLine
 10
164.940857959828
 20
100.8035916997371
 30
0.0
 11
164.1908579598281
 21
100.8035916997371
 31
0.0
  0
LINE
  5
30E
330
70
100
AcDbEntity
  8
0
 62
     8
420
  8421504
370
    25
100
AcDbLine
 10
160.6908579598283
 20
100.8035916997371
 30
0.0
 11
159.9408579598285
 21
100.8035916997371
 31
0.0
  0
LINE
  5
30F
330
70
100
AcDbEntity
  8
0
 62
     8
420
  8421504
370
    25
100
AcDbLine
 10
156.440857959828
 20
100.8035916997371
 30
0.0
 11
155.6908579598282
 21
100.8035916997371
 31
0.0
  0
LINE
  5
310
330
70
100
AcDbEntity
  8
0
 62
     8
420
  8421504
370
    25
100
AcDbLine
 10
152.1908579598284
 20
100.8035916997371
 30
0.0
 11
151.4408579598285
 21
100.8035916997371
 31
0.0
  0
INSERT
  5
313
330
70
100
AcDbEntity
  8
CAPA_BASE
100
AcDbBlockReference
  2
Block_0
 10
0.0
 20
0.0
 30
0.0
  0
INSERT
  5
31F
330
70
100
AcDbEntity
  8
CAPA_BASE
100
AcDbBlockReference
  2
Block_1
 10
0.0
 20
0.0
 30
0.0
  0
INSERT
  5
32B
330
70
100
AcDbEntity
  8
CAPA_BASE
100
AcDbBlockReference
  2
Block_2
 10
0.0
 20
0.0
 30
0.0
  0
ENDSEC
  0
SECTION
  2
OBJECTS
  0
DICTIONARY
  5
C
330
0
100
AcDbDictionary
281
     1
  3
ACAD_COLOR
350
63
  3
ACAD_DETAILVIEWSTYLE
350
6A
  3
ACAD_GROUP
350
D
  3
ACAD_LAYOUT
350
62
  3
ACAD_MATERIAL
350
10
  3
ACAD_MLEADERSTYLE
350
66
  3
ACAD_MLINESTYLE
350
5F
  3
ACAD_PLOTSETTINGS
350
61
  3
ACAD_PLOTSTYLENAME
350
E
  3
ACAD_SCALELIST
350
42
  3
ACAD_SECTIONVIEWSTYLE
350
68
  3
ACAD_TABLESTYLE
350
64
  3
ACAD_VISUALSTYLE
350
29
  3
ACDB_RECOMPOSE_DATA
350
33E
  3
AcDbVariableDictionary
350
336
  0
DICTIONARY
  5
63
102
{ACAD_REACTORS
330
C
102
}
330
C
100
AcDbDictionary
281
     1
  0
DICTIONARY
  5
6A
102
{ACAD_REACTORS
330
C
102
}
330
C
100
AcDbDictionary
281
     1
  3
Imperial24
350
6B
  0
DICTIONARY
  5
D
102
{ACAD_REACTORS
330
C
102
}
330
C
100
AcDbDictionary
281
     1
  0
DICTIONARY
  5
62
102
{ACAD_REACTORS
330
C
102
}
330
C
100
AcDbDictionary
281
     1
  3
Layout1
350
6F
  3
Layout2
350
77
  3
Model
350
73
  0
DICTIONARY
  5
10
102
{ACAD_REACTORS
330
C
102
}
330
C
100
AcDbDictionary
281
     1
  3
ByBlock
350
19
  3
ByLayer
350
11
  3
Global
350
21
  0
DICTIONARY
  5
66
102
{ACAD_REACTORS
330
C
102
}
330
C
100
AcDbDictionary
281
     1
  3
Standard
350
67
  0
DICTIONARY
  5
5F
102
{ACAD_REACTORS
330
C
102
}
330
C
100
AcDbDictionary
281
     1
  3
Standard
350
60
  0
DICTIONARY
  5
61
102
{ACAD_REACTORS
330
C
102
}
330
C
100
AcDbDictionary
281
     1
  0
ACDBDICTIONARYWDFLT
  5
E
102
{ACAD_REACTORS
330
C
102
}
330
C
100
AcDbDictionary
281
     1
  3
Normal
350
F
100
AcDbDictionaryWithDefault
340
F
  0
DICTIONARY
  5
42
102
{ACAD_REACTORS
330
C
102
}
330
C
100
AcDbDictionary
281
     1
  3
A0
350
43
  3
A1
350
44
  3
A2
350
45
  3
A3
350
46
  3
A4
350
47
  3
A5
350
48
  3
A6
350
49
  3
A7
350
4A
  3
A8
350
4B
  3
A9
350
4C
  3
B0
350
4D
  3
B1
350
4E
  3
B2
350
4F
  3
B3
350
50
  3
B4
350
51
  3
B5
350
52
  3
B6
350
53
  0
DICTIONARY
  5
68
102
{ACAD_REACTORS
330
C
102
}
330
C
100
AcDbDictionary
281
     1
  3
Imperial24
350
69
  0
DICTIONARY
  5
64
102
{ACAD_REACTORS
330
C
102
}
330
C
100
AcDbDictionary
281
     1
  3
Standard
350
65
  0
DICTIONARY
  5
29
102
{ACAD_REACTORS
330
C
102
}
330
C
100
AcDbDictionary
281
     1
  3
2dWireframe
350
2F
  3
Basic
350
2E
  3
Brighten
350
35
  3
ColorChange
350
39
  3
Conceptual
350
32
  3
Dim
350
34
  3
EdgeColorOff
350
41
  3
Facepattern
350
38
  3
Flat
350
2A
  3
FlatWithEdges
350
2B
  3
Gouraud
350
2C
  3
GouraudWithEdges
350
2D
  3
Hidden
350
31
  3
JitterOff
350
3F
  3
Linepattern
350
37
  3
OverhangOff
350
40
  3
Realistic
350
33
  3
Shaded
350
3E
  3
Shaded with edges
350
3D
  3
Shades of Gray
350
3A
  3
Sketchy
350
3B
  3
Thicken
350
36
  3
Wireframe
350
30
  3
X-Ray
350
3C
  0
XRECORD
  5
33E
102
{ACAD_REACTORS
330
C
102
}
330
C
100
AcDbXrecord
280
     1
 90
        1
330
65
  0
DICTIONARY
  5
336
102
{ACAD_REACTORS
330
C
102
}
330
C
100
AcDbDictionary
281
     1
  3
CANNOSCALE
350
33B
  3
CMLEADERSTYLE
350
338
  3
CTABLESTYLE
350
337
  3
CVIEWDETAILSTYLE
350
339
  3
CVIEWSECTIONSTYLE
350
33A
  0
ACDBDETAILVIEWSTYLE
  5
6B
102
{ACAD_REACTORS
330
6A
102
}
330
6A
100
AcDbModelDocViewStyle
 70
     0
  3
Imperial24
290
     1
300
Imperial24
 90
        0
100
AcDbDetailViewStyle
 70
     0
 71
     0
 90
        3
 71
     1
340
55
 62
   256
 40
0.24
340
0
 62
   256
 40
0.24
300

 40
0.36
280
     3
 71
     2
340
5D
 90
       25
 62
   256
 71
     3
340
55
 62
   256
 40
0.24
 90
        1
 40
0.75
 90
        1
300
%<\AcVar ViewType \f "%tc1">% %<\AcVar ViewDetailId>%\PSCALE %<\AcVar ViewScale \f "%sn">%
 71
     4
340
5D
 90
       25
 62
   256
340
5D
 90
       25
 62
   256
280
     0
  0
LAYOUT
  5
6F
102
{ACAD_REACTORS
330
62
102
}
330
62
100
AcDbPlotSettings
  1

  2

  4

  6

 40
0.0
 41
0.0
 42
0.0
 43
0.0
 44
0.0
 45
0.0
 46
0.0
 47
0.0
 48
0.0
 49
0.0
140
0.0
141
0.0
142
1.0
143
1.0
 70
   688
 72
     0
 73
     0
 74
     5
  7

 75
    16
147
1.0
 76
     0
 77
     2
 78
   300
148
0.0
149
0.0
100
AcDbLayout
  1
Layout1
 70
     1
 71
     1
 10
0.0
 20
0.0
 11
12.0
 21
9.0
 12
0.0
 22
0.0
 32
0.0
 14
0.0
 24
0.0
 34
0.0
 15
0.0
 25
0.0
 35
0.0
146
0.0
 13
0.0
 23
0.0
 33
0.0
 16
1.0
 26
0.0
 36
0.0
 17
0.0
 27
1.0
 37
0.0
 76
     0
330
6C
  0
LAYOUT
  5
77
102
{ACAD_REACTORS
330
62
102
}
330
62
100
AcDbPlotSettings
  1

  2

  4

  6

 40
0.0
 41
0.0
 42
0.0
 43
0.0
 44
0.0
 45
0.0
 46
0.0
 47
0.0
 48
0.0
 49
0.0
140
0.0
141
0.0
142
1.0
143
1.0
 70
   688
 72
     0
 73
     0
 74
     5
  7

 75
    16
147
1.0
 76
     0
 77
     2
 78
   300
148
0.0
149
0.0
100
AcDbLayout
  1
Layout2
 70
     1
 71
     2
 10
0.0
 20
0.0
 11
12.0
 21
9.0
 12
0.0
 22
0.0
 32
0.0
 14
0.0
 24
0.0
 34
0.0
 15
0.0
 25
0.0
 35
0.0
146
0.0
 13
0.0
 23
0.0
 33
0.0
 16
1.0
 26
0.0
 36
0.0
 17
0.0
 27
1.0
 37
0.0
 76
     0
330
74
  0
LAYOUT
  5
73
102
{ACAD_REACTORS
330
62
102
}
330
62
100
AcDbPlotSettings
  1

  2

  4

  6

 40
0.0
 41
0.0
 42
0.0
 43
0.0
 44
0.0
 45
0.0
 46
0.0
 47
0.0
 48
0.0
 49
0.0
140
0.0
141
0.0
142
1.0
143
1.0
 70
  1712
 72
     0
 73
     0
 74
     0
  7

 75
     0
147
1.0
 76
     0
 77
     2
 78
   300
148
0.0
149
0.0
100
AcDbLayout
  1
Model
 70
     1
 71
     0
 10
0.0
 20
0.0
 11
12.0
 21
9.0
 12
0.0
 22
0.0
 32
0.0
 14
0.0
 24
0.0
 34
0.0
 15
0.0
 25
0.0
 35
0.0
146
0.0
 13
0.0
 23
0.0
 33
0.0
 16
1.0
 26
0.0
 36
0.0
 17
0.0
 27
1.0
 37
0.0
 76
     0
330
70
  0
MATERIAL
  5
19
102
{ACAD_XDICTIONARY
360
1A
102
}
102
{ACAD_REACTORS
330
10
102
}
330
10
100
AcDbMaterial
  1
ByBlock
 72
     0
 43
0.0208333333333333
 43
0.0
 43
0.0
 43
0.0
 43
0.0
 43
0.0208333333333333
 43
0.0
 43
0.0
 43
0.0
 43
0.0
 43
1.0
 43
0.0
 43
0.0
 43
0.0
 43
0.0
 43
1.0
 77
     0
 47
0.0208333333333333
 47
0.0
 47
0.0
 47
0.0
 47
0.0
 47
0.0208333333333333
 47
0.0
 47
0.0
 47
0.0
 47
0.0
 47
1.0
 47
0.0
 47
0.0
 47
0.0
 47
0.0
 47
1.0
171
     0
 49
0.0208333333333333
 49
0.0
 49
0.0
 49
0.0
 49
0.0
 49
0.0208333333333333
 49
0.0
 49
0.0
 49
0.0
 49
0.0
 49
1.0
 49
0.0
 49
0.0
 49
0.0
 49
0.0
 49
1.0
175
     0
142
0.0208333333333333
142
0.0
142
0.0
142
0.0
142
0.0
142
0.0208333333333333
142
0.0
142
0.0
142
0.0
142
0.0
142
1.0
142
0.0
142
0.0
142
0.0
142
0.0
142
1.0
179
     0
144
0.0208333333333333
144
0.0
144
0.0
144
0.0
144
0.0
144
0.0208333333333333
144
0.0
144
0.0
144
0.0
144
0.0
144
1.0
144
0.0
144
0.0
144
0.0
144
0.0
144
1.0
147
0.0208333333333333
147
0.0
147
0.0
147
0.0
147
0.0
147
0.0208333333333333
147
0.0
147
0.0
147
0.0
147
0.0
147
1.0
147
0.0
147
0.0
147
0.0
147
0.0
147
1.0
  0
MATERIAL
  5
11
102
{ACAD_XDICTIONARY
360
12
102
}
102
{ACAD_REACTORS
330
10
102
}
330
10
100
AcDbMaterial
  1
ByLayer
 72
     0
 43
0.0208333333333333
 43
0.0
 43
0.0
 43
0.0
 43
0.0
 43
0.0208333333333333
 43
0.0
 43
0.0
 43
0.0
 43
0.0
 43
1.0
 43
0.0
 43
0.0
 43
0.0
 43
0.0
 43
1.0
 77
     0
 47
0.0208333333333333
 47
0.0
 47
0.0
 47
0.0
 47
0.0
 47
0.0208333333333333
 47
0.0
 47
0.0
 47
0.0
 47
0.0
 47
1.0
 47
0.0
 47
0.0
 47
0.0
 47
0.0
 47
1.0
171
     0
 49
0.0208333333333333
 49
0.0
 49
0.0
 49
0.0
 49
0.0
 49
0.0208333333333333
 49
0.0
 49
0.0
 49
0.0
 49
0.0
 49
1.0
 49
0.0
 49
0.0
 49
0.0
 49
0.0
 49
1.0
175
     0
142
0.0208333333333333
142
0.0
142
0.0
142
0.0
142
0.0
142
0.0208333333333333
142
0.0
142
0.0
142
0.0
142
0.0
142
1.0
142
0.0
142
0.0
142
0.0
142
0.0
142
1.0
179
     0
144
0.0208333333333333
144
0.0
144
0.0
144
0.0
144
0.0
144
0.0208333333333333
144
0.0
144
0.0
144
0.0
144
0.0
144
1.0
144
0.0
144
0.0
144
0.0
144
0.0
144
1.0
147
0.0208333333333333
147
0.0
147
0.0
147
0.0
147
0.0
147
0.0208333333333333
147
0.0
147
0.0
147
0.0
147
0.0
147
1.0
147
0.0
147
0.0
147
0.0
147
0.0
147
1.0
  0
MATERIAL
  5
21
102
{ACAD_XDICTIONARY
360
22
102
}
102
{ACAD_REACTORS
330
10
102
}
330
10
100
AcDbMaterial
  1
Global
 72
     0
 43
0.0208333333333333
 43
0.0
 43
0.0
 43
0.0
 43
0.0
 43
0.0208333333333333
 43
0.0
 43
0.0
 43
0.0
 43
0.0
 43
1.0
 43
0.0
 43
0.0
 43
0.0
 43
0.0
 43
1.0
 77
     0
 47
0.0208333333333333
 47
0.0
 47
0.0
 47
0.0
 47
0.0
 47
0.0208333333333333
 47
0.0
 47
0.0
 47
0.0
 47
0.0
 47
1.0
 47
0.0
 47
0.0
 47
0.0
 47
0.0
 47
1.0
171
     0
 49
0.0208333333333333
 49
0.0
 49
0.0
 49
0.0
 49
0.0
 49
0.0208333333333333
 49
0.0
 49
0.0
 49
0.0
 49
0.0
 49
1.0
 49
0.0
 49
0.0
 49
0.0
 49
0.0
 49
1.0
175
     0
142
0.0208333333333333
142
0.0
142
0.0
142
0.0
142
0.0
142
0.0208333333333333
142
0.0
142
0.0
142
0.0
142
0.0
142
1.0
142
0.0
142
0.0
142
0.0
142
0.0
142
1.0
179
     0
144
0.0208333333333333
144
0.0
144
0.0
144
0.0
144
0.0
144
0.0208333333333333
144
0.0
144
0.0
144
0.0
144
0.0
144
1.0
144
0.0
144
0.0
144
0.0
144
0.0
144
1.0
147
0.0208333333333333
147
0.0
147
0.0
147
0.0
147
0.0
147
0.0208333333333333
147
0.0
147
0.0
147
0.0
147
0.0
147
1.0
147
0.0
147
0.0
147
0.0
147
0.0
147
1.0
  0
MLEADERSTYLE
  5
67
102
{ACAD_REACTORS
330
66
102
}
330
66
100
AcDbMLeaderStyle
179
     2
170
     2
171
     1
172
     0
 90
        2
 40
0.0
 41
0.0
173
     1
 91
-1056964608
340
5B
 92
       -2
290
     1
 42
0.09
291
     1
 43
0.36
  3
Standard
 44
0.18
300

342
55
174
     1
178
     6
175
     1
176
     0
 93
-1056964608
 45
0.18
292
     0
297
     0
 46
0.18
 94
-1056964608
 47
1.0
 49
1.0
140
1.0
293
     1
141
0.0
294
     1
177
     0
142
1.0
295
     1
296
     0
143
0.125
271
     0
272
     9
273
     9
298
     1
  0
MLINESTYLE
  5
60
102
{ACAD_REACTORS
330
5F
102
}
330
5F
100
AcDbMlineStyle
  2
STANDARD
 70
     0
  3

 62
   256
 51
90.0
 52
90.0
 71
     2
 49
0.5
 62
   256
  6
BYLAYER
 49
-0.5
 62
   256
  6
BYLAYER
  0
ACDBPLACEHOLDER
  5
F
102
{ACAD_REACTORS
330
E
102
}
330
E
  0
SCALE
  5
43
102
{ACAD_REACTORS
330
42
102
}
330
42
100
AcDbScale
 70
     0
300
1:1
140
1.0
141
1.0
290
     1
  0
SCALE
  5
44
102
{ACAD_REACTORS
330
42
102
}
330
42
100
AcDbScale
 70
     0
300
1/128" = 1'-0"
140
0.0078125
141
12.0
290
     0
  0
SCALE
  5
45
102
{ACAD_REACTORS
330
42
102
}
330
42
100
AcDbScale
 70
     0
300
1/64" = 1'-0"
140
0.015625
141
12.0
290
     0
  0
SCALE
  5
46
102
{ACAD_REACTORS
330
42
102
}
330
42
100
AcDbScale
 70
     0
300
1/32" = 1'-0"
140
0.03125
141
12.0
290
     0
  0
SCALE
  5
47
102
{ACAD_REACTORS
330
42
102
}
330
42
100
AcDbScale
 70
     0
300
1/16" = 1'-0"
140
0.0625
141
12.0
290
     0
  0
SCALE
  5
48
102
{ACAD_REACTORS
330
42
102
}
330
42
100
AcDbScale
 70
     0
300
3/32" = 1'-0"
140
0.09375
141
12.0
290
     0
  0
SCALE
  5
49
102
{ACAD_REACTORS
330
42
102
}
330
42
100
AcDbScale
 70
     0
300
1/8" = 1'-0"
140
0.125
141
12.0
290
     0
  0
SCALE
  5
4A
102
{ACAD_REACTORS
330
42
102
}
330
42
100
AcDbScale
 70
     0
300
3/16" = 1'-0"
140
0.1875
141
12.0
290
     0
  0
SCALE
  5
4B
102
{ACAD_REACTORS
330
42
102
}
330
42
100
AcDbScale
 70
     0
300
1/4" = 1'-0"
140
0.25
141
12.0
290
     0
  0
SCALE
  5
4C
102
{ACAD_REACTORS
330
42
102
}
330
42
100
AcDbScale
 70
     0
300
3/8" = 1'-0"
140
0.375
141
12.0
290
     0
  0
SCALE
  5
4D
102
{ACAD_REACTORS
330
42
102
}
330
42
100
AcDbScale
 70
     0
300
1/2" = 1'-0"
140
0.5
141
12.0
290
     0
  0
SCALE
  5
4E
102
{ACAD_REACTORS
330
42
102
}
330
42
100
AcDbScale
 70
     0
300
3/4" = 1'-0"
140
0.75
141
12.0
290
     0
  0
SCALE
  5
4F
102
{ACAD_REACTORS
330
42
102
}
330
42
100
AcDbScale
 70
     0
300
1" = 1'-0"
140
1.0
141
12.0
290
     0
  0
SCALE
  5
50
102
{ACAD_REACTORS
330
42
102
}
330
42
100
AcDbScale
 70
     0
300
1-1/2" = 1'-0"
140
1.5
141
12.0
290
     0
  0
SCALE
  5
51
102
{ACAD_REACTORS
330
42
102
}
330
42
100
AcDbScale
 70
     0
300
3" = 1'-0"
140
3.0
141
12.0
290
     0
  0
SCALE
  5
52
102
{ACAD_REACTORS
330
42
102
}
330
42
100
AcDbScale
 70
     0
300
6" = 1'-0"
140
6.0
141
12.0
290
     0
  0
SCALE
  5
53
102
{ACAD_REACTORS
330
42
102
}
330
42
100
AcDbScale
 70
     0
300
1'-0" = 1'-0"
140
12.0
141
12.0
290
     0
  0
ACDBSECTIONVIEWSTYLE
  5
69
102
{ACAD_REACTORS
330
68
102
}
330
68
100
AcDbModelDocViewStyle
 70
     0
  3
Imperial24
290
     1
300
Imperial24
 90
        0
100
AcDbSectionViewStyle
 70
     0
 71
     0
 90
       78
 71
     1
340
55
 62
   256
 40
0.24
340
0
340
0
 62
   256
 40
0.24
300
I, O, Q, S, X, Z
 40
0.48
 90
        3
 40
0.18
 90
        1
 71
     2
340
5D
 90
       25
 62
   256
340
5D
 90
       50
 62
   256
 40
0.24
 40
0.0
 40
0.24
 71
     3
340
55
 62
   256
 40
0.24
 90
        1
 40
0.75
 90
        1
300
%<\AcVar ViewType \f "%tc1">% %<\AcVar ViewSectionStartId>%-%<\AcVar ViewSectionEndId>%\PSCALE %<\AcVar ViewScale \f "%sn">%
 71
     4
 62
   256
 62
   257
300
ANSI31
 40
1.0
 90
        0
290
     0
290
     0
 90
        6
 40
0.0
 40
1.570796326794896
 40
0.2617993877991494
 40
1.308996938995747
 40
-0.2617993877991494
 40
1.832595714594046
  0
TABLESTYLE
  5
65
102
{ACAD_XDICTIONARY
360
33C
102
}
102
{ACAD_REACTORS
330
64
102
}
330
64
100
AcDbTableStyle
280
     0
  3
Standard
 70
     0
 71
     0
 40
0.06
 41
0.06
280
     0
281
     0
  7
Standard
140
0.18
170
     2
 62
     0
 63
     7
283
     0
 90
      512
 91
        0
  1

274
    -2
284
     1
 64
     0
275
    -2
285
     1
 65
     0
276
    -2
286
     1
 66
     0
277
    -2
287
     1
 67
     0
278
    -2
288
     1
 68
     0
279
    -2
289
     1
 69
     0
  7
Standard
140
0.25
170
     5
 62
     0
 63
     7
283
     0
 90
      512
 91
        0
  1

274
    -2
284
     1
 64
     0
275
    -2
285
     1
 65
     0
276
    -2
286
     1
 66
     0
277
    -2
287
     1
 67
     0
278
    -2
288
     1
 68
     0
279
    -2
289
     1
 69
     0
  7
Standard
140
0.18
170
     5
 62
     0
 63
     7
283
     0
 90
      512
 91
        0
  1

274
    -2
284
     1
 64
     0
275
    -2
285
     1
 65
     0
276
    -2
286
     1
 66
     0
277
    -2
287
     1
 67
     0
278
    -2
288
     1
 68
     0
279
    -2
289
     1
 69
     0
  0
VISUALSTYLE
  5
2F
102
{ACAD_REACTORS
330
29
102
}
330
29
100
AcDbVisualStyle
  2
2dWireframe
 70
     4
177
     3
291
     0
 70
    58
 90
        0
176
     1
 90
        2
176
     1
 90
        0
176
     1
 90
        0
176
     1
 40
0.6
176
     1
 40
30.0
176
     1
 62
     7
420
 16777215
176
     1
 90
        1
176
     1
 90
        4
176
     1
 62
     7
176
     1
 62
   257
176
     1
 90
        1
176
     1
 90
        1
176
     1
 40
1.0
176
     1
 90
        0
176
     1
 62
   257
176
     1
 40
1.0
176
     1
 90
        1
176
     1
 90
        6
176
     1
 90
        2
176
     1
 62
     7
176
     1
 90
        5
176
     1
 90
        0
176
     1
 90
        0
176
     1
290
     0
176
     1
 90
        1
176
     1
 40
0.0
176
     1
 90
        0
176
     1
290
     1
176
     1
290
     1
176
     1
290
     0
176
     1
290
     0
176
     1
290
     0
176
     1
290
     0
176
     1
290
     0
176
     1
290
     0
176
     1
290
     0
176
     1
 90
       50
176
     1
 40
0.0
176
     1
 40
1.0
176
     1
 90
        0
176
     1
 62
    18
420
        0
176
     1
 90
       50
176
     1
 90
        3
176
     1
 62
     5
420
      255
176
     1
290
     0
176
     1
 90
       50
176
     1
 90
       50
176
     1
 90
       50
176
     1
290
     0
176
     1
 90
       50
176
     1
 62
   256
176
     0
 40
1.0
176
     0
 90
        2
176
     1
  1
strokes_ogs.tif
176
     1
290
     0
176
     1
 40
1.0
176
     1
 40
1.0
176
     1
  0
VISUALSTYLE
  5
2E
102
{ACAD_REACTORS
330
29
102
}
330
29
100
AcDbVisualStyle
  2
Basic
 70
     7
177
     3
291
     1
 70
    58
 90
        1
176
     1
 90
        0
176
     1
 90
        1
176
     1
 90
        0
176
     1
 40
0.6
176
     1
 40
30.0
176
     1
 62
     7
420
 16777215
176
     1
 90
        0
176
     1
 90
        4
176
     1
 62
     7
176
     1
 62
   257
176
     1
 90
        1
176
     1
 90
        1
176
     1
 40
1.0
176
     1
 90
        8
176
     1
 62
     7
176
     1
 40
1.0
176
     1
 90
        1
176
     1
 90
        6
176
     1
 90
        2
176
     1
 62
     7
176
     1
 90
        5
176
     1
 90
        0
176
     1
 90
        0
176
     1
290
     0
176
     1
 90
        1
176
     1
 40
0.0
176
     1
 90
        0
176
     1
290
     0
176
     1
290
     1
176
     1
290
     1
176
     1
290
     0
176
     1
290
     0
176
     1
290
     0
176
     1
290
     0
176
     1
290
     0
176
     1
290
     0
176
     1
 90
       50
176
     1
 40
0.0
176
     1
 40
1.0
176
     1
 90
        0
176
     1
 62
    18
420
        0
176
     1
 90
       50
176
     1
 90
        3
176
     1
 62
     5
420
      255
176
     1
290
     0
176
     1
 90
       50
176
     1
 90
       50
176
     1
 90
       50
176
     1
290
     0
176
     1
 90
       50
176
     1
 62
   256
176
     0
 40
1.0
176
     0
 90
        2
176
     1
  1
strokes_ogs.tif
176
     1
290
     0
176
     1
 40
1.0
176
     1
 40
1.0
176
     1
  0
VISUALSTYLE
  5
35
102
{ACAD_REACTORS
330
29
102
}
330
29
100
AcDbVisualStyle
  2
Brighten
 70
    12
177
     3
291
     1
 70
    58
 90
        2
176
     1
 90
        2
176
     1
 90
        0
176
     1
 90
        0
176
     1
 40
0.6
176
     1
 40
30.0
176
     1
 62
     7
420
 16777215
176
     1
 90
        1
176
     1
 90
        4
176
     1
 62
     7
176
     1
 62
   257
176
     1
 90
        1
176
     1
 90
        1
176
     1
 40
1.0
176
     1
 90
        8
176
     1
 62
     7
176
     1
 40
1.0
176
     1
 90
        1
176
     1
 90
        6
176
     1
 90
        2
176
     1
 62
     7
176
     1
 90
        5
176
     1
 90
        0
176
     1
 90
        0
176
     1
290
     0
176
     1
 90
        1
176
     1
 40
50.0
176
     1
 90
        0
176
     1
290
     0
176
     1
290
     1
176
     1
290
     1
176
     1
290
     0
176
     1
290
     0
176
     1
290
     0
176
     1
290
     0
176
     1
290
     0
176
     1
290
     0
176
     1
 90
       50
176
     1
 40
0.0
176
     1
 40
1.0
176
     1
 90
        0
176
     1
 62
    18
420
        0
176
     1
 90
       50
176
     1
 90
        3
176
     1
 62
     5
420
      255
176
     1
290
     0
176
     1
 90
       50
176
     1
 90
       50
176
     1
 90
       50
176
     1
290
     0
176
     1
 90
       50
176
     1
 62
   256
176
     0
 40
1.0
176
     0
 90
        2
176
     1
  1
strokes_ogs.tif
176
     1
290
     0
176
     1
 40
1.0
176
     1
 40
1.0
176
     1
  0
VISUALSTYLE
  5
39
102
{ACAD_REACTORS
330
29
102
}
330
29
100
AcDbVisualStyle
  2
ColorChange
 70
    16
177
     3
291
     1
 70
    58
 90
        2
176
     1
 90
        2
176
     1
 90
        3
176
     1
 90
        0
176
     1
 40
0.6
176
     1
 40
30.0
176
     1
 62
     8
420
  8421504
176
     1
 90
        1
176
     1
 90
        4
176
     1
 62
     7
176
     1
 62
   257
176
     1
 90
        1
176
     1
 90
        1
176
     1
 40
1.0
176
     1
 90
        8
176
     1
 62
     8
420
  8421504
176
     1
 40
1.0
176
     1
 90
        1
176
     1
 90
        6
176
     1
 90
        2
176
     1
 62
     7
176
     1
 90
        5
176
     1
 90
        0
176
     1
 90
        0
176
     1
290
     0
176
     1
 90
        1
176
     1
 40
0.0
176
     1
 90
        0
176
     1
290
     0
176
     1
290
     1
176
     1
290
     1
176
     1
290
     0
176
     1
290
     0
176
     1
290
     0
176
     1
290
     0
176
     1
290
     0
176
     1
290
     0
176
     1
 90
       50
176
     1
 40
0.0
176
     1
 40
1.0
176
     1
 90
        0
176
     1
 62
    18
420
        0
176
     1
 90
       50
176
     1
 90
        3
176
     1
 62
     5
420
      255
176
     1
290
     0
176
     1
 90
       50
176
     1
 90
       50
176
     1
 90
       50
176
     1
290
     0
176
     1
 90
       50
176
     1
 62
   256
176
     0
 40
1.0
176
     0
 90
        2
176
     1
  1
strokes_ogs.tif
176
     1
290
     0
176
     1
 40
1.0
176
     1
 40
1.0
176
     1
  0
VISUALSTYLE
  5
32
102
{ACAD_REACTORS
330
29
102
}
330
29
100
AcDbVisualStyle
  2
Conceptual
 70
     9
177
     3
291
     0
 70
    58
 90
        3
176
     1
 90
        2
176
     1
 90
        0
176
     1
 90
        0
176
     1
 40
0.6
176
     1
 40
30.0
176
     1
 62
     7
420
 16777215
176
     1
 90
        2
176
     1
 90
        2
176
     1
 62
     7
176
     1
 62
   257
176
     1
 90
        1
176
     1
 90
        1
176
     1
 40
179.0
176
     1
 90
        8
176
     1
 62
     7
176
     1
 40
1.0
176
     1
 90
        1
176
     1
 90
        6
176
     1
 90
        2
176
     1
 62
     7
176
     1
 90
        3
176
     1
 90
        0
176
     1
 90
        0
176
     1
290
     0
176
     1
 90
        1
176
     1
 40
0.0
176
     1
 90
        0
176
     1
290
     0
176
     1
290
     1
176
     1
290
     1
176
     1
290
     0
176
     1
290
     0
176
     1
290
     0
176
     1
290
     0
176
     1
290
     0
176
     1
290
     0
176
     1
 90
       50
176
     1
 40
0.0
176
     1
 40
1.0
176
     1
 90
        0
176
     1
 62
    18
420
        0
176
     1
 90
       50
176
     1
 90
        3
176
     1
 62
     5
420
      255
176
     1
290
     0
176
     1
 90
       50
176
     1
 90
       50
176
     1
 90
       50
176
     1
290
     0
176
     1
 90
       50
176
     1
 62
   256
176
     0
 40
1.0
176
     0
 90
        2
176
     1
  1
strokes_ogs.tif
176
     1
290
     0
176
     1
 40
1.0
176
     1
 40
1.0
176
     1
  0
VISUALSTYLE
  5
34
102
{ACAD_REACTORS
330
29
102
}
330
29
100
AcDbVisualStyle
  2
Dim
 70
    11
177
     3
291
     1
 70
    58
 90
        2
176
     1
 90
        2
176
     1
 90
        0
176
     1
 90
        0
176
     1
 40
0.6
176
     1
 40
30.0
176
     1
 62
     7
420
 16777215
176
     1
 90
        1
176
     1
 90
        4
176
     1
 62
     7
176
     1
 62
   257
176
     1
 90
        1
176
     1
 90
        1
176
     1
 40
1.0
176
     1
 90
        8
176
     1
 62
     7
176
     1
 40
1.0
176
     1
 90
        1
176
     1
 90
        6
176
     1
 90
        2
176
     1
 62
     7
176
     1
 90
        5
176
     1
 90
        0
176
     1
 90
        0
176
     1
290
     0
176
     1
 90
        1
176
     1
 40
-50.0
176
     1
 90
        0
176
     1
290
     0
176
     1
290
     1
176
     1
290
     1
176
     1
290
     0
176
     1
290
     0
176
     1
290
     0
176
     1
290
     0
176
     1
290
     0
176
     1
290
     0
176
     1
 90
       50
176
     1
 40
0.0
176
     1
 40
1.0
176
     1
 90
        0
176
     1
 62
    18
420
        0
176
     1
 90
       50
176
     1
 90
        3
176
     1
 62
     5
420
      255
176
     1
290
     0
176
     1
 90
       50
176
     1
 90
       50
176
     1
 90
       50
176
     1
290
     0
176
     1
 90
       50
176
     1
 62
   256
176
     0
 40
1.0
176
     0
 90
        2
176
     1
  1
strokes_ogs.tif
176
     1
290
     0
176
     1
 40
1.0
176
     1
 40
1.0
176
     1
  0
VISUALSTYLE
  5
41
102
{ACAD_REACTORS
330
29
102
}
330
29
100
AcDbVisualStyle
  2
EdgeColorOff
 70
    22
177
     3
291
     1
 70
    58
 90
        2
176
     0
 90
        2
176
     0
 90
        0
176
     0
 90
        0
176
     0
 40
0.6
176
     0
 40
30.0
176
     0
 62
     7
420
 16777215
176
     0
 90
        1
176
     0
 90
        4
176
     0
 62
     7
176
     0
 62
   257
176
     0
 90
        1
176
     0
 90
        1
176
     0
 40
1.0
176
     0
 90
        8
176
     2
 62
     7
176
     0
 40
1.0
176
     0
 90
        1
176
     0
 90
        6
176
     0
 90
        2
176
     0
 62
     7
176
     0
 90
        5
176
     0
 90
        0
176
     0
 90
        0
176
     0
290
     0
176
     0
 90
        1
176
     0
 40
0.0
176
     0
 90
        0
176
     0
290
     0
176
     0
290
     1
176
     0
290
     1
176
     0
290
     0
176
     0
290
     0
176
     0
290
     0
176
     0
290
     0
176
     0
290
     0
176
     0
290
     0
176
     0
 90
       50
176
     0
 40
0.0
176
     0
 40
1.0
176
     0
 90
        0
176
     0
 62
    18
420
        0
176
     0
 90
       50
176
     0
 90
        3
176
     0
 62
     5
420
      255
176
     0
290
     0
176
     0
 90
       50
176
     0
 90
       50
176
     0
 90
       50
176
     0
290
     0
176
     0
 90
       50
176
     0
 62
   256
176
     0
 40
1.0
176
     0
 90
        2
176
     0
  1
strokes_ogs.tif
176
     0
290
     0
176
     0
 40
1.0
176
     0
 40
1.0
176
     0
  0
VISUALSTYLE
  5
38
102
{ACAD_REACTORS
330
29
102
}
330
29
100
AcDbVisualStyle
  2
Facepattern
 70
    15
177
     3
291
     1
 70
    58
 90
        2
176
     1
 90
        2
176
     1
 90
        0
176
     1
 90
        0
176
     1
 40
0.6
176
     1
 40
30.0
176
     1
 62
     7
420
 16777215
176
     1
 90
        1
176
     1
 90
        4
176
     1
 62
     7
176
     1
 62
   257
176
     1
 90
        1
176
     1
 90
        1
176
     1
 40
1.0
176
     1
 90
        8
176
     1
 62
     7
176
     1
 40
1.0
176
     1
 90
        1
176
     1
 90
        6
176
     1
 90
        2
176
     1
 62
     7
176
     1
 90
        5
176
     1
 90
        0
176
     1
 90
        0
176
     1
290
     0
176
     1
 90
        1
176
     1
 40
0.0
176
     1
 90
        0
176
     1
290
     0
176
     1
290
     1
176
     1
290
     1
176
     1
290
     0
176
     1
290
     0
176
     1
290
     0
176
     1
290
     0
176
     1
290
     0
176
     1
290
     0
176
     1
 90
       50
176
     1
 40
0.0
176
     1
 40
1.0
176
     1
 90
        0
176
     1
 62
    18
420
        0
176
     1
 90
       50
176
     1
 90
        3
176
     1
 62
     5
420
      255
176
     1
290
     0
176
     1
 90
       50
176
     1
 90
       50
176
     1
 90
       50
176
     1
290
     0
176
     1
 90
       50
176
     1
 62
   256
176
     0
 40
1.0
176
     0
 90
        2
176
     1
  1
strokes_ogs.tif
176
     1
290
     0
176
     1
 40
1.0
176
     1
 40
1.0
176
     1
  0
VISUALSTYLE
  5
2A
102
{ACAD_REACTORS
330
29
102
}
330
29
100
AcDbVisualStyle
  2
Flat
 70
     0
177
     3
291
     1
 70
    58
 90
        2
176
     1
 90
        1
176
     1
 90
        1
176
     1
 90
        2
176
     1
 40
0.6
176
     1
 40
30.0
176
     1
 62
     7
420
 16777215
176
     1
 90
        0
176
     1
 90
        0
176
     1
 62
     7
176
     1
 62
   257
176
     1
 90
        1
176
     1
 90
        1
176
     1
 40
1.0
176
     1
 90
        8
176
     1
 62
     7
176
     1
 40
1.0
176
     1
 90
        1
176
     1
 90
        6
176
     1
 90
        2
176
     1
 62
     7
176
     1
 90
        5
176
     1
 90
        0
176
     1
 90
        0
176
     1
290
     0
176
     1
 90
       13
176
     1
 40
0.0
176
     1
 90
        0
176
     1
290
     0
176
     1
290
     1
176
     1
290
     1
176
     1
290
     0
176
     1
290
     0
176
     1
290
     0
176
     1
290
     0
176
     1
290
     0
176
     1
290
     0
176
     1
 90
       50
176
     1
 40
0.0
176
     1
 40
1.0
176
     1
 90
        0
176
     1
 62
    18
420
        0
176
     1
 90
       50
176
     1
 90
        3
176
     1
 62
     5
420
      255
176
     1
290
     0
176
     1
 90
       50
176
     1
 90
       50
176
     1
 90
       50
176
     1
290
     0
176
     1
 90
       50
176
     1
 62
   256
176
     0
 40
1.0
176
     0
 90
        2
176
     1
  1
strokes_ogs.tif
176
     1
290
     0
176
     1
 40
1.0
176
     1
 40
1.0
176
     1
  0
VISUALSTYLE
  5
2B
102
{ACAD_REACTORS
330
29
102
}
330
29
100
AcDbVisualStyle
  2
FlatWithEdges
 70
     1
177
     3
291
     1
 70
    58
 90
        2
176
     1
 90
        1
176
     1
 90
        1
176
     1
 90
        2
176
     1
 40
0.6
176
     1
 40
30.0
176
     1
 62
     7
420
 16777215
176
     1
 90
        1
176
     1
 90
        0
176
     1
 62
     7
176
     1
 62
   257
176
     1
 90
        1
176
     1
 90
        1
176
     1
 40
1.0
176
     1
 90
        0
176
     1
 62
   257
176
     1
 40
1.0
176
     1
 90
        1
176
     1
 90
        6
176
     1
 90
        2
176
     1
 62
     7
176
     1
 90
        5
176
     1
 90
        0
176
     1
 90
        0
176
     1
290
     0
176
     1
 90
       13
176
     1
 40
0.0
176
     1
 90
        0
176
     1
290
     0
176
     1
290
     1
176
     1
290
     1
176
     1
290
     0
176
     1
290
     0
176
     1
290
     0
176
     1
290
     0
176
     1
290
     0
176
     1
290
     0
176
     1
 90
       50
176
     1
 40
0.0
176
     1
 40
1.0
176
     1
 90
        0
176
     1
 62
    18
420
        0
176
     1
 90
       50
176
     1
 90
        3
176
     1
 62
     5
420
      255
176
     1
290
     0
176
     1
 90
       50
176
     1
 90
       50
176
     1
 90
       50
176
     1
290
     0
176
     1
 90
       50
176
     1
 62
   256
176
     0
 40
1.0
176
     0
 90
        2
176
     1
  1
strokes_ogs.tif
176
     1
290
     0
176
     1
 40
1.0
176
     1
 40
1.0
176
     1
  0
VISUALSTYLE
  5
2C
102
{ACAD_REACTORS
330
29
102
}
330
29
100
AcDbVisualStyle
  2
Gouraud
 70
     2
177
     3
291
     1
 70
    58
 90
        2
176
     1
 90
        2
176
     1
 90
        1
176
     1
 90
        2
176
     1
 40
0.6
176
     1
 40
30.0
176
     1
 62
     7
420
 16777215
176
     1
 90
        0
176
     1
 90
        0
176
     1
 62
     7
176
     1
 62
   257
176
     1
 90
        1
176
     1
 90
        1
176
     1
 40
1.0
176
     1
 90
        0
176
     1
 62
     7
176
     1
 40
1.0
176
     1
 90
        1
176
     1
 90
        6
176
     1
 90
        2
176
     1
 62
     7
176
     1
 90
        5
176
     1
 90
        0
176
     1
 90
        0
176
     1
290
     0
176
     1
 90
       13
176
     1
 40
0.0
176
     1
 90
        0
176
     1
290
     0
176
     1
290
     1
176
     1
290
     1
176
     1
290
     0
176
     1
290
     0
176
     1
290
     0
176
     1
290
     0
176
     1
290
     0
176
     1
290
     0
176
     1
 90
       50
176
     1
 40
0.0
176
     1
 40
1.0
176
     1
 90
        0
176
     1
 62
    18
420
        0
176
     1
 90
       50
176
     1
 90
        3
176
     1
 62
     5
420
      255
176
     1
290
     0
176
     1
 90
       50
176
     1
 90
       50
176
     1
 90
       50
176
     1
290
     0
176
     1
 90
       50
176
     1
 62
   256
176
     0
 40
1.0
176
     0
 90
        2
176
     1
  1
strokes_ogs.tif
176
     1
290
     0
176
     1
 40
1.0
176
     1
 40
1.0
176
     1
  0
VISUALSTYLE
  5
2D
102
{ACAD_REACTORS
330
29
102
}
330
29
100
AcDbVisualStyle
  2
GouraudWithEdges
 70
     3
177
     3
291
     1
 70
    58
 90
        2
176
     1
 90
        2
176
     1
 90
        1
176
     1
 90
        2
176
     1
 40
0.6
176
     1
 40
30.0
176
     1
 62
     7
420
 16777215
176
     1
 90
        1
176
     1
 90
        0
176
     1
 62
     7
176
     1
 62
   257
176
     1
 90
        1
176
     1
 90
        1
176
     1
 40
1.0
176
     1
 90
        0
176
     1
 62
   257
176
     1
 40
1.0
176
     1
 90
        1
176
     1
 90
        6
176
     1
 90
        2
176
     1
 62
     7
176
     1
 90
        5
176
     1
 90
        0
176
     1
 90
        0
176
     1
290
     0
176
     1
 90
       13
176
     1
 40
0.0
176
     1
 90
        0
176
     1
290
     0
176
     1
290
     1
176
     1
290
     1
176
     1
290
     0
176
     1
290
     0
176
     1
290
     0
176
     1
290
     0
176
     1
290
     0
176
     1
290
     0
176
     1
 90
       50
176
     1
 40
0.0
176
     1
 40
1.0
176
     1
 90
        0
176
     1
 62
    18
420
        0
176
     1
 90
       50
176
     1
 90
        3
176
     1
 62
     5
420
      255
176
     1
290
     0
176
     1
 90
       50
176
     1
 90
       50
176
     1
 90
       50
176
     1
290
     0
176
     1
 90
       50
176
     1
 62
   256
176
     0
 40
1.0
176
     0
 90
        2
176
     1
  1
strokes_ogs.tif
176
     1
290
     0
176
     1
 40
1.0
176
     1
 40
1.0
176
     1
  0
VISUALSTYLE
  5
31
102
{ACAD_REACTORS
330
29
102
}
330
29
100
AcDbVisualStyle
  2
Hidden
 70
     6
177
     3
291
     0
 70
    58
 90
        1
176
     1
 90
        2
176
     1
 90
        2
176
     1
 90
        0
176
     1
 40
0.6
176
     1
 40
30.0
176
     1
 62
     7
420
 16777215
176
     1
 90
        2
176
     1
 90
        2
176
     1
 62
     7
176
     1
 62
   257
176
     1
 90
        2
176
     1
 90
        1
176
     1
 40
40.0
176
     1
 90
        0
176
     1
 62
   257
176
     1
 40
1.0
176
     1
 90
        1
176
     1
 90
        6
176
     1
 90
        2
176
     1
 62
     7
176
     1
 90
        3
176
     1
 90
        0
176
     1
 90
        0
176
     1
290
     0
176
     1
 90
        1
176
     1
 40
0.0
176
     1
 90
        0
176
     1
290
     0
176
     1
290
     1
176
     1
290
     1
176
     1
290
     0
176
     1
290
     0
176
     1
290
     0
176
     1
290
     0
176
     1
290
     0
176
     1
290
     0
176
     1
 90
       50
176
     1
 40
0.0
176
     1
 40
1.0
176
     1
 90
        0
176
     1
 62
    18
420
        0
176
     1
 90
       50
176
     1
 90
        3
176
     1
 62
     5
420
      255
176
     1
290
     0
176
     1
 90
       50
176
     1
 90
       50
176
     1
 90
       50
176
     1
290
     0
176
     1
 90
       50
176
     1
 62
   256
176
     0
 40
1.0
176
     0
 90
        2
176
     1
  1
strokes_ogs.tif
176
     1
290
     0
176
     1
 40
1.0
176
     1
 40
1.0
176
     1
  0
VISUALSTYLE
  5
3F
102
{ACAD_REACTORS
330
29
102
}
330
29
100
AcDbVisualStyle
  2
JitterOff
 70
    20
177
     3
291
     1
 70
    58
 90
        2
176
     0
 90
        2
176
     0
 90
        0
176
     0
 90
        0
176
     0
 40
0.6
176
     0
 40
30.0
176
     0
 62
     7
420
 16777215
176
     0
 90
        1
176
     0
 90
        4
176
     0
 62
     7
176
     0
 62
   257
176
     0
 90
        1
176
     0
 90
        1
176
     0
 40
1.0
176
     0
 90
       10
176
     2
 62
     7
176
     0
 40
1.0
176
     0
 90
        1
176
     0
 90
        6
176
     0
 90
        2
176
     0
 62
     7
176
     0
 90
        5
176
     0
 90
        0
176
     0
 90
        0
176
     0
290
     0
176
     0
 90
        1
176
     0
 40
0.0
176
     0
 90
        0
176
     0
290
     0
176
     0
290
     1
176
     0
290
     1
176
     0
290
     0
176
     0
290
     0
176
     0
290
     0
176
     0
290
     0
176
     0
290
     0
176
     0
290
     0
176
     0
 90
       50
176
     0
 40
0.0
176
     0
 40
1.0
176
     0
 90
        0
176
     0
 62
    18
420
        0
176
     0
 90
       50
176
     0
 90
        3
176
     0
 62
     5
420
      255
176
     0
290
     0
176
     0
 90
       50
176
     0
 90
       50
176
     0
 90
       50
176
     0
290
     0
176
     0
 90
       50
176
     0
 62
   256
176
     0
 40
1.0
176
     0
 90
        2
176
     0
  1
strokes_ogs.tif
176
     0
290
     0
176
     0
 40
1.0
176
     0
 40
1.0
176
     0
  0
VISUALSTYLE
  5
37
102
{ACAD_REACTORS
330
29
102
}
330
29
100
AcDbVisualStyle
  2
Linepattern
 70
    14
177
     3
291
     1
 70
    58
 90
        2
176
     1
 90
        2
176
     1
 90
        0
176
     1
 90
        0
176
     1
 40
0.6
176
     1
 40
30.0
176
     1
 62
     7
420
 16777215
176
     1
 90
        1
176
     1
 90
        4
176
     1
 62
     7
176
     1
 62
   257
176
     1
 90
        7
176
     1
 90
        7
176
     1
 40
1.0
176
     1
 90
        8
176
     1
 62
     7
176
     1
 40
1.0
176
     1
 90
        1
176
     1
 90
        6
176
     1
 90
        2
176
     1
 62
     7
176
     1
 90
        5
176
     1
 90
        0
176
     1
 90
        0
176
     1
290
     0
176
     1
 90
        1
176
     1
 40
0.0
176
     1
 90
        0
176
     1
290
     0
176
     1
290
     1
176
     1
290
     1
176
     1
290
     0
176
     1
290
     0
176
     1
290
     0
176
     1
290
     0
176
     1
290
     0
176
     1
290
     0
176
     1
 90
       50
176
     1
 40
0.0
176
     1
 40
1.0
176
     1
 90
        0
176
     1
 62
    18
420
        0
176
     1
 90
       50
176
     1
 90
        3
176
     1
 62
     5
420
      255
176
     1
290
     0
176
     1
 90
       50
176
     1
 90
       50
176
     1
 90
       50
176
     1
290
     0
176
     1
 90
       50
176
     1
 62
   256
176
     0
 40
1.0
176
     0
 90
        2
176
     1
  1
strokes_ogs.tif
176
     1
290
     0
176
     1
 40
1.0
176
     1
 40
1.0
176
     1
  0
VISUALSTYLE
  5
40
102
{ACAD_REACTORS
330
29
102
}
330
29
100
AcDbVisualStyle
  2
OverhangOff
 70
    21
177
     3
291
     1
 70
    58
 90
        2
176
     0
 90
        2
176
     0
 90
        0
176
     0
 90
        0
176
     0
 40
0.6
176
     0
 40
30.0
176
     0
 62
     7
420
 16777215
176
     0
 90
        1
176
     0
 90
        4
176
     0
 62
     7
176
     0
 62
   257
176
     0
 90
        1
176
     0
 90
        1
176
     0
 40
1.0
176
     0
 90
        9
176
     2
 62
     7
176
     0
 40
1.0
176
     0
 90
        1
176
     0
 90
        6
176
     0
 90
        2
176
     0
 62
     7
176
     0
 90
        5
176
     0
 90
        0
176
     0
 90
        0
176
     0
290
     0
176
     0
 90
        1
176
     0
 40
0.0
176
     0
 90
        0
176
     0
290
     0
176
     0
290
     1
176
     0
290
     1
176
     0
290
     0
176
     0
290
     0
176
     0
290
     0
176
     0
290
     0
176
     0
290
     0
176
     0
290
     0
176
     0
 90
       50
176
     0
 40
0.0
176
     0
 40
1.0
176
     0
 90
        0
176
     0
 62
    18
420
        0
176
     0
 90
       50
176
     0
 90
        3
176
     0
 62
     5
420
      255
176
     0
290
     0
176
     0
 90
       50
176
     0
 90
       50
176
     0
 90
       50
176
     0
290
     0
176
     0
 90
       50
176
     0
 62
   256
176
     0
 40
1.0
176
     0
 90
        2
176
     0
  1
strokes_ogs.tif
176
     0
290
     0
176
     0
 40
1.0
176
     0
 40
1.0
176
     0
  0
VISUALSTYLE
  5
33
102
{ACAD_REACTORS
330
29
102
}
330
29
100
AcDbVisualStyle
  2
Realistic
 70
     8
177
     3
291
     0
 70
    58
 90
        2
176
     1
 90
        3
176
     1
 90
        0
176
     1
 90
        2
176
     1
 40
0.6
176
     1
 40
30.0
176
     1
 62
     7
420
 16777215
176
     1
 90
        0
176
     1
 90
        0
176
     1
 62
     7
176
     1
 62
   257
176
     1
 90
        1
176
     1
 90
        1
176
     1
 40
1.0
176
     1
 90
        8
176
     1
 62
   257
176
     1
 40
1.0
176
     1
 90
        1
176
     1
 90
        6
176
     1
 90
        2
176
     1
 62
     7
176
     1
 90
        3
176
     1
 90
        0
176
     1
 90
        0
176
     1
290
     0
176
     1
 90
       13
176
     1
 40
0.0
176
     1
 90
        0
176
     1
290
     0
176
     1
290
     1
176
     1
290
     1
176
     1
290
     0
176
     1
290
     0
176
     1
290
     0
176
     1
290
     0
176
     1
290
     0
176
     1
290
     0
176
     1
 90
       50
176
     1
 40
0.0
176
     1
 40
1.0
176
     1
 90
        0
176
     1
 62
    18
420
        0
176
     1
 90
       50
176
     1
 90
        3
176
     1
 62
     5
420
      255
176
     1
290
     0
176
     1
 90
       50
176
     1
 90
       50
176
     1
 90
       50
176
     1
290
     0
176
     1
 90
       50
176
     1
 62
   256
176
     0
 40
1.0
176
     0
 90
        2
176
     1
  1
strokes_ogs.tif
176
     1
290
     0
176
     1
 40
1.0
176
     1
 40
1.0
176
     1
  0
VISUALSTYLE
  5
3E
102
{ACAD_REACTORS
330
29
102
}
330
29
100
AcDbVisualStyle
  2
Shaded
 70
    27
177
     3
291
     0
 70
    58
 90
        2
176
     1
 90
        2
176
     1
 90
        1
176
     1
 90
        2
176
     1
 40
0.6
176
     1
 40
30.0
176
     1
 62
     7
420
 16777215
176
     1
 90
        0
176
     1
 90
        4
176
     1
 62
     7
176
     1
 62
   257
176
     1
 90
        1
176
     1
 90
        1
176
     1
 40
1.0
176
     1
 90
        8
176
     1
 62
   257
176
     1
 40
1.0
176
     1
 90
        1
176
     1
 90
        6
176
     1
 90
        2
176
     1
 62
     8
420
  7895160
176
     1
 90
        3
176
     1
 90
        0
176
     1
 90
        0
176
     1
290
     0
176
     1
 90
        5
176
     1
 40
0.0
176
     1
 90
        0
176
     1
290
     0
176
     1
290
     1
176
     1
290
     1
176
     1
290
     0
176
     1
290
     0
176
     1
290
     0
176
     1
290
     0
176
     1
290
     0
176
     1
290
     0
176
     1
 90
       50
176
     1
 40
0.0
176
     1
 40
1.0
176
     1
 90
        0
176
     1
 62
    18
420
        0
176
     1
 90
       50
176
     1
 90
        3
176
     1
 62
     5
420
      255
176
     1
290
     0
176
     1
 90
       50
176
     1
 90
       50
176
     1
 90
       50
176
     1
290
     0
176
     1
 90
       50
176
     1
 62
   256
176
     0
 40
1.0
176
     0
 90
        2
176
     1
  1
strokes_ogs.tif
176
     1
290
     0
176
     1
 40
1.0
176
     1
 40
1.0
176
     1
  0
VISUALSTYLE
  5
3D
102
{ACAD_REACTORS
330
29
102
}
330
29
100
AcDbVisualStyle
  2
Shaded with edges
 70
    26
177
     3
291
     0
 70
    58
 90
        2
176
     1
 90
        2
176
     1
 90
        1
176
     1
 90
        2
176
     1
 40
0.6
176
     1
 40
30.0
176
     1
 62
     7
420
 16777215
176
     1
 90
        1
176
     1
 90
        2
176
     1
 62
     7
176
     1
 62
   257
176
     1
 90
        2
176
     1
 90
        1
176
     1
 40
1.0
176
     1
 90
        8
176
     1
 62
   257
176
     1
 40
1.0
176
     1
 90
        1
176
     1
 90
        6
176
     1
 90
        2
176
     1
 62
     7
176
     1
 90
        3
176
     1
 90
        0
176
     1
 90
        0
176
     1
290
     0
176
     1
 90
        5
176
     1
 40
0.0
176
     1
 90
        0
176
     1
290
     0
176
     1
290
     1
176
     1
290
     1
176
     1
290
     0
176
     1
290
     0
176
     1
290
     0
176
     1
290
     0
176
     1
290
     0
176
     1
290
     0
176
     1
 90
       50
176
     1
 40
0.0
176
     1
 40
1.0
176
     1
 90
        0
176
     1
 62
    18
420
        0
176
     1
 90
       50
176
     1
 90
        3
176
     1
 62
     5
420
      255
176
     1
290
     0
176
     1
 90
       50
176
     1
 90
       50
176
     1
 90
       50
176
     1
290
     0
176
     1
 90
       50
176
     1
 62
   256
176
     0
 40
1.0
176
     0
 90
        2
176
     1
  1
strokes_ogs.tif
176
     1
290
     0
176
     1
 40
1.0
176
     1
 40
1.0
176
     1
  0
VISUALSTYLE
  5
3A
102
{ACAD_REACTORS
330
29
102
}
330
29
100
AcDbVisualStyle
  2
Shades of Gray
 70
    23
177
     3
291
     0
 70
    58
 90
        2
176
     1
 90
        2
176
     1
 90
        3
176
     1
 90
        0
176
     1
 40
0.6
176
     1
 40
30.0
176
     1
 62
     7
420
 16777215
176
     1
 90
        2
176
     1
 90
        2
176
     1
 62
     7
176
     1
 62
     7
176
     1
 90
        1
176
     1
 90
        1
176
     1
 40
40.0
176
     1
 90
        8
176
     1
 62
     7
176
     1
 40
1.0
176
     1
 90
        1
176
     1
 90
        6
176
     1
 90
        2
176
     1
 62
     7
176
     1
 90
        3
176
     1
 90
        0
176
     1
 90
        0
176
     1
290
     0
176
     1
 90
        1
176
     1
 40
0.0
176
     1
 90
        0
176
     1
290
     0
176
     1
290
     1
176
     1
290
     1
176
     1
290
     0
176
     1
290
     0
176
     1
290
     0
176
     1
290
     0
176
     1
290
     0
176
     1
290
     0
176
     1
 90
       50
176
     1
 40
0.0
176
     1
 40
1.0
176
     1
 90
        0
176
     1
 62
    18
420
        0
176
     1
 90
       50
176
     1
 90
        3
176
     1
 62
     5
420
      255
176
     1
290
     0
176
     1
 90
       50
176
     1
 90
       50
176
     1
 90
       50
176
     1
290
     0
176
     1
 90
       50
176
     1
 62
   256
176
     0
 40
1.0
176
     0
 90
        2
176
     1
  1
strokes_ogs.tif
176
     1
290
     0
176
     1
 40
1.0
176
     1
 40
1.0
176
     1
  0
VISUALSTYLE
  5
3B
102
{ACAD_REACTORS
330
29
102
}
330
29
100
AcDbVisualStyle
  2
Sketchy
 70
    24
177
     3
291
     0
 70
    58
 90
        1
176
     1
 90
        2
176
     1
 90
        2
176
     1
 90
        0
176
     1
 40
0.6
176
     1
 40
30.0
176
     1
 62
     7
420
 16777215
176
     1
 90
        2
176
     1
 90
        2
176
     1
 62
     7
176
     1
 62
     7
176
     1
 90
        1
176
     1
 90
        1
176
     1
 40
40.0
176
     1
 90
       11
176
     1
 62
     7
176
     1
 40
1.0
176
     1
 90
        1
176
     1
 90
        6
176
     1
 90
        2
176
     1
 62
     7
176
     1
 90
        6
176
     1
 90
        0
176
     1
 90
        0
176
     1
290
     0
176
     1
 90
        1
176
     1
 40
0.0
176
     1
 90
        0
176
     1
290
     0
176
     1
290
     1
176
     1
290
     1
176
     1
290
     0
176
     1
290
     0
176
     1
290
     0
176
     1
290
     0
176
     1
290
     0
176
     1
290
     0
176
     1
 90
       50
176
     1
 40
0.0
176
     1
 40
1.0
176
     1
 90
        0
176
     1
 62
    18
420
        0
176
     1
 90
       50
176
     1
 90
        3
176
     1
 62
     5
420
      255
176
     1
290
     0
176
     1
 90
       50
176
     1
 90
       50
176
     1
 90
       50
176
     1
290
     0
176
     1
 90
       50
176
     1
 62
   256
176
     0
 40
1.0
176
     0
 90
        2
176
     1
  1
strokes_ogs.tif
176
     1
290
     0
176
     1
 40
1.0
176
     1
 40
1.0
176
     1
  0
VISUALSTYLE
  5
36
102
{ACAD_REACTORS
330
29
102
}
330
29
100
AcDbVisualStyle
  2
Thicken
 70
    13
177
     3
291
     1
 70
    58
 90
        2
176
     1
 90
        2
176
     1
 90
        0
176
     1
 90
        0
176
     1
 40
0.6
176
     1
 40
30.0
176
     1
 62
     7
420
 16777215
176
     1
 90
        1
176
     1
 90
        4
176
     1
 62
     7
176
     1
 62
   257
176
     1
 90
        1
176
     1
 90
        1
176
     1
 40
1.0
176
     1
 90
       12
176
     1
 62
     7
176
     1
 40
1.0
176
     1
 90
        1
176
     1
 90
        6
176
     1
 90
        2
176
     1
 62
     7
176
     1
 90
        5
176
     1
 90
        0
176
     1
 90
        0
176
     1
290
     0
176
     1
 90
        1
176
     1
 40
0.0
176
     1
 90
        0
176
     1
290
     0
176
     1
290
     1
176
     1
290
     1
176
     1
290
     0
176
     1
290
     0
176
     1
290
     0
176
     1
290
     0
176
     1
290
     0
176
     1
290
     0
176
     1
 90
       50
176
     1
 40
0.0
176
     1
 40
1.0
176
     1
 90
        0
176
     1
 62
    18
420
        0
176
     1
 90
       50
176
     1
 90
        3
176
     1
 62
     5
420
      255
176
     1
290
     0
176
     1
 90
       50
176
     1
 90
       50
176
     1
 90
       50
176
     1
290
     0
176
     1
 90
       50
176
     1
 62
   256
176
     0
 40
1.0
176
     0
 90
        2
176
     1
  1
strokes_ogs.tif
176
     1
290
     0
176
     1
 40
1.0
176
     1
 40
1.0
176
     1
  0
VISUALSTYLE
  5
30
102
{ACAD_REACTORS
330
29
102
}
330
29
100
AcDbVisualStyle
  2
Wireframe
 70
     5
177
     3
291
     0
 70
    58
 90
        0
176
     1
 90
        2
176
     1
 90
        0
176
     1
 90
        0
176
     1
 40
0.6
176
     1
 40
30.0
176
     1
 62
     7
420
 16777215
176
     1
 90
        1
176
     1
 90
        4
176
     1
 62
     7
176
     1
 62
   257
176
     1
 90
        1
176
     1
 90
        1
176
     1
 40
1.0
176
     1
 90
        0
176
     1
 62
   257
176
     1
 40
1.0
176
     1
 90
        1
176
     1
 90
        6
176
     1
 90
        2
176
     1
 62
     7
176
     1
 90
        3
176
     1
 90
        0
176
     1
 90
        0
176
     1
290
     0
176
     1
 90
        1
176
     1
 40
0.0
176
     1
 90
        0
176
     1
290
     0
176
     1
290
     1
176
     1
290
     1
176
     1
290
     0
176
     1
290
     0
176
     1
290
     0
176
     1
290
     0
176
     1
290
     0
176
     1
290
     0
176
     1
 90
       50
176
     1
 40
0.0
176
     1
 40
1.0
176
     1
 90
        0
176
     1
 62
    18
420
        0
176
     1
 90
       50
176
     1
 90
        3
176
     1
 62
     5
420
      255
176
     1
290
     0
176
     1
 90
       50
176
     1
 90
       50
176
     1
 90
       50
176
     1
290
     0
176
     1
 90
       50
176
     1
 62
   256
176
     0
 40
1.0
176
     0
 90
        2
176
     1
  1
strokes_ogs.tif
176
     1
290
     0
176
     1
 40
1.0
176
     1
 40
1.0
176
     1
  0
VISUALSTYLE
  5
3C
102
{ACAD_REACTORS
330
29
102
}
330
29
100
AcDbVisualStyle
  2
X-Ray
 70
    25
177
     3
291
     0
 70
    58
 90
        2
176
     1
 90
        2
176
     1
 90
        1
176
     1
 90
        1
176
     1
 40
0.5
176
     1
 40
30.0
176
     1
 62
     7
420
 16777215
176
     1
 90
        1
176
     1
 90
        0
176
     1
 62
     7
176
     1
 62
   257
176
     1
 90
        1
176
     1
 90
        1
176
     1
 40
1.0
176
     1
 90
        8
176
     1
 62
     7
176
     1
 40
1.0
176
     1
 90
        1
176
     1
 90
        6
176
     1
 90
        2
176
     1
 62
     7
176
     1
 90
        3
176
     1
 90
        0
176
     1
 90
        0
176
     1
290
     0
176
     1
 90
       13
176
     1
 40
0.0
176
     1
 90
        0
176
     1
290
     0
176
     1
290
     1
176
     1
290
     1
176
     1
290
     0
176
     1
290
     0
176
     1
290
     0
176
     1
290
     0
176
     1
290
     0
176
     1
290
     0
176
     1
 90
       50
176
     1
 40
0.0
176
     1
 40
1.0
176
     1
 90
        0
176
     1
 62
    18
420
        0
176
     1
 90
       50
176
     1
 90
        3
176
     1
 62
     5
420
      255
176
     1
290
     0
176
     1
 90
       50
176
     1
 90
       50
176
     1
 90
       50
176
     1
290
     0
176
     1
 90
       50
176
     1
 62
   256
176
     0
 40
1.0
176
     0
 90
        2
176
     1
  1
strokes_ogs.tif
176
     1
290
     0
176
     1
 40
1.0
176
     1
 40
1.0
176
     1
  0
DICTIONARYVAR
  5
33B
102
{ACAD_REACTORS
330
336
102
}
330
336
100
DictionaryVariables
280
     0
  1
1:1
  0
DICTIONARYVAR
  5
338
102
{ACAD_REACTORS
330
336
102
}
330
336
100
DictionaryVariables
280
     0
  1
STANDARD
  0
DICTIONARYVAR
  5
337
102
{ACAD_REACTORS
330
336
102
}
330
336
100
DictionaryVariables
280
     0
  1
STANDARD
  0
DICTIONARYVAR
  5
339
102
{ACAD_REACTORS
330
336
102
}
330
336
100
DictionaryVariables
280
     0
  1
Imperial24
  0
DICTIONARYVAR
  5
33A
102
{ACAD_REACTORS
330
336
102
}
330
336
100
DictionaryVariables
280
     0
  1
Imperial24
  0
DICTIONARY
  5
1A
330
19
100
AcDbDictionary
280
     1
281
     1
  3
BUMPTILE
360
1C
  3
DIFFUSETILE
360
1B
  3
OPACITYTILE
360
1F
  3
REFLECTIONTILE
360
1E
  3
REFRACTIONTILE
360
20
  3
SPECULARTILE
360
1D
  0
DICTIONARY
  5
12
330
11
100
AcDbDictionary
280
     1
281
     1
  3
BUMPTILE
360
14
  3
DIFFUSETILE
360
13
  3
OPACITYTILE
360
17
  3
REFLECTIONTILE
360
16
  3
REFRACTIONTILE
360
18
  3
SPECULARTILE
360
15
  0
DICTIONARY
  5
22
330
21
100
AcDbDictionary
280
     1
281
     1
  3
BUMPTILE
360
24
  3
DIFFUSETILE
360
23
  3
OPACITYTILE
360
27
  3
REFLECTIONTILE
360
26
  3
REFRACTIONTILE
360
28
  3
SPECULARTILE
360
25
  0
DICTIONARY
  5
33C
330
65
100
AcDbDictionary
280
     1
281
     1
  3
ACAD_ROUNDTRIP_2008_TABLESTYLE_CELLSTYLEMAP
360
33D
  0
XRECORD
  5
1C
102
{ACAD_REACTORS
330
1A
102
}
330
1A
100
AcDbXrecord
280
     1
270
     1
271
     1
  0
XRECORD
  5
1B
102
{ACAD_REACTORS
330
1A
102
}
330
1A
100
AcDbXrecord
280
     1
270
     1
271
     1
  0
XRECORD
  5
1F
102
{ACAD_REACTORS
330
1A
102
}
330
1A
100
AcDbXrecord
280
     1
270
     1
271
     1
  0
XRECORD
  5
1E
102
{ACAD_REACTORS
330
1A
102
}
330
1A
100
AcDbXrecord
280
     1
270
     1
271
     1
  0
XRECORD
  5
20
102
{ACAD_REACTORS
330
1A
102
}
330
1A
100
AcDbXrecord
280
     1
270
     1
271
     1
  0
XRECORD
  5
1D
102
{ACAD_REACTORS
330
1A
102
}
330
1A
100
AcDbXrecord
280
     1
270
     1
271
     1
  0
XRECORD
  5
14
102
{ACAD_REACTORS
330
12
102
}
330
12
100
AcDbXrecord
280
     1
270
     1
271
     1
  0
XRECORD
  5
13
102
{ACAD_REACTORS
330
12
102
}
330
12
100
AcDbXrecord
280
     1
270
     1
271
     1
  0
XRECORD
  5
17
102
{ACAD_REACTORS
330
12
102
}
330
12
100
AcDbXrecord
280
     1
270
     1
271
     1
  0
XRECORD
  5
16
102
{ACAD_REACTORS
330
12
102
}
330
12
100
AcDbXrecord
280
     1
270
     1
271
     1
  0
XRECORD
  5
18
102
{ACAD_REACTORS
330
12
102
}
330
12
100
AcDbXrecord
280
     1
270
     1
271
     1
  0
XRECORD
  5
15
102
{ACAD_REACTORS
330
12
102
}
330
12
100
AcDbXrecord
280
     1
270
     1
271
     1
  0
XRECORD
  5
24
102
{ACAD_REACTORS
330
22
102
}
330
22
100
AcDbXrecord
280
     1
270
     1
271
     1
  0
XRECORD
  5
23
102
{ACAD_REACTORS
330
22
102
}
330
22
100
AcDbXrecord
280
     1
270
     1
271
     1
  0
XRECORD
  5
27
102
{ACAD_REACTORS
330
22
102
}
330
22
100
AcDbXrecord
280
     1
270
     1
271
     1
  0
XRECORD
  5
26
102
{ACAD_REACTORS
330
22
102
}
330
22
100
AcDbXrecord
280
     1
270
     1
271
     1
  0
XRECORD
  5
28
102
{ACAD_REACTORS
330
22
102
}
330
22
100
AcDbXrecord
280
     1
270
     1
271
     1
  0
XRECORD
  5
25
102
{ACAD_REACTORS
330
22
102
}
330
22
100
AcDbXrecord
280
     1
270
     1
271
     1
  0
CELLSTYLEMAP
  5
33D
102
{ACAD_REACTORS
330
33C
102
}
330
33C
100
AcDbCellStyleMap
 90
        3
300
CELLSTYLE
  1
TABLEFORMAT_BEGIN
 90
        5
170
     1
 91
        0
 92
    32768
 62
   257
 93
        1
300
CONTENTFORMAT
  1
CONTENTFORMAT_BEGIN
 90
        0
 91
        0
 92
      512
 93
        0
300

 40
0.0
140
1.0
 94
        5
 62
     0
340
55
144
0.25
309
CONTENTFORMAT_END
171
     0
 94
        0
309
TABLEFORMAT_END
  1
CELLSTYLE_BEGIN
 90
        1
 91
        1
300
_TITLE
309
CELLSTYLE_END
300
CELLSTYLE
  1
TABLEFORMAT_BEGIN
 90
        5
170
     1
 91
        0
 92
        0
 62
   257
 93
        1
300
CONTENTFORMAT
  1
CONTENTFORMAT_BEGIN
 90
        0
 91
        0
 92
      512
 93
        0
300

 40
0.0
140
1.0
 94
        5
 62
     0
340
55
144
0.18
309
CONTENTFORMAT_END
171
     0
 94
        0
309
TABLEFORMAT_END
  1
CELLSTYLE_BEGIN
 90
        2
 91
        1
300
_HEADER
309
CELLSTYLE_END
300
CELLSTYLE
  1
TABLEFORMAT_BEGIN
 90
        5
170
     1
 91
        0
 92
        0
 62
   257
 93
        1
300
CONTENTFORMAT
  1
CONTENTFORMAT_BEGIN
 90
        0
 91
        0
 92
      512
 93
        0
300

 40
0.0
140
1.0
 94
        2
 62
     0
340
55
144
0.18
309
CONTENTFORMAT_END
171
     0
 94
        0
309
TABLEFORMAT_END
  1
CELLSTYLE_BEGIN
 90
        3
 91
        2
300
_DATA
309
CELLSTYLE_END
  0
ENDSEC
  0
EOF
