  0
SECTION
  2
HEADER
  9
$ACADVER
  1
AC1032
  9
$ACADMAINTVER
 90
      251
  9
$DWGCODEPAGE
  3
ANSI_1252
  9
$REQUIREDVERSIONS
160
                 0
  9
$INSBASE
 10
0.0
 20
0.0
 30
0.0
  9
$EXTMIN
 10
1.000000000000000E+20
 20
1.000000000000000E+20
 30
1.000000000000000E+20
  9
$EXTMAX
 10
-1.000000000000000E+20
 20
-1.000000000000000E+20
 30
-1.000000000000000E+20
  9
$LIMMIN
 10
0.0
 20
0.0
  9
$LIMMAX
 10
12.0
 20
9.0
  9
$ORTHOMODE
 70
     0
  9
$REGENMODE
 70
     1
  9
$FILLMODE
 70
     1
  9
$QTEXTMODE
 70
     0
  9
$MIRRTEXT
 70
     0
  9
$LTSCALE
 40
1.0
  9
$ATTMODE
 70
     1
  9
$TEXTSIZE
 40
0.2
  9
$TRACEWID
 40
0.05
  9
$TEXTSTYLE
  7
Standard
  9
$CLAYER
  8
0
  9
$CELTYPE
  6
ByLayer
  9
$CECOLOR
 62
   256
  9
$CELTSCALE
 40
1.0
  9
$DISPSILH
 70
     0
  9
$DIMSCALE
 40
1.0
  9
$DIMASZ
 40
0.18
  9
$DIMEXO
 40
0.0625
  9
$DIMDLI
 40
0.38
  9
$DIMRND
 40
0.0
  9
$DIMDLE
 40
0.0
  9
$DIMEXE
 40
0.18
  9
$DIMTP
 40
0.0
  9
$DIMTM
 40
0.0
  9
$DIMTXT
 40
0.18
  9
$DIMCEN
 40
0.09
  9
$DIMTSZ
 40
0.0
  9
$DIMTOL
 70
     0
  9
$DIMLIM
 70
     0
  9
$DIMTIH
 70
     1
  9
$DIMTOH
 70
     1
  9
$DIMSE1
 70
     0
  9
$DIMSE2
 70
     0
  9
$DIMTAD
 70
     0
  9
$DIMZIN
 70
     0
  9
$DIMBLK
  1

  9
$DIMASO
 70
     1
  9
$DIMSHO
 70
     1
  9
$DIMPOST
  1

  9
$DIMAPOST
  1

  9
$DIMALT
 70
     0
  9
$DIMALTD
 70
     2
  9
$DIMALTF
 40
25.4
  9
$DIMLFAC
 40
1.0
  9
$DIMTOFL
 70
     0
  9
$DIMTVP
 40
0.0
  9
$DIMTIX
 70
     0
  9
$DIMSOXD
 70
     0
  9
$DIMSAH
 70
     0
  9
$DIMBLK1
  1

  9
$DIMBLK2
  1

  9
$DIMSTYLE
  2
Standard
  9
$DIMCLRD
 70
     0
  9
$DIMCLRE
 70
     0
  9
$DIMCLRT
 70
     0
  9
$DIMTFAC
 40
1.0
  9
$DIMGAP
 40
0.09
  9
$DIMJUST
 70
     0
  9
$DIMSD1
 70
     0
  9
$DIMSD2
 70
     0
  9
$DIMTOLJ
 70
     1
  9
$DIMTZIN
 70
     0
  9
$DIMALTZ
 70
     0
  9
$DIMALTTZ
 70
     0
  9
$DIMUPT
 70
     0
  9
$DIMDEC
 70
     4
  9
$DIMTDEC
 70
     4
  9
$DIMALTU
 70
     2
  9
$DIMALTTD
 70
     2
  9
$DIMTXSTY
  7
Standard
  9
$DIMAUNIT
 70
     0
  9
$DIMADEC
 70
     0
  9
$DIMALTRND
 40
0.0
  9
$DIMAZIN
 70
     0
  9
$DIMDSEP
 70
    46
  9
$DIMATFIT
 70
     3
  9
$DIMFRAC
 70
     0
  9
$DIMLDRBLK
  1

  9
$DIMLUNIT
 70
     2
  9
$DIMLWD
 70
    -2
  9
$DIMLWE
 70
    -2
  9
$DIMTMOVE
 70
     0
  9
$DIMFXL
 40
1.0
  9
$DIMFXLON
 70
     0
  9
$DIMJOGANG
 40
0.7853981633974483
  9
$DIMTFILL
 70
     0
  9
$DIMTFILLCLR
 70
     0
  9
$DIMARCSYM
 70
     0
  9
$DIMLTYPE
  6

  9
$DIMLTEX1
  6

  9
$DIMLTEX2
  6

  9
$DIMTXTDIRECTION
 70
     0
  9
$LUNITS
 70
     2
  9
$LUPREC
 70
     4
  9
$SKETCHINC
 40
0.1
  9
$FILLETRAD
 40
0.0
  9
$AUNITS
 70
     0
  9
$AUPREC
 70
     0
  9
$MENU
  1
.
  9
$ELEVATION
 40
0.0
  9
$PELEVATION
 40
0.0
  9
$THICKNESS
 40
0.0
  9
$LIMCHECK
 70
     0
  9
$CHAMFERA
 40
0.0
  9
$CHAMFERB
 40
0.0
  9
$CHAMFERC
 40
0.0
  9
$CHAMFERD
 40
0.0
  9
$SKPOLY
 70
     0
  9
$TDCREATE
 40
2460035.461678241
  9
$TDUCREATE
 40
2460035.378344907
  9
$TDUPDATE
 40
2460035.461678241
  9
$TDUUPDATE
 40
2460035.378344907
  9
$TDINDWG
 40
0.0000000000
  9
$TDUSRTIMER
 40
0.0000000000
  9
$USRTIMER
 70
     1
  9
$ANGBASE
 50
0.0
  9
$ANGDIR
 70
     0
  9
$PDMODE
 70
     0
  9
$PDSIZE
 40
0.0
  9
$PLINEWID
 40
0.0
  9
$SPLFRAME
 70
     0
  9
$SPLINETYPE
 70
     6
  9
$SPLINESEGS
 70
     8
  9
$HANDSEED
  5
318
  9
$SURFTAB1
 70
     6
  9
$SURFTAB2
 70
     6
  9
$SURFTYPE
 70
     6
  9
$SURFU
 70
     6
  9
$SURFV
 70
     6
  9
$UCSBASE
  2

  9
$UCSNAME
  2

  9
$UCSORG
 10
0.0
 20
0.0
 30
0.0
  9
$UCSXDIR
 10
1.0
 20
0.0
 30
0.0
  9
$UCSYDIR
 10
0.0
 20
1.0
 30
0.0
  9
$UCSORTHOREF
  2

  9
$UCSORTHOVIEW
 70
     0
  9
$UCSORGTOP
 10
0.0
 20
0.0
 30
0.0
  9
$UCSORGBOTTOM
 10
0.0
 20
0.0
 30
0.0
  9
$UCSORGLEFT
 10
0.0
 20
0.0
 30
0.0
  9
$UCSORGRIGHT
 10
0.0
 20
0.0
 30
0.0
  9
$UCSORGFRONT
 10
0.0
 20
0.0
 30
0.0
  9
$UCSORGBACK
 10
0.0
 20
0.0
 30
0.0
  9
$PUCSBASE
  2

  9
$PUCSNAME
  2

  9
$PUCSORG
 10
0.0
 20
0.0
 30
0.0
  9
$PUCSXDIR
 10
1.0
 20
0.0
 30
0.0
  9
$PUCSYDIR
 10
0.0
 20
1.0
 30
0.0
  9
$PUCSORTHOREF
  2

  9
$PUCSORTHOVIEW
 70
     0
  9
$PUCSORGTOP
 10
0.0
 20
0.0
 30
0.0
  9
$PUCSORGBOTTOM
 10
0.0
 20
0.0
 30
0.0
  9
$PUCSORGLEFT
 10
0.0
 20
0.0
 30
0.0
  9
$PUCSORGRIGHT
 10
0.0
 20
0.0
 30
0.0
  9
$PUCSORGFRONT
 10
0.0
 20
0.0
 30
0.0
  9
$PUCSORGBACK
 10
0.0
 20
0.0
 30
0.0
  9
$USERI1
 70
     0
  9
$USERI2
 70
     0
  9
$USERI3
 70
     0
  9
$USERI4
 70
     0
  9
$USERI5
 70
     0
  9
$USERR1
 40
0.0
  9
$USERR2
 40
0.0
  9
$USERR3
 40
0.0
  9
$USERR4
 40
0.0
  9
$USERR5
 40
0.0
  9
$WORLDVIEW
 70
     1
  9
$SHADEDGE
 70
     3
  9
$SHADEDIF
 70
    70
  9
$TILEMODE
 70
     1
  9
$MAXACTVP
 70
    64
  9
$PINSBASE
 10
0.0
 20
0.0
 30
0.0
  9
$PLIMCHECK
 70
     0
  9
$PEXTMIN
 10
1.000000000000000E+20
 20
1.000000000000000E+20
 30
1.000000000000000E+20
  9
$PEXTMAX
 10
-1.000000000000000E+20
 20
-1.000000000000000E+20
 30
-1.000000000000000E+20
  9
$PLIMMIN
 10
0.0
 20
0.0
  9
$PLIMMAX
 10
12.0
 20
9.0
  9
$UNITMODE
 70
     0
  9
$VISRETAIN
 70
     1
  9
$PLINEGEN
 70
     0
  9
$PSLTSCALE
 70
     1
  9
$TREEDEPTH
 70
  3020
  9
$CMLSTYLE
  2
Standard
  9
$CMLJUST
 70
     0
  9
$CMLSCALE
 40
1.0
  9
$PROXYGRAPHICS
 70
     1
  9
$MEASUREMENT
 70
     0
  9
$CELWEIGHT
370
    -1
  9
$ENDCAPS
280
     0
  9
$JOINSTYLE
280
     0
  9
$LWDISPLAY
290
     1
  9
$INSUNITS
 70
     4
  9
$HYPERLINKBASE
  1

  9
$STYLESHEET
  1

  9
$XEDIT
290
     1
  9
$CEPSNTYPE
380
     0
  9
$PSTYLEMODE
290
     1
  9
$FINGERPRINTGUID
  2
{5F9B72E0-3A62-B048-886F-48B200CAA479}
  9
$VERSIONGUID
  2
{9BC69D2F-D596-8947-BB28-9B0ABE060D89}
  9
$EXTNAMES
290
     1
  9
$PSVPSCALE
 40
0.0
  9
$OLESTARTUP
290
     0
  9
$SORTENTS
280
   127
  9
$INDEXCTL
280
     0
  9
$HIDETEXT
280
     1
  9
$XCLIPFRAME
280
     2
  9
$HALOGAP
280
     0
  9
$OBSCOLOR
 70
   257
  9
$OBSLTYPE
280
     0
  9
$INTERSECTIONDISPLAY
280
     0
  9
$INTERSECTIONCOLOR
 70
   257
  9
$DIMASSOC
280
     2
  9
$PROJECTNAME
  1

  9
$CAMERADISPLAY
290
     0
  9
$LENSLENGTH
 40
50.0
  9
$CAMERAHEIGHT
 40
0.0
  9
$STEPSPERSEC
 40
2.0
  9
$STEPSIZE
 40
6.0
  9
$3DDWFPREC
 40
2.0
  9
$PSOLWIDTH
 40
0.25
  9
$PSOLHEIGHT
 40
4.0
  9
$LOFTANG1
 40
1.570796326794896
  9
$LOFTANG2
 40
1.570796326794896
  9
$LOFTMAG1
 40
0.0
  9
$LOFTMAG2
 40
0.0
  9
$LOFTPARAM
 70
     7
  9
$LOFTNORMALS
280
     1
  9
$LATITUDE
 40
37.795
  9
$LONGITUDE
 40
-122.394
  9
$NORTHDIRECTION
 40
0.0
  9
$TIMEZONE
 70
 -8000
  9
$LIGHTGLYPHDISPLAY
280
     1
  9
$TILEMODELIGHTSYNCH
280
     1
  9
$CMATERIAL
347
11
  9
$SOLIDHIST
280
     0
  9
$SHOWHIST
280
     1
  9
$DWFFRAME
280
     2
  9
$DGNFRAME
280
     0
  9
$REALWORLDSCALE
290
     1
  9
$INTERFERECOLOR
 62
     1
  9
$INTERFEREOBJVS
345
33
  9
$INTERFEREVPVS
346
30
  9
$CSHADOW
280
     0
  9
$SHADOWPLANELOCATION
 40
0.0
  0
ENDSEC
  0
SECTION
  2
CLASSES
  0
CLASS
  1
ACDBDICTIONARYWDFLT
  2
AcDbDictionaryWithDefault
  3
ObjectDBX Classes
 90
        0
 91
        1
280
     0
281
     0
  0
CLASS
  1
MATERIAL
  2
AcDbMaterial
  3
ObjectDBX Classes
 90
     1153
 91
        3
280
     0
281
     0
  0
CLASS
  1
VISUALSTYLE
  2
AcDbVisualStyle
  3
ObjectDBX Classes
 90
     4095
 91
       24
280
     0
281
     0
  0
CLASS
  1
SCALE
  2
AcDbScale
  3
ObjectDBX Classes
 90
     1153
 91
       17
280
     0
281
     0
  0
CLASS
  1
TABLESTYLE
  2
AcDbTableStyle
  3
ObjectDBX Classes
 90
     4095
 91
        1
280
     0
281
     0
  0
CLASS
  1
MLEADERSTYLE
  2
AcDbMLeaderStyle
  3
ACDB_MLEADERSTYLE_CLASS
 90
     4095
 91
        1
280
     0
281
     0
  0
CLASS
  1
ACDBSECTIONVIEWSTYLE
  2
AcDbSectionViewStyle
  3
ObjectDBX Classes
 90
     1025
 91
        1
280
     0
281
     0
  0
CLASS
  1
ACDBDETAILVIEWSTYLE
  2
AcDbDetailViewStyle
  3
ObjectDBX Classes
 90
     1025
 91
        1
280
     0
281
     0
  0
CLASS
  1
DICTIONARYVAR
  2
AcDbDictionaryVar
  3
ObjectDBX Classes
 90
        0
 91
        5
280
     0
281
     0
  0
CLASS
  1
CELLSTYLEMAP
  2
AcDbCellStyleMap
  3
ObjectDBX Classes
 90
     1152
 91
        1
280
     0
281
     0
  0
ENDSEC
  0
SECTION
  2
TABLES
  0
TABLE
  2
VPORT
  5
8
330
0
100
AcDbSymbolTable
 70
     1
  0
VPORT
  5
57
330
8
100
AcDbSymbolTableRecord
100
AcDbViewportTableRecord
  2
*Active
 70
     0
 10
0.0
 20
0.0
 11
1.0
 21
1.0
 12
0.0
 22
0.0
 13
0.0
 23
0.0
 14
1.0
 24
1.0
 15
0.0
 25
0.0
 16
0.0
 26
0.0
 36
1.0
 17
104.9999999737499
 27
31.49999999212523
 37
0.0
 40
302.9399999242649
 41
0.7070707070707066
 42
50.0
 43
0.0
 44
0.0
 50
0.0
 51
0.0
 71
     0
 72
   100
 73
     1
 74
     1
 75
     0
 76
     0
 77
     0
 78
     0
281
     0
 65
     1
110
0.0
120
0.0
130
0.0
111
1.0
121
0.0
131
0.0
112
0.0
122
1.0
132
0.0
 79
     0
146
0.0
 60
     3
 61
     5
292
     1
282
     1
141
0.0
142
0.0
 63
   250
421
  3355443
  0
ENDTAB
  0
TABLE
  2
LTYPE
  5
5
330
0
100
AcDbSymbolTable
 70
     1
  0
LTYPE
  5
5B
330
5
100
AcDbSymbolTableRecord
100
AcDbLinetypeTableRecord
  2
ByBlock
 70
     0
  3

 72
    65
 73
     0
 40
0.0
  0
LTYPE
  5
5C
330
5
100
AcDbSymbolTableRecord
100
AcDbLinetypeTableRecord
  2
ByLayer
 70
     0
  3

 72
    65
 73
     0
 40
0.0
  0
LTYPE
  5
5D
330
5
100
AcDbSymbolTableRecord
100
AcDbLinetypeTableRecord
  2
Continuous
 70
     0
  3
Solid line
 72
    65
 73
     0
 40
0.0
  0
ENDTAB
  0
TABLE
  2
LAYER
  5
2
330
0
100
AcDbSymbolTable
 70
     2
  0
LAYER
  5
54
330
2
100
AcDbSymbolTableRecord
100
AcDbLayerTableRecord
  2
0
 70
     0
 62
     7
  6
Continuous
370
     0
390
F
347
21
348
0
  0
LAYER
  5
2E9
330
2
100
AcDbSymbolTableRecord
100
AcDbLayerTableRecord
  2
CAPA_BASE
 70
     0
 62
     7
  6
Continuous
370
     0
390
F
347
21
348
0
  0
ENDTAB
  0
TABLE
  2
STYLE
  5
3
330
0
100
AcDbSymbolTable
 70
     2
  0
STYLE
  5
55
330
3
100
AcDbSymbolTableRecord
100
AcDbTextStyleTableRecord
  2
Standard
 70
     0
 40
0.0
 41
1.0
 50
0.0
 71
     0
 42
0.2
  3
txt
  4

  0
STYLE
  5
5A
330
3
100
AcDbSymbolTableRecord
100
AcDbTextStyleTableRecord
  2
Annotative
 70
     0
 40
0.0
 41
1.0
 50
0.0
 71
     0
 42
0.2
  3
txt
  4

1001
AcadAnnotative
1000
AnnotativeData
1002
{
1070
     1
1070
     1
1002
}
  0
ENDTAB
  0
TABLE
  2
VIEW
  5
6
330
0
100
AcDbSymbolTable
 70
     0
  0
ENDTAB
  0
TABLE
  2
UCS
  5
7
330
0
100
AcDbSymbolTable
 70
     0
  0
ENDTAB
  0
TABLE
  2
APPID
  5
9
330
0
100
AcDbSymbolTable
 70
     2
  0
APPID
  5
56
330
9
100
AcDbSymbolTableRecord
100
AcDbRegAppTableRecord
  2
ACAD
 70
     0
  0
APPID
  5
5E
330
9
100
AcDbSymbolTableRecord
100
AcDbRegAppTableRecord
  2
AcadAnnotative
 70
     0
  0
ENDTAB
  0
TABLE
  2
DIMSTYLE
  5
A
330
0
100
AcDbSymbolTable
 70
     2
100
AcDbDimStyleTable
 71
     0
  0
DIMSTYLE
105
58
330
A
100
AcDbSymbolTableRecord
100
AcDbDimStyleTableRecord
  2
Standard
 70
     0
340
55
  0
DIMSTYLE
105
59
330
A
100
AcDbSymbolTableRecord
100
AcDbDimStyleTableRecord
  2
Annotative
 70
     0
340
55
1001
AcadAnnotative
1000
AnnotativeData
1002
{
1070
     1
1070
     1
1002
}
  0
ENDTAB
  0
TABLE
  2
BLOCK_RECORD
  5
1
330
0
100
AcDbSymbolTable
 70
     4
  0
BLOCK_RECORD
  5
70
330
1
100
AcDbSymbolTableRecord
100
AcDbBlockTableRecord
  2
*Model_Space
340
73
 70
     0
280
     1
281
     0
  0
BLOCK_RECORD
  5
6C
330
1
100
AcDbSymbolTableRecord
100
AcDbBlockTableRecord
  2
*Paper_Space
340
6F
 70
     0
280
     1
281
     0
  0
BLOCK_RECORD
  5
74
330
1
100
AcDbSymbolTableRecord
100
AcDbBlockTableRecord
  2
*Paper_Space0
340
77
 70
     0
280
     1
281
     0
  0
BLOCK_RECORD
  5
2EA
330
1
100
AcDbSymbolTableRecord
100
AcDbBlockTableRecord
  2
Block_0
340
0
102
{BLKREFS
331
2EB
102
}
 70
     0
280
     1
281
     0
  0
BLOCK_RECORD
  5
2F6
330
1
100
AcDbSymbolTableRecord
100
AcDbBlockTableRecord
  2
Block_1
340
0
102
{BLKREFS
331
2F7
102
}
 70
     0
280
     1
281
     0
  0
BLOCK_RECORD
  5
302
330
1
100
AcDbSymbolTableRecord
100
AcDbBlockTableRecord
  2
Block_2
340
0
102
{BLKREFS
331
303
102
}
 70
     0
280
     1
281
     0
  0
ENDTAB
  0
ENDSEC
  0
SECTION
  2
BLOCKS
  0
BLOCK
  5
71
330
70
100
AcDbEntity
  8
0
100
AcDbBlockBegin
  2
*Model_Space
 70
     0
 10
0.0
 20
0.0
 30
0.0
  3
*Model_Space
  1

  0
ENDBLK
  5
72
330
70
100
AcDbEntity
  8
0
100
AcDbBlockEnd
  0
BLOCK
  5
6D
330
6C
100
AcDbEntity
 67
     1
  8
0
100
AcDbBlockBegin
  2
*Paper_Space
 70
     0
 10
0.0
 20
0.0
 30
0.0
  3
*Paper_Space
  1

  0
ENDBLK
  5
6E
330
6C
100
AcDbEntity
 67
     1
  8
0
100
AcDbBlockEnd
  0
BLOCK
  5
75
330
74
100
AcDbEntity
 67
     1
  8
0
100
AcDbBlockBegin
  2
*Paper_Space0
 70
     0
 10
0.0
 20
0.0
 30
0.0
  3
*Paper_Space0
  1

  0
ENDBLK
  5
76
330
74
100
AcDbEntity
 67
     1
  8
0
100
AcDbBlockEnd
  0
BLOCK
  5
2EC
330
2EA
100
AcDbEntity
  8
0
100
AcDbBlockBegin
  2
Block_0
 70
     0
 10
0.0
 20
0.0
 30
0.0
  3
Block_0
  1

  0
LWPOLYLINE
  5
2EE
330
2EA
100
AcDbEntity
  8
CAPA_BASE
100
AcDbPolyline
 90
        4
 70
     1
 43
0.0
 10
110.6573440711831
 20
81.43538475027623
 10
108.1573440711827
 20
81.74538475027597
 10
108.1573440711827
 20
81.12538475027653
 10
108.1573440711827
 20
81.12538475027653
  0
HATCH
  5
2EF
330
2EA
100
AcDbEntity
  8
CAPA_BASE
 62
    18
420
        0
440
 33554687
100
AcDbHatch
 10
0.0
 20
0.0
 30
0.0
210
0.0
220
0.0
230
1.0
  2
SOLID
 70
     1
 71
     1
 91
        1
 92
        1
 93
        3
 72
     1
 10
110.6573440711831
 20
81.43538475027623
 11
108.1573440711827
 21
81.74538475027597
 72
     1
 10
108.1573440711827
 20
81.74538475027597
 11
108.1573440711827
 21
81.12538475027653
 72
     1
 10
108.1573440711827
 20
81.12538475027653
 11
110.6573440711831
 21
81.43538475027623
 97
        1
330
2EE
 75
     2
 76
     1
 98
        1
 10
0.0
 20
0.0
450
        0
451
        0
460
0.0
461
0.0
452
        0
462
0.0
453
        0
470

  0
LWPOLYLINE
  5
2F0
330
2EA
100
AcDbEntity
  8
CAPA_BASE
100
AcDbPolyline
 90
        4
 70
     1
 43
0.0
 10
10.65734407118278
 20
81.43538475027623
 10
13.15734407118287
 20
81.12538475027653
 10
13.15734407118287
 20
81.74538475027597
 10
13.15734407118287
 20
81.74538475027597
  0
HATCH
  5
2F1
330
2EA
100
AcDbEntity
  8
CAPA_BASE
 62
    18
420
        0
440
 33554687
100
AcDbHatch
 10
0.0
 20
0.0
 30
0.0
210
0.0
220
0.0
230
1.0
  2
SOLID
 70
     1
 71
     1
 91
        1
 92
        1
 93
        3
 72
     1
 10
10.65734407118278
 20
81.43538475027623
 11
13.15734407118287
 21
81.12538475027653
 72
     1
 10
13.15734407118287
 20
81.12538475027653
 11
13.15734407118287
 21
81.74538475027597
 72
     1
 10
13.15734407118287
 20
81.74538475027597
 11
10.65734407118278
 21
81.43538475027623
 97
        1
330
2F0
 75
     2
 76
     1
 98
        1
 10
0.0
 20
0.0
450
        0
451
        0
460
0.0
461
0.0
452
        0
462
0.0
453
        0
470

  0
LINE
  5
2F2
330
2EA
100
AcDbEntity
  8
CAPA_BASE
 62
    18
420
        0
370
    25
100
AcDbLine
 10
110.6573440711831
 20
101.935384750276
 30
0.0
 11
110.6573440711831
 21
80.43538475027622
 31
0.0
  0
LINE
  5
2F3
330
2EA
100
AcDbEntity
  8
CAPA_BASE
 62
    18
420
        0
370
    25
100
AcDbLine
 10
10.65734407118278
 20
101.935384750276
 30
0.0
 11
10.65734407118278
 21
80.43538475027622
 31
0.0
  0
LINE
  5
2F4
330
2EA
100
AcDbEntity
  8
CAPA_BASE
 62
    18
420
        0
370
    25
100
AcDbLine
 10
110.6573440711831
 20
81.43538475027623
 30
0.0
 11
10.65734407118278
 21
81.43538475027623
 31
0.0
  0
MTEXT
  5
2F5
330
2EA
100
AcDbEntity
  8
CAPA_BASE
100
AcDbMText
 10
58.01151070733958
 20
82.22913239860504
 30
0.0
 40
0.2
 41
0.0
 46
0.0
 71
     7
 72
     1
  1
\C18;\c0;\FArial Bold|b1|i0|c1;\H2.997200;\W0.700000;200
 73
     1
 44
1.0
  0
ENDBLK
  5
2ED
330
2EA
100
AcDbEntity
  8
0
100
AcDbBlockEnd
  0
BLOCK
  5
2F8
330
2F6
100
AcDbEntity
  8
0
100
AcDbBlockBegin
  2
Block_1
 70
     0
 10
0.0
 20
0.0
 30
0.0
  3
Block_1
  1

  0
LWPOLYLINE
  5
2FA
330
2F6
100
AcDbEntity
  8
CAPA_BASE
100
AcDbPolyline
 90
        4
 70
     1
 43
0.0
 10
120.6573440711834
 20
-0.6162349741244013
 10
120.9673440711831
 20
1.883765025876007
 10
120.3473440711824
 20
1.883765025876007
 10
120.3473440711824
 20
1.883765025876007
  0
HATCH
  5
2FB
330
2F6
100
AcDbEntity
  8
CAPA_BASE
 62
    18
420
        0
440
 33554687
100
AcDbHatch
 10
0.0
 20
0.0
 30
0.0
210
0.0
220
0.0
230
1.0
  2
SOLID
 70
     1
 71
     1
 91
        1
 92
        1
 93
        3
 72
     1
 10
120.6573440711834
 20
-0.6162349741244013
 11
120.9673440711831
 21
1.883765025876007
 72
     1
 10
120.9673440711831
 20
1.883765025876007
 11
120.3473440711824
 21
1.883765025876007
 72
     1
 10
120.3473440711824
 20
1.883765025876007
 11
120.6573440711834
 21
-0.6162349741244013
 97
        1
330
2FA
 75
     2
 76
     1
 98
        1
 10
0.0
 20
0.0
450
        0
451
        0
460
0.0
461
0.0
452
        0
462
0.0
453
        0
470

  0
LWPOLYLINE
  5
2FC
330
2F6
100
AcDbEntity
  8
CAPA_BASE
100
AcDbPolyline
 90
        4
 70
     1
 43
0.0
 10
120.6573440711834
 20
54.88376502587595
 10
120.3473440711824
 20
52.38376502587619
 10
120.9673440711831
 20
52.38376502587619
 10
120.9673440711831
 20
52.38376502587619
  0
HATCH
  5
2FD
330
2F6
100
AcDbEntity
  8
CAPA_BASE
 62
    18
420
        0
440
 33554687
100
AcDbHatch
 10
0.0
 20
0.0
 30
0.0
210
0.0
220
0.0
230
1.0
  2
SOLID
 70
     1
 71
     1
 91
        1
 92
        1
 93
        3
 72
     1
 10
120.6573440711834
 20
54.88376502587595
 11
120.3473440711824
 21
52.38376502587619
 72
     1
 10
120.3473440711824
 20
52.38376502587619
 11
120.9673440711831
 21
52.38376502587619
 72
     1
 10
120.9673440711831
 20
52.38376502587619
 11
120.6573440711834
 21
54.88376502587595
 97
        1
330
2FC
 75
     2
 76
     1
 98
        1
 10
0.0
 20
0.0
450
        0
451
        0
460
0.0
461
0.0
452
        0
462
0.0
453
        0
470

  0
LINE
  5
2FE
330
2F6
100
AcDbEntity
  8
CAPA_BASE
 62
    18
420
        0
370
    25
100
AcDbLine
 10
111.6573440711825
 20
-0.6162349741244013
 30
0.0
 11
121.6573440711828
 21
-0.6162349741244013
 31
0.0
  0
LINE
  5
2FF
330
2F6
100
AcDbEntity
  8
CAPA_BASE
 62
    18
420
        0
370
    25
100
AcDbLine
 10
104.4073440711833
 20
54.88376502587595
 30
0.0
 11
121.6573440711828
 21
54.88376502587595
 31
0.0
  0
LINE
  5
300
330
2F6
100
AcDbEntity
  8
CAPA_BASE
 62
    18
420
        0
370
    25
100
AcDbLine
 10
120.6573440711834
 20
-0.6162349741244013
 30
0.0
 11
120.6573440711834
 21
54.88376502587595
 31
0.0
  0
MTEXT
  5
301
330
2F6
100
AcDbEntity
  8
CAPA_BASE
100
AcDbMText
 10
119.8635923297895
 20
24.4877387091552
 30
0.0
 40
0.2
 41
0.0
 46
0.0
 71
     7
 72
     1
  1
\C18;\c0;\FArial Bold|b1|i0|c1;\H2.997200;\W0.700000;111
 11
0.0000000000000003
 21
1.0
 31
0.0
 73
     1
 44
1.0
  0
ENDBLK
  5
2F9
330
2F6
100
AcDbEntity
  8
0
100
AcDbBlockEnd
  0
BLOCK
  5
304
330
302
100
AcDbEntity
  8
0
100
AcDbBlockBegin
  2
Block_2
 70
     0
 10
0.0
 20
0.0
 30
0.0
  3
Block_2
  1

  0
LWPOLYLINE
  5
306
330
302
100
AcDbEntity
  8
CAPA_BASE
100
AcDbPolyline
 90
        4
 70
     1
 43
0.0
 10
130.6929745467833
 20
118.9353847502763
 10
130.3829745467823
 20
116.4353847502762
 10
131.002974546783
 20
116.4353847502762
 10
131.002974546783
 20
116.4353847502762
  0
HATCH
  5
307
330
302
100
AcDbEntity
  8
CAPA_BASE
 62
    18
420
        0
440
 33554687
100
AcDbHatch
 10
0.0
 20
0.0
 30
0.0
210
0.0
220
0.0
230
1.0
  2
SOLID
 70
     1
 71
     1
 91
        1
 92
        1
 93
        3
 72
     1
 10
130.6929745467833
 20
118.9353847502763
 11
130.3829745467823
 21
116.4353847502762
 72
     1
 10
130.3829745467823
 20
116.4353847502762
 11
131.002974546783
 21
116.4353847502762
 72
     1
 10
131.002974546783
 20
116.4353847502762
 11
130.6929745467833
 21
118.9353847502763
 97
        1
330
306
 75
     2
 76
     1
 98
        1
 10
0.0
 20
0.0
450
        0
451
        0
460
0.0
461
0.0
452
        0
462
0.0
453
        0
470

  0
LWPOLYLINE
  5
308
330
302
100
AcDbEntity
  8
CAPA_BASE
100
AcDbPolyline
 90
        4
 70
     1
 43
0.0
 10
130.6929745467833
 20
91.43538475027629
 10
131.002974546783
 20
93.93538475027604
 10
130.3829745467823
 20
93.93538475027604
 10
130.3829745467823
 20
93.93538475027604
  0
HATCH
  5
309
330
302
100
AcDbEntity
  8
CAPA_BASE
 62
    18
420
        0
440
 33554687
100
AcDbHatch
 10
0.0
 20
0.0
 30
0.0
210
0.0
220
0.0
230
1.0
  2
SOLID
 70
     1
 71
     1
 91
        1
 92
        1
 93
        3
 72
     1
 10
130.6929745467833
 20
91.43538475027629
 11
131.002974546783
 21
93.93538475027604
 72
     1
 10
131.002974546783
 20
93.93538475027604
 11
130.3829745467823
 21
93.93538475027604
 72
     1
 10
130.3829745467823
 20
93.93538475027604
 11
130.6929745467833
 21
91.43538475027629
 97
        1
330
308
 75
     2
 76
     1
 98
        1
 10
0.0
 20
0.0
450
        0
451
        0
460
0.0
461
0.0
452
        0
462
0.0
453
        0
470

  0
LINE
  5
30A
330
302
100
AcDbEntity
  8
CAPA_BASE
 62
    18
420
        0
370
    25
100
AcDbLine
 10
139.6929745467829
 20
118.9353847502763
 30
0.0
 11
129.6929745467826
 21
118.9353847502763
 31
0.0
  0
LINE
  5
30B
330
302
100
AcDbEntity
  8
CAPA_BASE
 62
    18
420
        0
370
    25
100
AcDbLine
 10
139.6929745467829
 20
91.43538475027629
 30
0.0
 11
129.6929745467826
 21
91.43538475027629
 31
0.0
  0
LINE
  5
30C
330
302
100
AcDbEntity
  8
CAPA_BASE
 62
    18
420
        0
370
    25
100
AcDbLine
 10
130.6929745467833
 20
118.9353847502763
 30
0.0
 11
130.6929745467833
 21
91.43538475027629
 31
0.0
  0
MTEXT
  5
30D
330
302
100
AcDbEntity
  8
CAPA_BASE
100
AcDbMText
 10
129.8992254568243
 20
101.7353922271696
 30
0.0
 40
0.2
 41
0.0
 46
0.0
 71
     7
 72
     1
  1
\C18;\c0;\FArial Bold|b1|i0|c1;\H2.997200;\W0.700000;Ø
 11
0.0000000000000003
 21
1.0
 31
0.0
 73
     1
 44
1.0
  0
MTEXT
  5
30E
330
302
100
AcDbEntity
  8
CAPA_BASE
100
AcDbMText
 10
129.8992254568243
 20
105.1074516881322
 30
0.0
 40
0.2
 41
0.0
 46
0.0
 71
     7
 72
     1
  1
\C18;\c0;\FArial Bold|b1|i0|c1;\H2.997200;\W0.700000;55
 11
0.0000000000000003
 21
1.0
 31
0.0
 73
     1
 44
1.0
  0
ENDBLK
  5
305
330
302
100
AcDbEntity
  8
0
100
AcDbBlockEnd
  0
ENDSEC
  0
SECTION
  2
ENTITIES
  0
LINE
  5
78
330
70
100
AcDbEntity
  8
0
 62
    18
420
        0
370
    25
100
AcDbLine
 10
108.5323423723826
 20
102.6853848061762
 30
0.0
 11
108.5323423723826
 21
100.6853849439762
 31
0.0
  0
LINE
  5
79
330
70
100
AcDbEntity
  8
0
 62
    18
420
        0
370
    25
100
AcDbLine
 10
110.0323454122826
 20
100.6853849439762
 30
0.0
 11
110.0323454122826
 21
102.6853848061762
 31
0.0
  0
LINE
  5
7A
330
70
100
AcDbEntity
  8
0
 62
    18
420
        0
370
    25
100
AcDbLine
 10
107.032343057883
 20
99.18538469807611
 30
0.0
 11
14.28234508448288
 21
99.18538469807611
 31
0.0
  0
LINE
  5
7B
330
70
100
AcDbEntity
  8
0
 62
    18
420
        0
370
    25
100
AcDbLine
 10
14.28234508448288
 20
97.68538491787627
 30
0.0
 11
107.032343057883
 21
97.68538491787627
 31
0.0
  0
SPLINE
  5
7C
330
70
100
AcDbEntity
  8
0
 62
    18
420
        0
370
    25
100
AcDbSpline
210
0.0
220
0.0
230
1.0
 70
     8
 71
     3
 72
     8
 73
     4
 74
     0
 42
0.0000000001
 43
0.0000000001
 40
0.0
 40
0.0
 40
0.0
 40
0.0
 40
1.0
 40
1.0
 40
1.0
 40
1.0
 10
107.0323440711822
 20
99.18538475027608
 30
0.0
 10
107.860771195929
 20
99.18538475027608
 30
0.0
 10
108.5323440711833
 20
99.85695762553001
 30
0.0
 10
108.5323440711833
 20
100.6853847502761
 30
0.0
  0
SPLINE
  5
7D
330
70
100
AcDbEntity
  8
0
 62
    18
420
        0
370
    25
100
AcDbSpline
210
0.0
220
0.0
230
1.0
 70
     8
 71
     3
 72
     8
 73
     4
 74
     0
 42
0.0000000001
 43
0.0000000001
 40
0.0
 40
0.0
 40
0.0
 40
0.0
 40
1.0
 40
1.0
 40
1.0
 40
1.0
 10
107.0323440711822
 20
97.68538475027602
 30
0.0
 10
108.6891983206757
 20
97.68538475027602
 30
0.0
 10
110.032344071183
 20
99.02853050078391
 30
0.0
 10
110.032344071183
 20
100.6853847502761
 30
0.0
  0
SPLINE
  5
7E
330
70
100
AcDbEntity
  8
0
 62
    18
420
        0
370
    25
100
AcDbSpline
210
0.0
220
0.0
230
1.0
 70
     8
 71
     3
 72
     8
 73
     4
 74
     0
 42
0.0000000001
 43
0.0000000001
 40
0.0
 40
0.0
 40
0.0
 40
0.0
 40
1.0
 40
1.0
 40
1.0
 40
1.0
 10
12.78234407118293
 20
100.6853847502761
 30
0.0
 10
12.78234407118293
 20
99.85695762553001
 30
0.0
 10
13.45391694643655
 20
99.18538475027608
 30
0.0
 10
14.28234407118267
 20
99.18538475027608
 30
0.0
  0
SPLINE
  5
7F
330
70
100
AcDbEntity
  8
0
 62
    18
420
        0
370
    25
100
AcDbSpline
210
0.0
220
0.0
230
1.0
 70
     8
 71
     3
 72
     8
 73
     4
 74
     0
 42
0.0000000001
 43
0.0000000001
 40
0.0
 40
0.0
 40
0.0
 40
0.0
 40
1.0
 40
1.0
 40
1.0
 40
1.0
 10
11.28234407118288
 20
100.6853847502761
 30
0.0
 10
11.28234407118288
 20
99.02853050078391
 30
0.0
 10
12.62548982169044
 20
97.68538475027602
 30
0.0
 10
14.28234407118267
 20
97.68538475027602
 30
0.0
  0
LINE
  5
80
330
70
100
AcDbEntity
  8
0
 62
    18
420
        0
370
    25
100
AcDbLine
 10
11.2823427300829
 20
102.6853848061762
 30
0.0
 11
11.2823427300829
 21
100.6853849439762
 31
0.0
  0
LINE
  5
81
330
70
100
AcDbEntity
  8
0
 62
    18
420
        0
370
    25
100
AcDbLine
 10
12.78234576988286
 20
100.6853849439762
 30
0.0
 11
12.78234576988286
 21
102.6853848061762
 31
0.0
  0
LINE
  5
82
330
70
100
AcDbEntity
  8
0
 62
    18
420
        0
370
    25
100
AcDbLine
 10
108.5323423723826
 20
98.0873083508761
 30
0.0
 11
108.5323423723826
 21
95.68538505577603
 31
0.0
  0
LINE
  5
83
330
70
100
AcDbEntity
  8
0
 62
    18
420
        0
370
    25
100
AcDbLine
 10
110.0323454122826
 20
95.68538505577603
 30
0.0
 11
110.0323454122826
 21
100.6853849439762
 31
0.0
  0
SPLINE
  5
84
330
70
100
AcDbEntity
  8
0
 62
    18
420
        0
370
    25
100
AcDbSpline
210
0.0
220
0.0
230
1.0
 70
     8
 71
     3
 72
     8
 73
     4
 74
     0
 42
0.0000000001
 43
0.0000000001
 40
0.0
 40
0.0
 40
0.0
 40
0.0
 40
1.0
 40
1.0
 40
1.0
 40
1.0
 10
107.0323440711822
 20
94.18538475027622
 30
0.0
 10
107.860771195929
 20
94.18538475027622
 30
0.0
 10
108.5323440711833
 20
94.85695762552984
 30
0.0
 10
108.5323440711833
 20
95.68538475027628
 30
0.0
  0
SPLINE
  5
85
330
70
100
AcDbEntity
  8
0
 62
    18
420
        0
370
    25
100
AcDbSpline
210
0.0
220
0.0
230
1.0
 70
     8
 71
     3
 72
     8
 73
     4
 74
     0
 42
0.0000000001
 43
0.0000000001
 40
0.0
 40
0.0
 40
0.0
 40
0.0
 40
1.0
 40
1.0
 40
1.0
 40
1.0
 10
107.0323440711822
 20
92.68538475027616
 30
0.0
 10
108.6891983206757
 20
92.68538475027616
 30
0.0
 10
110.032344071183
 20
94.02853050078372
 30
0.0
 10
110.032344071183
 20
95.68538475027628
 30
0.0
  0
SPLINE
  5
86
330
70
100
AcDbEntity
  8
0
 62
    18
420
        0
370
    25
100
AcDbSpline
210
0.0
220
0.0
230
1.0
 70
     8
 71
     3
 72
     8
 73
     4
 74
     0
 42
0.0000000001
 43
0.0000000001
 40
0.0
 40
0.0
 40
0.0
 40
0.0
 40
1.0
 40
1.0
 40
1.0
 40
1.0
 10
12.78234407118293
 20
95.68538475027628
 30
0.0
 10
12.78234407118293
 20
94.85695762552984
 30
0.0
 10
13.45391694643655
 20
94.18538475027622
 30
0.0
 10
14.28234407118267
 20
94.18538475027622
 30
0.0
  0
SPLINE
  5
87
330
70
100
AcDbEntity
  8
0
 62
    18
420
        0
370
    25
100
AcDbSpline
210
0.0
220
0.0
230
1.0
 70
     8
 71
     3
 72
     8
 73
     4
 74
     0
 42
0.0000000001
 43
0.0000000001
 40
0.0
 40
0.0
 40
0.0
 40
0.0
 40
1.0
 40
1.0
 40
1.0
 40
1.0
 10
11.28234407118288
 20
95.68538475027628
 30
0.0
 10
11.28234407118288
 20
94.02853050078372
 30
0.0
 10
12.62548982169044
 20
92.68538475027616
 30
0.0
 10
14.28234407118267
 20
92.68538475027616
 30
0.0
  0
LINE
  5
88
330
70
100
AcDbEntity
  8
0
 62
    18
420
        0
370
    25
100
AcDbLine
 10
11.2823427300829
 20
100.6853849439762
 30
0.0
 11
11.2823427300829
 21
95.68538505577603
 31
0.0
  0
LINE
  5
89
330
70
100
AcDbEntity
  8
0
 62
    18
420
        0
370
    25
100
AcDbLine
 10
12.78234576988286
 20
95.68538505577603
 30
0.0
 11
12.78234576988286
 21
98.0873083508761
 31
0.0
  0
LINE
  5
8A
330
70
100
AcDbEntity
  8
0
 62
    18
420
        0
370
    25
100
AcDbLine
 10
107.032343057883
 20
94.18538480987626
 30
0.0
 11
14.28234508448288
 21
94.18538480987626
 31
0.0
  0
LINE
  5
8B
330
70
100
AcDbEntity
  8
0
 62
    18
420
        0
370
    25
100
AcDbLine
 10
14.28234508448288
 20
92.68538456397617
 30
0.0
 11
107.032343057883
 21
92.68538456397617
 31
0.0
  0
SPLINE
  5
8C
330
70
100
AcDbEntity
  8
0
 62
    18
420
        0
370
    25
100
AcDbSpline
210
0.0
220
0.0
230
1.0
 70
     8
 71
     3
 72
    11
 73
     7
 74
     0
 42
0.0000000001
 43
0.0000000001
 40
0.0
 40
0.0
 40
0.0
 40
0.0
 40
1.0
 40
1.0
 40
1.0
 40
2.0
 40
2.0
 40
2.0
 40
2.0
 10
10.90734383276191
 20
107.6853846943324
 30
0.0
 10
10.7692737811572
 20
107.6853861099923
 30
0.0
 10
10.65734474178651
 20
107.5734593658598
 30
0.0
 10
10.65734332612656
 20
107.435389314255
 30
0.0
 10
10.65734332611051
 20
107.4353877606211
 30
0.0
 10
10.65734332610923
 20
107.4353862069882
 30
0.0
 10
10.65734332612239
 20
107.4353846533543
 30
0.0
  0
LINE
  5
8D
330
70
100
AcDbEntity
  8
0
 62
    18
420
        0
370
    25
100
AcDbLine
 10
13.15734466718267
 20
107.685384694376
 30
0.0
 11
10.90734383278277
 21
107.685384694376
 31
0.0
  0
SPLINE
  5
8E
330
70
100
AcDbEntity
  8
0
 62
    18
420
        0
370
    25
100
AcDbSpline
210
0.0
220
0.0
230
1.0
 70
     8
 71
     3
 72
     8
 73
     4
 74
     0
 42
0.0000000001
 43
0.0000000001
 40
0.0
 40
0.0
 40
0.0
 40
0.0
 40
1.0
 40
1.0
 40
1.0
 40
1.0
 10
13.40734517382637
 20
107.4353846534493
 30
0.0
 10
13.40734277709169
 20
107.5734550526171
 30
0.0
 10
13.29541506635918
 20
107.6853825548687
 30
0.0
 10
13.15734466718684
 20
107.6853846944274
 30
0.0
  0
SPLINE
  5
8F
330
70
100
AcDbEntity
  8
0
 62
    18
420
        0
370
    25
100
AcDbSpline
210
0.0
220
0.0
230
1.0
 70
     8
 71
     3
 72
     8
 73
     4
 74
     0
 42
0.0000000001
 43
0.0000000001
 40
0.0
 40
0.0
 40
0.0
 40
0.0
 40
1.0
 40
1.0
 40
1.0
 40
1.0
 10
13.15734466719133
 20
102.6853848061252
 30
0.0
 10
13.29541561794795
 20
102.6853856140595
 30
0.0
 10
13.40734410871954
 20
102.7973138963482
 30
0.0
 10
13.40734517383054
 20
102.9353848471029
 30
0.0
  0
LINE
  5
90
330
70
100
AcDbEntity
  8
0
 62
    18
420
        0
370
    25
100
AcDbLine
 10
13.15734466718267
 20
102.6853848061762
 30
0.0
 11
10.90734383278277
 21
102.6853848061762
 31
0.0
  0
SPLINE
  5
91
330
70
100
AcDbEntity
  8
0
 62
    18
420
        0
370
    25
100
AcDbSpline
210
0.0
220
0.0
230
1.0
 70
     8
 71
     3
 72
     8
 73
     4
 74
     0
 42
0.0000000001
 43
0.0000000001
 40
0.0
 40
0.0
 40
0.0
 40
0.0
 40
1.0
 40
1.0
 40
1.0
 40
1.0
 10
10.65734332610378
 20
102.935384847075
 30
0.0
 10
10.65734348400249
 20
102.7973135205375
 30
0.0
 10
10.7692725062058
 20
102.6853847068181
 30
0.0
 10
10.90734383274331
 20
102.6853848060969
 30
0.0
  0
LINE
  5
92
330
70
100
AcDbEntity
  8
0
 62
    18
420
        0
370
    25
100
AcDbLine
 10
13.40734517388284
 20
102.935384847076
 30
0.0
 11
13.40734517388284
 21
107.4353846533761
 31
0.0
  0
LINE
  5
93
330
70
100
AcDbEntity
  8
0
 62
    18
420
        0
370
    25
100
AcDbLine
 10
10.65734332608292
 20
107.4353846533761
 30
0.0
 11
10.65734332608292
 21
102.935384847076
 31
0.0
  0
SPLINE
  5
94
330
70
100
AcDbEntity
  8
0
 62
    18
420
        0
370
    25
100
AcDbSpline
210
0.0
220
0.0
230
1.0
 70
     8
 71
     3
 72
     8
 73
     4
 74
     0
 42
0.0000000001
 43
0.0000000001
 40
0.0
 40
0.0
 40
0.0
 40
0.0
 40
1.0
 40
1.0
 40
1.0
 40
1.0
 10
107.9073429684388
 20
102.9353848471029
 30
0.0
 10
107.9073453651744
 20
102.7973144479351
 30
0.0
 10
108.0192730759062
 20
102.6853869456839
 30
0.0
 10
108.1573434750789
 20
102.6853848061249
 30
0.0
  0
SPLINE
  5
95
330
70
100
AcDbEntity
  8
0
 62
    18
420
        0
370
    25
100
AcDbSpline
210
0.0
220
0.0
230
1.0
 70
     8
 71
     3
 72
     8
 73
     4
 74
     0
 42
0.0000000001
 43
0.0000000001
 40
0.0
 40
0.0
 40
0.0
 40
0.0
 40
1.0
 40
1.0
 40
1.0
 40
1.0
 10
108.1573434750738
 20
107.6853846944274
 30
0.0
 10
108.0192725243172
 20
107.685383886493
 30
0.0
 10
107.9073440335462
 20
107.5734556042039
 30
0.0
 10
107.9073429684349
 20
107.4353846534493
 30
0.0
  0
LINE
  5
96
330
70
100
AcDbEntity
  8
0
 62
    18
420
        0
370
    25
100
AcDbLine
 10
110.4073443095825
 20
107.685384694376
 30
0.0
 11
108.1573434750828
 21
107.685384694376
 31
0.0
  0
SPLINE
  5
97
330
70
100
AcDbEntity
  8
0
 62
    18
420
        0
370
    25
100
AcDbSpline
210
0.0
220
0.0
230
1.0
 70
     8
 71
     3
 72
     8
 73
     4
 74
     0
 42
0.0000000001
 43
0.0000000001
 40
0.0
 40
0.0
 40
0.0
 40
0.0
 40
1.0
 40
1.0
 40
1.0
 40
1.0
 10
110.6573448162624
 20
107.4353846533771
 30
0.0
 10
110.6573446583634
 20
107.5734559799146
 30
0.0
 10
110.5454156361604
 20
107.685384793634
 30
0.0
 10
110.4073443096222
 20
107.6853846943552
 30
0.0
  0
SPLINE
  5
98
330
70
100
AcDbEntity
  8
0
 62
    18
420
        0
370
    25
100
AcDbSpline
210
0.0
220
0.0
230
1.0
 70
     8
 71
     3
 72
    11
 73
     7
 74
     0
 42
0.0000000001
 43
0.0000000001
 40
0.0
 40
0.0
 40
0.0
 40
0.0
 40
1.0
 40
1.0
 40
1.0
 40
2.0
 40
2.0
 40
2.0
 40
2.0
 10
110.4073443096043
 20
102.68538480612
 30
0.0
 10
110.5454143612083
 20
102.6853833904601
 30
0.0
 10
110.6573434005793
 20
102.7973101345923
 30
0.0
 10
110.6573448162393
 20
102.9353801861971
 30
0.0
 10
110.6573448162547
 20
102.9353817398313
 30
0.0
 10
110.657344816256
 20
102.9353832934642
 30
0.0
 10
110.6573448162431
 20
102.9353848470981
 30
0.0
  0
LINE
  5
99
330
70
100
AcDbEntity
  8
0
 62
    18
420
        0
370
    25
100
AcDbLine
 10
110.4073443095825
 20
102.6853848061762
 30
0.0
 11
108.1573434750828
 21
102.6853848061762
 31
0.0
  0
LINE
  5
9A
330
70
100
AcDbEntity
  8
0
 62
    18
420
        0
370
    25
100
AcDbLine
 10
110.6573448161828
 20
107.4353846533761
 30
0.0
 11
110.6573448161828
 21
102.935384847076
 31
0.0
  0
LINE
  5
9B
330
70
100
AcDbEntity
  8
0
 62
    18
420
        0
370
    25
100
AcDbLine
 10
107.9073429684824
 20
107.4353846533761
 30
0.0
 11
107.9073429684824
 21
102.935384847076
 31
0.0
  0
LINE
  5
9C
330
70
100
AcDbEntity
  8
0
 62
    18
420
        0
370
    25
100
AcDbLine
 10
18.15734362408277
 20
107.4353846533761
 30
0.0
 11
13.40734517388284
 21
107.4353846533761
 31
0.0
  0
LINE
  5
9D
330
70
100
AcDbEntity
  8
0
 62
    18
420
        0
370
    25
100
AcDbLine
 10
18.15734362408277
 20
107.4353846533761
 30
0.0
 11
18.15734362408277
 21
102.935384847076
 31
0.0
  0
LINE
  5
9E
330
70
100
AcDbEntity
  8
0
 62
    18
420
        0
370
    25
100
AcDbLine
 10
13.40734517388284
 20
102.935384847076
 30
0.0
 11
18.15734362408277
 21
102.935384847076
 31
0.0
  0
LINE
  5
9F
330
70
100
AcDbEntity
  8
0
 62
    18
420
        0
370
    25
100
AcDbLine
 10
18.15734362408277
 20
102.935384847076
 30
0.0
 11
18.15734362408277
 21
102.6853848061762
 31
0.0
  0
LINE
  5
A0
330
70
100
AcDbEntity
  8
0
 62
    18
420
        0
370
    25
100
AcDbLine
 10
18.15734362408277
 20
102.6853848061762
 30
0.0
 11
13.15734466718267
 21
102.6853848061762
 31
0.0
  0
LINE
  5
A1
330
70
100
AcDbEntity
  8
0
 62
    18
420
        0
370
    25
100
AcDbLine
 10
18.15734362408277
 20
107.685384694376
 30
0.0
 11
18.15734362408277
 21
107.4353846533761
 31
0.0
  0
LINE
  5
A2
330
70
100
AcDbEntity
  8
0
 62
    18
420
        0
370
    25
100
AcDbLine
 10
13.15734466718267
 20
107.685384694376
 30
0.0
 11
18.15734362408277
 21
107.685384694376
 31
0.0
  0
LINE
  5
A3
330
70
100
AcDbEntity
  8
0
 62
    18
420
        0
370
    25
100
AcDbLine
 10
107.9073429684824
 20
107.4353846533761
 30
0.0
 11
103.157344518183
 21
107.4353846533761
 31
0.0
  0
LINE
  5
A4
330
70
100
AcDbEntity
  8
0
 62
    18
420
        0
370
    25
100
AcDbLine
 10
103.157344518183
 20
107.685384694376
 30
0.0
 11
103.157344518183
 21
107.4353846533761
 31
0.0
  0
LINE
  5
A5
330
70
100
AcDbEntity
  8
0
 62
    18
420
        0
370
    25
100
AcDbLine
 10
103.157344518183
 20
107.685384694376
 30
0.0
 11
108.1573434750828
 21
107.685384694376
 31
0.0
  0
LINE
  5
A6
330
70
100
AcDbEntity
  8
0
 62
    18
420
        0
370
    25
100
AcDbLine
 10
103.157344518183
 20
102.935384847076
 30
0.0
 11
107.9073429684824
 21
102.935384847076
 31
0.0
  0
LINE
  5
A7
330
70
100
AcDbEntity
  8
0
 62
    18
420
        0
370
    25
100
AcDbLine
 10
103.157344518183
 20
107.4353846533761
 30
0.0
 11
103.157344518183
 21
102.935384847076
 31
0.0
  0
LINE
  5
A8
330
70
100
AcDbEntity
  8
0
 62
    18
420
        0
370
    25
100
AcDbLine
 10
103.157344518183
 20
102.935384847076
 30
0.0
 11
103.157344518183
 21
102.6853848061762
 31
0.0
  0
LINE
  5
A9
330
70
100
AcDbEntity
  8
0
 62
    18
420
        0
370
    25
100
AcDbLine
 10
108.1573434750828
 20
102.6853848061762
 30
0.0
 11
103.157344518183
 21
102.6853848061762
 31
0.0
  0
LINE
  5
AA
330
70
100
AcDbEntity
  8
0
 62
    18
420
        0
370
    25
100
AcDbLine
 10
103.157344518183
 20
107.4353846533761
 30
0.0
 11
18.15734362408277
 21
107.4353846533761
 31
0.0
  0
LINE
  5
AB
330
70
100
AcDbEntity
  8
0
 62
    18
420
        0
370
    25
100
AcDbLine
 10
18.15734362408277
 20
102.935384847076
 30
0.0
 11
103.157344518183
 21
102.935384847076
 31
0.0
  0
CIRCLE
  5
AC
330
70
100
AcDbEntity
  8
0
 62
    18
420
        0
370
    25
100
AcDbCircle
 10
89.65734407118301
 20
105.1853847502762
 30
0.0
 40
1.99999999999995
  0
CIRCLE
  5
AD
330
70
100
AcDbEntity
  8
0
 62
    18
420
        0
370
    25
100
AcDbCircle
 10
31.65734407118288
 20
105.1853847502762
 30
0.0
 40
1.99999999999995
  0
CIRCLE
  5
AE
330
70
100
AcDbEntity
  8
0
 62
    18
420
        0
370
    25
100
AcDbCircle
 10
31.6573440711828
 20
105.185384750276
 30
0.0
 40
1.125000000000039
  0
CIRCLE
  5
AF
330
70
100
AcDbEntity
  8
0
 62
    18
420
        0
370
    25
100
AcDbCircle
 10
89.65734407118285
 20
105.1853847502762
 30
0.0
 40
1.125000000000079
  0
LINE
  5
B0
330
70
100
AcDbEntity
  8
0
 62
    18
420
        0
370
    25
100
AcDbLine
 10
18.15734362408277
 20
107.685384694376
 30
0.0
 11
103.157344518183
 21
107.685384694376
 31
0.0
  0
LINE
  5
B1
330
70
100
AcDbEntity
  8
0
 62
    18
420
        0
370
    25
100
AcDbLine
 10
103.157344518183
 20
102.6853848061762
 30
0.0
 11
18.15734362408277
 21
102.6853848061762
 31
0.0
  0
LINE
  5
B2
330
70
100
AcDbEntity
  8
0
 62
    18
420
        0
370
    25
100
AcDbLine
 10
87.03234350488278
 20
102.1353848090762
 30
0.0
 11
87.03234350488278
 21
102.167210662676
 31
0.0
  0
SPLINE
  5
B3
330
70
100
AcDbEntity
  8
0
 62
    18
420
        0
370
    25
100
AcDbSpline
210
0.0
220
0.0
230
1.0
 70
     8
 71
     3
 72
     8
 73
     4
 74
     0
 42
0.0000000001
 43
0.0000000001
 40
0.0
 40
0.0
 40
0.0
 40
0.0
 40
1.0
 40
1.0
 40
1.0
 40
1.0
 10
87.03234350489562
 20
102.1353848091653
 30
0.0
 10
87.03234418520247
 20
101.9973136990174
 30
0.0
 10
87.14427290138626
 20
101.8853851913165
 30
0.0
 10
87.28234401153514
 20
101.8853847681872
 30
0.0
  0
LINE
  5
B4
330
70
100
AcDbEntity
  8
0
 62
    18
420
        0
370
    25
100
AcDbLine
 10
87.39681286918278
 20
101.885384768176
 30
0.0
 11
87.28234401158264
 21
101.885384768176
 31
0.0
  0
SPLINE
  5
B5
330
70
100
AcDbEntity
  8
0
 62
    18
420
        0
370
    25
100
AcDbSpline
210
0.0
220
0.0
230
1.0
 70
     8
 71
     3
 72
     8
 73
     4
 74
     0
 42
0.0000000001
 43
0.0000000001
 40
0.0
 40
0.0
 40
0.0
 40
0.0
 40
1.0
 40
1.0
 40
1.0
 40
1.0
 10
87.39681316008933
 20
101.8853847502774
 30
0.0
 10
88.75932494211838
 20
100.9520514169425
 30
0.0
 10
90.55536320024762
 20
100.9520514169425
 30
0.0
 10
91.91787498227602
 20
101.8853847502774
 30
0.0
  0
LINE
  5
B6
330
70
100
AcDbEntity
  8
0
 62
    18
420
        0
370
    25
100
AcDbLine
 10
92.0323424617832
 20
101.885384768176
 30
0.0
 11
91.91787546678254
 21
101.885384768176
 31
0.0
  0
SPLINE
  5
B7
330
70
100
AcDbEntity
  8
0
 62
    18
420
        0
370
    25
100
AcDbSpline
210
0.0
220
0.0
230
1.0
 70
     8
 71
     3
 72
    11
 73
     7
 74
     0
 42
0.0000000001
 43
0.0000000001
 40
0.0
 40
0.0
 40
0.0
 40
0.0
 40
1.0
 40
1.0
 40
1.0
 40
2.0
 40
2.0
 40
2.0
 40
2.0
 10
92.03234246184738
 20
101.8853847681799
 30
0.0
 10
92.17041164097434
 20
101.8853824800444
 30
0.0
 10
92.28234068034407
 20
101.9973078096127
 30
0.0
 10
92.2823429684792
 20
102.1353769887403
 30
0.0
 10
92.28234296852219
 20
102.1353795955467
 30
0.0
 10
92.28234296852475
 20
102.1353822023516
 30
0.0
 10
92.28234296848626
 20
102.135384809158
 30
0.0
  0
LINE
  5
B8
330
70
100
AcDbEntity
  8
0
 62
    18
420
        0
370
    25
100
AcDbLine
 10
92.2823429684824
 20
102.167210662676
 30
0.0
 11
92.2823429684824
 21
102.1353848090762
 31
0.0
  0
LINE
  5
B9
330
70
100
AcDbEntity
  8
0
 62
    18
420
        0
370
    25
100
AcDbLine
 10
92.2823429684824
 20
108.2353846913763
 30
0.0
 11
92.2823429684824
 21
108.2035588378762
 31
0.0
  0
SPLINE
  5
BA
330
70
100
AcDbEntity
  8
0
 62
    18
420
        0
370
    25
100
AcDbSpline
210
0.0
220
0.0
230
1.0
 70
     8
 71
     3
 72
     8
 73
     4
 74
     0
 42
0.0000000001
 43
0.0000000001
 40
0.0
 40
0.0
 40
0.0
 40
0.0
 40
1.0
 40
1.0
 40
1.0
 40
1.0
 10
92.28234296846572
 20
108.2353846913811
 30
0.0
 10
92.28234270143358
 20
108.3734559727138
 30
0.0
 10
92.17041374315858
 20
108.4853847225049
 30
0.0
 10
92.03234246182557
 20
108.4853847323592
 30
0.0
  0
LINE
  5
BB
330
70
100
AcDbEntity
  8
0
 62
    18
420
        0
370
    25
100
AcDbLine
 10
91.91787546678254
 20
108.4853847323762
 30
0.0
 11
92.0323424617832
 21
108.4853847323762
 31
0.0
  0
SPLINE
  5
BC
330
70
100
AcDbEntity
  8
0
 62
    18
420
        0
370
    25
100
AcDbSpline
210
0.0
220
0.0
230
1.0
 70
     8
 71
     3
 72
     8
 73
     4
 74
     0
 42
0.0000000001
 43
0.0000000001
 40
0.0
 40
0.0
 40
0.0
 40
0.0
 40
1.0
 40
1.0
 40
1.0
 40
1.0
 10
91.91787498227602
 20
108.4853847502748
 30
0.0
 10
90.55536320024762
 20
109.4187180836097
 30
0.0
 10
88.75932494211838
 20
109.4187180836097
 30
0.0
 10
87.39681316008933
 20
108.4853847502748
 30
0.0
  0
LINE
  5
BD
330
70
100
AcDbEntity
  8
0
 62
    18
420
        0
370
    25
100
AcDbLine
 10
87.28234401158264
 20
108.4853847323762
 30
0.0
 11
87.39681286918278
 21
108.4853847323762
 31
0.0
  0
LINE
  5
BE
330
70
100
AcDbEntity
  8
0
 62
    18
420
        0
370
    25
100
AcDbLine
 10
87.03234350488278
 20
108.2035588378762
 30
0.0
 11
87.03234350488278
 21
108.2353846913763
 31
0.0
  0
SPLINE
  5
BF
330
70
100
AcDbEntity
  8
0
 62
    18
420
        0
370
    25
100
AcDbSpline
210
0.0
220
0.0
230
1.0
 70
     8
 71
     3
 72
     8
 73
     4
 74
     0
 42
0.0000000001
 43
0.0000000001
 40
0.0
 40
0.0
 40
0.0
 40
0.0
 40
1.0
 40
1.0
 40
1.0
 40
1.0
 10
87.28234401158006
 20
108.4853847324217
 30
0.0
 10
87.14427311341452
 20
108.485383797523
 30
0.0
 10
87.0323446970165
 20
108.3734555896076
 30
0.0
 10
87.03234350494119
 20
108.2353846914433
 30
0.0
  0
SPLINE
  5
C0
330
70
100
AcDbEntity
  8
0
 62
    18
420
        0
370
    25
100
AcDbSpline
210
0.0
220
0.0
230
1.0
 70
     8
 71
     3
 72
     8
 73
     4
 74
     0
 42
0.0000000001
 43
0.0000000001
 40
0.0
 40
0.0
 40
0.0
 40
0.0
 40
1.0
 40
1.0
 40
1.0
 40
1.0
 10
92.03234407118236
 20
107.685384750276
 30
0.0
 10
92.17041525864059
 20
107.685384750276
 30
0.0
 10
92.28234407118318
 20
107.7973135628183
 30
0.0
 10
92.28234407118318
 20
107.9353847502762
 30
0.0
  0
LINE
  5
C1
330
70
100
AcDbEntity
  8
0
 62
    18
420
        0
370
    25
100
AcDbLine
 10
92.2823429684824
 20
107.9353847353763
 30
0.0
 11
92.2823429684824
 21
108.2035588378762
 31
0.0
  0
SPLINE
  5
C2
330
70
100
AcDbEntity
  8
0
 62
    18
420
        0
370
    25
100
AcDbSpline
210
0.0
220
0.0
230
1.0
 70
     8
 71
     3
 72
     8
 73
     4
 74
     0
 42
0.0000000001
 43
0.0000000001
 40
0.0
 40
0.0
 40
0.0
 40
0.0
 40
1.0
 40
1.0
 40
1.0
 40
1.0
 10
92.28234407118318
 20
102.435384750276
 30
0.0
 10
92.28234407118318
 20
102.5734559377339
 30
0.0
 10
92.17041525864059
 20
102.6853847502762
 30
0.0
 10
92.03234407118236
 20
102.6853847502762
 30
0.0
  0
SPLINE
  5
C3
330
70
100
AcDbEntity
  8
0
 62
    18
420
        0
370
    25
100
AcDbSpline
210
0.0
220
0.0
230
1.0
 70
     8
 71
     3
 72
     8
 73
     4
 74
     0
 42
0.0000000001
 43
0.0000000001
 40
0.0
 40
0.0
 40
0.0
 40
0.0
 40
1.0
 40
1.0
 40
1.0
 40
1.0
 10
87.28234407118234
 20
102.6853847502762
 30
0.0
 10
87.14427288372478
 20
102.6853847502762
 30
0.0
 10
87.03234407118284
 20
102.5734559377339
 30
0.0
 10
87.03234407118284
 20
102.435384750276
 30
0.0
  0
LINE
  5
C4
330
70
100
AcDbEntity
  8
0
 62
    18
420
        0
370
    25
100
AcDbLine
 10
87.03234350488278
 20
102.4353847651763
 30
0.0
 11
87.03234350488278
 21
102.167210662676
 31
0.0
  0
LINE
  5
C5
330
70
100
AcDbEntity
  8
0
 62
    18
420
        0
370
    25
100
AcDbLine
 10
87.03234350488278
 20
107.9353847353763
 30
0.0
 11
87.03234350488278
 21
108.2035588378762
 31
0.0
  0
SPLINE
  5
C6
330
70
100
AcDbEntity
  8
0
 62
    18
420
        0
370
    25
100
AcDbSpline
210
0.0
220
0.0
230
1.0
 70
     8
 71
     3
 72
     8
 73
     4
 74
     0
 42
0.0000000001
 43
0.0000000001
 40
0.0
 40
0.0
 40
0.0
 40
0.0
 40
1.0
 40
1.0
 40
1.0
 40
1.0
 10
87.03234407118284
 20
107.9353847502762
 30
0.0
 10
87.03234407118284
 20
107.7973135628183
 30
0.0
 10
87.14427288372478
 20
107.685384750276
 30
0.0
 10
87.28234407118234
 20
107.685384750276
 30
0.0
  0
CIRCLE
  5
C7
330
70
100
AcDbEntity
  8
0
 62
    18
420
        0
370
    25
100
AcDbCircle
 10
89.65734407118301
 20
105.1853847502762
 30
0.0
 40
1.075000000000158
  0
LINE
  5
C8
330
70
100
AcDbEntity
  8
0
 62
    18
420
        0
370
    25
100
AcDbLine
 10
92.2823429684824
 20
102.4353847651763
 30
0.0
 11
92.2823429684824
 21
102.167210662676
 31
0.0
  0
LINE
  5
C9
330
70
100
AcDbEntity
  8
0
 62
    18
420
        0
370
    25
100
AcDbLine
 10
87.39681286918278
 20
108.4853847323762
 30
0.0
 11
91.91787546678254
 21
108.4853847323762
 31
0.0
  0
CIRCLE
  5
CA
330
70
100
AcDbEntity
  8
0
 62
    18
420
        0
370
    25
100
AcDbCircle
 10
89.65734407118285
 20
105.1853847502762
 30
0.0
 40
0.8249999999999088
  0
LINE
  5
CB
330
70
100
AcDbEntity
  8
0
 62
    18
420
        0
370
    25
100
AcDbLine
 10
91.91787546678254
 20
101.885384768176
 30
0.0
 11
87.39681286918278
 21
101.885384768176
 31
0.0
  0
SPLINE
  5
CC
330
70
100
AcDbEntity
  8
0
 62
    18
420
        0
370
    25
100
AcDbSpline
210
0.0
220
0.0
230
1.0
 70
     8
 71
     3
 72
    11
 73
     7
 74
     0
 42
0.0000000001
 43
0.0000000001
 40
0.0
 40
0.0
 40
0.0
 40
0.0
 40
1.0
 40
1.0
 40
1.0
 40
2.0
 40
2.0
 40
2.0
 40
2.0
 10
103.1781613541726
 20
107.6853847502786
 30
0.0
 10
101.7974494795942
 20
115.1527259409221
 30
0.0
 10
94.62468526182387
 20
120.0869139078439
 30
0.0
 10
87.15734407118002
 20
118.7062020332655
 30
0.0
 10
81.55538198153779
 20
117.6703988764744
 30
0.0
 10
77.17232994498456
 20
113.2873468399205
 30
0.0
 10
76.13652678819341
 20
107.6853847502786
 30
0.0
  0
SPLINE
  5
CD
330
70
100
AcDbEntity
  8
0
 62
    18
420
        0
370
    25
100
AcDbSpline
210
0.0
220
0.0
230
1.0
 70
     8
 71
     3
 72
     8
 73
     4
 74
     0
 42
0.0000000001
 43
0.0000000001
 40
0.0
 40
0.0
 40
0.0
 40
0.0
 40
1.0
 40
1.0
 40
1.0
 40
1.0
 10
102.0291871028463
 20
99.18538475028602
 30
0.0
 10
102.5674333082079
 20
100.295234344475
 30
0.0
 10
102.9538921019378
 20
101.4724633176119
 30
0.0
 10
103.1781613541726
 20
102.6853847502736
 30
0.0
  0
SPLINE
  5
CE
330
70
100
AcDbEntity
  8
0
 62
    18
420
        0
370
    25
100
AcDbSpline
210
0.0
220
0.0
230
1.0
 70
     8
 71
     3
 72
     8
 73
     4
 74
     0
 42
0.0000000001
 43
0.0000000001
 40
0.0
 40
0.0
 40
0.0
 40
0.0
 40
1.0
 40
1.0
 40
1.0
 40
1.0
 10
97.90734407117447
 20
94.18538475026981
 30
0.0
 10
99.19530711772653
 20
95.15135703518208
 30
0.0
 10
100.3036180201439
 20
96.3360174131054
 30
0.0
 10
101.1817746427928
 20
97.68538475026703
 30
0.0
  0
SPLINE
  5
CF
330
70
100
AcDbEntity
  8
0
 62
    18
420
        0
370
    25
100
AcDbSpline
210
0.0
220
0.0
230
1.0
 70
     8
 71
     3
 72
     8
 73
     4
 74
     0
 42
0.0000000001
 43
0.0000000001
 40
0.0
 40
0.0
 40
0.0
 40
0.0
 40
1.0
 40
1.0
 40
1.0
 40
1.0
 10
83.9291244524783
 20
92.68538475028034
 30
0.0
 10
87.56608928975074
 20
91.01871808360815
 30
0.0
 10
91.74859885261525
 20
91.01871808360815
 30
0.0
 10
95.38556368988706
 20
92.68538475028034
 30
0.0
  0
SPLINE
  5
D0
330
70
100
AcDbEntity
  8
0
 62
    18
420
        0
370
    25
100
AcDbSpline
210
0.0
220
0.0
230
1.0
 70
     8
 71
     3
 72
     8
 73
     4
 74
     0
 42
0.0000000001
 43
0.0000000001
 40
0.0
 40
0.0
 40
0.0
 40
0.0
 40
1.0
 40
1.0
 40
1.0
 40
1.0
 10
78.13291349957317
 20
97.68538475026703
 30
0.0
 10
79.01107012222209
 20
96.3360174131054
 30
0.0
 10
80.11938102463949
 20
95.15135703518208
 30
0.0
 10
81.40734407119088
 20
94.18538475026981
 30
0.0
  0
SPLINE
  5
D1
330
70
100
AcDbEntity
  8
0
 62
    18
420
        0
370
    25
100
AcDbSpline
210
0.0
220
0.0
230
1.0
 70
     8
 71
     3
 72
     8
 73
     4
 74
     0
 42
0.0000000001
 43
0.0000000001
 40
0.0
 40
0.0
 40
0.0
 40
0.0
 40
1.0
 40
1.0
 40
1.0
 40
1.0
 10
76.13652678819341
 20
102.6853847502736
 30
0.0
 10
76.36079604042821
 20
101.4724633176119
 30
0.0
 10
76.74725483415746
 20
100.295234344475
 30
0.0
 10
77.2855010395197
 20
99.18538475028602
 30
0.0
  0
LINE
  5
D2
330
70
100
AcDbEntity
  8
0
 62
    18
420
        0
370
    25
100
AcDbLine
 10
29.03234517388283
 20
102.1353848090762
 30
0.0
 11
29.03234517388283
 21
102.167210662676
 31
0.0
  0
SPLINE
  5
D3
330
70
100
AcDbEntity
  8
0
 62
    18
420
        0
370
    25
100
AcDbSpline
210
0.0
220
0.0
230
1.0
 70
     8
 71
     3
 72
     8
 73
     4
 74
     0
 42
0.0000000001
 43
0.0000000001
 40
0.0
 40
0.0
 40
0.0
 40
0.0
 40
1.0
 40
1.0
 40
1.0
 40
1.0
 10
29.03234517380037
 20
102.1353848090713
 30
0.0
 10
29.0323454408322
 20
101.9973135277383
 30
0.0
 10
29.14427439910657
 20
101.8853847779475
 30
0.0
 10
29.2823456804399
 20
101.8853847680932
 30
0.0
  0
LINE
  5
D4
330
70
100
AcDbEntity
  8
0
 62
    18
420
        0
370
    25
100
AcDbLine
 10
29.39681267548291
 20
101.885384768176
 30
0.0
 11
29.28234568048289
 21
101.885384768176
 31
0.0
  0
SPLINE
  5
D5
330
70
100
AcDbEntity
  8
0
 62
    18
420
        0
370
    25
100
AcDbSpline
210
0.0
220
0.0
230
1.0
 70
     8
 71
     3
 72
     8
 73
     4
 74
     0
 42
0.0000000001
 43
0.0000000001
 40
0.0
 40
0.0
 40
0.0
 40
0.0
 40
1.0
 40
1.0
 40
1.0
 40
1.0
 10
29.39681316008953
 20
101.8853847502774
 30
0.0
 10
30.75932494211826
 20
100.9520514169425
 30
0.0
 10
32.55536320024751
 20
100.9520514169425
 30
0.0
 10
33.91787498227591
 20
101.8853847502774
 30
0.0
  0
LINE
  5
D6
330
70
100
AcDbEntity
  8
0
 62
    18
420
        0
370
    25
100
AcDbLine
 10
34.03234413078293
 20
101.885384768176
 30
0.0
 11
33.91787527308268
 21
101.885384768176
 31
0.0
  0
SPLINE
  5
D7
330
70
100
AcDbEntity
  8
0
 62
    18
420
        0
370
    25
100
AcDbSpline
210
0.0
220
0.0
230
1.0
 70
     8
 71
     3
 72
     8
 73
     4
 74
     0
 42
0.0000000001
 43
0.0000000001
 40
0.0
 40
0.0
 40
0.0
 40
0.0
 40
1.0
 40
1.0
 40
1.0
 40
1.0
 10
34.03234413078518
 20
101.8853847681308
 30
0.0
 10
34.17041502895103
 20
101.8853857030292
 30
0.0
 10
34.28234344534907
 20
101.9973139109449
 30
0.0
 10
34.2823446374247
 20
102.1353848091089
 30
0.0
  0
LINE
  5
D8
330
70
100
AcDbEntity
  8
0
 62
    18
420
        0
370
    25
100
AcDbLine
 10
34.28234463738267
 20
102.167210662676
 30
0.0
 11
34.28234463738267
 21
102.1353848090762
 31
0.0
  0
LINE
  5
D9
330
70
100
AcDbEntity
  8
0
 62
    18
420
        0
370
    25
100
AcDbLine
 10
34.28234463738267
 20
108.2353846913763
 30
0.0
 11
34.28234463738267
 21
108.2035588378762
 31
0.0
  0
SPLINE
  5
DA
330
70
100
AcDbEntity
  8
0
 62
    18
420
        0
370
    25
100
AcDbSpline
210
0.0
220
0.0
230
1.0
 70
     8
 71
     3
 72
     8
 73
     4
 74
     0
 42
0.0000000001
 43
0.0000000001
 40
0.0
 40
0.0
 40
0.0
 40
0.0
 40
1.0
 40
1.0
 40
1.0
 40
1.0
 10
34.28234463736984
 20
108.2353846913868
 30
0.0
 10
34.2823439570633
 20
108.3734558015348
 30
0.0
 10
34.17041524087951
 20
108.4853843092357
 30
0.0
 10
34.03234413073031
 20
108.4853847323649
 30
0.0
  0
LINE
  5
DB
330
70
100
AcDbEntity
  8
0
 62
    18
420
        0
370
    25
100
AcDbLine
 10
33.91787527308268
 20
108.4853847323762
 30
0.0
 11
34.03234413078293
 21
108.4853847323762
 31
0.0
  0
SPLINE
  5
DC
330
70
100
AcDbEntity
  8
0
 62
    18
420
        0
370
    25
100
AcDbSpline
210
0.0
220
0.0
230
1.0
 70
     8
 71
     3
 72
     8
 73
     4
 74
     0
 42
0.0000000001
 43
0.0000000001
 40
0.0
 40
0.0
 40
0.0
 40
0.0
 40
1.0
 40
1.0
 40
1.0
 40
1.0
 10
33.91787498227591
 20
108.4853847502748
 30
0.0
 10
32.55536320024751
 20
109.4187180836097
 30
0.0
 10
30.75932494211826
 20
109.4187180836097
 30
0.0
 10
29.39681316008953
 20
108.4853847502748
 30
0.0
  0
LINE
  5
DD
330
70
100
AcDbEntity
  8
0
 62
    18
420
        0
370
    25
100
AcDbLine
 10
29.28234568048289
 20
108.4853847323762
 30
0.0
 11
29.39681267548291
 21
108.4853847323762
 31
0.0
  0
SPLINE
  5
DE
330
70
100
AcDbEntity
  8
0
 62
    18
420
        0
370
    25
100
AcDbSpline
210
0.0
220
0.0
230
1.0
 70
     8
 71
     3
 72
    11
 73
     7
 74
     0
 42
0.0000000001
 43
0.0000000001
 40
0.0
 40
0.0
 40
0.0
 40
0.0
 40
1.0
 40
1.0
 40
1.0
 40
2.0
 40
2.0
 40
2.0
 40
2.0
 10
29.28234568051883
 20
108.4853847323727
 30
0.0
 10
29.14427650139123
 20
108.4853870205081
 30
0.0
 10
29.03234746202182
 20
108.3734616909395
 30
0.0
 10
29.03234517388636
 20
108.2353925118122
 30
0.0
 10
29.03234517384337
 20
108.2353899050054
 30
0.0
 10
29.0323451738408
 20
108.2353872982006
 30
0.0
 10
29.0323451738793
 20
108.2353846913942
 30
0.0
  0
LINE
  5
DF
330
70
100
AcDbEntity
  8
0
 62
    18
420
        0
370
    25
100
AcDbLine
 10
29.03234517388283
 20
108.2035588378762
 30
0.0
 11
29.03234517388283
 21
108.2353846913763
 31
0.0
  0
SPLINE
  5
E0
330
70
100
AcDbEntity
  8
0
 62
    18
420
        0
370
    25
100
AcDbSpline
210
0.0
220
0.0
230
1.0
 70
     8
 71
     3
 72
     8
 73
     4
 74
     0
 42
0.0000000001
 43
0.0000000001
 40
0.0
 40
0.0
 40
0.0
 40
0.0
 40
1.0
 40
1.0
 40
1.0
 40
1.0
 10
34.03234407118289
 20
107.685384750276
 30
0.0
 10
34.17041525864046
 20
107.685384750276
 30
0.0
 10
34.28234407118273
 20
107.7973135628183
 30
0.0
 10
34.28234407118273
 20
107.9353847502762
 30
0.0
  0
LINE
  5
E1
330
70
100
AcDbEntity
  8
0
 62
    18
420
        0
370
    25
100
AcDbLine
 10
34.28234463738267
 20
107.9353847353763
 30
0.0
 11
34.28234463738267
 21
108.2035588378762
 31
0.0
  0
SPLINE
  5
E2
330
70
100
AcDbEntity
  8
0
 62
    18
420
        0
370
    25
100
AcDbSpline
210
0.0
220
0.0
230
1.0
 70
     8
 71
     3
 72
     8
 73
     4
 74
     0
 42
0.0000000001
 43
0.0000000001
 40
0.0
 40
0.0
 40
0.0
 40
0.0
 40
1.0
 40
1.0
 40
1.0
 40
1.0
 10
34.28234407118273
 20
102.435384750276
 30
0.0
 10
34.28234407118273
 20
102.5734559377339
 30
0.0
 10
34.17041525864046
 20
102.6853847502762
 30
0.0
 10
34.03234407118289
 20
102.6853847502762
 30
0.0
  0
SPLINE
  5
E3
330
70
100
AcDbEntity
  8
0
 62
    18
420
        0
370
    25
100
AcDbSpline
210
0.0
220
0.0
230
1.0
 70
     8
 71
     3
 72
     8
 73
     4
 74
     0
 42
0.0000000001
 43
0.0000000001
 40
0.0
 40
0.0
 40
0.0
 40
0.0
 40
1.0
 40
1.0
 40
1.0
 40
1.0
 10
29.28234407118288
 20
102.6853847502762
 30
0.0
 10
29.14427288372498
 20
102.6853847502762
 30
0.0
 10
29.03234407118271
 20
102.5734559377339
 30
0.0
 10
29.03234407118271
 20
102.435384750276
 30
0.0
  0
LINE
  5
E4
330
70
100
AcDbEntity
  8
0
 62
    18
420
        0
370
    25
100
AcDbLine
 10
29.03234517388283
 20
102.4353847651763
 30
0.0
 11
29.03234517388283
 21
102.167210662676
 31
0.0
  0
LINE
  5
E5
330
70
100
AcDbEntity
  8
0
 62
    18
420
        0
370
    25
100
AcDbLine
 10
29.03234517388283
 20
107.9353847353763
 30
0.0
 11
29.03234517388283
 21
108.2035588378762
 31
0.0
  0
SPLINE
  5
E6
330
70
100
AcDbEntity
  8
0
 62
    18
420
        0
370
    25
100
AcDbSpline
210
0.0
220
0.0
230
1.0
 70
     8
 71
     3
 72
     8
 73
     4
 74
     0
 42
0.0000000001
 43
0.0000000001
 40
0.0
 40
0.0
 40
0.0
 40
0.0
 40
1.0
 40
1.0
 40
1.0
 40
1.0
 10
29.03234407118271
 20
107.9353847502762
 30
0.0
 10
29.03234407118271
 20
107.7973135628183
 30
0.0
 10
29.14427288372498
 20
107.685384750276
 30
0.0
 10
29.28234407118288
 20
107.685384750276
 30
0.0
  0
CIRCLE
  5
E7
330
70
100
AcDbEntity
  8
0
 62
    18
420
        0
370
    25
100
AcDbCircle
 10
31.65734407118288
 20
105.1853847502762
 30
0.0
 40
1.074999999999997
  0
LINE
  5
E8
330
70
100
AcDbEntity
  8
0
 62
    18
420
        0
370
    25
100
AcDbLine
 10
34.28234463738267
 20
102.4353847651763
 30
0.0
 11
34.28234463738267
 21
102.167210662676
 31
0.0
  0
LINE
  5
E9
330
70
100
AcDbEntity
  8
0
 62
    18
420
        0
370
    25
100
AcDbLine
 10
33.91787527308268
 20
101.885384768176
 30
0.0
 11
29.39681267548291
 21
101.885384768176
 31
0.0
  0
CIRCLE
  5
EA
330
70
100
AcDbEntity
  8
0
 62
    18
420
        0
370
    25
100
AcDbCircle
 10
31.6573440711828
 20
105.1853847502762
 30
0.0
 40
0.8249999999999488
  0
LINE
  5
EB
330
70
100
AcDbEntity
  8
0
 62
    18
420
        0
370
    25
100
AcDbLine
 10
29.39681267548291
 20
108.4853847323762
 30
0.0
 11
33.91787527308268
 21
108.4853847323762
 31
0.0
  0
SPLINE
  5
EC
330
70
100
AcDbEntity
  8
0
 62
    18
420
        0
370
    25
100
AcDbSpline
210
0.0
220
0.0
230
1.0
 70
     8
 71
     3
 72
    11
 73
     7
 74
     0
 42
0.0000000001
 43
0.0000000001
 40
0.0
 40
0.0
 40
0.0
 40
0.0
 40
1.0
 40
1.0
 40
1.0
 40
2.0
 40
2.0
 40
2.0
 40
2.0
 10
45.17816135417247
 20
107.6853847502786
 30
0.0
 10
43.79744947959411
 20
115.1527259409221
 30
0.0
 10
36.62468526182407
 20
120.0869139078439
 30
0.0
 10
29.15734407118055
 20
118.7062020332655
 30
0.0
 10
23.55538198153831
 20
117.6703988764744
 30
0.0
 10
19.17232994498443
 20
113.2873468399205
 30
0.0
 10
18.13652678819329
 20
107.6853847502786
 30
0.0
  0
SPLINE
  5
ED
330
70
100
AcDbEntity
  8
0
 62
    18
420
        0
370
    25
100
AcDbSpline
210
0.0
220
0.0
230
1.0
 70
     8
 71
     3
 72
     8
 73
     4
 74
     0
 42
0.0000000001
 43
0.0000000001
 40
0.0
 40
0.0
 40
0.0
 40
0.0
 40
1.0
 40
1.0
 40
1.0
 40
1.0
 10
44.02918710284618
 20
99.18538475028569
 30
0.0
 10
44.56743330820779
 20
100.295234344475
 30
0.0
 10
44.95389210193766
 20
101.4724633176119
 30
0.0
 10
45.17816135417247
 20
102.6853847502736
 30
0.0
  0
SPLINE
  5
EE
330
70
100
AcDbEntity
  8
0
 62
    18
420
        0
370
    25
100
AcDbSpline
210
0.0
220
0.0
230
1.0
 70
     8
 71
     3
 72
     8
 73
     4
 74
     0
 42
0.0000000001
 43
0.0000000001
 40
0.0
 40
0.0
 40
0.0
 40
0.0
 40
1.0
 40
1.0
 40
1.0
 40
1.0
 10
39.90734407117435
 20
94.18538475026981
 30
0.0
 10
41.19530711772608
 20
95.15135703518208
 30
0.0
 10
42.30361802014346
 20
96.3360174131054
 30
0.0
 10
43.18177464279303
 20
97.68538475026703
 30
0.0
  0
SPLINE
  5
EF
330
70
100
AcDbEntity
  8
0
 62
    18
420
        0
370
    25
100
AcDbSpline
210
0.0
220
0.0
230
1.0
 70
     8
 71
     3
 72
     8
 73
     4
 74
     0
 42
0.0000000001
 43
0.0000000001
 40
0.0
 40
0.0
 40
0.0
 40
0.0
 40
1.0
 40
1.0
 40
1.0
 40
1.0
 10
25.92912445247851
 20
92.68538475028034
 30
0.0
 10
29.56608928975062
 20
91.01871808360815
 30
0.0
 10
33.74859885261514
 20
91.01871808360815
 30
0.0
 10
37.38556368988694
 20
92.68538475028034
 30
0.0
  0
SPLINE
  5
F0
330
70
100
AcDbEntity
  8
0
 62
    18
420
        0
370
    25
100
AcDbSpline
210
0.0
220
0.0
230
1.0
 70
     8
 71
     3
 72
     8
 73
     4
 74
     0
 42
0.0000000001
 43
0.0000000001
 40
0.0
 40
0.0
 40
0.0
 40
0.0
 40
1.0
 40
1.0
 40
1.0
 40
1.0
 10
20.13291349957273
 20
97.68538475026703
 30
0.0
 10
21.01107012222229
 20
96.3360174131054
 30
0.0
 10
22.11938102463968
 20
95.15135703518208
 30
0.0
 10
23.40734407119109
 20
94.18538475026981
 30
0.0
  0
SPLINE
  5
F1
330
70
100
AcDbEntity
  8
0
 62
    18
420
        0
370
    25
100
AcDbSpline
210
0.0
220
0.0
230
1.0
 70
     8
 71
     3
 72
     8
 73
     4
 74
     0
 42
0.0000000001
 43
0.0000000001
 40
0.0
 40
0.0
 40
0.0
 40
0.0
 40
1.0
 40
1.0
 40
1.0
 40
1.0
 10
18.13652678819329
 20
102.6853847502736
 30
0.0
 10
18.36079604042777
 20
101.4724633176119
 30
0.0
 10
18.74725483415765
 20
100.295234344475
 30
0.0
 10
19.28550103951958
 20
99.18538475028602
 30
0.0
  0
LINE
  5
F2
330
70
100
AcDbEntity
  8
0
 62
     8
420
  8421504
370
    25
100
AcDbLine
 10
109.2823438923827
 20
100.6853849439762
 30
0.0
 11
110.0323454122826
 21
100.6853849439762
 31
0.0
  0
LINE
  5
F3
330
70
100
AcDbEntity
  8
0
 62
     8
420
  8421504
370
    25
100
AcDbLine
 10
108.5323423723826
 20
100.6853849439762
 30
0.0
 11
109.2823438923827
 21
100.6853849439762
 31
0.0
  0
LINE
  5
F4
330
70
100
AcDbEntity
  8
0
 62
     8
420
  8421504
370
    25
100
AcDbLine
 10
107.032343057883
 20
98.4353845751761
 30
0.0
 11
107.032343057883
 21
97.68538491787627
 31
0.0
  0
LINE
  5
F5
330
70
100
AcDbEntity
  8
0
 62
     8
420
  8421504
370
    25
100
AcDbLine
 10
107.032343057883
 20
99.18538469807611
 30
0.0
 11
107.032343057883
 21
98.4353845751761
 31
0.0
  0
LINE
  5
F6
330
70
100
AcDbEntity
  8
0
 62
     8
420
  8421504
370
    25
100
AcDbLine
 10
14.28234508448288
 20
98.4353845751761
 30
0.0
 11
14.28234508448288
 21
97.68538491787627
 31
0.0
  0
LINE
  5
F7
330
70
100
AcDbEntity
  8
0
 62
     8
420
  8421504
370
    25
100
AcDbLine
 10
14.28234508448288
 20
99.18538469807611
 30
0.0
 11
14.28234508448288
 21
98.4353845751761
 31
0.0
  0
LINE
  5
F8
330
70
100
AcDbEntity
  8
0
 62
     8
420
  8421504
370
    25
100
AcDbLine
 10
12.03234424998288
 20
100.6853849439762
 30
0.0
 11
11.2823427300829
 21
100.6853849439762
 31
0.0
  0
LINE
  5
F9
330
70
100
AcDbEntity
  8
0
 62
     8
420
  8421504
370
    25
100
AcDbLine
 10
12.78234576988286
 20
100.6853849439762
 30
0.0
 11
12.03234424998288
 21
100.6853849439762
 31
0.0
  0
LINE
  5
FA
330
70
100
AcDbEntity
  8
0
 62
     8
420
  8421504
370
    25
100
AcDbLine
 10
109.2823438923827
 20
95.68538505577603
 30
0.0
 11
110.0323454122826
 21
95.68538505577603
 31
0.0
  0
LINE
  5
FB
330
70
100
AcDbEntity
  8
0
 62
     8
420
  8421504
370
    25
100
AcDbLine
 10
108.5323423723826
 20
95.68538505577603
 30
0.0
 11
109.2823438923827
 21
95.68538505577603
 31
0.0
  0
LINE
  5
FC
330
70
100
AcDbEntity
  8
0
 62
     8
420
  8421504
370
    25
100
AcDbLine
 10
107.032343057883
 20
93.43538515257609
 30
0.0
 11
107.032343057883
 21
92.68538456397617
 31
0.0
  0
LINE
  5
FD
330
70
100
AcDbEntity
  8
0
 62
     8
420
  8421504
370
    25
100
AcDbLine
 10
107.032343057883
 20
94.18538480987626
 30
0.0
 11
107.032343057883
 21
93.43538515257609
 31
0.0
  0
LINE
  5
FE
330
70
100
AcDbEntity
  8
0
 62
     8
420
  8421504
370
    25
100
AcDbLine
 10
14.28234508448288
 20
93.43538515257609
 30
0.0
 11
14.28234508448288
 21
92.68538456397617
 31
0.0
  0
LINE
  5
FF
330
70
100
AcDbEntity
  8
0
 62
     8
420
  8421504
370
    25
100
AcDbLine
 10
14.28234508448288
 20
94.18538480987626
 30
0.0
 11
14.28234508448288
 21
93.43538515257609
 31
0.0
  0
LINE
  5
100
330
70
100
AcDbEntity
  8
0
 62
     8
420
  8421504
370
    25
100
AcDbLine
 10
12.03234424998288
 20
95.68538505577603
 30
0.0
 11
11.2823427300829
 21
95.68538505577603
 31
0.0
  0
LINE
  5
101
330
70
100
AcDbEntity
  8
0
 62
     8
420
  8421504
370
    25
100
AcDbLine
 10
12.78234576988286
 20
95.68538505577603
 30
0.0
 11
12.03234424998288
 21
95.68538505577603
 31
0.0
  0
LINE
  5
102
330
70
100
AcDbEntity
  8
0
 62
     8
420
  8421504
370
    25
100
AcDbLine
 10
92.2823429684824
 20
102.167210662676
 30
0.0
 11
92.77984431198332
 21
102.6853848061762
 31
0.0
  0
LINE
  5
103
330
70
100
AcDbEntity
  8
0
 62
     8
420
  8421504
370
    25
100
AcDbLine
 10
92.77984431198332
 20
107.685384694376
 30
0.0
 11
92.2823429684824
 21
108.2035588378762
 31
0.0
  0
LINE
  5
104
330
70
100
AcDbEntity
  8
0
 62
     8
420
  8421504
370
    25
100
AcDbLine
 10
87.03234350488278
 20
108.2035588378762
 30
0.0
 11
86.53484588668288
 21
107.685384694376
 31
0.0
  0
LINE
  5
105
330
70
100
AcDbEntity
  8
0
 62
     8
420
  8421504
370
    25
100
AcDbLine
 10
86.53484588668288
 20
102.6853848061762
 30
0.0
 11
87.03234350488278
 21
102.167210662676
 31
0.0
  0
SPLINE
  5
106
330
70
100
AcDbEntity
  8
0
 62
     8
420
  8421504
370
    25
100
AcDbSpline
210
0.0
220
0.0
230
1.0
 70
     8
 71
     3
 72
     8
 73
     4
 74
     0
 42
0.0000000001
 43
0.0000000001
 40
0.0
 40
0.0
 40
0.0
 40
0.0
 40
1.0
 40
1.0
 40
1.0
 40
1.0
 10
76.61829263397965
 20
102.6853847502653
 30
0.0
 10
76.85157969867443
 20
101.4686479357956
 30
0.0
 10
77.25402392466159
 20
100.2905524696746
 30
0.0
 10
77.81391287992676
 20
99.18538475027126
 30
0.0
  0
SPLINE
  5
107
330
70
100
AcDbEntity
  8
0
 62
     8
420
  8421504
370
    25
100
AcDbSpline
210
0.0
220
0.0
230
1.0
 70
     8
 71
     3
 72
     8
 73
     4
 74
     0
 42
0.0000000001
 43
0.0000000001
 40
0.0
 40
0.0
 40
0.0
 40
0.0
 40
1.0
 40
1.0
 40
1.0
 40
1.0
 10
78.70212328920203
 20
97.68538475026737
 30
0.0
 10
79.64529355378303
 20
96.30769961913774
 30
0.0
 10
80.83985910943844
 20
95.12027631568775
 30
0.0
 10
82.22317549748963
 20
94.18538475027654
 30
0.0
  0
SPLINE
  5
108
330
70
100
AcDbEntity
  8
0
 62
     8
420
  8421504
370
    25
100
AcDbSpline
210
0.0
220
0.0
230
1.0
 70
     8
 71
     3
 72
     8
 73
     4
 74
     0
 42
0.0000000001
 43
0.0000000001
 40
0.0
 40
0.0
 40
0.0
 40
0.0
 40
1.0
 40
1.0
 40
1.0
 40
1.0
 10
85.18332324176244
 20
92.6853847502768
 30
0.0
 10
88.07614655744842
 20
91.6499806086596
 30
0.0
 10
91.23854158491694
 20
91.6499806086596
 30
0.0
 10
94.13136490060358
 20
92.6853847502768
 30
0.0
  0
SPLINE
  5
109
330
70
100
AcDbEntity
  8
0
 62
     8
420
  8421504
370
    25
100
AcDbSpline
210
0.0
220
0.0
230
1.0
 70
     8
 71
     3
 72
     8
 73
     4
 74
     0
 42
0.0000000001
 43
0.0000000001
 40
0.0
 40
0.0
 40
0.0
 40
0.0
 40
1.0
 40
1.0
 40
1.0
 40
1.0
 10
97.09151264487637
 20
94.18538475027654
 30
0.0
 10
98.47482903292693
 20
95.12027631568775
 30
0.0
 10
99.66939458858298
 20
96.30769961913774
 30
0.0
 10
100.6125648531639
 20
97.68538475026737
 30
0.0
  0
SPLINE
  5
10A
330
70
100
AcDbEntity
  8
0
 62
     8
420
  8421504
370
    25
100
AcDbSpline
210
0.0
220
0.0
230
1.0
 70
     8
 71
     3
 72
     8
 73
     4
 74
     0
 42
0.0000000001
 43
0.0000000001
 40
0.0
 40
0.0
 40
0.0
 40
0.0
 40
1.0
 40
1.0
 40
1.0
 40
1.0
 10
101.5007752624386
 20
99.18538475027126
 30
0.0
 10
102.0606642177037
 20
100.2905524696746
 30
0.0
 10
102.4631084436915
 20
101.4686479357956
 30
0.0
 10
102.6963955083857
 20
102.6853847502653
 30
0.0
  0
SPLINE
  5
10B
330
70
100
AcDbEntity
  8
0
 62
     8
420
  8421504
370
    25
100
AcDbSpline
210
0.0
220
0.0
230
1.0
 70
     8
 71
     3
 72
    11
 73
     7
 74
     0
 42
0.0000000001
 43
0.0000000001
 40
0.0
 40
0.0
 40
0.0
 40
0.0
 40
1.0
 40
1.0
 40
1.0
 40
2.0
 40
2.0
 40
2.0
 40
2.0
 10
102.6963955083857
 20
107.6853847502869
 30
0.0
 10
101.3156836338028
 20
114.8866540113136
 30
0.0
 10
94.35861333219806
 20
119.6051480620621
 30
0.0
 10
87.15734407117233
 20
118.224436187479
 30
0.0
 10
81.8178131568227
 20
117.2006786426746
 30
0.0
 10
77.64205017878428
 20
113.0249156646362
 30
0.0
 10
76.61829263397965
 20
107.6853847502869
 30
0.0
  0
LINE
  5
10C
330
70
100
AcDbEntity
  8
0
 62
     8
420
  8421504
370
    25
100
AcDbLine
 10
34.28234463738267
 20
102.167210662676
 30
0.0
 11
34.7798422555829
 21
102.6853848061762
 31
0.0
  0
LINE
  5
10D
330
70
100
AcDbEntity
  8
0
 62
     8
420
  8421504
370
    25
100
AcDbLine
 10
34.7798422555829
 20
107.685384694376
 30
0.0
 11
34.28234463738267
 21
108.2035588378762
 31
0.0
  0
LINE
  5
10E
330
70
100
AcDbEntity
  8
0
 62
     8
420
  8421504
370
    25
100
AcDbLine
 10
29.03234517388283
 20
108.2035588378762
 30
0.0
 11
28.53484383038289
 21
107.685384694376
 31
0.0
  0
LINE
  5
10F
330
70
100
AcDbEntity
  8
0
 62
     8
420
  8421504
370
    25
100
AcDbLine
 10
28.53484383038289
 20
102.6853848061762
 30
0.0
 11
29.03234517388283
 21
102.167210662676
 31
0.0
  0
SPLINE
  5
110
330
70
100
AcDbEntity
  8
0
 62
     8
420
  8421504
370
    25
100
AcDbSpline
210
0.0
220
0.0
230
1.0
 70
     8
 71
     3
 72
     8
 73
     4
 74
     0
 42
0.0000000001
 43
0.0000000001
 40
0.0
 40
0.0
 40
0.0
 40
0.0
 40
1.0
 40
1.0
 40
1.0
 40
1.0
 10
18.61829263397984
 20
102.6853847502653
 30
0.0
 10
18.85157969867462
 20
101.4686479357956
 30
0.0
 10
19.25402392466147
 20
100.2905524696746
 30
0.0
 10
19.81391287992663
 20
99.18538475027126
 30
0.0
  0
SPLINE
  5
111
330
70
100
AcDbEntity
  8
0
 62
     8
420
  8421504
370
    25
100
AcDbSpline
210
0.0
220
0.0
230
1.0
 70
     8
 71
     3
 72
     8
 73
     4
 74
     0
 42
0.0000000001
 43
0.0000000001
 40
0.0
 40
0.0
 40
0.0
 40
0.0
 40
1.0
 40
1.0
 40
1.0
 40
1.0
 10
20.70212328920192
 20
97.68538475026737
 30
0.0
 10
21.64529355378291
 20
96.30769961913774
 30
0.0
 10
22.83985910943865
 20
95.12027631568775
 30
0.0
 10
24.2231754974895
 20
94.18538475027654
 30
0.0
  0
SPLINE
  5
112
330
70
100
AcDbEntity
  8
0
 62
     8
420
  8421504
370
    25
100
AcDbSpline
210
0.0
220
0.0
230
1.0
 70
     8
 71
     3
 72
     8
 73
     4
 74
     0
 42
0.0000000001
 43
0.0000000001
 40
0.0
 40
0.0
 40
0.0
 40
0.0
 40
1.0
 40
1.0
 40
1.0
 40
1.0
 10
27.18332324176199
 20
92.68538475027648
 30
0.0
 10
30.07614655744831
 20
91.64998060865926
 30
0.0
 10
33.23854158491714
 20
91.64998060865926
 30
0.0
 10
36.13136490060377
 20
92.68538475027648
 30
0.0
  0
SPLINE
  5
113
330
70
100
AcDbEntity
  8
0
 62
     8
420
  8421504
370
    25
100
AcDbSpline
210
0.0
220
0.0
230
1.0
 70
     8
 71
     3
 72
     8
 73
     4
 74
     0
 42
0.0000000001
 43
0.0000000001
 40
0.0
 40
0.0
 40
0.0
 40
0.0
 40
1.0
 40
1.0
 40
1.0
 40
1.0
 10
39.09151264487626
 20
94.18538475027654
 30
0.0
 10
40.47482903292679
 20
95.12027631568775
 30
0.0
 10
41.66939458858253
 20
96.30769961913774
 30
0.0
 10
42.61256485316384
 20
97.68538475026737
 30
0.0
  0
SPLINE
  5
114
330
70
100
AcDbEntity
  8
0
 62
     8
420
  8421504
370
    25
100
AcDbSpline
210
0.0
220
0.0
230
1.0
 70
     8
 71
     3
 72
     8
 73
     4
 74
     0
 42
0.0000000001
 43
0.0000000001
 40
0.0
 40
0.0
 40
0.0
 40
0.0
 40
1.0
 40
1.0
 40
1.0
 40
1.0
 10
43.50077526243881
 20
99.18538475027126
 30
0.0
 10
44.06066421770396
 20
100.2905524696746
 30
0.0
 10
44.46310844369113
 20
101.4686479357956
 30
0.0
 10
44.69639550838591
 20
102.6853847502653
 30
0.0
  0
SPLINE
  5
115
330
70
100
AcDbEntity
  8
0
 62
     8
420
  8421504
370
    25
100
AcDbSpline
210
0.0
220
0.0
230
1.0
 70
     8
 71
     3
 72
    11
 73
     7
 74
     0
 42
0.0000000001
 43
0.0000000001
 40
0.0
 40
0.0
 40
0.0
 40
0.0
 40
1.0
 40
1.0
 40
1.0
 40
2.0
 40
2.0
 40
2.0
 40
2.0
 10
44.69639550838591
 20
107.6853847502869
 30
0.0
 10
43.31568363380275
 20
114.8866540113136
 30
0.0
 10
36.35861333219827
 20
119.6051480620621
 30
0.0
 10
29.15734407117188
 20
118.224436187479
 30
0.0
 10
23.8178131568229
 20
117.2006786426746
 30
0.0
 10
19.64205017878448
 20
113.0249156646362
 30
0.0
 10
18.61829263397984
 20
107.6853847502869
 30
0.0
  0
LINE
  5
116
330
70
100
AcDbEntity
  8
0
 62
    18
420
        0
370
    25
100
AcDbLine
 10
107.9073429684824
 20
3.383764966175911
 30
0.0
 11
107.032343057883
 21
3.383764966175911
 31
0.0
  0
LINE
  5
117
330
70
100
AcDbEntity
  8
0
 62
    18
420
        0
370
    25
100
AcDbLine
 10
107.032343057883
 20
1.883765651676311
 30
0.0
 11
107.9073429684824
 21
1.883765651676311
 31
0.0
  0
LINE
  5
118
330
70
100
AcDbEntity
  8
0
 62
    18
420
        0
370
    25
100
AcDbLine
 10
14.28234508448288
 20
3.383764966175911
 30
0.0
 11
13.40734517388284
 21
3.383764966175911
 31
0.0
  0
LINE
  5
119
330
70
100
AcDbEntity
  8
0
 62
    18
420
        0
370
    25
100
AcDbLine
 10
13.40734517388284
 20
1.883765651676311
 30
0.0
 11
14.28234508448288
 21
1.883765651676311
 31
0.0
  0
LINE
  5
11A
330
70
100
AcDbEntity
  8
0
 62
    18
420
        0
370
    25
100
AcDbLine
 10
107.032343057883
 20
3.383764966175911
 30
0.0
 11
14.28234508448288
 21
3.383764966175911
 31
0.0
  0
LINE
  5
11B
330
70
100
AcDbEntity
  8
0
 62
    18
420
        0
370
    25
100
AcDbLine
 10
14.28234508448288
 20
1.883765651676311
 30
0.0
 11
107.032343057883
 21
1.883765651676311
 31
0.0
  0
LINE
  5
11C
330
70
100
AcDbEntity
  8
0
 62
    18
420
        0
370
    25
100
AcDbLine
 10
107.9073429684824
 20
11.63376678417583
 30
0.0
 11
107.032343057883
 21
11.63376678417583
 31
0.0
  0
LINE
  5
11D
330
70
100
AcDbEntity
  8
0
 62
    18
420
        0
370
    25
100
AcDbLine
 10
107.032343057883
 20
10.13376374437588
 30
0.0
 11
107.9073429684824
 21
10.13376374437588
 31
0.0
  0
LINE
  5
11E
330
70
100
AcDbEntity
  8
0
 62
    18
420
        0
370
    25
100
AcDbLine
 10
14.28234508448288
 20
11.63376678417583
 30
0.0
 11
13.40734517388284
 21
11.63376678417583
 31
0.0
  0
LINE
  5
11F
330
70
100
AcDbEntity
  8
0
 62
    18
420
        0
370
    25
100
AcDbLine
 10
13.40734517388284
 20
10.13376374437588
 30
0.0
 11
14.28234508448288
 21
10.13376374437588
 31
0.0
  0
LINE
  5
120
330
70
100
AcDbEntity
  8
0
 62
    18
420
        0
370
    25
100
AcDbLine
 10
107.032343057883
 20
11.63376678417583
 30
0.0
 11
14.28234508448288
 21
11.63376678417583
 31
0.0
  0
LINE
  5
121
330
70
100
AcDbEntity
  8
0
 62
    18
420
        0
370
    25
100
AcDbLine
 10
14.28234508448288
 20
10.13376374437588
 30
0.0
 11
107.032343057883
 21
10.13376374437588
 31
0.0
  0
LINE
  5
122
330
70
100
AcDbEntity
  8
0
 62
    18
420
        0
370
    25
100
AcDbLine
 10
107.032343057883
 20
18.3837655622757
 30
0.0
 11
107.9073429684824
 21
18.3837655622757
 31
0.0
  0
LINE
  5
123
330
70
100
AcDbEntity
  8
0
 62
    18
420
        0
370
    25
100
AcDbLine
 10
107.9073429684824
 20
19.88376487677659
 30
0.0
 11
107.032343057883
 21
19.88376487677659
 31
0.0
  0
LINE
  5
124
330
70
100
AcDbEntity
  8
0
 62
    18
420
        0
370
    25
100
AcDbLine
 10
13.40734517388284
 20
18.3837655622757
 30
0.0
 11
14.28234508448288
 21
18.3837655622757
 31
0.0
  0
LINE
  5
125
330
70
100
AcDbEntity
  8
0
 62
    18
420
        0
370
    25
100
AcDbLine
 10
14.28234508448288
 20
19.88376487677659
 30
0.0
 11
13.40734517388284
 21
19.88376487677659
 31
0.0
  0
LINE
  5
126
330
70
100
AcDbEntity
  8
0
 62
    18
420
        0
370
    25
100
AcDbLine
 10
14.28234508448288
 20
18.3837655622757
 30
0.0
 11
107.032343057883
 21
18.3837655622757
 31
0.0
  0
LINE
  5
127
330
70
100
AcDbEntity
  8
0
 62
    18
420
        0
370
    25
100
AcDbLine
 10
107.032343057883
 20
19.88376487677659
 30
0.0
 11
14.28234508448288
 21
19.88376487677659
 31
0.0
  0
LINE
  5
128
330
70
100
AcDbEntity
  8
0
 62
    18
420
        0
370
    25
100
AcDbLine
 10
107.032343057883
 20
26.63376551757604
 30
0.0
 11
107.9073429684824
 21
26.63376551757604
 31
0.0
  0
LINE
  5
129
330
70
100
AcDbEntity
  8
0
 62
    18
420
        0
370
    25
100
AcDbLine
 10
107.9073429684824
 20
28.13376483207628
 30
0.0
 11
107.032343057883
 21
28.13376483207628
 31
0.0
  0
LINE
  5
12A
330
70
100
AcDbEntity
  8
0
 62
    18
420
        0
370
    25
100
AcDbLine
 10
13.40734517388284
 20
26.63376551757604
 30
0.0
 11
14.28234508448288
 21
26.63376551757604
 31
0.0
  0
LINE
  5
12B
330
70
100
AcDbEntity
  8
0
 62
    18
420
        0
370
    25
100
AcDbLine
 10
14.28234508448288
 20
28.13376483207628
 30
0.0
 11
13.40734517388284
 21
28.13376483207628
 31
0.0
  0
LINE
  5
12C
330
70
100
AcDbEntity
  8
0
 62
    18
420
        0
370
    25
100
AcDbLine
 10
14.28234508448288
 20
26.63376551757604
 30
0.0
 11
107.032343057883
 21
26.63376551757604
 31
0.0
  0
LINE
  5
12D
330
70
100
AcDbEntity
  8
0
 62
    18
420
        0
370
    25
100
AcDbLine
 10
107.032343057883
 20
28.13376483207628
 30
0.0
 11
14.28234508448288
 21
28.13376483207628
 31
0.0
  0
LINE
  5
12E
330
70
100
AcDbEntity
  8
0
 62
    18
420
        0
370
    25
100
AcDbLine
 10
107.032343057883
 20
34.88376547287638
 30
0.0
 11
107.9073429684824
 21
34.88376547287638
 31
0.0
  0
LINE
  5
12F
330
70
100
AcDbEntity
  8
0
 62
    18
420
        0
370
    25
100
AcDbLine
 10
107.9073429684824
 20
36.38376478737598
 30
0.0
 11
107.032343057883
 21
36.38376478737598
 31
0.0
  0
LINE
  5
130
330
70
100
AcDbEntity
  8
0
 62
    18
420
        0
370
    25
100
AcDbLine
 10
13.40734517388284
 20
34.88376547287638
 30
0.0
 11
14.28234508448288
 21
34.88376547287638
 31
0.0
  0
LINE
  5
131
330
70
100
AcDbEntity
  8
0
 62
    18
420
        0
370
    25
100
AcDbLine
 10
14.28234508448288
 20
36.38376478737598
 30
0.0
 11
13.40734517388284
 21
36.38376478737598
 31
0.0
  0
LINE
  5
132
330
70
100
AcDbEntity
  8
0
 62
    18
420
        0
370
    25
100
AcDbLine
 10
14.28234508448288
 20
34.88376547287638
 30
0.0
 11
107.032343057883
 21
34.88376547287638
 31
0.0
  0
LINE
  5
133
330
70
100
AcDbEntity
  8
0
 62
    18
420
        0
370
    25
100
AcDbLine
 10
107.032343057883
 20
36.38376478737598
 30
0.0
 11
14.28234508448288
 21
36.38376478737598
 31
0.0
  0
LINE
  5
134
330
70
100
AcDbEntity
  8
0
 62
    18
420
        0
370
    25
100
AcDbLine
 10
107.032343057883
 20
43.13376542817607
 30
0.0
 11
107.9073429684824
 21
43.13376542817607
 31
0.0
  0
LINE
  5
135
330
70
100
AcDbEntity
  8
0
 62
    18
420
        0
370
    25
100
AcDbLine
 10
107.9007603804832
 20
44.63376474267632
 30
0.0
 11
107.032343057883
 21
44.63376474267632
 31
0.0
  0
LINE
  5
136
330
70
100
AcDbEntity
  8
0
 62
    18
420
        0
370
    25
100
AcDbLine
 10
13.40734517388284
 20
43.13376542817607
 30
0.0
 11
14.28234508448288
 21
43.13376542817607
 31
0.0
  0
LINE
  5
137
330
70
100
AcDbEntity
  8
0
 62
    18
420
        0
370
    25
100
AcDbLine
 10
14.28234508448288
 20
44.63376474267632
 30
0.0
 11
13.41392776178283
 21
44.63376474267632
 31
0.0
  0
LINE
  5
138
330
70
100
AcDbEntity
  8
0
 62
    18
420
        0
370
    25
100
AcDbLine
 10
14.28234508448288
 20
43.13376542817607
 30
0.0
 11
107.032343057883
 21
43.13376542817607
 31
0.0
  0
LINE
  5
139
330
70
100
AcDbEntity
  8
0
 62
    18
420
        0
370
    25
100
AcDbLine
 10
107.032343057883
 20
44.63376474267632
 30
0.0
 11
14.28234508448288
 21
44.63376474267632
 31
0.0
  0
LINE
  5
13A
330
70
100
AcDbEntity
  8
0
 62
    18
420
        0
370
    25
100
AcDbLine
 10
107.9073429684824
 20
-0.6162356894237539
 30
0.0
 11
110.6573448161828
 21
-0.6162356894237539
 31
0.0
  0
LINE
  5
13B
330
70
100
AcDbEntity
  8
0
 62
    18
420
        0
370
    25
100
AcDbLine
 10
10.65734332608292
 20
-0.6162356894237539
 30
0.0
 11
13.40734517388284
 21
-0.6162356894237539
 31
0.0
  0
LINE
  5
13C
330
70
100
AcDbEntity
  8
0
 62
    18
420
        0
370
    25
100
AcDbLine
 10
103.4073450247827
 20
52.70384016147637
 30
0.0
 11
103.4073450247827
 21
54.88376502587595
 31
0.0
  0
LINE
  5
13D
330
70
100
AcDbEntity
  8
0
 62
    18
420
        0
370
    25
100
AcDbLine
 10
75.90734424248295
 20
54.88376502587595
 30
0.0
 11
75.90734424248295
 21
52.70384016147637
 31
0.0
  0
SPLINE
  5
13E
330
70
100
AcDbEntity
  8
0
 62
    18
420
        0
370
    25
100
AcDbSpline
210
0.0
220
0.0
230
1.0
 70
     8
 71
     3
 72
     8
 73
     4
 74
     0
 42
0.0000000001
 43
0.0000000001
 40
0.0
 40
0.0
 40
0.0
 40
0.0
 40
1.0
 40
1.0
 40
1.0
 40
1.0
 10
75.90734407118268
 20
52.70384004827618
 30
0.0
 10
75.90734407118268
 20
52.43801602288868
 30
0.0
 10
76.1153420519848
 20
52.21866252070746
 30
0.0
 10
76.38079096497069
 20
52.20454561354796
 30
0.0
  0
SPLINE
  5
13F
330
70
100
AcDbEntity
  8
0
 62
    18
420
        0
370
    25
100
AcDbSpline
210
0.0
220
0.0
230
1.0
 70
     8
 71
     3
 72
     8
 73
     4
 74
     0
 42
0.0000000001
 43
0.0000000001
 40
0.0
 40
0.0
 40
0.0
 40
0.0
 40
1.0
 40
1.0
 40
1.0
 40
1.0
 10
102.9338971773946
 20
52.20454561354796
 30
0.0
 10
103.1993460903805
 20
52.21866252070746
 30
0.0
 10
103.4073440711827
 20
52.43801602288868
 30
0.0
 10
103.4073440711827
 20
52.70384004827618
 30
0.0
  0
SPLINE
  5
140
330
70
100
AcDbEntity
  8
0
 62
    18
420
        0
370
    25
100
AcDbSpline
210
0.0
220
0.0
230
1.0
 70
     8
 71
     3
 72
     8
 73
     4
 74
     0
 42
0.0000000001
 43
0.0000000001
 40
0.0
 40
0.0
 40
0.0
 40
0.0
 40
1.0
 40
1.0
 40
1.0
 40
1.0
 10
76.3807909651863
 20
52.20454561350497
 30
0.0
 10
79.47072369138964
 20
52.04021910361436
 30
0.0
 10
82.563440980686
 20
51.93327381281477
 30
0.0
 10
85.65734407133431
 20
51.88376502583606
 30
0.0
  0
SPLINE
  5
141
330
70
100
AcDbEntity
  8
0
 62
    18
420
        0
370
    25
100
AcDbSpline
210
0.0
220
0.0
230
1.0
 70
     8
 71
     3
 72
     8
 73
     4
 74
     0
 42
0.0000000001
 43
0.0000000001
 40
0.0
 40
0.0
 40
0.0
 40
0.0
 40
1.0
 40
1.0
 40
1.0
 40
1.0
 10
93.6573440710317
 20
51.88376502583606
 30
0.0
 10
96.75124716182503
 20
51.93327381281734
 30
0.0
 10
99.84396445126705
 20
52.04021910362462
 30
0.0
 10
102.9338971776154
 20
52.20454561352807
 30
0.0
  0
LINE
  5
142
330
70
100
AcDbEntity
  8
0
 62
    18
420
        0
370
    25
100
AcDbLine
 10
45.40734389978282
 20
52.70384016147637
 30
0.0
 11
45.40734389978282
 21
54.88376502587595
 31
0.0
  0
LINE
  5
143
330
70
100
AcDbEntity
  8
0
 62
    18
420
        0
370
    25
100
AcDbLine
 10
17.9073431174827
 20
54.88376502587595
 30
0.0
 11
17.9073431174827
 21
52.70384016147637
 31
0.0
  0
SPLINE
  5
144
330
70
100
AcDbEntity
  8
0
 62
    18
420
        0
370
    25
100
AcDbSpline
210
0.0
220
0.0
230
1.0
 70
     8
 71
     3
 72
     8
 73
     4
 74
     0
 42
0.0000000001
 43
0.0000000001
 40
0.0
 40
0.0
 40
0.0
 40
0.0
 40
1.0
 40
1.0
 40
1.0
 40
1.0
 10
17.90734407118288
 20
52.70384004827618
 30
0.0
 10
17.90734407118288
 20
52.43801602288868
 30
0.0
 10
18.11534205198499
 20
52.21866252070746
 30
0.0
 10
18.38079096497089
 20
52.20454561354796
 30
0.0
  0
SPLINE
  5
145
330
70
100
AcDbEntity
  8
0
 62
    18
420
        0
370
    25
100
AcDbSpline
210
0.0
220
0.0
230
1.0
 70
     8
 71
     3
 72
     8
 73
     4
 74
     0
 42
0.0000000001
 43
0.0000000001
 40
0.0
 40
0.0
 40
0.0
 40
0.0
 40
1.0
 40
1.0
 40
1.0
 40
1.0
 10
44.93389717739487
 20
52.20454561354796
 30
0.0
 10
45.19934609038076
 20
52.2186625207081
 30
0.0
 10
45.40734407118288
 20
52.43801602288868
 30
0.0
 10
45.40734407118288
 20
52.70384004827618
 30
0.0
  0
SPLINE
  5
146
330
70
100
AcDbEntity
  8
0
 62
    18
420
        0
370
    25
100
AcDbSpline
210
0.0
220
0.0
230
1.0
 70
     8
 71
     3
 72
     8
 73
     4
 74
     0
 42
0.0000000001
 43
0.0000000001
 40
0.0
 40
0.0
 40
0.0
 40
0.0
 40
1.0
 40
1.0
 40
1.0
 40
1.0
 10
18.3807909651865
 20
52.20454561350497
 30
0.0
 10
21.47072369138951
 20
52.04021910361436
 30
0.0
 10
24.56344098068555
 20
51.93327381281477
 30
0.0
 10
27.6573440713345
 20
51.88376502583606
 30
0.0
  0
SPLINE
  5
147
330
70
100
AcDbEntity
  8
0
 62
    18
420
        0
370
    25
100
AcDbSpline
210
0.0
220
0.0
230
1.0
 70
     8
 71
     3
 72
     8
 73
     4
 74
     0
 42
0.0000000001
 43
0.0000000001
 40
0.0
 40
0.0
 40
0.0
 40
0.0
 40
1.0
 40
1.0
 40
1.0
 40
1.0
 10
35.65734407103126
 20
51.88376502583606
 30
0.0
 10
38.75124716182524
 20
51.93327381281734
 30
0.0
 10
41.84396445126693
 20
52.04021910362462
 30
0.0
 10
44.93389717761497
 20
52.20454561352807
 30
0.0
  0
SPLINE
  5
148
330
70
100
AcDbEntity
  8
0
 62
    18
420
        0
370
    25
100
AcDbSpline
210
0.0
220
0.0
230
1.0
 70
     8
 71
     3
 72
     8
 73
     4
 74
     0
 42
0.0000000001
 43
0.0000000001
 40
0.0
 40
0.0
 40
0.0
 40
0.0
 40
1.0
 40
1.0
 40
1.0
 40
1.0
 10
110.6573440711831
 20
44.38376502587654
 30
0.0
 10
110.6573440711831
 20
48.52590064960711
 30
0.0
 10
107.2994796949144
 20
51.88376502587649
 30
0.0
 10
103.1573440711831
 20
51.88376502587649
 30
0.0
  0
LINE
  5
149
330
70
100
AcDbEntity
  8
0
 62
    18
420
        0
370
    25
100
AcDbLine
 10
110.6573448161828
 20
44.38376516737632
 30
0.0
 11
110.4073443095825
 21
44.38376516737632
 31
0.0
  0
SPLINE
  5
14A
330
70
100
AcDbEntity
  8
0
 62
    18
420
        0
370
    25
100
AcDbSpline
210
0.0
220
0.0
230
1.0
 70
     8
 71
     3
 72
     8
 73
     4
 74
     0
 42
0.0000000001
 43
0.0000000001
 40
0.0
 40
0.0
 40
0.0
 40
0.0
 40
1.0
 40
1.0
 40
1.0
 40
1.0
 10
110.4073440711823
 20
44.38376502587654
 30
0.0
 10
110.4073440711823
 20
48.38782946214952
 30
0.0
 10
107.1614085074555
 20
51.63376502587567
 30
0.0
 10
103.1573440711831
 20
51.63376502587567
 30
0.0
  0
LINE
  5
14B
330
70
100
AcDbEntity
  8
0
 62
    18
420
        0
370
    25
100
AcDbLine
 10
103.157344518183
 20
51.88376499977602
 30
0.0
 11
103.157344518183
 21
51.63376495877578
 31
0.0
  0
SPLINE
  5
14C
330
70
100
AcDbEntity
  8
0
 62
    18
420
        0
370
    25
100
AcDbSpline
210
0.0
220
0.0
230
1.0
 70
     8
 71
     3
 72
     8
 73
     4
 74
     0
 42
0.0000000001
 43
0.0000000001
 40
0.0
 40
0.0
 40
0.0
 40
0.0
 40
1.0
 40
1.0
 40
1.0
 40
1.0
 10
108.1573440711827
 20
44.38376502587654
 30
0.0
 10
108.1573440711827
 20
47.14518877503003
 30
0.0
 10
105.9187678203373
 20
49.38376502587608
 30
0.0
 10
103.1573440711831
 20
49.38376502587608
 30
0.0
  0
LINE
  5
14D
330
70
100
AcDbEntity
  8
0
 62
    18
420
        0
370
    25
100
AcDbLine
 10
103.157344518183
 20
49.38376505567658
 30
0.0
 11
103.157344518183
 21
51.63376495877578
 31
0.0
  0
LINE
  5
14E
330
70
100
AcDbEntity
  8
0
 62
    18
420
        0
370
    25
100
AcDbLine
 10
110.4073443095825
 20
44.38376516737632
 30
0.0
 11
108.1573434750828
 21
44.38376516737632
 31
0.0
  0
LINE
  5
14F
330
70
100
AcDbEntity
  8
0
 62
    18
420
        0
370
    25
100
AcDbLine
 10
18.15734362408277
 20
49.38376505567658
 30
0.0
 11
103.157344518183
 21
49.38376505567658
 31
0.0
  0
LINE
  5
150
330
70
100
AcDbEntity
  8
0
 62
    18
420
        0
370
    25
100
AcDbLine
 10
18.15734362408277
 20
51.63376495877578
 30
0.0
 11
18.15734362408277
 21
49.38376505567658
 31
0.0
  0
LINE
  5
151
330
70
100
AcDbEntity
  8
0
 62
    18
420
        0
370
    25
100
AcDbLine
 10
103.157344518183
 20
51.63376495877578
 30
0.0
 11
18.15734362408277
 21
51.63376495877578
 31
0.0
  0
LINE
  5
152
330
70
100
AcDbEntity
  8
0
 62
    18
420
        0
370
    25
100
AcDbLine
 10
18.15734362408277
 20
51.88376499977602
 30
0.0
 11
28.35015511318289
 21
51.88376499977602
 31
0.0
  0
LINE
  5
153
330
70
100
AcDbEntity
  8
0
 62
    18
420
        0
370
    25
100
AcDbLine
 10
34.96453283538271
 20
51.88376499977602
 30
0.0
 11
86.35015530698318
 21
51.88376499977602
 31
0.0
  0
LINE
  5
154
330
70
100
AcDbEntity
  8
0
 62
    18
420
        0
370
    25
100
AcDbLine
 10
92.96453302908288
 20
51.88376499977602
 30
0.0
 11
103.157344518183
 21
51.88376499977602
 31
0.0
  0
LINE
  5
155
330
70
100
AcDbEntity
  8
0
 62
    18
420
        0
370
    25
100
AcDbLine
 10
18.15734362408277
 20
51.88376499977602
 30
0.0
 11
18.15734362408277
 21
51.63376495877578
 31
0.0
  0
LINE
  5
156
330
70
100
AcDbEntity
  8
0
 62
    18
420
        0
370
    25
100
AcDbLine
 10
108.1573434750828
 20
44.38376516737632
 30
0.0
 11
107.9073429684824
 21
44.38376516737632
 31
0.0
  0
SPLINE
  5
157
330
70
100
AcDbEntity
  8
0
 62
    18
420
        0
370
    25
100
AcDbSpline
210
0.0
220
0.0
230
1.0
 70
     8
 71
     3
 72
     8
 73
     4
 74
     0
 42
0.0000000001
 43
0.0000000001
 40
0.0
 40
0.0
 40
0.0
 40
0.0
 40
1.0
 40
1.0
 40
1.0
 40
1.0
 10
107.9073440711831
 20
44.38376502587654
 30
0.0
 10
107.9073440711831
 20
47.00711758757246
 30
0.0
 10
105.7806966328797
 20
49.13376502587655
 30
0.0
 10
103.1573440711831
 20
49.13376502587655
 30
0.0
  0
LINE
  5
158
330
70
100
AcDbEntity
  8
0
 62
    18
420
        0
370
    25
100
AcDbLine
 10
103.157344518183
 20
49.38376505567658
 30
0.0
 11
103.157344518183
 21
49.13376501467634
 31
0.0
  0
LINE
  5
159
330
70
100
AcDbEntity
  8
0
 62
    18
420
        0
370
    25
100
AcDbLine
 10
110.4073443095825
 20
-0.1162346761241625
 30
0.0
 11
110.4073443095825
 21
44.38376516737632
 31
0.0
  0
LINE
  5
15A
330
70
100
AcDbEntity
  8
0
 62
    18
420
        0
370
    25
100
AcDbLine
 10
110.6573448161828
 20
44.38376516737632
 30
0.0
 11
110.6573448161828
 21
-0.2143886249235972
 31
0.0
  0
LWPOLYLINE
  5
15B
330
70
100
AcDbEntity
  8
0
 62
    18
420
        0
370
    25
100
AcDbPolyline
 90
        6
 70
     0
 43
0.0
 10
110.6573448161828
 20
-0.2143886249235972
 10
110.6415086071831
 20
-0.1813639264242661
 10
110.5953150074827
 20
-0.1510214369236855
 10
110.5251379887833
 20
-0.128438727123856
 10
110.4442135076834
 20
-0.1173746150237424
 10
110.4073443095825
 20
-0.1162346761241625
  0
LINE
  5
15C
330
70
100
AcDbEntity
  8
0
 62
    18
420
        0
370
    25
100
AcDbLine
 10
108.1573434750828
 20
44.38376516737632
 30
0.0
 11
108.1573434750828
 21
-0.1162346761241625
 31
0.0
  0
LINE
  5
15D
330
70
100
AcDbEntity
  8
0
 62
    18
420
        0
370
    25
100
AcDbLine
 10
110.4073443095825
 20
-0.1162346761241625
 30
0.0
 11
108.1573434750828
 21
-0.1162346761241625
 31
0.0
  0
LINE
  5
15E
330
70
100
AcDbEntity
  8
0
 62
    18
420
        0
370
    25
100
AcDbLine
 10
107.9073429684824
 20
-0.2143886249235972
 30
0.0
 11
107.9073429684824
 21
44.38376516737632
 31
0.0
  0
LWPOLYLINE
  5
15F
330
70
100
AcDbEntity
  8
0
 62
    18
420
        0
370
    25
100
AcDbPolyline
 90
        6
 70
     0
 43
0.0
 10
108.1573434750828
 20
-0.1162346761241625
 10
108.0791906099822
 20
-0.1214389067237155
 10
108.0099188368826
 20
-0.1360494952237612
 10
107.9543971101822
 20
-0.1585241716239506
 10
107.9177961330829
 20
-0.1875181060238092
 10
107.9073429684824
 20
-0.2143886249235972
  0
LINE
  5
160
330
70
100
AcDbEntity
  8
0
 62
    18
420
        0
370
    25
100
AcDbLine
 10
103.157344518183
 20
49.13376501467634
 30
0.0
 11
18.15734362408277
 21
49.13376501467634
 31
0.0
  0
LINE
  5
161
330
70
100
AcDbEntity
  8
0
 62
    18
420
        0
370
    25
100
AcDbLine
 10
18.15734362408277
 20
49.38376505567658
 30
0.0
 11
18.15734362408277
 21
49.13376501467634
 31
0.0
  0
SPLINE
  5
162
330
70
100
AcDbEntity
  8
0
 62
    18
420
        0
370
    25
100
AcDbSpline
210
0.0
220
0.0
230
1.0
 70
     8
 71
     3
 72
     8
 73
     4
 74
     0
 42
0.0000000001
 43
0.0000000001
 40
0.0
 40
0.0
 40
0.0
 40
0.0
 40
1.0
 40
1.0
 40
1.0
 40
1.0
 10
18.15734407118272
 20
51.88376502587649
 30
0.0
 10
14.01520844745184
 20
51.88376502587649
 30
0.0
 10
10.65734407118278
 20
48.52590064960711
 30
0.0
 10
10.65734407118278
 20
44.38376502587654
 30
0.0
  0
SPLINE
  5
163
330
70
100
AcDbEntity
  8
0
 62
    18
420
        0
370
    25
100
AcDbSpline
210
0.0
220
0.0
230
1.0
 70
     8
 71
     3
 72
     8
 73
     4
 74
     0
 42
0.0000000001
 43
0.0000000001
 40
0.0
 40
0.0
 40
0.0
 40
0.0
 40
1.0
 40
1.0
 40
1.0
 40
1.0
 10
18.15734407118272
 20
51.63376502587632
 30
0.0
 10
14.15327963490942
 20
51.63376502587632
 30
0.0
 10
10.90734407118263
 20
48.38782946214952
 30
0.0
 10
10.90734407118263
 20
44.38376502587654
 30
0.0
  0
LINE
  5
164
330
70
100
AcDbEntity
  8
0
 62
    18
420
        0
370
    25
100
AcDbLine
 10
10.65734332608292
 20
44.38376516737632
 30
0.0
 11
10.90734383278277
 21
44.38376516737632
 31
0.0
  0
SPLINE
  5
165
330
70
100
AcDbEntity
  8
0
 62
    18
420
        0
370
    25
100
AcDbSpline
210
0.0
220
0.0
230
1.0
 70
     8
 71
     3
 72
     8
 73
     4
 74
     0
 42
0.0000000001
 43
0.0000000001
 40
0.0
 40
0.0
 40
0.0
 40
0.0
 40
1.0
 40
1.0
 40
1.0
 40
1.0
 10
18.15734407118272
 20
49.38376502587608
 30
0.0
 10
15.39592032202891
 20
49.38376502587608
 30
0.0
 10
13.15734407118287
 20
47.14518877503003
 30
0.0
 10
13.15734407118287
 20
44.38376502587654
 30
0.0
  0
LINE
  5
166
330
70
100
AcDbEntity
  8
0
 62
    18
420
        0
370
    25
100
AcDbLine
 10
13.15734466718267
 20
44.38376516737632
 30
0.0
 11
10.90734383278277
 21
44.38376516737632
 31
0.0
  0
SPLINE
  5
167
330
70
100
AcDbEntity
  8
0
 62
    18
420
        0
370
    25
100
AcDbSpline
210
0.0
220
0.0
230
1.0
 70
     8
 71
     3
 72
     8
 73
     4
 74
     0
 42
0.0000000001
 43
0.0000000001
 40
0.0
 40
0.0
 40
0.0
 40
0.0
 40
1.0
 40
1.0
 40
1.0
 40
1.0
 10
18.15734407118272
 20
49.13376502587655
 30
0.0
 10
15.53399150948649
 20
49.13376502587655
 30
0.0
 10
13.40734407118272
 20
47.00711758757246
 30
0.0
 10
13.40734407118272
 20
44.38376502587654
 30
0.0
  0
LINE
  5
168
330
70
100
AcDbEntity
  8
0
 62
    18
420
        0
370
    25
100
AcDbLine
 10
13.15734466718267
 20
44.38376516737632
 30
0.0
 11
13.40734517388284
 21
44.38376516737632
 31
0.0
  0
LINE
  5
169
330
70
100
AcDbEntity
  8
0
 62
    18
420
        0
370
    25
100
AcDbLine
 10
13.15734466718267
 20
-0.1162346761241625
 30
0.0
 11
13.15734466718267
 21
44.38376516737632
 31
0.0
  0
LINE
  5
16A
330
70
100
AcDbEntity
  8
0
 62
    18
420
        0
370
    25
100
AcDbLine
 10
13.40734517388284
 20
44.38376516737632
 30
0.0
 11
13.40734517388284
 21
-0.2143886249235972
 31
0.0
  0
LWPOLYLINE
  5
16B
330
70
100
AcDbEntity
  8
0
 62
    18
420
        0
370
    25
100
AcDbPolyline
 90
        6
 70
     0
 43
0.0
 10
13.40734517388284
 20
-0.2143886249235972
 10
13.39150523948266
 20
-0.1813639264242661
 10
13.34531536508291
 20
-0.1510214369236855
 10
13.27513834648266
 20
-0.128438727123856
 10
13.19421386528266
 20
-0.1173746150237424
 10
13.15734466718267
 20
-0.1162346761241625
  0
LINE
  5
16C
330
70
100
AcDbEntity
  8
0
 62
    18
420
        0
370
    25
100
AcDbLine
 10
13.15734466718267
 20
-0.1162346761241625
 30
0.0
 11
10.90734383278277
 21
-0.1162346761241625
 31
0.0
  0
LINE
  5
16D
330
70
100
AcDbEntity
  8
0
 62
    18
420
        0
370
    25
100
AcDbLine
 10
10.90734383278277
 20
44.38376516737632
 30
0.0
 11
10.90734383278277
 21
-0.1162346761241625
 31
0.0
  0
LINE
  5
16E
330
70
100
AcDbEntity
  8
0
 62
    18
420
        0
370
    25
100
AcDbLine
 10
10.65734332608292
 20
-0.2143886249235972
 30
0.0
 11
10.65734332608292
 21
44.38376516737632
 31
0.0
  0
LWPOLYLINE
  5
16F
330
70
100
AcDbEntity
  8
0
 62
    18
420
        0
370
    25
100
AcDbPolyline
 90
        6
 70
     0
 43
0.0
 10
10.90734383278277
 20
-0.1162346761241625
 10
10.82918724228268
 20
-0.1214389067237155
 10
10.75991919448282
 20
-0.1360494952237612
 10
10.70439374258286
 20
-0.1585241716239506
 10
10.66779649068284
 20
-0.1875181060238092
 10
10.65734332608292
 20
-0.2143886249235972
  0
LINE
  5
170
330
70
100
AcDbEntity
  8
0
 62
    18
420
        0
370
    25
100
AcDbLine
 10
107.9073429684824
 20
-0.2143886249235972
 30
0.0
 11
107.9073429684824
 21
-0.6162356894237539
 31
0.0
  0
LINE
  5
171
330
70
100
AcDbEntity
  8
0
 62
    18
420
        0
370
    25
100
AcDbLine
 10
110.6573448161828
 20
-0.2143886249235972
 30
0.0
 11
110.6573448161828
 21
-0.6162356894237539
 31
0.0
  0
LINE
  5
172
330
70
100
AcDbEntity
  8
0
 62
    18
420
        0
370
    25
100
AcDbLine
 10
13.40734517388284
 20
-0.6162356894237539
 30
0.0
 11
13.40734517388284
 21
-0.2143886249235972
 31
0.0
  0
LINE
  5
173
330
70
100
AcDbEntity
  8
0
 62
    18
420
        0
370
    25
100
AcDbLine
 10
10.65734332608292
 20
-0.2143886249235972
 30
0.0
 11
10.65734332608292
 21
-0.6162356894237539
 31
0.0
  0
LINE
  5
174
330
70
100
AcDbEntity
  8
0
 62
    18
420
        0
370
    25
100
AcDbLine
 10
103.4073450247827
 20
54.88376502587595
 30
0.0
 11
75.90734424248295
 21
54.88376502587595
 31
0.0
  0
LINE
  5
175
330
70
100
AcDbEntity
  8
0
 62
    18
420
        0
370
    25
100
AcDbLine
 10
92.96453302908288
 20
51.88376499977602
 30
0.0
 11
92.2823429684824
 21
51.88376499977602
 31
0.0
  0
LINE
  5
176
330
70
100
AcDbEntity
  8
0
 62
    18
420
        0
370
    25
100
AcDbLine
 10
92.2823429684824
 20
51.88415126577578
 30
0.0
 11
92.2823429684824
 21
51.88376499977602
 31
0.0
  0
SPLINE
  5
177
330
70
100
AcDbEntity
  8
0
 62
    18
420
        0
370
    25
100
AcDbSpline
210
0.0
220
0.0
230
1.0
 70
     8
 71
     3
 72
     8
 73
     4
 74
     0
 42
0.0000000001
 43
0.0000000001
 40
0.0
 40
0.0
 40
0.0
 40
0.0
 40
1.0
 40
1.0
 40
1.0
 40
1.0
 10
92.2823429684683
 20
51.88415126573985
 30
0.0
 10
92.19903327087049
 20
51.88677878197868
 30
0.0
 10
92.11566513688165
 20
51.88700394513521
 30
0.0
 10
92.03234246183134
 20
51.88482647460727
 30
0.0
  0
LWPOLYLINE
  5
178
330
70
100
AcDbEntity
  8
0
 62
    18
420
        0
370
    25
100
AcDbPolyline
 90
        9
 70
     0
 43
0.0
 10
91.91787546678254
 20
51.88376499977602
 10
91.93218430688322
 20
51.88389491927625
 10
91.9464931468825
 20
51.88402553727615
 10
91.96080198698318
 20
51.88415685367626
 10
91.97511082698246
 20
51.88428910157631
 10
91.98941966698303
 20
51.88442228067601
 10
92.00372850708243
 20
51.88455615827602
 10
92.01803362178264
 20
51.88469096717641
 10
92.0323424617832
 20
51.88482647467658
  0
LINE
  5
179
330
70
100
AcDbEntity
  8
0
 62
    18
420
        0
370
    25
100
AcDbLine
 10
91.91787546678254
 20
51.88376499977602
 30
0.0
 11
87.39681286918278
 21
51.88376499977602
 31
0.0
  0
LWPOLYLINE
  5
17A
330
70
100
AcDbEntity
  8
0
 62
    18
420
        0
370
    25
100
AcDbPolyline
 90
        9
 70
     0
 43
0.0
 10
87.28234401158264
 20
51.88482647467658
 10
87.2966528515832
 20
51.88469096717641
 10
87.31096169158249
 20
51.88455615827602
 10
87.32527053168317
 20
51.88442228067601
 10
87.33957937168245
 20
51.88428910157631
 10
87.35388634908288
 20
51.88415685367626
 10
87.36819518908282
 20
51.88402553727615
 10
87.38250402918286
 20
51.88389491927625
 10
87.39681286918278
 20
51.88376499977602
  0
SPLINE
  5
17B
330
70
100
AcDbEntity
  8
0
 62
    18
420
        0
370
    25
100
AcDbSpline
210
0.0
220
0.0
230
1.0
 70
     8
 71
     3
 72
     8
 73
     4
 74
     0
 42
0.0000000001
 43
0.0000000001
 40
0.0
 40
0.0
 40
0.0
 40
0.0
 40
1.0
 40
1.0
 40
1.0
 40
1.0
 10
87.28234401150499
 20
51.88482647468171
 30
0.0
 10
87.19901506825761
 20
51.88636392753785
 30
0.0
 10
87.11566292770161
 20
51.88613880757665
 30
0.0
 10
87.03234350486546
 20
51.88415126581428
 30
0.0
  0
LINE
  5
17C
330
70
100
AcDbEntity
  8
0
 62
    18
420
        0
370
    25
100
AcDbLine
 10
87.03234350488278
 20
51.88376499977602
 30
0.0
 11
87.03234350488278
 21
51.88415126577578
 31
0.0
  0
LINE
  5
17D
330
70
100
AcDbEntity
  8
0
 62
    18
420
        0
370
    25
100
AcDbLine
 10
87.03234350488278
 20
51.88376499977602
 30
0.0
 11
86.35015530698318
 21
51.88376499977602
 31
0.0
  0
LINE
  5
17E
330
70
100
AcDbEntity
  8
0
 62
    18
420
        0
370
    25
100
AcDbLine
 10
92.2823429684824
 20
51.88376499977602
 30
0.0
 11
92.0323424617832
 21
51.88376499977602
 31
0.0
  0
LINE
  5
17F
330
70
100
AcDbEntity
  8
0
 62
    18
420
        0
370
    25
100
AcDbLine
 10
87.28234401158264
 20
51.88376499977602
 30
0.0
 11
87.03234350488278
 21
51.88376499977602
 31
0.0
  0
LINE
  5
180
330
70
100
AcDbEntity
  8
0
 62
    18
420
        0
370
    25
100
AcDbLine
 10
87.28234401158264
 20
51.88376499977602
 30
0.0
 11
87.39681286918278
 21
51.88376499977602
 31
0.0
  0
LINE
  5
181
330
70
100
AcDbEntity
  8
0
 62
    18
420
        0
370
    25
100
AcDbLine
 10
91.91787546678254
 20
51.88376499977602
 30
0.0
 11
92.0323424617832
 21
51.88376499977602
 31
0.0
  0
LINE
  5
182
330
70
100
AcDbEntity
  8
0
 62
    18
420
        0
370
    25
100
AcDbLine
 10
45.40734389978282
 20
54.88376502587595
 30
0.0
 11
17.9073431174827
 21
54.88376502587595
 31
0.0
  0
LINE
  5
183
330
70
100
AcDbEntity
  8
0
 62
    18
420
        0
370
    25
100
AcDbLine
 10
34.96453283538271
 20
51.88376499977602
 30
0.0
 11
34.28234463738267
 21
51.88376499977602
 31
0.0
  0
LINE
  5
184
330
70
100
AcDbEntity
  8
0
 62
    18
420
        0
370
    25
100
AcDbLine
 10
34.28234463738267
 20
51.88415126577578
 30
0.0
 11
34.28234463738267
 21
51.88376499977602
 31
0.0
  0
SPLINE
  5
185
330
70
100
AcDbEntity
  8
0
 62
    18
420
        0
370
    25
100
AcDbSpline
210
0.0
220
0.0
230
1.0
 70
     8
 71
     3
 72
     8
 73
     4
 74
     0
 42
0.0000000001
 43
0.0000000001
 40
0.0
 40
0.0
 40
0.0
 40
0.0
 40
1.0
 40
1.0
 40
1.0
 40
1.0
 10
34.28234463744299
 20
51.88415126574369
 30
0.0
 10
34.19903493998347
 20
51.88677879017189
 30
0.0
 10
34.11566680575687
 20
51.88700395332906
 30
0.0
 10
34.0323441308009
 20
51.88482647461048
 30
0.0
  0
LWPOLYLINE
  5
186
330
70
100
AcDbEntity
  8
0
 62
    18
420
        0
370
    25
100
AcDbPolyline
 90
        9
 70
     0
 43
0.0
 10
33.91787527308268
 20
51.88376499977602
 10
33.93218411318271
 20
51.88389491927625
 10
33.94649295318296
 20
51.88402553727615
 10
33.96080179318289
 20
51.88415685367626
 10
33.9751087705827
 20
51.88428910157631
 10
33.98941761068272
 20
51.88442228067601
 10
34.00372645068265
 20
51.88455615827602
 10
34.0180352906829
 20
51.88469096717641
 10
34.03234413078293
 20
51.88482647467658
  0
LINE
  5
187
330
70
100
AcDbEntity
  8
0
 62
    18
420
        0
370
    25
100
AcDbLine
 10
33.91787527308268
 20
51.88376499977602
 30
0.0
 11
29.39681267548291
 21
51.88376499977602
 31
0.0
  0
LWPOLYLINE
  5
188
330
70
100
AcDbEntity
  8
0
 62
    18
420
        0
370
    25
100
AcDbPolyline
 90
        9
 70
     0
 43
0.0
 10
29.28234568048289
 20
51.88482647467658
 10
29.29665452048282
 20
51.88469096717641
 10
29.31095963528282
 20
51.88455615827602
 10
29.32526847528275
 20
51.88442228067601
 10
29.33957731538278
 20
51.88428910157631
 10
29.35388615538271
 20
51.88415685367626
 10
29.36819499538295
 20
51.88402553727615
 10
29.38250383548266
 20
51.88389491927625
 10
29.39681267548291
 20
51.88376499977602
  0
SPLINE
  5
189
330
70
100
AcDbEntity
  8
0
 62
    18
420
        0
370
    25
100
AcDbSpline
210
0.0
220
0.0
230
1.0
 70
     8
 71
     3
 72
     8
 73
     4
 74
     0
 42
0.0000000001
 43
0.0000000001
 40
0.0
 40
0.0
 40
0.0
 40
0.0
 40
1.0
 40
1.0
 40
1.0
 40
1.0
 10
29.28234568052011
 20
51.88482647466887
 30
0.0
 10
29.19901673759872
 20
51.88636396879718
 30
0.0
 10
29.11566459617097
 20
51.88613884883341
 30
0.0
 10
29.03234517388379
 20
51.88415126580145
 30
0.0
  0
LINE
  5
18A
330
70
100
AcDbEntity
  8
0
 62
    18
420
        0
370
    25
100
AcDbLine
 10
29.03234517388283
 20
51.88376499977602
 30
0.0
 11
29.03234517388283
 21
51.88415126577578
 31
0.0
  0
LINE
  5
18B
330
70
100
AcDbEntity
  8
0
 62
    18
420
        0
370
    25
100
AcDbLine
 10
29.03234517388283
 20
51.88376499977602
 30
0.0
 11
28.35015511318289
 21
51.88376499977602
 31
0.0
  0
LINE
  5
18C
330
70
100
AcDbEntity
  8
0
 62
    18
420
        0
370
    25
100
AcDbLine
 10
34.28234463738267
 20
51.88376499977602
 30
0.0
 11
34.03234413078293
 21
51.88376499977602
 31
0.0
  0
LINE
  5
18D
330
70
100
AcDbEntity
  8
0
 62
    18
420
        0
370
    25
100
AcDbLine
 10
29.28234568048289
 20
51.88376499977602
 30
0.0
 11
29.03234517388283
 21
51.88376499977602
 31
0.0
  0
LINE
  5
18E
330
70
100
AcDbEntity
  8
0
 62
    18
420
        0
370
    25
100
AcDbLine
 10
29.28234568048289
 20
51.88376499977602
 30
0.0
 11
29.39681267548291
 21
51.88376499977602
 31
0.0
  0
LINE
  5
18F
330
70
100
AcDbEntity
  8
0
 62
    18
420
        0
370
    25
100
AcDbLine
 10
33.91787527308268
 20
51.88376499977602
 30
0.0
 11
34.03234413078293
 21
51.88376499977602
 31
0.0
  0
LINE
  5
190
330
70
100
AcDbEntity
  8
0
 62
     8
420
  8421504
370
    25
100
AcDbLine
 10
107.032343057883
 20
3.383764966175911
 30
0.0
 11
107.032343057883
 21
1.883765651676311
 31
0.0
  0
LINE
  5
191
330
70
100
AcDbEntity
  8
0
 62
     8
420
  8421504
370
    25
100
AcDbLine
 10
14.28234508448288
 20
3.383764966175911
 30
0.0
 11
14.28234508448288
 21
1.883765651676311
 31
0.0
  0
LINE
  5
192
330
70
100
AcDbEntity
  8
0
 62
     8
420
  8421504
370
    25
100
AcDbLine
 10
107.032343057883
 20
11.63376678417583
 30
0.0
 11
107.032343057883
 21
10.13376374437588
 31
0.0
  0
LINE
  5
193
330
70
100
AcDbEntity
  8
0
 62
     8
420
  8421504
370
    25
100
AcDbLine
 10
14.28234508448288
 20
11.63376678417583
 30
0.0
 11
14.28234508448288
 21
10.13376374437588
 31
0.0
  0
LINE
  5
194
330
70
100
AcDbEntity
  8
0
 62
     8
420
  8421504
370
    25
100
AcDbLine
 10
107.032343057883
 20
18.3837655622757
 30
0.0
 11
107.032343057883
 21
19.88376487677659
 31
0.0
  0
LINE
  5
195
330
70
100
AcDbEntity
  8
0
 62
     8
420
  8421504
370
    25
100
AcDbLine
 10
14.28234508448288
 20
18.3837655622757
 30
0.0
 11
14.28234508448288
 21
19.88376487677659
 31
0.0
  0
LINE
  5
196
330
70
100
AcDbEntity
  8
0
 62
     8
420
  8421504
370
    25
100
AcDbLine
 10
107.032343057883
 20
26.63376551757604
 30
0.0
 11
107.032343057883
 21
28.13376483207628
 31
0.0
  0
LINE
  5
197
330
70
100
AcDbEntity
  8
0
 62
     8
420
  8421504
370
    25
100
AcDbLine
 10
14.28234508448288
 20
26.63376551757604
 30
0.0
 11
14.28234508448288
 21
28.13376483207628
 31
0.0
  0
LINE
  5
198
330
70
100
AcDbEntity
  8
0
 62
     8
420
  8421504
370
    25
100
AcDbLine
 10
107.032343057883
 20
34.88376547287638
 30
0.0
 11
107.032343057883
 21
36.38376478737598
 31
0.0
  0
LINE
  5
199
330
70
100
AcDbEntity
  8
0
 62
     8
420
  8421504
370
    25
100
AcDbLine
 10
14.28234508448288
 20
34.88376547287638
 30
0.0
 11
14.28234508448288
 21
36.38376478737598
 31
0.0
  0
LINE
  5
19A
330
70
100
AcDbEntity
  8
0
 62
     8
420
  8421504
370
    25
100
AcDbLine
 10
107.032343057883
 20
43.13376542817607
 30
0.0
 11
107.032343057883
 21
44.63376474267632
 31
0.0
  0
LINE
  5
19B
330
70
100
AcDbEntity
  8
0
 62
     8
420
  8421504
370
    25
100
AcDbLine
 10
14.28234508448288
 20
43.13376542817607
 30
0.0
 11
14.28234508448288
 21
44.63376474267632
 31
0.0
  0
LINE
  5
19C
330
70
100
AcDbEntity
  8
0
 62
     8
420
  8421504
370
    25
100
AcDbLine
 10
75.90734424248295
 20
52.70384016147637
 30
0.0
 11
103.4073450247827
 21
52.70384016147637
 31
0.0
  0
LINE
  5
19D
330
70
100
AcDbEntity
  8
0
 62
     8
420
  8421504
370
    25
100
AcDbLine
 10
102.9338978807828
 20
52.20454555637579
 30
0.0
 11
76.38079045518252
 21
52.20454555637579
 31
0.0
  0
LINE
  5
19E
330
70
100
AcDbEntity
  8
0
 62
     8
420
  8421504
370
    25
100
AcDbLine
 10
17.9073431174827
 20
52.70384016147637
 30
0.0
 11
45.40734389978282
 21
52.70384016147637
 31
0.0
  0
LINE
  5
19F
330
70
100
AcDbEntity
  8
0
 62
     8
420
  8421504
370
    25
100
AcDbLine
 10
44.93389768708293
 20
52.20454555637579
 30
0.0
 11
18.38079026148265
 21
52.20454555637579
 31
0.0
  0
LINE
  5
1A0
330
70
100
AcDbEntity
  8
0
 62
    18
420
        0
370
    25
100
AcDbLine
 10
159.6549256262831
 20
-71.62307843312422
 30
0.0
 11
159.6549256262831
 21
-71.82020296212356
 31
0.0
  0
LINE
  5
1A1
330
70
100
AcDbEntity
  8
0
 62
    18
420
        0
370
    25
100
AcDbLine
 10
161.1549240622826
 20
-71.82020144142389
 30
0.0
 11
161.1549240622826
 21
-70.75714542282445
 31
0.0
  0
SPLINE
  5
1A2
330
70
100
AcDbEntity
  8
0
 62
    18
420
        0
370
    25
100
AcDbSpline
210
0.0
220
0.0
230
1.0
 70
     8
 71
     3
 72
    11
 73
     7
 74
     0
 42
0.0000000001
 43
0.0000000001
 40
0.0
 40
0.0
 40
0.0
 40
0.0
 40
1.0
 40
1.0
 40
1.0
 40
2.0
 40
2.0
 40
2.0
 40
2.0
 10
158.4389653392298
 20
-73.38849573052929
 30
0.0
 10
159.2225836852444
 20
-73.93606898546979
 30
0.0
 10
160.3017276971466
 20
-73.74471663139207
 30
0.0
 10
160.8493009520884
 20
-72.96109828537739
 30
0.0
 10
161.0817868280125
 20
-72.62839358163187
 30
0.0
 10
161.1899628187081
 20
-72.22457056488713
 30
0.0
 10
161.154924062339
 20
-71.82020144149833
 30
0.0
  0
LWPOLYLINE
  5
1A3
330
70
100
AcDbEntity
  8
0
 62
    18
420
        0
370
    25
100
AcDbPolyline
 90
        9
 70
     0
 43
0.0
 10
159.6549256262831
 20
-71.82020296212356
 10
159.648756381383
 20
-71.94436018762421
 10
159.6132529298825
 20
-72.11238223352431
 10
159.5755051586833
 20
-72.18816389872448
 10
159.5638778968824
 20
-72.20081264392432
 10
159.5368802061825
 20
-72.20544270302344
 10
159.4408170016826
 20
-72.19484856952357
 10
159.2597040911832
 20
-72.12741874832437
 10
159.1889026539824
 20
-72.089423615824
  0
LINE
  5
1A4
330
70
100
AcDbEntity
  8
0
 62
    18
420
        0
370
    25
100
AcDbLine
 10
159.1889026539824
 20
-72.089423615824
 30
0.0
 11
93.60475013188297
 21
-34.22849825722442
 31
0.0
  0
LINE
  5
1A5
330
70
100
AcDbEntity
  8
0
 62
    18
420
        0
370
    25
100
AcDbLine
 10
92.85481281708284
 20
-35.52757037192329
 30
0.0
 11
158.4389653391823
 21
-73.38849573052415
 31
0.0
  0
LINE
  5
1A6
330
70
100
AcDbEntity
  8
0
 62
    18
420
        0
370
    25
100
AcDbLine
 10
90.88879140878267
 20
-31.92523414172375
 30
0.0
 11
90.88879140878267
 21
-32.12235867072437
 31
0.0
  0
LINE
  5
1A7
330
70
100
AcDbEntity
  8
0
 62
    18
420
        0
370
    25
100
AcDbLine
 10
92.38878984478281
 20
-32.12235715002341
 30
0.0
 11
92.38878984478281
 21
-31.05930113142397
 31
0.0
  0
SPLINE
  5
1A8
330
70
100
AcDbEntity
  8
0
 62
    18
420
        0
370
    25
100
AcDbSpline
210
0.0
220
0.0
230
1.0
 70
     8
 71
     3
 72
     8
 73
     4
 74
     0
 42
0.0000000001
 43
0.0000000001
 40
0.0
 40
0.0
 40
0.0
 40
0.0
 40
1.0
 40
1.0
 40
1.0
 40
1.0
 10
90.88879140883786
 20
-32.12235867077698
 30
0.0
 10
90.93828844454185
 20
-33.51339792952099
 30
0.0
 10
91.67487900106127
 20
-34.78919623541084
 30
0.0
 10
92.85481281714636
 20
-35.52757037199003
 30
0.0
  0
SPLINE
  5
1A9
330
70
100
AcDbEntity
  8
0
 62
    18
420
        0
370
    25
100
AcDbSpline
210
0.0
220
0.0
230
1.0
 70
     8
 71
     3
 72
     8
 73
     4
 74
     0
 42
0.0000000001
 43
0.0000000001
 40
0.0
 40
0.0
 40
0.0
 40
0.0
 40
1.0
 40
1.0
 40
1.0
 40
1.0
 10
92.3887898447411
 20
-32.12235715005807
 30
0.0
 10
92.4371913113751
 20
-32.97750572597049
 30
0.0
 10
92.88837744558295
 20
-33.75899643277968
 30
0.0
 10
93.60475013188361
 20
-34.2284982572488
 30
0.0
  0
LINE
  5
1AA
330
70
100
AcDbEntity
  8
0
 62
    18
420
        0
370
    25
100
AcDbLine
 10
165.488557856583
 20
-68.25539422972356
 30
0.0
 11
165.488557856583
 21
-72.53522272692409
 31
0.0
  0
LINE
  5
1AB
330
70
100
AcDbEntity
  8
0
 62
    18
420
        0
370
    25
100
AcDbLine
 10
166.9885536583822
 20
-72.53522272692409
 30
0.0
 11
166.9885536583822
 21
-67.38946274012346
 31
0.0
  0
SPLINE
  5
1AC
330
70
100
AcDbEntity
  8
0
 62
    18
420
        0
370
    25
100
AcDbSpline
210
0.0
220
0.0
230
1.0
 70
     8
 71
     3
 72
    11
 73
     7
 74
     0
 42
0.0000000001
 43
0.0000000001
 40
0.0
 40
0.0
 40
0.0
 40
0.0
 40
1.0
 40
1.0
 40
1.0
 40
2.0
 40
2.0
 40
2.0
 40
2.0
 10
164.2725949353243
 20
-74.10351701596018
 30
0.0
 10
165.0562124178585
 20
-74.65109076950598
 30
0.0
 10
166.1353561339721
 20
-74.45973951961775
 30
0.0
 10
166.6829298875191
 20
-73.6761220370823
 30
0.0
 10
166.9154166190129
 20
-73.34341677851992
 30
0.0
 10
167.0235928784585
 20
-72.93959275853136
 30
0.0
 10
166.9885536584349
 20
-72.53522272693051
 30
0.0
  0
LWPOLYLINE
  5
1AD
330
70
100
AcDbEntity
  8
0
 62
    18
420
        0
370
    25
100
AcDbPolyline
 90
        9
 70
     0
 43
0.0
 10
165.488557856583
 20
-72.53522272692409
 10
165.4823859774827
 20
-72.65938109292415
 10
165.4468851601824
 20
-72.82740199832357
 10
165.409134754783
 20
-72.90318518422338
 10
165.3975101270822
 20
-72.91583278892384
 10
165.3705098022834
 20
-72.92046436872389
 10
165.2744492319825
 20
-72.9098683343241
 10
165.0933336871828
 20
-72.84244003372447
 10
165.0225348842823
 20
-72.8044437608235
  0
LINE
  5
1AE
330
70
100
AcDbEntity
  8
0
 62
    18
420
        0
370
    25
100
AcDbLine
 10
165.0225348842823
 20
-72.8044437608235
 30
0.0
 11
161.3155272626823
 21
-70.66443381232407
 31
0.0
  0
LINE
  5
1AF
330
70
100
AcDbEntity
  8
0
 62
    18
420
        0
370
    25
100
AcDbLine
 10
157.1663912977827
 20
-68.26918860392368
 30
0.0
 11
99.43838236218288
 21
-34.94351840232404
 31
0.0
  0
LINE
  5
1B0
330
70
100
AcDbEntity
  8
0
 62
    18
420
        0
370
    25
100
AcDbLine
 10
98.68844241318317
 20
-36.24259165742349
 30
0.0
 11
157.2559638875822
 21
-70.0529021319242
 31
0.0
  0
LINE
  5
1B1
330
70
100
AcDbEntity
  8
0
 62
    18
420
        0
370
    25
100
AcDbLine
 10
161.1101746458824
 20
-72.2778906424237
 30
0.0
 11
164.2725949352833
 21
-74.10351701592425
 31
0.0
  0
LINE
  5
1B2
330
70
100
AcDbEntity
  8
0
 62
    18
420
        0
370
    25
100
AcDbLine
 10
96.72242363908324
 20
-28.55754993832438
 30
0.0
 11
96.72242363908324
 21
-32.83737843552361
 31
0.0
  0
LINE
  5
1B3
330
70
100
AcDbEntity
  8
0
 62
    18
420
        0
370
    25
100
AcDbLine
 10
98.22241944088251
 20
-32.83737843552361
 30
0.0
 11
98.22241944088251
 21
-27.69161844872427
 31
0.0
  0
SPLINE
  5
1B4
330
70
100
AcDbEntity
  8
0
 62
    18
420
        0
370
    25
100
AcDbSpline
210
0.0
220
0.0
230
1.0
 70
     8
 71
     3
 72
     8
 73
     4
 74
     0
 42
0.0000000001
 43
0.0000000001
 40
0.0
 40
0.0
 40
0.0
 40
0.0
 40
1.0
 40
1.0
 40
1.0
 40
1.0
 10
96.72242363913198
 20
-32.83737843557495
 30
0.0
 10
96.77191981589935
 20
-34.2284176702206
 30
0.0
 10
97.50850933092522
 20
-35.50421645132965
 30
0.0
 10
98.68844241326403
 20
-36.24259165746713
 30
0.0
  0
SPLINE
  5
1B5
330
70
100
AcDbEntity
  8
0
 62
    18
420
        0
370
    25
100
AcDbSpline
210
0.0
220
0.0
230
1.0
 70
     8
 71
     3
 72
     8
 73
     4
 74
     0
 42
0.0000000001
 43
0.0000000001
 40
0.0
 40
0.0
 40
0.0
 40
0.0
 40
1.0
 40
1.0
 40
1.0
 40
1.0
 10
98.22241944087865
 20
-32.83737843553388
 30
0.0
 10
98.27082114438944
 20
-33.69252730106178
 30
0.0
 10
98.72200844253667
 20
-34.47401790776846
 30
0.0
 10
99.43838236219892
 20
-34.94351840227783
 30
0.0
  0
LINE
  5
1B6
330
70
100
AcDbEntity
  8
0
 62
    18
420
        0
370
    25
100
AcDbLine
 10
171.3221874526827
 20
-64.88771154702387
 30
0.0
 11
171.3221874526827
 21
-69.16754004422438
 31
0.0
  0
LINE
  5
1B7
330
70
100
AcDbEntity
  8
0
 62
    18
420
        0
370
    25
100
AcDbLine
 10
172.8221858886822
 20
-69.16753852362354
 30
0.0
 11
172.8221858886822
 21
-64.0217785368242
 31
0.0
  0
LWPOLYLINE
  5
1B8
330
70
100
AcDbEntity
  8
0
 62
    18
420
        0
370
    25
100
AcDbPolyline
 90
        9
 70
     0
 43
0.0
 10
171.3221874526827
 20
-69.16754004422438
 10
171.3160182077826
 20
-69.29169688952349
 10
171.2805147561833
 20
-69.45971931562386
 10
171.2427669849828
 20
-69.53550098092413
 10
171.2311397231832
 20
-69.54815010632424
 10
171.2041420325834
 20
-69.55278016532324
 10
171.1080788280822
 20
-69.54218565162441
 10
170.9269659174827
 20
-69.47475583042391
 10
170.8561644803833
 20
-69.43676107812381
  0
SPLINE
  5
1B9
330
70
100
AcDbEntity
  8
0
 62
    18
420
        0
370
    25
100
AcDbSpline
210
0.0
220
0.0
230
1.0
 70
     8
 71
     3
 72
    11
 73
     7
 74
     0
 42
0.0000000001
 43
0.0000000001
 40
0.0
 40
0.0
 40
0.0
 40
0.0
 40
1.0
 40
1.0
 40
1.0
 40
2.0
 40
2.0
 40
2.0
 40
2.0
 10
170.1062271655023
 20
-70.73583281261985
 30
0.0
 10
170.8898454464526
 20
-71.28340610513183
 30
0.0
 10
171.9689894360672
 20
-71.09205383425552
 30
0.0
 10
172.5165627285792
 20
-70.30843555330527
 30
0.0
 10
172.7490486689723
 20
-69.97573080775305
 30
0.0
 10
172.8572246799186
 20
-69.57190771541234
 30
0.0
 10
172.8221858886116
 20
-69.16753852358889
 30
0.0
  0
LINE
  5
1BA
330
70
100
AcDbEntity
  8
0
 62
    18
420
        0
370
    25
100
AcDbLine
 10
104.5220746434831
 20
-32.87490745412423
 30
0.0
 11
160.3755076611825
 21
-65.1184080129235
 31
0.0
  0
LINE
  5
1BB
330
70
100
AcDbEntity
  8
0
 62
    18
420
        0
370
    25
100
AcDbLine
 10
166.9885562925825
 20
-68.93603972732319
 30
0.0
 11
170.1062271655832
 21
-70.7358328126237
 31
0.0
  0
LINE
  5
1BC
330
70
100
AcDbEntity
  8
0
 62
    18
420
        0
370
    25
100
AcDbLine
 10
170.8561644803833
 20
-69.43676107812381
 30
0.0
 11
167.1491568587833
 21
-67.29675112962436
 31
0.0
  0
LINE
  5
1BD
330
70
100
AcDbEntity
  8
0
 62
    18
420
        0
370
    25
100
AcDbLine
 10
161.8756272692823
 20
-64.25240729832362
 30
0.0
 11
105.2720119582832
 21
-31.57583571962434
 31
0.0
  0
LINE
  5
1BE
330
70
100
AcDbEntity
  8
0
 62
    18
420
        0
370
    25
100
AcDbLine
 10
102.5560532351829
 20
-25.18986725562339
 30
0.0
 11
102.5560532351829
 21
-29.46969575282391
 31
0.0
  0
LINE
  5
1BF
330
70
100
AcDbEntity
  8
0
 62
    18
420
        0
370
    25
100
AcDbLine
 10
104.0560516711824
 20
-29.46969423222435
 30
0.0
 11
104.0560516711824
 21
-24.32393424542372
 31
0.0
  0
SPLINE
  5
1C0
330
70
100
AcDbEntity
  8
0
 62
    18
420
        0
370
    25
100
AcDbSpline
210
0.0
220
0.0
230
1.0
 70
     8
 71
     3
 72
     8
 73
     4
 74
     0
 42
0.0000000001
 43
0.0000000001
 40
0.0
 40
0.0
 40
0.0
 40
0.0
 40
1.0
 40
1.0
 40
1.0
 40
1.0
 10
104.0560516711157
 20
-29.4696942322205
 30
0.0
 10
104.1044531202338
 20
-30.32484291493475
 30
0.0
 10
104.5556392441103
 20
-31.10633374493346
 30
0.0
 10
105.2720119582549
 20
-31.57583571963973
 30
0.0
  0
SPLINE
  5
1C1
330
70
100
AcDbEntity
  8
0
 62
    18
420
        0
370
    25
100
AcDbSpline
210
0.0
220
0.0
230
1.0
 70
     8
 71
     3
 72
     8
 73
     4
 74
     0
 42
0.0000000001
 43
0.0000000001
 40
0.0
 40
0.0
 40
0.0
 40
0.0
 40
1.0
 40
1.0
 40
1.0
 40
1.0
 10
102.5560532351823
 20
-29.46969575289963
 30
0.0
 10
102.6055501307109
 20
-30.86073505188715
 30
0.0
 10
103.3421407224661
 20
-32.13653341880643
 30
0.0
 10
104.5220746434908
 20
-32.87490745411139
 30
0.0
  0
LINE
  5
1C2
330
70
100
AcDbEntity
  8
0
 62
    18
420
        0
370
    25
100
AcDbLine
 10
177.1558183658825
 20
-61.52002810402374
 30
0.0
 11
177.1558183658825
 21
-65.79985660122426
 31
0.0
  0
LINE
  5
1C3
330
70
100
AcDbEntity
  8
0
 62
    18
420
        0
370
    25
100
AcDbLine
 10
178.6558168018832
 20
-65.79985508052331
 30
0.0
 11
178.6558168018832
 21
-60.65409509372397
 31
0.0
  0
LWPOLYLINE
  5
1C4
330
70
100
AcDbEntity
  8
0
 62
    18
420
        0
370
    25
100
AcDbPolyline
 90
        9
 70
     0
 43
0.0
 10
177.1558183658825
 20
-65.79985660122426
 10
177.1496478037822
 20
-65.92401420682378
 10
177.1141469864832
 20
-66.09203511232331
 10
177.0763965810825
 20
-66.16781829822442
 10
177.0647719534831
 20
-66.18046590292358
 10
177.037772945683
 20
-66.1850967223244
 10
176.9417097412833
 20
-66.17450220862427
 10
176.7605955135824
 20
-66.10707314772422
 10
176.6897967105831
 20
-66.06907687482325
  0
SPLINE
  5
1C5
330
70
100
AcDbEntity
  8
0
 62
    18
420
        0
370
    25
100
AcDbSpline
210
0.0
220
0.0
230
1.0
 70
     8
 71
     3
 72
    11
 73
     7
 74
     0
 42
0.0000000001
 43
0.0000000001
 40
0.0
 40
0.0
 40
0.0
 40
0.0
 40
1.0
 40
1.0
 40
1.0
 40
2.0
 40
2.0
 40
2.0
 40
2.0
 10
175.9398567616071
 20
-67.36815012992528
 30
0.0
 10
176.7234757006082
 20
-67.91572352742436
 30
0.0
 10
177.8026203087874
 20
-67.72437080820063
 30
0.0
 10
178.3501937062851
 20
-66.94075186919957
 30
0.0
 10
178.5826794838856
 20
-66.608047141013
 30
0.0
 10
178.6908554607564
 20
-66.20422417596484
 30
0.0
 10
178.6558168018063
 20
-65.79985508055411
 30
0.0
  0
LINE
  5
1C6
330
70
100
AcDbEntity
  8
0
 62
    18
420
        0
370
    25
100
AcDbLine
 10
110.3557042395828
 20
-29.50722477142324
 30
0.0
 11
166.2091372572822
 21
-61.75072533032391
 31
0.0
  0
LINE
  5
1C7
330
70
100
AcDbEntity
  8
0
 62
    18
420
        0
370
    25
100
AcDbLine
 10
172.8221858886822
 20
-65.5683570446235
 30
0.0
 11
175.9398567616829
 21
-67.36815012992399
 31
0.0
  0
LINE
  5
1C8
330
70
100
AcDbEntity
  8
0
 62
    18
420
        0
370
    25
100
AcDbLine
 10
176.6897967105831
 20
-66.06907687482325
 30
0.0
 11
172.9827890890832
 21
-63.9290669262237
 31
0.0
  0
LINE
  5
1C9
330
70
100
AcDbEntity
  8
0
 62
    18
420
        0
370
    25
100
AcDbLine
 10
167.7092594995822
 20
-60.88472309492424
 30
0.0
 11
111.1056441885831
 21
-28.20815151622367
 31
0.0
  0
LINE
  5
1CA
330
70
100
AcDbEntity
  8
0
 62
    18
420
        0
370
    25
100
AcDbLine
 10
108.3896841483827
 20
-21.82218381262326
 30
0.0
 11
108.3896841483827
 21
-26.10201230982378
 31
0.0
  0
LINE
  5
1CB
330
70
100
AcDbEntity
  8
0
 62
    18
420
        0
370
    25
100
AcDbLine
 10
109.8896825842834
 20
-26.10201078912412
 30
0.0
 11
109.8896825842834
 21
-20.95625080232348
 31
0.0
  0
SPLINE
  5
1CC
330
70
100
AcDbEntity
  8
0
 62
    18
420
        0
370
    25
100
AcDbSpline
210
0.0
220
0.0
230
1.0
 70
     8
 71
     3
 72
     8
 73
     4
 74
     0
 42
0.0000000001
 43
0.0000000001
 40
0.0
 40
0.0
 40
0.0
 40
0.0
 40
1.0
 40
1.0
 40
1.0
 40
1.0
 10
109.8896825843129
 20
-26.10201078916518
 30
0.0
 10
109.9380821459748
 20
-26.95716016462692
 30
0.0
 10
110.3892693435164
 20
-27.73865172568639
 30
0.0
 10
111.1056441885433
 20
-28.20815151624549
 30
0.0
  0
SPLINE
  5
1CD
330
70
100
AcDbEntity
  8
0
 62
    18
420
        0
370
    25
100
AcDbSpline
210
0.0
220
0.0
230
1.0
 70
     8
 71
     3
 72
     8
 73
     4
 74
     0
 42
0.0000000001
 43
0.0000000001
 40
0.0
 40
0.0
 40
0.0
 40
0.0
 40
1.0
 40
1.0
 40
1.0
 40
1.0
 10
108.3896841483763
 20
-26.10201230983918
 30
0.0
 10
108.4391822331812
 20
-27.49305113202892
 30
0.0
 10
109.1757718972917
 20
-28.76884903180028
 30
0.0
 10
110.3557042395956
 20
-29.50722477139757
 30
0.0
  0
LINE
  5
1CE
330
70
100
AcDbEntity
  8
0
 62
    18
420
        0
370
    25
100
AcDbLine
 10
182.9894492790823
 20
-58.15234466102361
 30
0.0
 11
182.9894492790823
 21
-62.43217315822413
 31
0.0
  0
LINE
  5
1CF
330
70
100
AcDbEntity
  8
0
 62
    18
420
        0
370
    25
100
AcDbLine
 10
184.489447714983
 20
-62.43217163752447
 30
0.0
 11
184.489447714983
 21
-57.28641165072383
 31
0.0
  0
LWPOLYLINE
  5
1D0
330
70
100
AcDbEntity
  8
0
 62
    18
420
        0
370
    25
100
AcDbPolyline
 90
        9
 70
     0
 43
0.0
 10
182.9894492790823
 20
-62.43217315822413
 10
182.9832787169832
 20
-62.55633076382366
 10
182.947777899683
 20
-62.72435166932447
 10
182.9100274942823
 20
-62.80013485522429
 10
182.8984028666829
 20
-62.81278245992346
 10
182.8714038588828
 20
-62.81741327932427
 10
182.7753406544831
 20
-62.80681876562415
 10
182.5942264267822
 20
-62.73938970472409
 10
182.5234276237829
 20
-62.70139343172431
  0
SPLINE
  5
1D1
330
70
100
AcDbEntity
  8
0
 62
    18
420
        0
370
    25
100
AcDbSpline
210
0.0
220
0.0
230
1.0
 70
     8
 71
     3
 72
    11
 73
     7
 74
     0
 42
0.0000000001
 43
0.0000000001
 40
0.0
 40
0.0
 40
0.0
 40
0.0
 40
1.0
 40
1.0
 40
1.0
 40
2.0
 40
2.0
 40
2.0
 40
2.0
 10
181.7734876748069
 20
-64.00046668692515
 30
0.0
 10
182.557106613808
 20
-64.54804008442422
 30
0.0
 10
183.6362512219872
 20
-64.3566873652005
 30
0.0
 10
184.183824619485
 20
-63.57306842619944
 30
0.0
 10
184.4163103970854
 20
-63.24036369801287
 30
0.0
 10
184.5244863739563
 20
-62.83654073296599
 30
0.0
 10
184.4894477150061
 20
-62.43217163755399
 30
0.0
  0
LINE
  5
1D2
330
70
100
AcDbEntity
  8
0
 62
    18
420
        0
370
    25
100
AcDbLine
 10
116.1893351527826
 20
-26.13954132842439
 30
0.0
 11
172.0427681703832
 21
-58.38304188722368
 31
0.0
  0
LINE
  5
1D3
330
70
100
AcDbEntity
  8
0
 62
    18
420
        0
370
    25
100
AcDbLine
 10
178.6558168018832
 20
-62.20067360162336
 30
0.0
 11
181.7734876747826
 21
-64.00046668692387
 31
0.0
  0
LINE
  5
1D4
330
70
100
AcDbEntity
  8
0
 62
    18
420
        0
370
    25
100
AcDbLine
 10
182.5234276237829
 20
-62.70139343172431
 30
0.0
 11
178.816420002283
 21
-60.56138348322358
 31
0.0
  0
LINE
  5
1D5
330
70
100
AcDbEntity
  8
0
 62
    18
420
        0
370
    25
100
AcDbLine
 10
173.5428904127833
 20
-57.51703965192412
 30
0.0
 11
116.9392751017829
 21
-24.84046807322355
 31
0.0
  0
LINE
  5
1D6
330
70
100
AcDbEntity
  8
0
 62
    18
420
        0
370
    25
100
AcDbLine
 10
114.2233150615825
 20
-18.45450036962441
 30
0.0
 11
114.2233150615825
 21
-22.73432886682365
 31
0.0
  0
LINE
  5
1D7
330
70
100
AcDbEntity
  8
0
 62
    18
420
        0
370
    25
100
AcDbLine
 10
115.7233134974832
 20
-22.73432734612399
 30
0.0
 11
115.7233134974832
 21
-17.58856735932336
 31
0.0
  0
SPLINE
  5
1D8
330
70
100
AcDbEntity
  8
0
 62
    18
420
        0
370
    25
100
AcDbSpline
210
0.0
220
0.0
230
1.0
 70
     8
 71
     3
 72
     8
 73
     4
 74
     0
 42
0.0000000001
 43
0.0000000001
 40
0.0
 40
0.0
 40
0.0
 40
0.0
 40
1.0
 40
1.0
 40
1.0
 40
1.0
 10
115.7233134975127
 20
-22.73432734616505
 30
0.0
 10
115.7717130591745
 20
-23.58947672162807
 30
0.0
 10
116.2229002567162
 20
-24.37096828268755
 30
0.0
 10
116.9392751017431
 20
-24.84046807324537
 30
0.0
  0
SPLINE
  5
1D9
330
70
100
AcDbEntity
  8
0
 62
    18
420
        0
370
    25
100
AcDbSpline
210
0.0
220
0.0
230
1.0
 70
     8
 71
     3
 72
     8
 73
     4
 74
     0
 42
0.0000000001
 43
0.0000000001
 40
0.0
 40
0.0
 40
0.0
 40
0.0
 40
1.0
 40
1.0
 40
1.0
 40
1.0
 10
114.2233150615337
 20
-22.73432886683264
 30
0.0
 10
114.2728141318883
 20
-24.12536740606518
 30
0.0
 10
115.009403548267
 20
-25.40116487675549
 30
0.0
 10
116.189335152753
 20
-26.13954132839231
 30
0.0
  0
LINE
  5
1DA
330
70
100
AcDbEntity
  8
0
 62
    18
420
        0
370
    25
100
AcDbLine
 10
188.8230801921833
 20
-54.78466121802348
 30
0.0
 11
188.8230801921833
 21
-59.06448971522401
 31
0.0
  0
LINE
  5
1DB
330
70
100
AcDbEntity
  8
0
 62
    18
420
        0
370
    25
100
AcDbLine
 10
190.3230786281828
 20
-59.06448819452434
 30
0.0
 11
190.3230786281828
 21
-53.91872820772371
 31
0.0
  0
LWPOLYLINE
  5
1DC
330
70
100
AcDbEntity
  8
0
 62
    18
420
        0
370
    25
100
AcDbPolyline
 90
        9
 70
     0
 43
0.0
 10
188.8230801921833
 20
-59.06448971522401
 10
188.8169096301831
 20
-59.18864732082353
 10
188.7814088128828
 20
-59.35666822622423
 10
188.7436590659834
 20
-59.4324510320239
 10
188.7320331212826
 20
-59.44509939702349
 10
188.7050341135827
 20
-59.44973021642431
 10
188.6089715675828
 20
-59.43913532262402
 10
188.4278579984833
 20
-59.37170588152369
 10
188.3570578783826
 20
-59.33371036892444
  0
SPLINE
  5
1DD
330
70
100
AcDbEntity
  8
0
 62
    18
420
        0
370
    25
100
AcDbSpline
210
0.0
220
0.0
230
1.0
 70
     8
 71
     3
 72
    11
 73
     7
 74
     0
 42
0.0000000001
 43
0.0000000001
 40
0.0
 40
0.0
 40
0.0
 40
0.0
 40
1.0
 40
1.0
 40
1.0
 40
2.0
 40
2.0
 40
2.0
 40
2.0
 10
187.607119246535
 20
-60.63278286368497
 30
0.0
 10
188.390737419495
 20
-61.18035646103866
 30
0.0
 10
189.4698815686886
 20
-60.98900452483022
 30
0.0
 10
190.0174551660436
 20
-60.2053863518715
 30
0.0
 10
190.2499414580531
 20
-59.87268133420294
 30
0.0
 10
190.3581175879781
 20
-59.46885779775644
 30
0.0
 10
190.3230786281892
 20
-59.06448819448327
 30
0.0
  0
LINE
  5
1DE
330
70
100
AcDbEntity
  8
0
 62
    18
420
        0
370
    25
100
AcDbLine
 10
122.0229667244824
 20
-22.771857505224
 30
0.0
 11
177.8763997421831
 21
-55.01535806412339
 31
0.0
  0
LINE
  5
1DF
330
70
100
AcDbEntity
  8
0
 62
    18
420
        0
370
    25
100
AcDbLine
 10
184.4894483735831
 20
-58.83298977842425
 30
0.0
 11
187.6071192465824
 21
-60.63278286372348
 31
0.0
  0
LINE
  5
1E0
330
70
100
AcDbEntity
  8
0
 62
    18
420
        0
370
    25
100
AcDbLine
 10
188.3570578783826
 20
-59.33371036892444
 30
0.0
 11
184.6500502568827
 21
-57.19370042042371
 31
0.0
  0
LINE
  5
1E1
330
70
100
AcDbEntity
  8
0
 62
    18
420
        0
370
    25
100
AcDbLine
 10
179.376520667383
 20
-54.14935658902415
 30
0.0
 11
122.7729053563826
 21
-21.47278501042368
 31
0.0
  0
LINE
  5
1E2
330
70
100
AcDbEntity
  8
0
 62
    18
420
        0
370
    25
100
AcDbLine
 10
120.0569459746822
 20
-15.08681692662429
 30
0.0
 11
120.0569459746822
 21
-19.36664542382352
 31
0.0
  0
LINE
  5
1E3
330
70
100
AcDbEntity
  8
0
 62
    18
420
        0
370
    25
100
AcDbLine
 10
121.556944410683
 20
-19.36664390312386
 30
0.0
 11
121.556944410683
 21
-14.22088391632323
 31
0.0
  0
SPLINE
  5
1E4
330
70
100
AcDbEntity
  8
0
 62
    18
420
        0
370
    25
100
AcDbSpline
210
0.0
220
0.0
230
1.0
 70
     8
 71
     3
 72
     8
 73
     4
 74
     0
 42
0.0000000001
 43
0.0000000001
 40
0.0
 40
0.0
 40
0.0
 40
0.0
 40
1.0
 40
1.0
 40
1.0
 40
1.0
 10
121.5569444106612
 20
-19.36664390311744
 30
0.0
 10
121.605344916048
 20
-20.221792932208
 30
0.0
 10
122.056531576757
 20
-21.00328412773773
 30
0.0
 10
122.7729053563479
 20
-21.4727850103685
 30
0.0
  0
SPLINE
  5
1E5
330
70
100
AcDbEntity
  8
0
 62
    18
420
        0
370
    25
100
AcDbSpline
210
0.0
220
0.0
230
1.0
 70
     8
 71
     3
 72
     8
 73
     4
 74
     0
 42
0.0000000001
 43
0.0000000001
 40
0.0
 40
0.0
 40
0.0
 40
0.0
 40
1.0
 40
1.0
 40
1.0
 40
1.0
 10
120.0569459746771
 20
-19.36664542381967
 30
0.0
 10
120.1064442391718
 20
-20.75768426209553
 30
0.0
 10
120.8430341724674
 20
-22.03348205831976
 30
0.0
 10
122.0229667244439
 20
-22.77185750520604
 30
0.0
  0
LINE
  5
1E6
330
70
100
AcDbEntity
  8
0
 62
    18
420
        0
370
    25
100
AcDbLine
 10
189.0061483214824
 20
-48.59029112002392
 30
0.0
 11
157.5181225536827
 21
-66.76794147362369
 31
0.0
  0
LINE
  5
1E7
330
70
100
AcDbEntity
  8
0
 62
    18
420
        0
370
    25
100
AcDbLine
 10
159.3590916282835
 20
-71.79385809342395
 30
0.0
 11
190.8471173960831
 21
-53.61620773992429
 31
0.0
  0
SPLINE
  5
1E8
330
70
100
AcDbEntity
  8
0
 62
    18
420
        0
370
    25
100
AcDbSpline
210
0.0
220
0.0
230
1.0
 70
     8
 71
     3
 72
     8
 73
     4
 74
     0
 42
0.0000000001
 43
0.0000000001
 40
0.0
 40
0.0
 40
0.0
 40
0.0
 40
1.0
 40
1.0
 40
1.0
 40
1.0
 10
192.5062692467593
 20
-45.0511538186276
 30
0.0
 10
192.0738942174003
 20
-44.44208063247965
 30
0.0
 10
191.5059086036719
 20
-43.9418050239162
 30
0.0
 10
190.8471182192777
 20
-43.58979147086865
 30
0.0
  0
LINE
  5
1E9
330
70
100
AcDbEntity
  8
0
 62
    18
420
        0
370
    25
100
AcDbLine
 10
193.0956043488833
 20
-50.44021659062396
 30
0.0
 11
193.0956043488833
 21
-46.76578309532401
 31
0.0
  0
SPLINE
  5
1EA
330
70
100
AcDbEntity
  8
0
 62
    18
420
        0
370
    25
100
AcDbSpline
210
0.0
220
0.0
230
1.0
 70
     8
 71
     3
 72
     8
 73
     4
 74
     0
 42
0.0000000001
 43
0.0000000001
 40
0.0
 40
0.0
 40
0.0
 40
0.0
 40
1.0
 40
1.0
 40
1.0
 40
1.0
 10
189.0061483214798
 20
-48.59029112009708
 30
0.0
 10
189.8043317691877
 20
-48.26667259432859
 30
0.0
 10
190.3266712720449
 20
-47.49150048562113
 30
0.0
 10
190.3269248574187
 20
-46.63020744483326
 30
0.0
  0
SPLINE
  5
1EB
330
70
100
AcDbEntity
  8
0
 62
    18
420
        0
370
    25
100
AcDbSpline
210
0.0
220
0.0
230
1.0
 70
     8
 71
     3
 72
     8
 73
     4
 74
     0
 42
0.0000000001
 43
0.0000000001
 40
0.0
 40
0.0
 40
0.0
 40
0.0
 40
1.0
 40
1.0
 40
1.0
 40
1.0
 10
190.8471173960946
 20
-53.61620773985113
 30
0.0
 10
191.5091424753208
 20
-53.25500686745298
 30
0.0
 10
192.0818241109492
 20
-52.75006103265829
 30
0.0
 10
192.5230795831395
 20
-52.13847548344264
 30
0.0
  0
LINE
  5
1EC
330
70
100
AcDbEntity
  8
0
 62
    18
420
        0
370
    25
100
AcDbLine
 10
190.8471182192829
 20
-43.58979147092384
 30
0.0
 11
130.7430411861827
 21
-8.892446353423492
 31
0.0
  0
LINE
  5
1ED
330
70
100
AcDbEntity
  8
0
 62
    18
420
        0
370
    25
100
AcDbLine
 10
128.9020712883822
 20
-13.91836344852381
 30
0.0
 11
188.984134495683
 21
-48.60300025482349
 31
0.0
  0
LINE
  5
1EE
330
70
100
AcDbEntity
  8
0
 62
    18
420
        0
370
    25
100
AcDbLine
 10
120.2400141039826
 20
-8.892446828623448
 30
0.0
 11
88.75198833618297
 21
-27.07009718222322
 31
0.0
  0
LINE
  5
1EF
330
70
100
AcDbEntity
  8
0
 62
    18
420
        0
370
    25
100
AcDbLine
 10
90.59295741078239
 20
-32.09601380202348
 30
0.0
 11
122.0809831785833
 21
-13.91836344852381
 31
0.0
  0
SPLINE
  5
1F0
330
70
100
AcDbEntity
  8
0
 62
    18
420
        0
370
    25
100
AcDbSpline
210
0.0
220
0.0
230
1.0
 70
     8
 71
     3
 72
     8
 73
     4
 74
     0
 42
0.0000000001
 43
0.0000000001
 40
0.0
 40
0.0
 40
0.0
 40
0.0
 40
1.0
 40
1.0
 40
1.0
 40
1.0
 10
130.7430411861583
 20
-8.892446353413225
 30
0.0
 10
127.4548667257622
 20
-7.166021277688931
 30
0.0
 10
123.5281884080879
 20
-7.166021455352294
 30
0.0
 10
120.2400141039159
 20
-8.892446828623448
 30
0.0
  0
SPLINE
  5
1F1
330
70
100
AcDbEntity
  8
0
 62
    18
420
        0
370
    25
100
AcDbSpline
210
0.0
220
0.0
230
1.0
 70
     8
 71
     3
 72
     8
 73
     4
 74
     0
 42
0.0000000001
 43
0.0000000001
 40
0.0
 40
0.0
 40
0.0
 40
0.0
 40
1.0
 40
1.0
 40
1.0
 40
1.0
 10
128.902071288372
 20
-13.91836344845579
 30
0.0
 10
127.8805302159327
 20
-13.36714928909318
 30
0.0
 10
126.7343330894136
 20
-13.08807984021563
 30
0.0
 10
125.5737356492824
 20
-13.10799953199802
 30
0.0
  0
SPLINE
  5
1F2
330
70
100
AcDbEntity
  8
0
 62
    18
420
        0
370
    25
100
AcDbSpline
210
0.0
220
0.0
230
1.0
 70
     8
 71
     3
 72
     8
 73
     4
 74
     0
 42
0.0000000001
 43
0.0000000001
 40
0.0
 40
0.0
 40
0.0
 40
0.0
 40
1.0
 40
1.0
 40
1.0
 40
1.0
 10
125.5737356493196
 20
-13.1079995320609
 30
0.0
 10
124.3583853805381
 20
-13.06529517865191
 30
0.0
 10
123.1533686491397
 20
-13.34487470397629
 30
0.0
 10
122.0809831785589
 20
-13.91836344851611
 30
0.0
  0
SPLINE
  5
1F3
330
70
100
AcDbEntity
  8
0
 62
    18
420
        0
370
    25
100
AcDbSpline
210
0.0
220
0.0
230
1.0
 70
     8
 71
     3
 72
     8
 73
     4
 74
     0
 42
0.0000000001
 43
0.0000000001
 40
0.0
 40
0.0
 40
0.0
 40
0.0
 40
1.0
 40
1.0
 40
1.0
 40
1.0
 10
174.9113536382183
 20
-27.88327829463108
 30
0.0
 10
173.2971053428994
 20
-29.02193101413957
 30
0.0
 10
172.2854139215329
 20
-30.83041913342661
 30
0.0
 10
172.1598389446735
 20
-32.80185477776611
 30
0.0
  0
LWPOLYLINE
  5
1F4
330
70
100
AcDbEntity
  8
0
 62
    18
420
        0
370
    25
100
AcDbPolyline
 90
       17
 70
     0
 43
0.0
 10
172.9069784331833
 20
-39.32185572932426
 10
173.2111897758828
 20
-40.22724179802439
 10
173.6492977050827
 20
-41.32821479252341
 10
174.1506425352826
 20
-42.41649397472407
 10
174.7113416526824
 20
-43.48388485512361
 10
175.3271125424831
 20
-44.52233186742436
 10
175.9932958374833
 20
-45.52396437412354
 10
176.7048762273825
 20
-46.48114314752373
 10
177.4565680693832
 20
-47.38658127662395
 10
178.2428466689823
 20
-48.2333572820235
 10
179.0579789022831
 20
-49.0149430622244
 10
179.8960801801826
 20
-49.72524780652381
 10
180.751145893783
 20
-50.35863101682398
 10
181.6170779211834
 20
-50.90991305972351
 10
182.4876880840829
 20
-51.37437925512338
 10
183.3566573186822
 20
-51.74778368262391
 10
183.471967638883
 20
-51.78510569672367
  0
LINE
  5
1F5
330
70
100
AcDbEntity
  8
0
 62
    18
420
        0
370
    25
100
AcDbLine
 10
176.5998421649826
 20
-26.89793014912341
 30
0.0
 11
175.0584025109829
 21
-27.78778432032445
 31
0.0
  0
SPLINE
  5
1F6
330
70
100
AcDbEntity
  8
0
 62
    18
420
        0
370
    25
100
AcDbSpline
210
0.0
220
0.0
230
1.0
 70
     8
 71
     3
 72
     8
 73
     4
 74
     0
 42
0.0000000001
 43
0.0000000001
 40
0.0
 40
0.0
 40
0.0
 40
0.0
 40
1.0
 40
1.0
 40
1.0
 40
1.0
 10
133.8991601924803
 20
-4.207442972707385
 30
0.0
 10
132.2849109135433
 20
-5.34609489029999
 30
0.0
 10
131.2732194043346
 20
-7.154583739237333
 30
0.0
 10
131.1476461574778
 20
-9.126019836010591
 30
0.0
  0
LWPOLYLINE
  5
1F7
330
70
100
AcDbEntity
  8
0
 62
    18
420
        0
370
    25
100
AcDbPolyline
 90
       24
 70
     0
 43
0.0
 10
131.8947849873824
 20
-15.64602040732356
 10
132.1989963300832
 20
-16.5514064761238
 10
132.6371042592831
 20
-17.6523794706241
 10
133.138450406583
 20
-18.74065941312391
 10
133.6991482068828
 20
-19.8080495332243
 10
134.3149190966834
 20
-20.84649654552377
 10
134.9811023916824
 20
-21.84812905212413
 10
135.6926814644827
 20
-22.805307065324
 10
136.4443759406824
 20
-23.71074671502378
 10
137.2306519060825
 20
-24.55752119972367
 10
138.0457867735823
 20
-25.33910850062423
 10
138.883886734383
 20
-26.04941248452441
 10
139.7389524480822
 20
-26.68279569492339
 10
140.6048844753825
 20
-27.2340777378242
 10
141.4754946382833
 20
-27.69854393322408
 10
142.3444651899827
 20
-28.07194912102374
 10
143.2050150976825
 20
-28.35047842892398
 10
144.0501066608825
 20
-28.53104847902438
 10
144.8722705031821
 20
-28.61148979582414
 10
145.6636817986828
 20
-28.59089743022435
 10
146.4165430510822
 20
-28.46995056342381
 10
147.1237518578833
 20
-28.25093295482324
 10
147.7795034785823
 20
-27.93725419012344
 10
147.9597983122824
 20
-27.81566682232404
  0
LINE
  5
1F8
330
70
100
AcDbEntity
  8
0
 62
    18
420
        0
370
    25
100
AcDbLine
 10
147.7950918856825
 20
-27.92829353202325
 30
0.0
 11
149.3365315396822
 21
-27.0384393608235
 31
0.0
  0
LINE
  5
1F9
330
70
100
AcDbEntity
  8
0
 62
    18
420
        0
370
    25
100
AcDbLine
 10
135.5876500362831
 20
-3.222095587523235
 30
0.0
 11
134.0462103822834
 21
-4.111949758724277
 31
0.0
  0
SPLINE
  5
1FA
330
70
100
AcDbEntity
  8
0
 62
    18
420
        0
370
    25
100
AcDbSpline
210
0.0
220
0.0
230
1.0
 70
     8
 71
     3
 72
     8
 73
     4
 74
     0
 42
0.0000000001
 43
0.0000000001
 40
0.0
 40
0.0
 40
0.0
 40
0.0
 40
1.0
 40
1.0
 40
1.0
 40
1.0
 10
157.4187034063556
 20
-70.58433248775158
 30
0.0
 10
157.4725732391664
 20
-70.69547913227686
 30
0.0
 10
157.5582618595716
 20
-70.7881073016963
 30
0.0
 10
157.6648857826853
 20
-70.85045210497582
 30
0.0
  0
SPLINE
  5
1FB
330
70
100
AcDbEntity
  8
0
 62
    18
420
        0
370
    25
100
AcDbSpline
210
0.0
220
0.0
230
1.0
 70
     8
 71
     3
 72
     8
 73
     4
 74
     0
 42
0.0000000001
 43
0.0000000001
 40
0.0
 40
0.0
 40
0.0
 40
0.0
 40
1.0
 40
1.0
 40
1.0
 40
1.0
 10
157.418703406398
 20
-66.90989899246446
 30
0.0
 10
157.0368652090851
 20
-68.10495038457803
 30
0.0
 10
157.0368652090851
 20
-69.38928109566882
 30
0.0
 10
157.418703406398
 20
-70.58433248778367
 30
0.0
  0
LWPOLYLINE
  5
1FC
330
70
100
AcDbEntity
  8
0
 62
    18
420
        0
370
    25
100
AcDbPolyline
 90
        6
 70
     0
 43
0.0
 10
157.6648857826827
 20
-66.76774813682341
 10
157.6059434150828
 20
-66.74820185632412
 10
157.5466296283827
 20
-66.75492835522401
 10
157.4914778428829
 20
-66.78709907882439
 10
157.4450952360822
 20
-66.84478373572355
 10
157.4187034063825
 20
-66.9098989925235
  0
LINE
  5
1FD
330
70
100
AcDbEntity
  8
0
 62
    18
420
        0
370
    25
100
AcDbLine
 10
159.2558766304827
 20
-67.68620760332396
 30
0.0
 11
157.6648857826827
 21
-66.76774813682341
 31
0.0
  0
SPLINE
  5
1FE
330
70
100
AcDbEntity
  8
0
 62
    18
420
        0
370
    25
100
AcDbSpline
210
0.0
220
0.0
230
1.0
 70
     8
 71
     3
 72
     8
 73
     4
 74
     0
 42
0.0000000001
 43
0.0000000001
 40
0.0
 40
0.0
 40
0.0
 40
0.0
 40
1.0
 40
1.0
 40
1.0
 40
1.0
 10
159.3632483611744
 20
-68.03246090050774
 30
0.0
 10
159.4078144215019
 20
-67.90599560661835
 30
0.0
 10
159.3641759744944
 20
-67.76526996072447
 30
0.0
 10
159.2558766304147
 20
-67.68620760328804
 30
0.0
  0
SPLINE
  5
1FF
330
70
100
AcDbEntity
  8
0
 62
    18
420
        0
370
    25
100
AcDbSpline
210
0.0
220
0.0
230
1.0
 70
     8
 71
     3
 72
     8
 73
     4
 74
     0
 42
0.0000000001
 43
0.0000000001
 40
0.0
 40
0.0
 40
0.0
 40
0.0
 40
1.0
 40
1.0
 40
1.0
 40
1.0
 10
159.3632483611975
 20
-68.03246090046411
 30
0.0
 10
158.9814101638847
 20
-69.22751229257895
 30
0.0
 10
158.9814101638847
 20
-70.51184300366975
 30
0.0
 10
159.3632483611975
 20
-71.70689439578331
 30
0.0
  0
LWPOLYLINE
  5
200
330
70
100
AcDbEntity
  8
0
 62
    18
420
        0
370
    25
100
AcDbPolyline
 90
        6
 70
     0
 43
0.0
 10
159.2558766304827
 20
-71.76891157142377
 10
159.3074617388826
 20
-71.7927081487243
 10
159.3461103989828
 20
-71.79790833212415
 10
159.3694808264833
 20
-71.78408763732375
 10
159.374857183783
 20
-71.75007234302356
 10
159.3632483611834
 20
-71.70689439582438
  0
LINE
  5
201
330
70
100
AcDbEntity
  8
0
 62
    18
420
        0
370
    25
100
AcDbLine
 10
159.2558766304827
 20
-71.76891157142377
 30
0.0
 11
157.6648857826827
 21
-70.85045210502332
 31
0.0
  0
LINE
  5
202
330
70
100
AcDbEntity
  8
0
 62
    18
420
        0
370
    25
100
AcDbLine
 10
190.8989053361832
 20
-49.82731363632332
 30
0.0
 11
159.3632483611834
 21
-68.03246090052443
 31
0.0
  0
LINE
  5
203
330
70
100
AcDbEntity
  8
0
 62
    18
420
        0
370
    25
100
AcDbLine
 10
190.8989053361832
 20
-49.82731363632332
 30
0.0
 11
190.8989053361832
 21
-53.50174713162326
 31
0.0
  0
LINE
  5
204
330
70
100
AcDbEntity
  8
0
 62
    18
420
        0
370
    25
100
AcDbLine
 10
159.3632483611834
 20
-71.70689439582438
 30
0.0
 11
190.8989053361832
 21
-53.50174713162326
 31
0.0
  0
LINE
  5
205
330
70
100
AcDbEntity
  8
0
 62
    18
420
        0
370
    25
100
AcDbLine
 10
159.2558766304827
 20
-67.68620760332396
 30
0.0
 11
190.7221282825832
 21
-49.52112717912379
 31
0.0
  0
SPLINE
  5
206
330
70
100
AcDbEntity
  8
0
 62
    18
420
        0
370
    25
100
AcDbSpline
210
0.0
220
0.0
230
1.0
 70
     8
 71
     3
 72
     8
 73
     4
 74
     0
 42
0.0000000001
 43
0.0000000001
 40
0.0
 40
0.0
 40
0.0
 40
0.0
 40
1.0
 40
1.0
 40
1.0
 40
1.0
 10
190.8989053361241
 20
-49.82731363634385
 30
0.0
 10
190.893228599123
 20
-49.70259129413459
 30
0.0
 10
190.8273027033764
 20
-49.58840443530088
 30
0.0
 10
190.7221282825794
 20
-49.52112717912122
 30
0.0
  0
LINE
  5
207
330
70
100
AcDbEntity
  8
0
 62
    18
420
        0
370
    25
100
AcDbLine
 10
189.1311374348834
 20
-48.60266771262324
 30
0.0
 11
157.6648857826827
 21
-66.76774813682341
 31
0.0
  0
LINE
  5
208
330
70
100
AcDbEntity
  8
0
 62
    18
420
        0
370
    25
100
AcDbLine
 10
190.7221282825832
 20
-49.52112717912379
 30
0.0
 11
189.1311374348834
 21
-48.60266771262324
 31
0.0
  0
SPLINE
  5
209
330
70
100
AcDbEntity
  8
0
 62
    18
420
        0
370
    25
100
AcDbSpline
210
0.0
220
0.0
230
1.0
 70
     8
 71
     3
 72
     8
 73
     4
 74
     0
 42
0.0000000001
 43
0.0000000001
 40
0.0
 40
0.0
 40
0.0
 40
0.0
 40
1.0
 40
1.0
 40
1.0
 40
1.0
 10
192.5470331517532
 20
-48.39119901408188
 30
0.0
 10
193.2640857899839
 20
-47.42471173855558
 30
0.0
 10
193.2631465517918
 20
-46.1025444474364
 30
0.0
 10
192.5447214958946
 20
-45.13707690328581
 30
0.0
  0
LWPOLYLINE
  5
20A
330
70
100
AcDbEntity
  8
0
 62
    18
420
        0
370
    25
100
AcDbPolyline
 90
       13
 70
     0
 43
0.0
 10
190.7221282825832
 20
-49.52112717912379
 10
191.3474149758826
 20
-49.10951825682341
 10
191.8742874607831
 20
-48.65431528062337
 10
192.2937315799834
 20
-48.163307166124
 10
192.598565247283
 20
-47.64489186112419
 10
192.7835787170823
 20
-47.10794366572319
 10
192.8456047193829
 20
-46.56164804902358
 10
192.7835783877829
 20
-46.01535148182395
 10
192.5985649180825
 20
-45.47840252602371
 10
192.2937305921826
 20
-44.95998912192383
 10
191.8742869667826
 20
-44.46897920162433
 10
191.3474146465832
 20
-44.01377613032321
 10
190.7221282825832
 20
-43.60216853872439
  0
SPLINE
  5
20B
330
70
100
AcDbEntity
  8
0
 62
    18
420
        0
370
    25
100
AcDbSpline
210
0.0
220
0.0
230
1.0
 70
     8
 71
     3
 72
     8
 73
     4
 74
     0
 42
0.0000000001
 43
0.0000000001
 40
0.0
 40
0.0
 40
0.0
 40
0.0
 40
1.0
 40
1.0
 40
1.0
 40
1.0
 10
192.5566643652118
 20
-52.05183349155229
 30
0.0
 10
192.8976615779922
 20
-51.58277753544624
 30
0.0
 10
193.0858457230337
 20
-51.02004187323911
 30
0.0
 10
193.095604348927
 20
-50.44021659067273
 30
0.0
  0
LWPOLYLINE
  5
20C
330
70
100
AcDbEntity
  8
0
 62
    18
420
        0
370
    25
100
AcDbPolyline
 90
       11
 70
     0
 43
0.0
 10
189.1311380934823
 20
-44.52062762492329
 10
189.6406895406832
 20
-44.86504232152357
 10
190.0506351432833
 20
-45.25123139002391
 10
190.3508873163825
 20
-45.66968982882386
 10
190.5340459954827
 20
-46.11010933792443
 10
190.5956050897822
 20
-46.56164842912374
 10
190.5340453369827
 20
-47.01318599972348
 10
190.3508876456832
 20
-47.45360683942423
 10
190.0506354724826
 20
-47.87206299722409
 10
189.6406895406832
 20
-48.25825415662375
 10
189.1311374348834
 20
-48.60266771262324
  0
LINE
  5
20D
330
70
100
AcDbEntity
  8
0
 62
    18
420
        0
370
    25
100
AcDbLine
 10
189.1311380934823
 20
-44.52062762492329
 30
0.0
 11
190.7221282825832
 21
-43.60216853872439
 31
0.0
  0
LINE
  5
20E
330
70
100
AcDbEntity
  8
0
 62
    18
420
        0
370
    25
100
AcDbLine
 10
190.3456028259827
 20
-46.76578233502359
 30
0.0
 11
190.3383245920824
 21
-46.61402013042359
 31
0.0
  0
SPLINE
  5
20F
330
70
100
AcDbEntity
  8
0
 62
    18
420
        0
370
    25
100
AcDbSpline
210
0.0
220
0.0
230
1.0
 70
     8
 71
     3
 72
     8
 73
     4
 74
     0
 42
0.0000000001
 43
0.0000000001
 40
0.0
 40
0.0
 40
0.0
 40
0.0
 40
1.0
 40
1.0
 40
1.0
 40
1.0
 10
189.1311380934232
 20
-44.52062762491688
 30
0.0
 10
189.0259629019624
 20
-44.58790401045211
 30
0.0
 10
188.9600368326863
 20
-44.70209131164875
 30
0.0
 10
188.9543613691497
 20
-44.82681389205413
 30
0.0
  0
LINE
  5
210
330
70
100
AcDbEntity
  8
0
 62
    18
420
        0
370
    25
100
AcDbLine
 10
188.954361369183
 20
-44.82681389212343
 30
0.0
 11
188.954361369183
 21
-48.50124738742338
 31
0.0
  0
LINE
  5
211
330
70
100
AcDbEntity
  8
0
 62
    18
420
        0
370
    25
100
AcDbLine
 10
129.0270610603834
 20
-9.823282507524332
 30
0.0
 11
189.1311380934823
 21
-44.52062762492329
 31
0.0
  0
LINE
  5
212
330
70
100
AcDbEntity
  8
0
 62
    18
420
        0
370
    25
100
AcDbLine
 10
188.954361369183
 20
-44.82681389212343
 30
0.0
 11
128.8502843360829
 21
-10.12946877462436
 31
0.0
  0
SPLINE
  5
213
330
70
100
AcDbEntity
  8
0
 62
    18
420
        0
370
    25
100
AcDbSpline
210
0.0
220
0.0
230
1.0
 70
     8
 71
     3
 72
     8
 73
     4
 74
     0
 42
0.0000000001
 43
0.0000000001
 40
0.0
 40
0.0
 40
0.0
 40
0.0
 40
1.0
 40
1.0
 40
1.0
 40
1.0
 10
129.0270610604232
 20
-9.823282507516632
 30
0.0
 10
128.9218858689623
 20
-9.890558893053148
 30
0.0
 10
128.8559597996862
 20
-10.0047461942485
 30
0.0
 10
128.8502843361496
 20
-10.12946877465388
 30
0.0
  0
LINE
  5
214
330
70
100
AcDbEntity
  8
0
 62
    18
420
        0
370
    25
100
AcDbLine
 10
128.8502843360829
 20
-13.80390227002442
 30
0.0
 11
188.954361369183
 21
-48.50124738742338
 31
0.0
  0
LINE
  5
215
330
70
100
AcDbEntity
  8
0
 62
    18
420
        0
370
    25
100
AcDbLine
 10
128.8502843360829
 20
-10.12946877462436
 30
0.0
 11
128.8502843360829
 21
-13.80390227002442
 31
0.0
  0
LWPOLYLINE
  5
216
330
70
100
AcDbEntity
  8
0
 62
    18
420
        0
370
    25
100
AcDbPolyline
 90
       26
 70
     0
 43
0.0
 10
180.8226327111827
 20
-41.96968360752427
 10
180.7782033473827
 20
-41.5379042187236
 10
180.6477048505833
 20
-41.08195684022411
 10
180.4393374169822
 20
-40.6304906191241
 10
180.1661929114823
 20
-40.21187258712411
 10
179.8454356378824
 20
-39.85240678082329
 10
179.4972183755833
 20
-39.57467914832357
 10
179.143421924083
 20
-39.39614064022411
 10
178.8062761119834
 20
-39.32800932512399
 10
178.5069663159831
 20
-39.37456680752362
 10
178.2642966160824
 20
-39.53288629762419
 10
178.0935175858824
 20
-39.7930215536241
 10
178.0053569154832
 20
-40.13862551392381
 10
178.0053569154832
 20
-40.54798430422358
 10
178.0935175858824
 20
-40.99537640792408
 10
178.2642966160824
 20
-41.4526889351235
 10
178.5069663159831
 20
-41.89118889692337
 10
178.8062761119834
 20
-42.28332211402331
 10
179.143421924083
 20
-42.60445106792448
 10
179.4972183755833
 20
-42.83439724782339
 10
179.8454356378824
 20
-42.95871270882366
 10
180.1661929114823
 20
-42.96958536762439
 10
180.4393374169822
 20
-42.86633326902342
 10
180.6477048505833
 20
-42.65544296592408
 10
180.7782033473827
 20
-42.35016594472434
 10
180.8226327111827
 20
-41.96968360752427
  0
LWPOLYLINE
  5
217
330
70
100
AcDbEntity
  8
0
 62
    18
420
        0
370
    25
100
AcDbPolyline
 90
       26
 70
     0
 43
0.0
 10
139.8104392653831
 20
-18.29384828552358
 10
139.7660099015831
 20
-17.8620688968243
 10
139.6355114047823
 20
-17.40612151832352
 10
139.4271439711826
 20
-16.95465529722351
 10
139.1539994656827
 20
-16.53603726522352
 10
138.8332421921829
 20
-16.17657145892398
 10
138.4850249297824
 20
-15.89884382642426
 10
138.1312284782834
 20
-15.7203053182234
 10
137.7940839831824
 20
-15.65217476352381
 10
137.4947728701822
 20
-15.6987314856243
 10
137.2521031702828
 20
-15.85705097572359
 10
137.0813241400828
 20
-16.11718623162339
 10
136.9931647867824
 20
-16.46279095232364
 10
136.9931647867824
 20
-16.87214974262342
 10
137.0813241400828
 20
-17.31954108602349
 10
137.2521031702828
 20
-17.77685361312409
 10
137.4947728701822
 20
-18.21535357502406
 10
137.7940839831824
 20
-18.60748755242442
 10
138.1312284782834
 20
-18.92861574602389
 10
138.4850249297824
 20
-19.15856192592407
 10
138.8332421921829
 20
-19.28287738682425
 10
139.1539994656827
 20
-19.2937500457238
 10
139.4271439711826
 20
-19.19049794712411
 10
139.6355114047823
 20
-18.97960764402349
 10
139.7660099015831
 20
-18.67433062272365
 10
139.8104392653831
 20
-18.29384828552358
  0
LINE
  5
218
330
70
100
AcDbEntity
  8
0
 62
    18
420
        0
370
    25
100
AcDbLine
 10
130.6180512495832
 20
-8.90482342122404
 30
0.0
 11
129.0270610603834
 21
-9.823282507524332
 31
0.0
  0
LINE
  5
219
330
70
100
AcDbEntity
  8
0
 62
    18
420
        0
370
    25
100
AcDbLine
 10
190.7221282825832
 20
-43.60216853872439
 30
0.0
 11
130.6180512495832
 21
-8.90482342122404
 31
0.0
  0
LWPOLYLINE
  5
21A
330
70
100
AcDbEntity
  8
0
 62
    18
420
        0
370
    25
100
AcDbPolyline
 90
       13
 70
     0
 43
0.0
 10
179.6863293091831
 20
-39.71247094102429
 10
179.6070049889829
 20
-39.74073699512439
 10
179.4461620783828
 20
-39.88651728182433
 10
179.3611334456834
 20
-40.12344259052373
 10
179.3611334456834
 20
-40.42583854412344
 10
179.4461620783828
 20
-40.76093582242432
 10
179.6070049889829
 20
-41.09242138092428
 10
179.8262331385827
 20
-41.38437397812384
 10
180.0800875584827
 20
-41.6051548362243
 10
180.3410621615824
 20
-41.73084056762356
 10
180.5808737782824
 20
-41.74780984812391
 10
180.7735362424834
 20
-41.6542243208232
 10
180.7951035750832
 20
-41.63313166682377
  0
LWPOLYLINE
  5
21B
330
70
100
AcDbEntity
  8
0
 62
    18
420
        0
370
    25
100
AcDbPolyline
 90
        6
 70
     0
 43
0.0
 10
88.89875156518298
 20
-27.06990384542422
 10
88.83980656338284
 20
-27.05035604422399
 10
88.78049541078285
 20
-27.05708406382353
 10
88.72534099118295
 20
-27.08925326672424
 10
88.67896101858248
 20
-27.14693944432436
 10
88.65256918888281
 20
-27.21205470112431
  0
LINE
  5
21C
330
70
100
AcDbEntity
  8
0
 62
    18
420
        0
370
    25
100
AcDbLine
 10
90.48974241298292
 20
-27.98836331192349
 30
0.0
 11
88.89875156518298
 21
-27.06990384542422
 31
0.0
  0
SPLINE
  5
21D
330
70
100
AcDbEntity
  8
0
 62
    18
420
        0
370
    25
100
AcDbSpline
210
0.0
220
0.0
230
1.0
 70
     8
 71
     3
 72
     8
 73
     4
 74
     0
 42
0.0000000001
 43
0.0000000001
 40
0.0
 40
0.0
 40
0.0
 40
0.0
 40
1.0
 40
1.0
 40
1.0
 40
1.0
 10
90.59711414369393
 20
-28.33461660908802
 30
0.0
 10
90.64167809836877
 20
-28.20815127507318
 30
0.0
 10
90.59804004349647
 20
-28.06742689374094
 30
0.0
 10
90.48974241293414
 20
-27.98836331186959
 30
0.0
  0
SPLINE
  5
21E
330
70
100
AcDbEntity
  8
0
 62
    18
420
        0
370
    25
100
AcDbSpline
210
0.0
220
0.0
230
1.0
 70
     8
 71
     3
 72
     8
 73
     4
 74
     0
 42
0.0000000001
 43
0.0000000001
 40
0.0
 40
0.0
 40
0.0
 40
0.0
 40
1.0
 40
1.0
 40
1.0
 40
1.0
 10
90.59711414369777
 20
-28.33461660906364
 30
0.0
 10
90.21527594638497
 20
-29.52966800117847
 30
0.0
 10
90.21527594638497
 20
-30.81399871226928
 30
0.0
 10
90.59711414369777
 20
-32.00905010438412
 30
0.0
  0
LWPOLYLINE
  5
21F
330
70
100
AcDbEntity
  8
0
 62
    18
420
        0
370
    25
100
AcDbPolyline
 90
        6
 70
     0
 43
0.0
 10
90.48974241298292
 20
-32.07106728002329
 10
90.54132488718265
 20
-32.09486233662416
 10
90.57997618138289
 20
-32.10006404072368
 10
90.60334397478273
 20
-32.0862418252236
 10
90.60872296628327
 20
-32.05222805162437
 10
90.59711414368239
 20
-32.0090501044239
  0
LINE
  5
220
330
70
100
AcDbEntity
  8
0
 62
    18
420
        0
370
    25
100
AcDbLine
 10
90.48974241298292
 20
-32.07106728002329
 30
0.0
 11
88.89875156518298
 21
-31.15260781362412
 31
0.0
  0
SPLINE
  5
221
330
70
100
AcDbEntity
  8
0
 62
    18
420
        0
370
    25
100
AcDbSpline
210
0.0
220
0.0
230
1.0
 70
     8
 71
     3
 72
     8
 73
     4
 74
     0
 42
0.0000000001
 43
0.0000000001
 40
0.0
 40
0.0
 40
0.0
 40
0.0
 40
1.0
 40
1.0
 40
1.0
 40
1.0
 10
88.65256918885071
 20
-30.88648819636651
 30
0.0
 10
88.70643829501821
 20
-30.99763533684685
 30
0.0
 10
88.79212709113987
 20
-31.09026369621306
 30
0.0
 10
88.89875156518105
 20
-31.15260781359075
 30
0.0
  0
SPLINE
  5
222
330
70
100
AcDbEntity
  8
0
 62
    18
420
        0
370
    25
100
AcDbSpline
210
0.0
220
0.0
230
1.0
 70
     8
 71
     3
 72
     8
 73
     4
 74
     0
 42
0.0000000001
 43
0.0000000001
 40
0.0
 40
0.0
 40
0.0
 40
0.0
 40
1.0
 40
1.0
 40
1.0
 40
1.0
 10
88.65256918889755
 20
-27.21205470106399
 30
0.0
 10
88.27073099158473
 20
-28.40710609317883
 30
0.0
 10
88.27073099158473
 20
-29.69143680426963
 30
0.0
 10
88.65256918889755
 20
-30.88648819638319
 30
0.0
  0
LINE
  5
223
330
70
100
AcDbEntity
  8
0
 62
    18
420
        0
370
    25
100
AcDbLine
 10
122.1327711186834
 20
-10.12946934492412
 30
0.0
 11
90.59711414368239
 21
-28.33461660912395
 31
0.0
  0
LINE
  5
224
330
70
100
AcDbEntity
  8
0
 62
    18
420
        0
370
    25
100
AcDbLine
 10
122.1327711186834
 20
-10.12946934492412
 30
0.0
 11
122.1327711186834
 21
-13.80390284022406
 31
0.0
  0
LINE
  5
225
330
70
100
AcDbEntity
  8
0
 62
    18
420
        0
370
    25
100
AcDbLine
 10
90.59711414368239
 20
-32.0090501044239
 30
0.0
 11
122.1327711186834
 21
-13.80390284022406
 31
0.0
  0
LINE
  5
226
330
70
100
AcDbEntity
  8
0
 62
    18
420
        0
370
    25
100
AcDbLine
 10
90.48974241298292
 20
-27.98836331192349
 30
0.0
 11
121.9559940650822
 21
-9.823282887723312
 31
0.0
  0
SPLINE
  5
227
330
70
100
AcDbEntity
  8
0
 62
    18
420
        0
370
    25
100
AcDbSpline
210
0.0
220
0.0
230
1.0
 70
     8
 71
     3
 72
     8
 73
     4
 74
     0
 42
0.0000000001
 43
0.0000000001
 40
0.0
 40
0.0
 40
0.0
 40
0.0
 40
1.0
 40
1.0
 40
1.0
 40
1.0
 10
122.1327711186244
 20
-10.12946934494337
 30
0.0
 10
122.1270943816232
 20
-10.00474700273411
 30
0.0
 10
122.0611684858753
 20
-9.890560143901685
 30
0.0
 10
121.9559940650783
 20
-9.823282887722029
 30
0.0
  0
LINE
  5
228
330
70
100
AcDbEntity
  8
0
 62
    18
420
        0
370
    25
100
AcDbLine
 10
120.3650032173824
 20
-8.90482342122404
 30
0.0
 11
88.89875156518298
 21
-27.06990384542422
 31
0.0
  0
LINE
  5
229
330
70
100
AcDbEntity
  8
0
 62
    18
420
        0
370
    25
100
AcDbLine
 10
121.9559940650822
 20
-9.823282887723312
 30
0.0
 11
120.3650032173824
 21
-8.90482342122404
 31
0.0
  0
LWPOLYLINE
  5
22A
330
70
100
AcDbEntity
  8
0
 62
    18
420
        0
370
    25
100
AcDbPolyline
 90
       13
 70
     0
 43
0.0
 10
138.6741358633822
 20
-16.03663561902359
 10
138.5948115431833
 20
-16.06490167322379
 10
138.4339686325831
 20
-16.21068195992373
 10
138.3489399998825
 20
-16.44760726852431
 10
138.3489399998825
 20
-16.75000322222414
 10
138.4339686325831
 20
-17.08510050052372
 10
138.5948115431833
 20
-17.41658605902368
 10
138.8140396927831
 20
-17.70853865622325
 10
139.0678941126831
 20
-17.9293195143237
 10
139.3288687157828
 20
-18.05500524562415
 10
139.5686803324828
 20
-18.07197452622332
 10
139.7613427966825
 20
-17.97838899892389
 10
139.7829101292823
 20
-17.95729634492446
  0
SPLINE
  5
22B
330
70
100
AcDbEntity
  8
0
 62
    18
420
        0
370
    25
100
AcDbSpline
210
0.0
220
0.0
230
1.0
 70
     8
 71
     3
 72
     8
 73
     4
 74
     0
 42
0.0000000001
 43
0.0000000001
 40
0.0
 40
0.0
 40
0.0
 40
0.0
 40
1.0
 40
1.0
 40
1.0
 40
1.0
 10
129.0270610603577
 20
-9.823282507573102
 30
0.0
 10
126.8123359705789
 20
-8.665011632677066
 30
0.0
 10
124.1707190303213
 20
-8.665011774700463
 30
0.0
 10
121.9559940650886
 20
-9.823282887742564
 30
0.0
  0
SPLINE
  5
22C
330
70
100
AcDbEntity
  8
0
 62
    18
420
        0
370
    25
100
AcDbSpline
210
0.0
220
0.0
230
1.0
 70
     8
 71
     3
 72
     8
 73
     4
 74
     0
 42
0.0000000001
 43
0.0000000001
 40
0.0
 40
0.0
 40
0.0
 40
0.0
 40
1.0
 40
1.0
 40
1.0
 40
1.0
 10
130.6180512495652
 20
-8.904823421220191
 30
0.0
 10
127.4033176946024
 20
-7.239151544642346
 30
0.0
 10
123.5797367723632
 20
-7.239151544642346
 30
0.0
 10
120.3650032174003
 20
-8.904823421220191
 30
0.0
  0
SPLINE
  5
22D
330
70
100
AcDbEntity
  8
0
 62
    18
420
        0
370
    25
100
AcDbSpline
210
0.0
220
0.0
230
1.0
 70
     8
 71
     3
 72
     8
 73
     4
 74
     0
 42
0.0000000001
 43
0.0000000001
 40
0.0
 40
0.0
 40
0.0
 40
0.0
 40
1.0
 40
1.0
 40
1.0
 40
1.0
 10
128.8502843361381
 20
-10.12946877468468
 30
0.0
 10
126.7453861365201
 20
-9.03281925323955
 30
0.0
 10
124.2376691321098
 20
-9.032819466123207
 30
0.0
 10
122.1327711186821
 20
-10.12946934494209
 30
0.0
  0
SPLINE
  5
22E
330
70
100
AcDbEntity
  8
0
 62
    18
420
        0
370
    25
100
AcDbSpline
210
0.0
220
0.0
230
1.0
 70
     8
 71
     3
 72
     8
 73
     4
 74
     0
 42
0.0000000001
 43
0.0000000001
 40
0.0
 40
0.0
 40
0.0
 40
0.0
 40
1.0
 40
1.0
 40
1.0
 40
1.0
 10
128.8502843361406
 20
-13.80390226995768
 30
0.0
 10
126.7453861032082
 20
-12.70725288456429
 30
0.0
 10
124.2376691654333
 20
-12.70725309744538
 30
0.0
 10
122.1327711186911
 20
-13.80390284020866
 30
0.0
  0
LINE
  5
22F
330
70
100
AcDbEntity
  8
0
 62
    18
420
        0
370
    25
100
AcDbLine
 10
174.9183353624823
 20
-27.87200808202364
 30
0.0
 11
175.0584025109829
 21
-27.78778432032445
 31
0.0
  0
LWPOLYLINE
  5
230
330
70
100
AcDbEntity
  8
0
 62
    18
420
        0
370
    25
100
AcDbPolyline
 90
       27
 70
     0
 43
0.0
 10
193.1970024224824
 20
-44.41890853452386
 10
193.1542786889834
 20
-43.34289082262352
 10
193.0264894442822
 20
-42.22700508022326
 10
192.8147542140825
 20
-41.08105604062325
 10
192.5209353621831
 20
-39.91511490932341
 10
192.1476143831828
 20
-38.73942792112365
 10
191.6980708285825
 20
-37.56432603702392
 10
191.176255965483
 20
-36.40013711282325
 10
190.5867558978828
 20
-35.25709122562338
 10
189.9347520539833
 20
-34.1452355050244
 10
189.225973770983
 20
-33.07433908042402
 10
188.4666482456827
 20
-32.05381361652373
 10
187.6634504851826
 20
-31.09262814682439
 10
186.823437452583
 20
-30.19922771002411
 10
185.9539927488832
 20
-29.3814656740235
 10
185.062755490283
 20
-28.64652769642339
 10
184.157559722283
 20
-28.0008724139242
 10
183.2463580282824
 20
-27.45017289382357
 10
182.3371596267826
 20
-26.99927025182374
 10
181.4379552967833
 20
-26.65212727092333
 10
180.5566449380822
 20
-26.41179266572406
 10
179.7009756682823
 20
-26.28038055692331
 10
178.8784667486832
 20
-26.25904462142449
 10
178.0963450466826
 20
-26.34797277592338
 10
177.3614857669834
 20
-26.54638337992354
 10
176.6803452798832
 20
-26.85253284672332
 10
176.5998421649826
 20
-26.89793014912341
  0
LWPOLYLINE
  5
231
330
70
100
AcDbEntity
  8
0
 62
    18
420
        0
370
    25
100
AcDbPolyline
 90
        3
 70
     0
 43
0.0
 10
193.0491012284824
 20
-46.28439168742384
 10
193.1542786889834
 20
-45.44559847362404
 10
193.1970024224824
 20
-44.41890853452386
  0
LWPOLYLINE
  5
232
330
70
100
AcDbEntity
  8
0
 62
    18
420
        0
370
    25
100
AcDbPolyline
 90
        9
 70
     0
 43
0.0
 10
183.2093907969824
 20
-38.6116426479235
 10
183.2093565526824
 20
-38.61491073392439
 10
183.2093223083824
 20
-38.61817901012358
 10
183.2092880640823
 20
-38.62144709622329
 10
183.2092539843832
 20
-38.6247150872232
 10
183.2092197400832
 20
-38.62798336342369
 10
183.2091856603828
 20
-38.6312513544236
 10
183.2091517453822
 20
-38.63451925042382
 10
183.2091176656831
 20
-38.63778743152322
  0
SPLINE
  5
233
330
70
100
AcDbEntity
  8
0
 62
    18
420
        0
370
    25
100
AcDbSpline
210
0.0
220
0.0
230
1.0
 70
     8
 71
     3
 72
     8
 73
     4
 74
     0
 42
0.0000000001
 43
0.0000000001
 40
0.0
 40
0.0
 40
0.0
 40
0.0
 40
1.0
 40
1.0
 40
1.0
 40
1.0
 10
183.2093907969876
 20
-38.61164264790168
 30
0.0
 10
183.2060240715746
 20
-38.48630608528264
 30
0.0
 10
183.1397474966294
 20
-38.37109733826243
 30
0.0
 10
183.0330911882101
 20
-38.30518056768156
 30
0.0
  0
LWPOLYLINE
  5
234
330
70
100
AcDbEntity
  8
0
 62
    18
420
        0
370
    25
100
AcDbPolyline
 90
        9
 70
     0
 43
0.0
 10
182.9514002237825
 20
-38.25888797442431
 10
182.9616099684834
 20
-38.26467586722358
 10
182.9718202071833
 20
-38.27046347502378
 10
182.9820309397824
 20
-38.2762507976234
 10
182.9922423309828
 20
-38.28203774012414
 10
183.0024543805832
 20
-38.28782430232324
 10
183.0126669241827
 20
-38.29361057952326
 10
183.0228774921833
 20
-38.29939495582334
 10
183.0330911881832
 20
-38.30518056762381
  0
LWPOLYLINE
  5
235
330
70
100
AcDbEntity
  8
0
 62
    18
420
        0
370
    25
100
AcDbPolyline
 90
        9
 70
     0
 43
0.0
 10
182.9514002237825
 20
-38.25888797442431
 10
182.5843657105823
 20
-37.80121424892345
 10
182.1896235957831
 20
-37.3937102900244
 10
181.7760536934834
 20
-37.04554435552329
 10
181.3529625546822
 20
-36.76455081152384
 10
180.9298727329823
 20
-36.5570544848244
 10
180.5163028307827
 20
-36.4277227740235
 10
180.1215607159822
 20
-36.37946718832425
 10
179.7545262027833
 20
-36.41337188502367
  0
LWPOLYLINE
  5
236
330
70
100
AcDbEntity
  8
0
 62
    18
420
        0
370
    25
100
AcDbPolyline
 90
        9
 70
     0
 43
0.0
 10
179.6743350733825
 20
-36.36621193472425
 10
179.6843571329831
 20
-36.37210817592425
 10
179.6943796864828
 20
-36.37800413202376
 10
179.7044028985827
 20
-36.38389970792431
 10
179.7144266044827
 20
-36.38979499872438
 10
179.7244496518828
 20
-36.39568914902377
 10
179.7344746749831
 20
-36.40158367952341
 10
179.7445001918823
 20
-36.40747792482378
 10
179.7545262027833
 20
-36.41337188502367
  0
LWPOLYLINE
  5
237
330
70
100
AcDbEntity
  8
0
 62
    18
420
        0
370
    25
100
AcDbPolyline
 90
        6
 70
     0
 43
0.0
 10
179.4970805750833
 20
-36.46857157332338
 10
179.5076650316834
 20
-36.4063994329233
 10
179.5367955833826
 20
-36.3628481942244
 10
179.5811879039827
 20
-36.34283236402367
 10
179.6358326101833
 20
-36.34860252582374
 10
179.6743350733825
 20
-36.36621193472425
  0
LWPOLYLINE
  5
238
330
70
100
AcDbEntity
  8
0
 62
    18
420
        0
370
    25
100
AcDbPolyline
 90
        9
 70
     0
 43
0.0
 10
179.4968074437826
 20
-36.49471635692437
 10
179.496841523483
 20
-36.49144817582369
 10
179.4968754384824
 20
-36.48818027982347
 10
179.4969095181828
 20
-36.48491228882355
 10
179.4969437624828
 20
-36.48164401262436
 10
179.4969778421832
 20
-36.47837602162445
 10
179.4970120864832
 20
-36.47510793552346
 10
179.4970463307833
 20
-36.47183965942436
 10
179.4970805750833
 20
-36.46857157332338
  0
SPLINE
  5
239
330
70
100
AcDbEntity
  8
0
 62
    18
420
        0
370
    25
100
AcDbSpline
210
0.0
220
0.0
230
1.0
 70
     8
 71
     3
 72
    11
 73
     7
 74
     0
 42
0.0000000001
 43
0.0000000001
 40
0.0
 40
0.0
 40
0.0
 40
0.0
 40
1.0
 40
1.0
 40
1.0
 40
2.0
 40
2.0
 40
2.0
 40
2.0
 10
183.0323406121691
 20
-38.95884654654322
 30
0.0
 10
183.0790641629151
 20
-38.99695939233849
 30
0.0
 10
183.1478376507081
 20
-38.98997903678397
 30
0.0
 10
183.1859504965021
 20
-38.94325548603801
 30
0.0
 10
183.2056844556113
 20
-38.91906310101311
 30
0.0
 10
183.2141172667458
 20
-38.88757980892582
 30
0.0
 10
183.2091176657139
 20
-38.85676253090182
 30
0.0
  0
LINE
  5
23A
330
70
100
AcDbEntity
  8
0
 62
    18
420
        0
370
    25
100
AcDbLine
 10
183.2091176656831
 20
-38.85676253092364
 30
0.0
 11
183.2091176656831
 21
-38.63778743152322
 31
0.0
  0
LINE
  5
23B
330
70
100
AcDbEntity
  8
0
 62
    18
420
        0
370
    25
100
AcDbLine
 10
179.4968074437826
 20
-36.71369145632351
 30
0.0
 11
179.4968074437826
 21
-36.49471635692437
 31
0.0
  0
SPLINE
  5
23C
330
70
100
AcDbEntity
  8
0
 62
    18
420
        0
370
    25
100
AcDbSpline
210
0.0
220
0.0
230
1.0
 70
     8
 71
     3
 72
     8
 73
     4
 74
     0
 42
0.0000000001
 43
0.0000000001
 40
0.0
 40
0.0
 40
0.0
 40
0.0
 40
1.0
 40
1.0
 40
1.0
 40
1.0
 10
179.4968074437134
 20
-36.71369145633763
 30
0.0
 10
179.5024834517958
 20
-36.83841401173856
 30
0.0
 10
179.5684095273746
 20
-36.95260118204656
 30
0.0
 10
179.6735844972581
 20
-37.01987791356025
 30
0.0
  0
LINE
  5
23D
330
70
100
AcDbEntity
  8
0
 62
    18
420
        0
370
    25
100
AcDbLine
 10
179.6735844972825
 20
-37.01987791362442
 30
0.0
 11
183.0323406120831
 21
-38.95884654652397
 31
0.0
  0
LINE
  5
23E
330
70
100
AcDbEntity
  8
0
 62
    18
420
        0
370
    25
100
AcDbLine
 10
179.7545262027833
 20
-36.41337188502367
 30
0.0
 11
182.9514002237825
 21
-38.25888797442431
 31
0.0
  0
LINE
  5
23F
330
70
100
AcDbEntity
  8
0
 62
    18
420
        0
370
    25
100
AcDbLine
 10
133.9061405995826
 20
-4.196171999723799
 30
0.0
 11
134.0462103822834
 21
-4.111949758724277
 31
0.0
  0
LINE
  5
240
330
70
100
AcDbEntity
  8
0
 62
    18
420
        0
370
    25
100
AcDbLine
 10
147.9538722348825
 20
-27.83229680932393
 30
0.0
 11
147.7950918856825
 21
-27.92829353202325
 31
0.0
  0
LWPOLYLINE
  5
241
330
70
100
AcDbEntity
  8
0
 62
    18
420
        0
370
    25
100
AcDbPolyline
 90
       27
 70
     0
 43
0.0
 10
152.1848083180827
 20
-20.74307283242429
 10
152.1420865601825
 20
-19.66705626102335
 10
152.0142966569826
 20
-18.55117013852422
 10
151.802562085383
 20
-17.40522147902436
 10
151.5087419163822
 20
-16.23927958742411
 10
151.1354209373832
 20
-15.06359259922434
 10
150.6858773827828
 20
-13.88849071502322
 10
150.1640625196834
 20
-12.72430179092394
 10
149.5745637691833
 20
-11.58125666402321
 10
148.9225586081824
 20
-10.46940018312381
 10
148.2137803251822
 20
-9.398503758423322
 10
147.4544547998831
 20
-8.377978294524313
 10
146.651257039383
 20
-7.416792824823692
 10
145.8112440067834
 20
-6.523392388123523
 10
144.9417993030823
 20
-5.705630352124185
 10
144.0505620444834
 20
-4.97069237452408
 10
143.1453662764834
 20
-4.325037091923502
 10
142.2341645824828
 20
-3.774337571824158
 10
141.324966180983
 20
-3.323434929924431
 10
140.4257605338823
 20
-2.976291188623493
 10
139.5444514922826
 20
-2.73595734382346
 10
138.6887835395828
 20
-2.604545995324417
 10
137.8662719858823
 20
-2.58320853912337
 10
137.0841529179831
 20
-2.672138214323209
 10
136.3492910040824
 20
-2.870547297623705
 10
135.6681531510824
 20
-3.176698285124435
 10
135.5876500362831
 20
-3.222095587523235
  0
SPLINE
  5
242
330
70
100
AcDbEntity
  8
0
 62
    18
420
        0
370
    25
100
AcDbSpline
210
0.0
220
0.0
230
1.0
 70
     8
 71
     3
 72
     8
 73
     4
 74
     0
 42
0.0000000001
 43
0.0000000001
 40
0.0
 40
0.0
 40
0.0
 40
0.0
 40
1.0
 40
1.0
 40
1.0
 40
1.0
 10
149.3365315397258
 20
-27.03843936077088
 30
0.0
 10
149.6955338431002
 20
-26.83051164581915
 30
0.0
 10
150.0253495879633
 20
-26.57585302203963
 30
0.0
 10
150.3173387539548
 20
-26.28113465576883
 30
0.0
  0
LINE
  5
243
330
70
100
AcDbEntity
  8
0
 62
    18
420
        0
370
    25
100
AcDbLine
 10
152.1740740425833
 20
-21.26431829932424
 30
0.0
 11
152.1848083180827
 21
-20.74307283242429
 31
0.0
  0
LWPOLYLINE
  5
244
330
70
100
AcDbEntity
  8
0
 62
    18
420
        0
370
    25
100
AcDbPolyline
 90
        9
 70
     0
 43
0.0
 10
142.1971986682829
 20
-14.93580808632333
 10
142.1971644239829
 20
-14.93907617232422
 10
142.1971301796829
 20
-14.94234444852341
 10
142.1970959353828
 20
-14.94561253462441
 10
142.1970618556824
 20
-14.94888052562432
 10
142.1970276113824
 20
-14.95214880182351
 10
142.1969935316833
 20
-14.95541679282342
 10
142.1969596166827
 20
-14.95868468882364
 10
142.1969255369823
 20
-14.96195286992432
  0
SPLINE
  5
245
330
70
100
AcDbEntity
  8
0
 62
    18
420
        0
370
    25
100
AcDbSpline
210
0.0
220
0.0
230
1.0
 70
     8
 71
     3
 72
     8
 73
     4
 74
     0
 42
0.0000000001
 43
0.0000000001
 40
0.0
 40
0.0
 40
0.0
 40
0.0
 40
1.0
 40
1.0
 40
1.0
 40
1.0
 10
142.1971986682829
 20
-14.93580808627841
 30
0.0
 10
142.1938317058007
 20
-14.81047159040633
 30
0.0
 10
142.1275551910507
 20
-14.69526294802157
 30
0.0
 10
142.0208990595068
 20
-14.62934600605828
 30
0.0
  0
LWPOLYLINE
  5
246
330
70
100
AcDbEntity
  8
0
 62
    18
420
        0
370
    25
100
AcDbPolyline
 90
        9
 70
     0
 43
0.0
 10
141.9392067779829
 20
-14.58305265242361
 10
141.9494165226824
 20
-14.58884054532427
 10
141.9596267613824
 20
-14.59462815312446
 10
141.9698374939827
 20
-14.60041547572408
 10
141.9800475680831
 20
-14.6062016578243
 10
141.9902596177822
 20
-14.6119882201235
 10
142.000472161383
 20
-14.61777449722341
 10
142.0106853634825
 20
-14.62356039422445
 10
142.0208990594824
 20
-14.62934600602364
  0
LWPOLYLINE
  5
247
330
70
100
AcDbEntity
  8
0
 62
    18
420
        0
370
    25
100
AcDbPolyline
 90
        9
 70
     0
 43
0.0
 10
141.9392067779829
 20
-14.58305265242361
 10
141.5721722647827
 20
-14.12537892702414
 10
141.1774301499822
 20
-13.7178749681238
 10
140.7638602476825
 20
-13.36970903362398
 10
140.3407704259827
 20
-13.08871624992367
 10
139.9176792871827
 20
-12.88121916292381
 10
139.5041093849831
 20
-12.75188745202409
 10
139.1093672701826
 20
-12.70363186642366
 10
138.7423327569824
 20
-12.73753656312436
  0
LWPOLYLINE
  5
248
330
70
100
AcDbEntity
  8
0
 62
    18
420
        0
370
    25
100
AcDbPolyline
 90
        9
 70
     0
 43
0.0
 10
138.662142944683
 20
-12.69037737312409
 10
138.6721650042824
 20
-12.69627361432407
 10
138.6821849235831
 20
-12.70216804972393
 10
138.6922081356829
 20
-12.70806362562447
 10
138.702231841583
 20
-12.71395891642326
 10
138.7122562060832
 20
-12.71985382712445
 10
138.7222812291834
 20
-12.725748357524
 10
138.7323067460827
 20
-12.73164260292447
 10
138.7423327569824
 20
-12.73753656312436
  0
LWPOLYLINE
  5
249
330
70
100
AcDbEntity
  8
0
 62
    18
420
        0
370
    25
100
AcDbPolyline
 90
        6
 70
     0
 43
0.0
 10
138.4848884463826
 20
-12.7927370117232
 10
138.4954702687824
 20
-12.73056335072356
 10
138.5246034546831
 20
-12.68701363262422
 10
138.568994458183
 20
-12.66699704212436
 10
138.6236391643824
 20
-12.67276720382432
 10
138.662142944683
 20
-12.69037737312409
  0
LWPOLYLINE
  5
24A
330
70
100
AcDbEntity
  8
0
 62
    18
420
        0
370
    25
100
AcDbPolyline
 90
        9
 70
     0
 43
0.0
 10
138.4846153150832
 20
-12.81888179532419
 10
138.4846493946834
 20
-12.81561361422351
 10
138.4846833097829
 20
-12.81234571822329
 10
138.4847173894833
 20
-12.80907772722338
 10
138.4847516337833
 20
-12.80580945102419
 10
138.4847857134824
 20
-12.80254146002427
 10
138.4848199577824
 20
-12.79927337402339
 10
138.4848542020825
 20
-12.79600509782419
 10
138.4848884463826
 20
-12.7927370117232
  0
SPLINE
  5
24B
330
70
100
AcDbEntity
  8
0
 62
    18
420
        0
370
    25
100
AcDbSpline
210
0.0
220
0.0
230
1.0
 70
     8
 71
     3
 72
    11
 73
     7
 74
     0
 42
0.0000000001
 43
0.0000000001
 40
0.0
 40
0.0
 40
0.0
 40
0.0
 40
1.0
 40
1.0
 40
1.0
 40
2.0
 40
2.0
 40
2.0
 40
2.0
 10
142.0201484833849
 20
-15.28301198495332
 30
0.0
 10
142.0668733886703
 20
-15.32112404853799
 30
0.0
 10
142.1356473404271
 20
-15.31414196080547
 30
0.0
 10
142.1737594040118
 20
-15.26741705552139
 30
0.0
 10
142.1934917910765
 20
-15.24322539991579
 30
0.0
 10
142.2019241409808
 20
-15.21174382980092
 30
0.0
 10
142.1969255369297
 20
-15.18092796931192
 30
0.0
  0
LINE
  5
24C
330
70
100
AcDbEntity
  8
0
 62
    18
420
        0
370
    25
100
AcDbLine
 10
142.1969255369823
 20
-15.18092796932347
 30
0.0
 11
142.1969255369823
 21
-14.96195286992432
 31
0.0
  0
LINE
  5
24D
330
70
100
AcDbEntity
  8
0
 62
    18
420
        0
370
    25
100
AcDbLine
 10
138.4846153150832
 20
-13.03785689472334
 30
0.0
 11
138.4846153150832
 21
-12.81888179532419
 31
0.0
  0
SPLINE
  5
24E
330
70
100
AcDbEntity
  8
0
 62
    18
420
        0
370
    25
100
AcDbSpline
210
0.0
220
0.0
230
1.0
 70
     8
 71
     3
 72
     8
 73
     4
 74
     0
 42
0.0000000001
 43
0.0000000001
 40
0.0
 40
0.0
 40
0.0
 40
0.0
 40
1.0
 40
1.0
 40
1.0
 40
1.0
 10
138.4846153150613
 20
-13.03785689475286
 30
0.0
 10
138.4902897486004
 20
-13.1625799106614
 30
0.0
 10
138.5562162126395
 20
-13.2767677538024
 30
0.0
 10
138.6613923686061
 20
-13.3440433519742
 30
0.0
  0
LINE
  5
24F
330
70
100
AcDbEntity
  8
0
 62
    18
420
        0
370
    25
100
AcDbLine
 10
138.661392368583
 20
-13.34404335202425
 30
0.0
 11
142.0201484833824
 21
-15.2830119849238
 31
0.0
  0
LINE
  5
250
330
70
100
AcDbEntity
  8
0
 62
    18
420
        0
370
    25
100
AcDbLine
 10
138.7423327569824
 20
-12.73753656312436
 30
0.0
 11
141.9392067779829
 21
-14.58305265242361
 31
0.0
  0
LWPOLYLINE
  5
251
330
70
100
AcDbEntity
  8
0
 62
     8
420
  8421504
370
    25
100
AcDbPolyline
 90
        7
 70
     0
 43
0.0
 10
159.8745950007834
 20
-72.12635510382397
 10
160.1179113913822
 20
-72.22020986692331
 10
160.4049235271827
 20
-72.25316753442396
 10
160.6919382971834
 20
-72.22021138762426
 10
160.9352546878824
 20
-72.12635662452363
 10
161.0978361559822
 20
-71.98589154132426
 10
161.1549240622826
 20
-71.82020144142389
  0
LWPOLYLINE
  5
252
330
70
100
AcDbEntity
  8
0
 62
     8
420
  8421504
370
    25
100
AcDbPolyline
 90
        3
 70
     0
 43
0.0
 10
159.6549256262831
 20
-71.82020296212356
 10
159.7120161667824
 20
-71.98589154132426
 10
159.8745950007834
 20
-72.12635510382397
  0
SPLINE
  5
253
330
70
100
AcDbEntity
  8
0
 62
     8
420
  8421504
370
    25
100
AcDbSpline
210
0.0
220
0.0
230
1.0
 70
     8
 71
     3
 72
     8
 73
     4
 74
     0
 42
0.0000000001
 43
0.0000000001
 40
0.0
 40
0.0
 40
0.0
 40
0.0
 40
1.0
 40
1.0
 40
1.0
 40
1.0
 10
158.283604153072
 20
-73.04511276523718
 30
0.0
 10
158.2639270967148
 20
-73.18011768881532
 30
0.0
 10
158.3246259905888
 20
-73.31422785441471
 30
0.0
 10
158.4390417303792
 20
-73.38854174561619
 30
0.0
  0
LWPOLYLINE
  5
254
330
70
100
AcDbEntity
  8
0
 62
     8
420
  8421504
370
    25
100
AcDbPolyline
 90
        7
 70
     0
 43
0.0
 10
159.1886945538831
 20
-72.08930420352437
 10
159.0168829259824
 20
-72.05601060602344
 10
158.8139326794829
 20
-72.12655491432416
 10
158.6109850671823
 20
-72.29033045232345
 10
158.4389337290825
 20
-72.52240644192351
 10
158.3239729313831
 20
-72.78745081292379
 10
158.2836041530823
 20
-73.04511276532444
  0
LWPOLYLINE
  5
255
330
70
100
AcDbEntity
  8
0
 62
     8
420
  8421504
370
    25
100
AcDbPolyline
 90
        4
 70
     0
 43
0.0
 10
92.69945163098281
 20
-35.18418740672359
 10
92.73982040928304
 20
-35.39524017952361
 10
92.85478120698238
 20
-35.52755363882385
 10
92.85481281708284
 20
-35.52757037192329
  0
LWPOLYLINE
  5
256
330
70
100
AcDbEntity
  8
0
 62
     8
420
  8421504
370
    25
100
AcDbPolyline
 90
        7
 70
     0
 43
0.0
 10
93.60475013188297
 20
-34.22849825722442
 10
93.43273040388295
 20
-34.19508524752397
 10
93.22978015748288
 20
-34.26562955572329
 10
93.02683254518298
 20
-34.42940509372387
 10
92.85478120698238
 20
-34.66148108332393
 10
92.73982040928304
 20
-34.92652545442432
 10
92.69945163098281
 20
-35.18418740672359
  0
LWPOLYLINE
  5
257
330
70
100
AcDbEntity
  8
0
 62
     8
420
  8421504
370
    25
100
AcDbPolyline
 90
        3
 70
     0
 43
0.0
 10
91.10846078328233
 20
-32.42851081242349
 10
90.94588194928263
 20
-32.28804724992378
 10
90.88879140878267
 20
-32.12235867072437
  0
LWPOLYLINE
  5
258
330
70
100
AcDbEntity
  8
0
 62
     8
420
  8421504
370
    25
100
AcDbPolyline
 90
        7
 70
     0
 43
0.0
 10
92.38878984478281
 20
-32.12235715002341
 10
92.33169930428283
 20
-32.28804572932422
 10
92.16912047038261
 20
-32.42851233312444
 10
91.92580144558286
 20
-32.52236557552411
 10
91.63878930968294
 20
-32.55532324302348
 10
91.35177717388248
 20
-32.52236557552411
 10
91.10846078328233
 20
-32.42851081242349
  0
LWPOLYLINE
  5
259
330
70
100
AcDbEntity
  8
0
 62
     8
420
  8421504
370
    25
100
AcDbPolyline
 90
        7
 70
     0
 43
0.0
 10
165.7082245968831
 20
-72.84137638932417
 10
165.9515409874832
 20
-72.93523115242351
 10
166.2385557574826
 20
-72.96818729922321
 10
166.5255705274833
 20
-72.93523115242351
 10
166.7688869180822
 20
-72.84137638932417
 10
166.9314657520831
 20
-72.70091282682447
 10
166.9885536583822
 20
-72.53522272692409
  0
LWPOLYLINE
  5
25A
330
70
100
AcDbEntity
  8
0
 62
     8
420
  8421504
370
    25
100
AcDbPolyline
 90
        3
 70
     0
 43
0.0
 10
165.488557856583
 20
-72.53522272692409
 10
165.5456457628834
 20
-72.70091282682447
 10
165.7082245968831
 20
-72.84137638932417
  0
LWPOLYLINE
  5
25B
330
70
100
AcDbEntity
  8
0
 62
     8
420
  8421504
370
    25
100
AcDbPolyline
 90
        4
 70
     0
 43
0.0
 10
164.1172337491832
 20
-73.76013367052428
 10
164.1576025274828
 20
-73.97118720372354
 10
164.2725659592823
 20
-74.10349876212385
 10
164.2726739605828
 20
-74.10356113022416
  0
LWPOLYLINE
  5
25C
330
70
100
AcDbEntity
  8
0
 62
     8
420
  8421504
370
    25
100
AcDbPolyline
 90
        7
 70
     0
 43
0.0
 10
165.022326784183
 20
-72.80432358812335
 10
164.8505125220833
 20
-72.77103189152363
 10
164.6475649097828
 20
-72.84157467912341
 10
164.4446172974822
 20
-73.00535021712398
 10
164.2725659592823
 20
-73.2374265869243
 10
164.1576025274828
 20
-73.50247209842399
 10
164.1172337491832
 20
-73.76013367052428
  0
LWPOLYLINE
  5
25D
330
70
100
AcDbEntity
  8
0
 62
     8
420
  8421504
370
    25
100
AcDbPolyline
 90
        4
 70
     0
 43
0.0
 10
98.53308122708314
 20
-35.89920831202352
 10
98.57345000538273
 20
-36.11026184522408
 10
98.68841343728293
 20
-36.24257340362439
 10
98.68844241318317
 20
-36.24259165742349
  0
LWPOLYLINE
  5
25E
330
70
100
AcDbEntity
  8
0
 62
     8
420
  8421504
370
    25
100
AcDbPolyline
 90
        7
 70
     0
 43
0.0
 10
99.43838236218288
 20
-34.94351840232404
 10
99.26635999998326
 20
-34.91010653302417
 10
99.0634123876827
 20
-34.98064932052383
 10
98.86046477538279
 20
-35.14442485862322
 10
98.68841343728293
 20
-35.37650122842355
 10
98.57345000538273
 20
-35.64154673992323
 10
98.53308122708314
 20
-35.89920831202352
  0
LWPOLYLINE
  5
25F
330
70
100
AcDbEntity
  8
0
 62
     8
420
  8421504
370
    25
100
AcDbPolyline
 90
        3
 70
     0
 43
0.0
 10
96.9420903793833
 20
-33.14353209792369
 10
96.77951154538234
 20
-33.00306853542398
 10
96.72242363908324
 20
-32.83737843552361
  0
LWPOLYLINE
  5
260
330
70
100
AcDbEntity
  8
0
 62
     8
420
  8421504
370
    25
100
AcDbPolyline
 90
        7
 70
     0
 43
0.0
 10
98.22241944088251
 20
-32.83737843552361
 10
98.16532890038317
 20
-33.00306701482442
 10
98.00275270058243
 20
-33.14353209792369
 10
97.75943367578268
 20
-33.23738534032337
 10
97.47242153998286
 20
-33.27034300782402
 10
97.18540676998282
 20
-33.23738686102431
 10
96.9420903793833
 20
-33.14353209792369
  0
LWPOLYLINE
  5
261
330
70
100
AcDbEntity
  8
0
 62
     8
420
  8421504
370
    25
100
AcDbPolyline
 90
        3
 70
     0
 43
0.0
 10
171.5418568270829
 20
-69.47369218592351
 10
171.3792779931833
 20
-69.3332286235239
 10
171.3221874526827
 20
-69.16754004422438
  0
LWPOLYLINE
  5
262
330
70
100
AcDbEntity
  8
0
 62
     8
420
  8421504
370
    25
100
AcDbPolyline
 90
        7
 70
     0
 43
0.0
 10
172.8221858886822
 20
-69.16753852362354
 10
172.7650979823831
 20
-69.3332286235239
 10
172.6025165141832
 20
-69.47369370662446
 10
172.359200123583
 20
-69.5675484697238
 10
172.0721853535823
 20
-69.6005046165235
 10
171.7851732177831
 20
-69.56754694902413
 10
171.5418568270829
 20
-69.47369218592351
  0
LWPOLYLINE
  5
263
330
70
100
AcDbEntity
  8
0
 62
     8
420
  8421504
370
    25
100
AcDbPolyline
 90
        8
 70
     0
 43
0.0
 10
169.950865979383
 20
-70.39244946722373
 10
169.9912347577827
 20
-70.13478789502333
 10
170.1061955553832
 20
-69.86974390422331
 10
170.2782468935832
 20
-69.63766753442427
 10
170.4811945058825
 20
-69.4738919964237
 10
170.6841447522831
 20
-69.40334768822437
 10
170.8561960904831
 20
-69.43677781132335
 10
170.8604977031826
 20
-69.43931892142356
  0
LWPOLYLINE
  5
264
330
70
100
AcDbEntity
  8
0
 62
     8
420
  8421504
370
    25
100
AcDbPolyline
 90
        3
 70
     0
 43
0.0
 10
170.1060717490828
 20
-70.73574306342431
 10
169.9912347577827
 20
-70.60350300032418
 10
169.950865979383
 20
-70.39244946722373
  0
LWPOLYLINE
  5
265
330
70
100
AcDbEntity
  8
0
 62
     8
420
  8421504
370
    25
100
AcDbPolyline
 90
        7
 70
     0
 43
0.0
 10
104.366713457383
 20
-32.53152410862415
 10
104.4070822356826
 20
-32.27386253652387
 10
104.5220430333832
 20
-32.00881854572384
 10
104.6940943714831
 20
-31.77674217592351
 10
104.8970419837824
 20
-31.61296663792423
 10
105.0999922302832
 20
-31.54242232962352
 10
105.2720119582832
 20
-31.57583571962434
  0
LWPOLYLINE
  5
266
330
70
100
AcDbEntity
  8
0
 62
     8
420
  8421504
370
    25
100
AcDbPolyline
 90
        4
 70
     0
 43
0.0
 10
104.5220746434831
 20
-32.87490745412423
 10
104.5220430333832
 20
-32.8748907209234
 10
104.4070822356826
 20
-32.74257764182343
 10
104.366713457383
 20
-32.53152410862415
  0
LWPOLYLINE
  5
267
330
70
100
AcDbEntity
  8
0
 62
     8
420
  8421504
370
    25
100
AcDbPolyline
 90
        7
 70
     0
 43
0.0
 10
102.7757226095831
 20
-29.77584789452432
 10
103.0190390002827
 20
-29.86970265762366
 10
103.3060511360825
 20
-29.90266032512431
 10
103.593063271883
 20
-29.86970265762366
 10
103.8363822966834
 20
-29.77584941522398
 10
103.998961130683
 20
-29.63538281142377
 10
104.0560516711824
 20
-29.46969423222435
  0
LWPOLYLINE
  5
268
330
70
100
AcDbEntity
  8
0
 62
     8
420
  8421504
370
    25
100
AcDbPolyline
 90
        3
 70
     0
 43
0.0
 10
102.5560532351829
 20
-29.46969575282391
 10
102.6131437756829
 20
-29.63538433212343
 10
102.7757226095831
 20
-29.77584789452432
  0
LWPOLYLINE
  5
269
330
70
100
AcDbEntity
  8
0
 62
     8
420
  8421504
370
    25
100
AcDbPolyline
 90
        3
 70
     0
 43
0.0
 10
177.3754877402827
 20
-66.10600874292337
 10
177.2129089063831
 20
-65.96554518042367
 10
177.1558183658825
 20
-65.79985660122426
  0
LWPOLYLINE
  5
26A
330
70
100
AcDbEntity
  8
0
 62
     8
420
  8421504
370
    25
100
AcDbPolyline
 90
        7
 70
     0
 43
0.0
 10
178.6558168018832
 20
-65.79985508052331
 10
178.5987288954828
 20
-65.96554518042367
 10
178.4361487444831
 20
-66.1060095032238
 10
178.1928310367828
 20
-66.19986502672367
 10
177.9058162667834
 20
-66.23282117352338
 10
177.6188041309829
 20
-66.19986350602402
 10
177.3754877402827
 20
-66.10600874292337
  0
LWPOLYLINE
  5
26B
330
70
100
AcDbEntity
  8
0
 62
     8
420
  8421504
370
    25
100
AcDbPolyline
 90
        8
 70
     0
 43
0.0
 10
175.7844968925828
 20
-67.0247660241235
 10
175.8248656708824
 20
-66.76710445202321
 10
175.9398264685831
 20
-66.50206046122447
 10
176.111877806783
 20
-66.26998409142413
 10
176.3148267360823
 20
-66.10620779302433
 10
176.517775665483
 20
-66.03566424522424
 10
176.6898270036829
 20
-66.0690943682244
 10
176.6941272992823
 20
-66.07163623872385
  0
LWPOLYLINE
  5
26C
330
70
100
AcDbEntity
  8
0
 62
     8
420
  8421504
370
    25
100
AcDbPolyline
 90
        3
 70
     0
 43
0.0
 10
175.9397013451825
 20
-67.3680603807233
 10
175.8248656708824
 20
-67.23581955732405
 10
175.7844968925828
 20
-67.0247660241235
  0
LWPOLYLINE
  5
26D
330
70
100
AcDbEntity
  8
0
 62
     8
420
  8421504
370
    25
100
AcDbPolyline
 90
        7
 70
     0
 43
0.0
 10
110.2003443704827
 20
-29.16384066562402
 10
110.2407131488824
 20
-28.90617909352373
 10
110.355673946483
 20
-28.64113510272371
 10
110.5277252846829
 20
-28.40905873282328
 10
110.7306742140823
 20
-28.24528243452358
 10
110.933623143483
 20
-28.17473888662338
 10
111.1056441885831
 20
-28.20815151622367
  0
LWPOLYLINE
  5
26E
330
70
100
AcDbEntity
  8
0
 62
     8
420
  8421504
370
    25
100
AcDbPolyline
 90
        4
 70
     0
 43
0.0
 10
110.3557042395828
 20
-29.50722477142324
 10
110.355673946483
 20
-29.50720727792327
 10
110.2407131488824
 20
-29.3748941988233
 10
110.2003443704827
 20
-29.16384066562402
  0
LWPOLYLINE
  5
26F
330
70
100
AcDbEntity
  8
0
 62
     8
420
  8421504
370
    25
100
AcDbPolyline
 90
        7
 70
     0
 43
0.0
 10
108.6093535227829
 20
-26.40816445152419
 10
108.852669913383
 20
-26.50201921462353
 10
109.1396820492823
 20
-26.53497688212418
 10
109.4266941850828
 20
-26.50201921462353
 10
109.6700145269833
 20
-26.40816521192344
 10
109.8325920438829
 20
-26.26769936842364
 10
109.8896825842834
 20
-26.10201078912412
  0
LWPOLYLINE
  5
270
330
70
100
AcDbEntity
  8
0
 62
     8
420
  8421504
370
    25
100
AcDbPolyline
 90
        3
 70
     0
 43
0.0
 10
108.3896841483827
 20
-26.10201230982378
 10
108.4467746888833
 20
-26.2677008891233
 10
108.6093535227829
 20
-26.40816445152419
  0
LWPOLYLINE
  5
271
330
70
100
AcDbEntity
  8
0
 62
     8
420
  8421504
370
    25
100
AcDbPolyline
 90
        3
 70
     0
 43
0.0
 10
183.2091186534825
 20
-62.73832529992326
 10
183.0465398195829
 20
-62.59786173742355
 10
182.9894492790823
 20
-62.43217315822413
  0
LWPOLYLINE
  5
272
330
70
100
AcDbEntity
  8
0
 62
     8
420
  8421504
370
    25
100
AcDbPolyline
 90
        7
 70
     0
 43
0.0
 10
184.489447714983
 20
-62.43217163752447
 10
184.4323598086826
 20
-62.59786173742355
 10
184.2697796576829
 20
-62.73832606022367
 10
184.0264619499826
 20
-62.83218158372355
 10
183.7394471799832
 20
-62.86513773052325
 10
183.4524350440826
 20
-62.83218006302388
 10
183.2091186534825
 20
-62.73832529992326
  0
LWPOLYLINE
  5
273
330
70
100
AcDbEntity
  8
0
 62
     8
420
  8421504
370
    25
100
AcDbPolyline
 90
        8
 70
     0
 43
0.0
 10
181.6181278057826
 20
-63.65708258112337
 10
181.6584965840822
 20
-63.39942100902437
 10
181.7734573817828
 20
-63.13437701822435
 10
181.9455087198827
 20
-62.90230064842401
 10
182.1484576492833
 20
-62.73852435002421
 10
182.3514065786828
 20
-62.66798080212401
 10
182.5234579168827
 20
-62.70141092522428
 10
182.5277582124821
 20
-62.70395279572372
  0
LWPOLYLINE
  5
274
330
70
100
AcDbEntity
  8
0
 62
     8
420
  8421504
370
    25
100
AcDbPolyline
 90
        3
 70
     0
 43
0.0
 10
181.7733322582822
 20
-64.00037693772446
 10
181.6584965840822
 20
-63.86813611432392
 10
181.6181278057826
 20
-63.65708258112337
  0
LWPOLYLINE
  5
275
330
70
100
AcDbEntity
  8
0
 62
     8
420
  8421504
370
    25
100
AcDbPolyline
 90
        7
 70
     0
 43
0.0
 10
116.0339752836825
 20
-25.7961572226239
 10
116.0743440620822
 20
-25.53849565052361
 10
116.1893048596827
 20
-25.27345165962348
 10
116.3613561978827
 20
-25.04137528982444
 10
116.5643051272834
 20
-24.87759899152345
 10
116.7672540565827
 20
-24.80705544362326
 10
116.9392751017829
 20
-24.84046807322355
  0
LWPOLYLINE
  5
276
330
70
100
AcDbEntity
  8
0
 62
     8
420
  8421504
370
    25
100
AcDbPolyline
 90
        4
 70
     0
 43
0.0
 10
116.1893351527826
 20
-26.13954132842439
 10
116.1893048596827
 20
-26.13952383492442
 10
116.0743440620822
 20
-26.00721075582445
 10
116.0339752836825
 20
-25.7961572226239
  0
LWPOLYLINE
  5
277
330
70
100
AcDbEntity
  8
0
 62
     8
420
  8421504
370
    25
100
AcDbPolyline
 90
        7
 70
     0
 43
0.0
 10
114.4429844359827
 20
-23.04048100852406
 10
114.6863008265829
 20
-23.1343357716234
 10
114.9733129623833
 20
-23.16729343912406
 10
115.2603250982826
 20
-23.1343357716234
 10
115.5036454401831
 20
-23.04048176882449
 10
115.6662229569826
 20
-22.90001592542351
 10
115.7233134974832
 20
-22.73432734612399
  0
LWPOLYLINE
  5
278
330
70
100
AcDbEntity
  8
0
 62
     8
420
  8421504
370
    25
100
AcDbPolyline
 90
        3
 70
     0
 43
0.0
 10
114.2233150615825
 20
-22.73432886682365
 10
114.280405601983
 20
-22.90001744602435
 10
114.4429844359827
 20
-23.04048100852406
  0
LWPOLYLINE
  5
279
330
70
100
AcDbEntity
  8
0
 62
     8
420
  8421504
370
    25
100
AcDbPolyline
 90
        3
 70
     0
 43
0.0
 10
189.0427495666823
 20
-59.37064185692442
 10
188.8801707326826
 20
-59.23017829442343
 10
188.8230801921833
 20
-59.06448971522401
  0
LWPOLYLINE
  5
27A
330
70
100
AcDbEntity
  8
0
 62
     8
420
  8421504
370
    25
100
AcDbPolyline
 90
        7
 70
     0
 43
0.0
 10
190.3230786281828
 20
-59.06448819452434
 10
190.2659900633824
 20
-59.23017867462369
 10
190.1034105708827
 20
-59.37064261722355
 10
189.8600935216824
 20
-59.46449776052444
 10
189.5730780930829
 20
-59.4974542875244
 10
189.2860659572824
 20
-59.46449662002375
 10
189.0427495666823
 20
-59.37064185692442
  0
LWPOLYLINE
  5
27B
330
70
100
AcDbEntity
  8
0
 62
     8
420
  8421504
370
    25
100
AcDbPolyline
 90
        8
 70
     0
 43
0.0
 10
187.4517587189824
 20
-60.28939913812324
 10
187.4921274972833
 20
-60.03173756602424
 10
187.6070882949827
 20
-59.76669357522421
 10
187.7791402916826
 20
-59.53461682522362
 10
187.9820885624832
 20
-59.37084090702407
 10
188.1850368332825
 20
-59.30029773932415
 10
188.3570888299824
 20
-59.33372748222415
 10
188.3613897841832
 20
-59.33626897252334
  0
LWPOLYLINE
  5
27C
330
70
100
AcDbEntity
  8
0
 62
     8
420
  8421504
370
    25
100
AcDbPolyline
 90
        3
 70
     0
 43
0.0
 10
187.6069631714833
 20
-60.63269349472435
 10
187.4921274972833
 20
-60.5004526713238
 10
187.4517587189824
 20
-60.28939913812324
  0
LWPOLYLINE
  5
27D
330
70
100
AcDbEntity
  8
0
 62
     8
420
  8421504
370
    25
100
AcDbPolyline
 90
        7
 70
     0
 43
0.0
 10
121.8676061968823
 20
-22.42847377962377
 10
121.9079749751832
 20
-22.17081220752348
 10
122.0229357728825
 20
-21.90576821662336
 10
122.1949877695825
 20
-21.67369146662405
 10
122.3979360403831
 20
-21.50991554852332
 10
122.6008843112825
 20
-21.43937238082339
 10
122.7729053563826
 20
-21.47278501042368
  0
LWPOLYLINE
  5
27E
330
70
100
AcDbEntity
  8
0
 62
     8
420
  8421504
370
    25
100
AcDbPolyline
 90
        4
 70
     0
 43
0.0
 10
122.0229667244824
 20
-22.771857505224
 10
122.0229357728825
 20
-22.77184039182419
 10
121.9079749751832
 20
-22.63952731282433
 10
121.8676061968823
 20
-22.42847377962377
  0
LWPOLYLINE
  5
27F
330
70
100
AcDbEntity
  8
0
 62
     8
420
  8421504
370
    25
100
AcDbPolyline
 90
        7
 70
     0
 43
0.0
 10
120.2766153491825
 20
-19.67279756552393
 10
120.5199317397827
 20
-19.76665232862328
 10
120.8069438755831
 20
-19.79960999612393
 10
121.0939566699824
 20
-19.7666519484243
 10
121.3372763533829
 20
-19.67279832582435
 10
121.4998532116823
 20
-19.53233286252354
 10
121.556944410683
 20
-19.36664390312386
  0
LWPOLYLINE
  5
280
330
70
100
AcDbEntity
  8
0
 62
     8
420
  8421504
370
    25
100
AcDbPolyline
 90
        3
 70
     0
 43
0.0
 10
120.0569459746822
 20
-19.36664542382352
 10
120.1140365151828
 20
-19.53233400302423
 10
120.2766153491825
 20
-19.67279756552393
  0
SPLINE
  5
281
330
70
100
AcDbEntity
  8
0
 62
     8
420
  8421504
370
    25
100
AcDbSpline
210
0.0
220
0.0
230
1.0
 70
     8
 71
     3
 72
     8
 73
     4
 74
     0
 42
0.0000000001
 43
0.0000000001
 40
0.0
 40
0.0
 40
0.0
 40
0.0
 40
1.0
 40
1.0
 40
1.0
 40
1.0
 10
189.1311374349168
 20
-48.60266771270538
 30
0.0
 10
189.0946659930966
 20
-48.57653920248293
 30
0.0
 10
189.0470358027032
 20
-48.57182279601969
 30
0.0
 10
189.0061483214798
 20
-48.59029112009324
 30
0.0
  0
SPLINE
  5
282
330
70
100
AcDbEntity
  8
0
 62
     8
420
  8421504
370
    25
100
AcDbSpline
210
0.0
220
0.0
230
1.0
 70
     8
 71
     3
 72
     8
 73
     4
 74
     0
 42
0.0000000001
 43
0.0000000001
 40
0.0
 40
0.0
 40
0.0
 40
0.0
 40
1.0
 40
1.0
 40
1.0
 40
1.0
 10
190.8471173960754
 20
-53.61620773990889
 30
0.0
 10
190.8843543586645
 20
-53.59068044096754
 30
0.0
 10
190.9043126973683
 20
-53.54656894352207
 30
0.0
 10
190.8989053361832
 20
-53.50174713165535
 30
0.0
  0
SPLINE
  5
283
330
70
100
AcDbEntity
  8
0
 62
     8
420
  8421504
370
    25
100
AcDbSpline
210
0.0
220
0.0
230
1.0
 70
     8
 71
     3
 72
     8
 73
     4
 74
     0
 42
0.0000000001
 43
0.0000000001
 40
0.0
 40
0.0
 40
0.0
 40
0.0
 40
1.0
 40
1.0
 40
1.0
 40
1.0
 10
190.8989053361665
 20
-49.82731363634
 30
0.0
 10
191.5487483202231
 20
-49.4778596493937
 30
0.0
 10
192.1119449452938
 20
-48.98711196538216
 30
0.0
 10
192.5470331517673
 20
-48.39119901409856
 30
0.0
  0
SPLINE
  5
284
330
70
100
AcDbEntity
  8
0
 62
     8
420
  8421504
370
    25
100
AcDbSpline
210
0.0
220
0.0
230
1.0
 70
     8
 71
     3
 72
     8
 73
     4
 74
     0
 42
0.0000000001
 43
0.0000000001
 40
0.0
 40
0.0
 40
0.0
 40
0.0
 40
1.0
 40
1.0
 40
1.0
 40
1.0
 10
190.8470945116567
 20
-43.5897777803236
 30
0.0
 10
190.8062103594138
 20
-43.5713253938044
 30
0.0
 10
190.7585927843321
 20
-43.57604681231959
 30
0.0
 10
190.722128282641
 20
-43.60216853870386
 30
0.0
  0
SPLINE
  5
285
330
70
100
AcDbEntity
  8
0
 62
     8
420
  8421504
370
    25
100
AcDbSpline
210
0.0
220
0.0
230
1.0
 70
     8
 71
     3
 72
     8
 73
     4
 74
     0
 42
0.0000000001
 43
0.0000000001
 40
0.0
 40
0.0
 40
0.0
 40
0.0
 40
1.0
 40
1.0
 40
1.0
 40
1.0
 10
190.898905336137
 20
-53.50174713166304
 30
0.0
 10
191.5538718063818
 20
-53.14980042482797
 30
0.0
 10
192.1206322769937
 20
-52.65409886469376
 30
0.0
 10
192.556664365163
 20
-52.05183349155485
 30
0.0
  0
SPLINE
  5
286
330
70
100
AcDbEntity
  8
0
 62
     8
420
  8421504
370
    25
100
AcDbSpline
210
0.0
220
0.0
230
1.0
 70
     8
 71
     3
 72
     8
 73
     4
 74
     0
 42
0.0000000001
 43
0.0000000001
 40
0.0
 40
0.0
 40
0.0
 40
0.0
 40
1.0
 40
1.0
 40
1.0
 40
1.0
 10
190.3383245921401
 20
-46.6140201304146
 30
0.0
 10
190.1962653120188
 20
-45.82814745323759
 30
0.0
 10
189.6796708302906
 20
-45.16103371412117
 30
0.0
 10
188.9543613692074
 20
-44.82681389205028
 30
0.0
  0
SPLINE
  5
287
330
70
100
AcDbEntity
  8
0
 62
     8
420
  8421504
370
    25
100
AcDbSpline
210
0.0
220
0.0
230
1.0
 70
     8
 71
     3
 72
     8
 73
     4
 74
     0
 42
0.0000000001
 43
0.0000000001
 40
0.0
 40
0.0
 40
0.0
 40
0.0
 40
1.0
 40
1.0
 40
1.0
 40
1.0
 10
188.9543613691458
 20
-48.50124738742209
 30
0.0
 10
188.9515767943244
 20
-48.53761483613256
 30
0.0
 10
188.9635035886931
 20
-48.57357847868921
 30
0.0
 10
188.9874677186514
 20
-48.60107512681254
 30
0.0
  0
SPLINE
  5
288
330
70
100
AcDbEntity
  8
0
 62
     8
420
  8421504
370
    25
100
AcDbSpline
210
0.0
220
0.0
230
1.0
 70
     8
 71
     3
 72
     8
 73
     4
 74
     0
 42
0.0000000001
 43
0.0000000001
 40
0.0
 40
0.0
 40
0.0
 40
0.0
 40
1.0
 40
1.0
 40
1.0
 40
1.0
 10
130.7430411861814
 20
-8.892446353399106
 30
0.0
 10
130.7021532780857
 20
-8.873978561415995
 30
0.0
 10
130.6545230513183
 20
-8.878695121509684
 30
0.0
 10
130.6180512495627
 20
-8.904823421221474
 30
0.0
  0
SPLINE
  5
289
330
70
100
AcDbEntity
  8
0
 62
     8
420
  8421504
370
    25
100
AcDbSpline
210
0.0
220
0.0
230
1.0
 70
     8
 71
     3
 72
     8
 73
     4
 74
     0
 42
0.0000000001
 43
0.0000000001
 40
0.0
 40
0.0
 40
0.0
 40
0.0
 40
1.0
 40
1.0
 40
1.0
 40
1.0
 10
128.8502843361085
 20
-13.80390226995896
 30
0.0
 10
128.8443985075574
 20
-13.84879624190041
 30
0.0
 10
128.8644647207595
 20
-13.89314722819603
 30
0.0
 10
128.9020712884002
 20
-13.91836344846606
 30
0.0
  0
SPLINE
  5
28A
330
70
100
AcDbEntity
  8
0
 62
     8
420
  8421504
370
    25
100
AcDbSpline
210
0.0
220
0.0
230
1.0
 70
     8
 71
     3
 72
     8
 73
     4
 74
     0
 42
0.0000000001
 43
0.0000000001
 40
0.0
 40
0.0
 40
0.0
 40
0.0
 40
1.0
 40
1.0
 40
1.0
 40
1.0
 10
120.365003217417
 20
-8.904823421304895
 30
0.0
 10
120.3285317755968
 20
-8.878694911082451
 30
0.0
 10
120.2809015852035
 20
-8.873978504619215
 30
0.0
 10
120.2400141039801
 20
-8.892446828692751
 30
0.0
  0
SPLINE
  5
28B
330
70
100
AcDbEntity
  8
0
 62
     8
420
  8421504
370
    25
100
AcDbSpline
210
0.0
220
0.0
230
1.0
 70
     8
 71
     3
 72
     8
 73
     4
 74
     0
 42
0.0000000001
 43
0.0000000001
 40
0.0
 40
0.0
 40
0.0
 40
0.0
 40
1.0
 40
1.0
 40
1.0
 40
1.0
 10
122.080983178496
 20
-13.91836344851996
 30
0.0
 10
122.1188419165103
 20
-13.89336167180219
 30
0.0
 10
122.1389836817941
 20
-13.84884476881554
 30
0.0
 10
122.1327711186038
 20
-13.80390284026642
 30
0.0
  0
LWPOLYLINE
  5
28C
330
70
100
AcDbEntity
  8
0
 62
     8
420
  8421504
370
    25
100
AcDbPolyline
 90
       16
 70
     0
 43
0.0
 10
173.0109866477825
 20
-39.38189833092412
 10
173.2354541775832
 20
-40.05025228602337
 10
173.6821515027825
 20
-41.20156601732349
 10
174.2003693956823
 20
-42.34108928492413
 10
174.785416385383
 20
-43.45850418832329
 10
175.4319951395828
 20
-44.54369022382344
 10
176.1342498807828
 20
-45.58682123952343
 10
176.8858190688834
 20
-46.57844832042362
 10
177.6798973049833
 20
-47.50959255932325
 10
178.5092946000824
 20
-48.37182185782424
 10
179.3664982784829
 20
-49.15732620652384
 10
180.2437454175834
 20
-49.85899220352443
 10
181.1330926534827
 20
-50.47046692672398
 10
182.0264859867824
 20
-50.98621192012426
 10
182.9158319055828
 20
-51.40155489872332
 10
183.6650961878827
 20
-51.67361319662325
  0
LWPOLYLINE
  5
28D
330
70
100
AcDbEntity
  8
0
 62
     8
420
  8421504
370
    25
100
AcDbPolyline
 90
       32
 70
     0
 43
0.0
 10
190.8673445905829
 20
-43.6802481592237
 10
190.7980788792831
 20
-43.16973206022438
 10
190.5874526379822
 20
-42.04556428482379
 10
190.2952511714823
 20
-40.90196388052443
 10
189.9241244626831
 20
-39.74928905402427
 10
189.4774284545827
 20
-38.59797608302328
 10
188.9592092445827
 20
-37.45845205512352
 10
188.3741609378833
 20
-36.34103639152404
 10
187.7275835006822
 20
-35.25585111632431
 10
187.0253300765823
 20
-34.21272086092346
 10
186.2737595713829
 20
-33.22109301972413
 10
185.4796813353831
 20
-32.28994878082322
 10
184.6502840401826
 20
-31.42771948232351
 10
183.7930803617834
 20
-30.64221513352381
 10
182.9158319055828
 20
-29.94054837622408
 10
182.0264859867824
 20
-29.32907441332367
 10
181.1330926534827
 20
-28.8133294200235
 10
180.2437454175834
 20
-28.3979856810239
 10
179.3664982784829
 20
-28.08680369032368
 10
178.5092946000824
 20
-27.88260173842412
 10
177.6798973049833
 20
-27.78722930312323
 10
176.8858190688834
 20
-27.80155032572359
 10
176.1342498807828
 20
-27.92543409252359
 10
175.4319951395828
 20
-28.15775904262361
 10
174.785416385383
 20
-28.49642113862432
 10
174.2003693956823
 20
-28.93835516572411
 10
173.6821515027825
 20
-29.47955678982321
 10
173.2354541775832
 20
-30.11512476732382
 10
172.8643261516826
 20
-30.8393050563241
 10
172.5721260022828
 20
-31.64553758872395
 10
172.3615010780834
 20
-32.5265222427244
 10
172.3025468566826
 20
-32.88423830172402
  0
LWPOLYLINE
  5
28E
330
70
100
AcDbEntity
  8
0
 62
     8
420
  8421504
370
    25
100
AcDbPolyline
 90
       26
 70
     0
 43
0.0
 10
175.0584025109829
 20
-27.78778432032445
 10
175.4723754424827
 20
-27.57599154212367
 10
176.181153725583
 20
-27.32343310422349
 10
176.9404792508834
 20
-27.17960623072336
 10
177.7436770112834
 20
-27.14577315602374
 10
178.583690043883
 20
-27.22223112262373
 10
179.4531347475828
 20
-27.40830857432361
 10
180.3443720062831
 20
-27.70237123262326
 10
181.2495677742831
 20
-28.10183273782346
 10
182.1607694681823
 20
-28.60318430002376
 10
183.0699678696834
 20
-29.20201978822396
 10
183.9691735168829
 20
-29.89307678832449
 10
184.8504825584826
 20
-30.67028070412389
 10
185.7061505110823
 20
-31.52680254492388
 10
186.5286620648829
 20
-32.45511671482342
 10
187.3107811326833
 20
-33.44706184452348
 10
188.0456430465827
 20
-34.49392443382321
 10
188.7267808995827
 20
-35.58650044682325
 10
189.3482177415824
 20
-36.71519264212424
 10
189.9044850191828
 20
-37.87007825252417
 10
190.3906989660831
 20
-39.04101126032423
 10
190.8025843114834
 20
-40.21769920132426
 10
191.1365216947825
 20
-41.38980164082361
 10
191.3895766415828
 20
-42.54701857442356
 10
191.5595259056822
 20
-43.67918054042447
 10
191.601820268183
 20
-44.09890512922366
  0
LWPOLYLINE
  5
28F
330
70
100
AcDbEntity
  8
0
 62
     8
420
  8421504
370
    25
100
AcDbPolyline
 90
        3
 70
     0
 43
0.0
 10
183.6399611903824
 20
-39.42918830182345
 10
183.5787560637824
 20
-39.30030509062379
 10
183.2091176656831
 20
-38.63778743152322
  0
LWPOLYLINE
  5
290
330
70
100
AcDbEntity
  8
0
 62
     8
420
  8421504
370
    25
100
AcDbPolyline
 90
        3
 70
     0
 43
0.0
 10
179.4968074437826
 20
-36.49471635692437
 10
179.1271703626834
 20
-36.73045936602347
 10
179.0659639190834
 20
-36.78867588192422
  0
LINE
  5
291
330
70
100
AcDbEntity
  8
0
 62
     8
420
  8421504
370
    25
100
AcDbLine
 10
183.0323406120831
 20
-38.95884654652397
 30
0.0
 11
183.2091173363824
 21
-38.85679551582386
 31
0.0
  0
LINE
  5
292
330
70
100
AcDbEntity
  8
0
 62
     8
420
  8421504
370
    25
100
AcDbLine
 10
180.2393618160834
 20
-36.69326161972382
 30
0.0
 11
179.6735844972825
 21
-37.01987791362442
 31
0.0
  0
LINE
  5
293
330
70
100
AcDbEntity
  8
0
 62
     8
420
  8421504
370
    25
100
AcDbLine
 10
179.6668591114827
 20
-36.37056051052351
 30
0.0
 11
179.4970805750833
 21
-36.46857157332338
 31
0.0
  0
LINE
  5
294
330
70
100
AcDbEntity
  8
0
 62
     8
420
  8421504
370
    25
100
AcDbLine
 10
179.4968074437826
 20
-36.71369145632351
 30
0.0
 11
179.8857793915828
 21
-36.4891427305235
 31
0.0
  0
LWPOLYLINE
  5
295
330
70
100
AcDbEntity
  8
0
 62
     8
420
  8421504
370
    25
100
AcDbPolyline
 90
       26
 70
     0
 43
0.0
 10
131.998794519083
 20
-15.70606376932395
 10
132.2232607317823
 20
-16.37441696412407
 10
132.6699567398827
 20
-17.52572993512377
 10
133.1881759498827
 20
-18.66525396302353
 10
133.7732242566822
 20
-19.7826696267244
 10
134.4198016937832
 20
-20.86785490182403
 10
135.1220551178831
 20
-21.91098515722359
 10
135.8736256230825
 20
-22.90261299852431
 10
136.6677038591824
 20
-23.83375723732383
 10
137.4971011542827
 20
-24.69598653592365
 10
138.3543048326833
 20
-25.48149088462325
 10
139.2315532888826
 20
-26.18315764192427
 10
140.120899207683
 20
-26.79463160482339
 10
141.0142925409828
 20
-27.31037659822367
 10
141.9036397768833
 20
-27.72572033712444
 10
142.7808869159825
 20
-28.03690232782337
 10
143.638090594383
 20
-28.24110427972423
 10
144.4674878895822
 20
-28.33647671502383
 10
145.2615661255832
 20
-28.32215569242347
 10
146.0131353136826
 20
-28.19827192562347
 10
146.7153900548826
 20
-27.96594697552345
 10
147.3619688091825
 20
-27.62728487952402
 10
147.9470157987831
 20
-27.18535085242423
 10
148.4652336916829
 20
-26.64414922842395
 10
148.9119310168822
 20
-26.00858125082324
 10
149.1363985466829
 20
-25.59939198902396
  0
LWPOLYLINE
  5
296
330
70
100
AcDbEntity
  8
0
 62
     8
420
  8421504
370
    25
100
AcDbPolyline
 90
       32
 70
     0
 43
0.0
 10
149.8448383377828
 20
-19.91967913222439
 10
149.7858841163833
 20
-19.49389597792326
 10
149.5752591921826
 20
-18.36972896282438
 10
149.2830590427828
 20
-17.22612931892426
 10
148.9119310168822
 20
-16.07345373212368
 10
148.4652336916829
 20
-14.92214000082355
 10
147.9470157987831
 20
-13.78261673322421
 10
147.3619688091825
 20
-12.66520182992387
 10
146.7153900548826
 20
-11.58001579432361
 10
146.0131353136826
 20
-10.53688477862362
 10
145.2615661255832
 20
-9.545257697723434
 10
144.4674878895822
 20
-8.614113458823808
 10
143.638090594383
 20
-7.751884160324093
 10
142.7808869159825
 20
-6.966379811623217
 10
141.9036397768833
 20
-6.264713814623905
 10
141.0142925409828
 20
-5.653239091424362
 10
140.120899207683
 20
-5.13749409802408
 10
139.2315532888826
 20
-4.722151119423735
 10
138.3543048326833
 20
-4.410968368424376
 10
137.4971011542827
 20
-4.20676641652352
 10
136.6677038591824
 20
-4.111393981223916
 10
135.8736256230825
 20
-4.125715003824279
 10
135.1220551178831
 20
-4.249598010323857
 10
134.4198016937832
 20
-4.481923720624194
 10
133.7732242566822
 20
-4.820586577024151
 10
133.1881759498827
 20
-5.262519843823515
 10
132.6699567398827
 20
-5.803720707523377
 10
132.2232607317823
 20
-6.439289445423223
 10
131.8521340229831
 20
-7.163470494723927
 10
131.5599325564832
 20
-7.969702266823357
 10
131.3493063151823
 20
-8.850686160423274
 10
131.2903534108829
 20
-9.208402979823427
  0
LWPOLYLINE
  5
297
330
70
100
AcDbEntity
  8
0
 62
     8
420
  8421504
370
    25
100
AcDbPolyline
 90
       26
 70
     0
 43
0.0
 10
134.0462103822834
 20
-4.111949758724277
 10
134.4601819966831
 20
-3.900156220124255
 10
135.1689602797822
 20
-3.647597782324182
 10
135.9282858050825
 20
-3.503770908824048
 10
136.7314835654825
 20
-3.469937834124429
 10
137.5714965980834
 20
-3.546395800724416
 10
138.4409413017831
 20
-3.732473252424302
 10
139.3321785604822
 20
-4.026535910723946
 10
140.2373743284822
 20
-4.425997415924153
 10
141.1485760223827
 20
-4.927348978124451
 10
142.0577744238824
 20
-5.526184466223262
 10
142.9569787539832
 20
-6.217240706123474
 10
143.838289112683
 20
-6.994445382223292
 10
144.6939583823828
 20
-7.850967983423812
 10
145.5164673019832
 20
-8.779280632523581
 10
146.2985890039825
 20
-9.771227282923312
 10
147.033448283683
 20
-10.81808835152337
 10
147.7145887708832
 20
-11.91066588522436
 10
148.3360242957828
 20
-13.03935732012354
 10
148.8922915733831
 20
-14.19424293062358
 10
149.3785055202822
 20
-15.36517593842364
 10
149.7903908656825
 20
-16.54186387942366
 10
150.1243282489829
 20
-17.7139663189243
 10
150.3773831957832
 20
-18.87118325252426
 10
150.5473324598826
 20
-20.00334521852388
 10
150.5827028854833
 20
-20.34563917482375
  0
SPLINE
  5
298
330
70
100
AcDbEntity
  8
0
 62
     8
420
  8421504
370
    25
100
AcDbSpline
210
0.0
220
0.0
230
1.0
 70
     8
 71
     3
 72
     8
 73
     4
 74
     0
 42
0.0000000001
 43
0.0000000001
 40
0.0
 40
0.0
 40
0.0
 40
0.0
 40
1.0
 40
1.0
 40
1.0
 40
1.0
 10
147.9538722349377
 20
-27.83229680936885
 30
0.0
 10
148.6889237030667
 20
-27.35586150358242
 30
0.0
 10
149.2886366523918
 20
-26.69785781444686
 30
0.0
 10
149.6950415235284
 20
-25.92188981116809
 30
0.0
  0
LWPOLYLINE
  5
299
330
70
100
AcDbEntity
  8
0
 62
     8
420
  8421504
370
    25
100
AcDbPolyline
 90
        3
 70
     0
 43
0.0
 10
142.6277690616829
 20
-15.75335374022328
 10
142.5665626179828
 20
-15.62446976862437
 10
142.1969255369823
 20
-14.96195286992432
  0
LWPOLYLINE
  5
29A
330
70
100
AcDbEntity
  8
0
 62
     8
420
  8421504
370
    25
100
AcDbPolyline
 90
        3
 70
     0
 43
0.0
 10
138.4846153150832
 20
-12.81888179532419
 10
138.1149769168825
 20
-13.05462404412416
 10
138.0537717902824
 20
-13.11284132032405
  0
LINE
  5
29B
330
70
100
AcDbEntity
  8
0
 62
     8
420
  8421504
370
    25
100
AcDbLine
 10
142.0201484833824
 20
-15.2830119849238
 30
0.0
 11
142.1969252076829
 21
-15.18096095422369
 31
0.0
  0
LINE
  5
29C
330
70
100
AcDbEntity
  8
0
 62
     8
420
  8421504
370
    25
100
AcDbLine
 10
139.2271696873826
 20
-13.01742705812364
 30
0.0
 11
138.661392368583
 21
-13.34404335202425
 31
0.0
  0
LINE
  5
29D
330
70
100
AcDbEntity
  8
0
 62
     8
420
  8421504
370
    25
100
AcDbLine
 10
138.6546669827832
 20
-12.69472594892333
 30
0.0
 11
138.4848884463826
 21
-12.7927370117232
 31
0.0
  0
LINE
  5
29E
330
70
100
AcDbEntity
  8
0
 62
     8
420
  8421504
370
    25
100
AcDbLine
 10
138.4846153150832
 20
-13.03785689472334
 30
0.0
 11
138.8735872628832
 21
-12.81330816892333
 31
0.0
  0
LINE
  5
29F
330
70
100
AcDbEntity
  8
0
 62
    18
420
        0
370
    25
100
AcDbLine
 10
192.1929746063823
 20
100.6853849439762
 30
0.0
 11
192.1929746063823
 21
98.4353845751761
 31
0.0
  0
LINE
  5
2A0
330
70
100
AcDbEntity
  8
0
 62
    18
420
        0
370
    25
100
AcDbLine
 10
193.6929739209833
 20
98.4353845751761
 30
0.0
 11
193.6929739209833
 21
100.6853849439762
 31
0.0
  0
LINE
  5
2A1
330
70
100
AcDbEntity
  8
0
 62
    18
420
        0
370
    25
100
AcDbLine
 10
192.1929746063823
 20
102.6853848061762
 30
0.0
 11
192.1929746063823
 21
100.6853849439762
 31
0.0
  0
LINE
  5
2A2
330
70
100
AcDbEntity
  8
0
 62
    18
420
        0
370
    25
100
AcDbLine
 10
193.6929739209833
 20
100.6853849439762
 30
0.0
 11
193.6929739209833
 21
102.6853848061762
 31
0.0
  0
LINE
  5
2A3
330
70
100
AcDbEntity
  8
0
 62
    18
420
        0
370
    25
100
AcDbLine
 10
183.9429727884825
 20
102.6853848061762
 30
0.0
 11
183.9429727884825
 21
95.68538505577603
 31
0.0
  0
LINE
  5
2A4
330
70
100
AcDbEntity
  8
0
 62
    18
420
        0
370
    25
100
AcDbLine
 10
185.4429758282824
 20
95.68538505577603
 30
0.0
 11
185.4429758282824
 21
102.6853848061762
 31
0.0
  0
LINE
  5
2A5
330
70
100
AcDbEntity
  8
0
 62
    18
420
        0
370
    25
100
AcDbLine
 10
183.9429727884825
 20
95.68538505577603
 30
0.0
 11
183.9429727884825
 21
93.43538515257609
 31
0.0
  0
LINE
  5
2A6
330
70
100
AcDbEntity
  8
0
 62
    18
420
        0
370
    25
100
AcDbLine
 10
185.4429758282824
 20
93.43538515257609
 30
0.0
 11
185.4429758282824
 21
95.68538505577603
 31
0.0
  0
LINE
  5
2A7
330
70
100
AcDbEntity
  8
0
 62
    18
420
        0
370
    25
100
AcDbLine
 10
177.1929740103826
 20
93.43538515257609
 30
0.0
 11
177.1929740103826
 21
95.68538505577603
 31
0.0
  0
LINE
  5
2A8
330
70
100
AcDbEntity
  8
0
 62
    18
420
        0
370
    25
100
AcDbLine
 10
175.6929746957829
 20
95.68538505577603
 30
0.0
 11
175.6929746957829
 21
93.43538515257609
 31
0.0
  0
LINE
  5
2A9
330
70
100
AcDbEntity
  8
0
 62
    18
420
        0
370
    25
100
AcDbLine
 10
175.6929746957829
 20
102.6853848061762
 30
0.0
 11
175.6929746957829
 21
95.68538505577603
 31
0.0
  0
LINE
  5
2AA
330
70
100
AcDbEntity
  8
0
 62
    18
420
        0
370
    25
100
AcDbLine
 10
177.1929740103826
 20
95.68538505577603
 30
0.0
 11
177.1929740103826
 21
102.6853848061762
 31
0.0
  0
LINE
  5
2AB
330
70
100
AcDbEntity
  8
0
 62
    18
420
        0
370
    25
100
AcDbLine
 10
167.4429747405827
 20
102.6853848061762
 30
0.0
 11
167.4429747405827
 21
95.68538505577603
 31
0.0
  0
LINE
  5
2AC
330
70
100
AcDbEntity
  8
0
 62
    18
420
        0
370
    25
100
AcDbLine
 10
168.9429740550823
 20
95.68538505577603
 30
0.0
 11
168.9429740550823
 21
102.6853848061762
 31
0.0
  0
LINE
  5
2AD
330
70
100
AcDbEntity
  8
0
 62
    18
420
        0
370
    25
100
AcDbLine
 10
168.9429740550823
 20
93.43538515257609
 30
0.0
 11
168.9429740550823
 21
95.68538505577603
 31
0.0
  0
LINE
  5
2AE
330
70
100
AcDbEntity
  8
0
 62
    18
420
        0
370
    25
100
AcDbLine
 10
167.4429747405827
 20
95.68538505577603
 30
0.0
 11
167.4429747405827
 21
93.43538515257609
 31
0.0
  0
LINE
  5
2AF
330
70
100
AcDbEntity
  8
0
 62
    18
420
        0
370
    25
100
AcDbLine
 10
159.1929747852823
 20
102.6853848061762
 30
0.0
 11
159.1929747852823
 21
95.68538505577603
 31
0.0
  0
LINE
  5
2B0
330
70
100
AcDbEntity
  8
0
 62
    18
420
        0
370
    25
100
AcDbLine
 10
160.6929740997832
 20
95.68538505577603
 30
0.0
 11
160.6929740997832
 21
102.6853848061762
 31
0.0
  0
LINE
  5
2B1
330
70
100
AcDbEntity
  8
0
 62
    18
420
        0
370
    25
100
AcDbLine
 10
160.6929740997832
 20
93.43538515257609
 30
0.0
 11
160.6929740997832
 21
95.68538505577603
 31
0.0
  0
LINE
  5
2B2
330
70
100
AcDbEntity
  8
0
 62
    18
420
        0
370
    25
100
AcDbLine
 10
159.1929747852823
 20
95.68538505577603
 30
0.0
 11
159.1929747852823
 21
93.43538515257609
 31
0.0
  0
LINE
  5
2B3
330
70
100
AcDbEntity
  8
0
 62
    18
420
        0
370
    25
100
AcDbLine
 10
150.9429748299833
 20
102.6853848061762
 30
0.0
 11
150.9429748299833
 21
95.68538505577603
 31
0.0
  0
LINE
  5
2B4
330
70
100
AcDbEntity
  8
0
 62
    18
420
        0
370
    25
100
AcDbLine
 10
152.4429741444829
 20
95.68538505577603
 30
0.0
 11
152.4429741444829
 21
102.6853848061762
 31
0.0
  0
LINE
  5
2B5
330
70
100
AcDbEntity
  8
0
 62
    18
420
        0
370
    25
100
AcDbLine
 10
152.4429741444829
 20
93.43538515257609
 30
0.0
 11
152.4429741444829
 21
95.68538505577603
 31
0.0
  0
LINE
  5
2B6
330
70
100
AcDbEntity
  8
0
 62
    18
420
        0
370
    25
100
AcDbLine
 10
150.9429748299833
 20
95.68538505577603
 30
0.0
 11
150.9429748299833
 21
93.43538515257609
 31
0.0
  0
LINE
  5
2B7
330
70
100
AcDbEntity
  8
0
 62
    18
420
        0
370
    25
100
AcDbLine
 10
142.8728994111832
 20
118.9353846757763
 30
0.0
 11
140.6929745467824
 21
118.9353846757763
 31
0.0
  0
LINE
  5
2B8
330
70
100
AcDbEntity
  8
0
 62
    18
420
        0
370
    25
100
AcDbLine
 10
140.6929745467824
 20
91.43538482477625
 30
0.0
 11
142.8728994111832
 21
91.43538482477625
 31
0.0
  0
SPLINE
  5
2B9
330
70
100
AcDbEntity
  8
0
 62
    18
420
        0
370
    25
100
AcDbSpline
210
0.0
220
0.0
230
1.0
 70
     8
 71
     3
 72
     8
 73
     4
 74
     0
 42
0.0000000001
 43
0.0000000001
 40
0.0
 40
0.0
 40
0.0
 40
0.0
 40
1.0
 40
1.0
 40
1.0
 40
1.0
 10
142.8728995243828
 20
91.43538475027629
 30
0.0
 10
143.1387235497696
 20
91.43538475027629
 30
0.0
 10
143.3580770519515
 20
91.64338273107839
 30
0.0
 10
143.372193959111
 20
91.90883164406429
 30
0.0
  0
SPLINE
  5
2BA
330
70
100
AcDbEntity
  8
0
 62
    18
420
        0
370
    25
100
AcDbSpline
210
0.0
220
0.0
230
1.0
 70
     8
 71
     3
 72
     8
 73
     4
 74
     0
 42
0.0000000001
 43
0.0000000001
 40
0.0
 40
0.0
 40
0.0
 40
0.0
 40
1.0
 40
1.0
 40
1.0
 40
1.0
 10
143.372193959111
 20
118.4619378564883
 30
0.0
 10
143.3580770519515
 20
118.7273867694741
 30
0.0
 10
143.1387235497696
 20
118.9353847502763
 30
0.0
 10
142.8728995243828
 20
118.9353847502763
 30
0.0
  0
SPLINE
  5
2BB
330
70
100
AcDbEntity
  8
0
 62
    18
420
        0
370
    25
100
AcDbSpline
210
0.0
220
0.0
230
1.0
 70
     8
 71
     3
 72
     8
 73
     4
 74
     0
 42
0.0000000001
 43
0.0000000001
 40
0.0
 40
0.0
 40
0.0
 40
0.0
 40
1.0
 40
1.0
 40
1.0
 40
1.0
 10
143.3721939591533
 20
91.90883164427958
 30
0.0
 10
143.5365204690446
 20
94.99876437048291
 30
0.0
 10
143.6434657598435
 20
98.09148165977894
 30
0.0
 10
143.6929745468229
 20
101.1853847504279
 30
0.0
  0
SPLINE
  5
2BC
330
70
100
AcDbEntity
  8
0
 62
    18
420
        0
370
    25
100
AcDbSpline
210
0.0
220
0.0
230
1.0
 70
     8
 71
     3
 72
     8
 73
     4
 74
     0
 42
0.0000000001
 43
0.0000000001
 40
0.0
 40
0.0
 40
0.0
 40
0.0
 40
1.0
 40
1.0
 40
1.0
 40
1.0
 10
143.6929745468229
 20
109.1853847501246
 30
0.0
 10
143.6434657598435
 20
112.2792878407736
 30
0.0
 10
143.5365204690446
 20
115.3720051300696
 30
0.0
 10
143.3721939591533
 20
118.4619378562727
 30
0.0
  0
SPLINE
  5
2BD
330
70
100
AcDbEntity
  8
0
 62
    18
420
        0
370
    25
100
AcDbSpline
210
0.0
220
0.0
230
1.0
 70
     8
 71
     3
 72
    11
 73
     7
 74
     0
 42
0.0000000001
 43
0.0000000001
 40
0.0
 40
0.0
 40
0.0
 40
0.0
 40
1.0
 40
1.0
 40
1.0
 40
2.0
 40
2.0
 40
2.0
 40
2.0
 10
192.1929745467826
 20
98.43538475027621
 30
0.0
 10
192.1929745467826
 20
98.02117118790315
 30
0.0
 10
192.5287609844097
 20
97.68538475027602
 30
0.0
 10
192.9429745467824
 20
97.68538475027602
 30
0.0
 10
193.3571881091564
 20
97.68538475027602
 30
0.0
 10
193.6929745467823
 20
98.02117118790315
 30
0.0
 10
193.6929745467823
 20
98.43538475027621
 30
0.0
  0
SPLINE
  5
2BE
330
70
100
AcDbEntity
  8
0
 62
    18
420
        0
370
    25
100
AcDbSpline
210
0.0
220
0.0
230
1.0
 70
     8
 71
     3
 72
    11
 73
     7
 74
     0
 42
0.0000000001
 43
0.0000000001
 40
0.0
 40
0.0
 40
0.0
 40
0.0
 40
1.0
 40
1.0
 40
1.0
 40
2.0
 40
2.0
 40
2.0
 40
2.0
 10
183.9429745467828
 20
93.43538475027603
 30
0.0
 10
183.9429745467828
 20
93.02117118790297
 30
0.0
 10
184.2787609844099
 20
92.68538475027616
 30
0.0
 10
184.6929745467826
 20
92.68538475027616
 30
0.0
 10
185.1071881091554
 20
92.68538475027616
 30
0.0
 10
185.4429745467825
 20
93.02117118790297
 30
0.0
 10
185.4429745467825
 20
93.43538475027603
 30
0.0
  0
SPLINE
  5
2BF
330
70
100
AcDbEntity
  8
0
 62
    18
420
        0
370
    25
100
AcDbSpline
210
0.0
220
0.0
230
1.0
 70
     8
 71
     3
 72
    11
 73
     7
 74
     0
 42
0.0000000001
 43
0.0000000001
 40
0.0
 40
0.0
 40
0.0
 40
0.0
 40
1.0
 40
1.0
 40
1.0
 40
2.0
 40
2.0
 40
2.0
 40
2.0
 10
175.6929745467829
 20
93.43538475027603
 30
0.0
 10
175.6929745467829
 20
93.02117118790297
 30
0.0
 10
176.0287609844101
 20
92.68538475027616
 30
0.0
 10
176.4429745467828
 20
92.68538475027616
 30
0.0
 10
176.8571881091556
 20
92.68538475027616
 30
0.0
 10
177.1929745467827
 20
93.02117118790297
 30
0.0
 10
177.1929745467827
 20
93.43538475027603
 30
0.0
  0
SPLINE
  5
2C0
330
70
100
AcDbEntity
  8
0
 62
    18
420
        0
370
    25
100
AcDbSpline
210
0.0
220
0.0
230
1.0
 70
     8
 71
     3
 72
    11
 73
     7
 74
     0
 42
0.0000000001
 43
0.0000000001
 40
0.0
 40
0.0
 40
0.0
 40
0.0
 40
1.0
 40
1.0
 40
1.0
 40
2.0
 40
2.0
 40
2.0
 40
2.0
 10
167.4429745467831
 20
93.43538475027603
 30
0.0
 10
167.4429745467831
 20
93.02117118790297
 30
0.0
 10
167.7787609844102
 20
92.68538475027616
 30
0.0
 10
168.192974546783
 20
92.68538475027616
 30
0.0
 10
168.6071881091557
 20
92.68538475027616
 30
0.0
 10
168.9429745467829
 20
93.02117118790297
 30
0.0
 10
168.9429745467829
 20
93.43538475027603
 30
0.0
  0
SPLINE
  5
2C1
330
70
100
AcDbEntity
  8
0
 62
    18
420
        0
370
    25
100
AcDbSpline
210
0.0
220
0.0
230
1.0
 70
     8
 71
     3
 72
    11
 73
     7
 74
     0
 42
0.0000000001
 43
0.0000000001
 40
0.0
 40
0.0
 40
0.0
 40
0.0
 40
1.0
 40
1.0
 40
1.0
 40
2.0
 40
2.0
 40
2.0
 40
2.0
 10
159.1929745467833
 20
93.43538475027603
 30
0.0
 10
159.1929745467833
 20
93.02117118790297
 30
0.0
 10
159.5287609844092
 20
92.68538475027616
 30
0.0
 10
159.9429745467832
 20
92.68538475027616
 30
0.0
 10
160.3571881091559
 20
92.68538475027616
 30
0.0
 10
160.692974546783
 20
93.02117118790297
 30
0.0
 10
160.692974546783
 20
93.43538475027603
 30
0.0
  0
SPLINE
  5
2C2
330
70
100
AcDbEntity
  8
0
 62
    18
420
        0
370
    25
100
AcDbSpline
210
0.0
220
0.0
230
1.0
 70
     8
 71
     3
 72
    11
 73
     7
 74
     0
 42
0.0000000001
 43
0.0000000001
 40
0.0
 40
0.0
 40
0.0
 40
0.0
 40
1.0
 40
1.0
 40
1.0
 40
2.0
 40
2.0
 40
2.0
 40
2.0
 10
150.9429745467822
 20
93.43538475027603
 30
0.0
 10
150.9429745467822
 20
93.02117118790297
 30
0.0
 10
151.2787609844094
 20
92.68538475027616
 30
0.0
 10
151.6929745467834
 20
92.68538475027616
 30
0.0
 10
152.1071881091561
 20
92.68538475027616
 30
0.0
 10
152.4429745467832
 20
93.02117118790297
 30
0.0
 10
152.4429745467832
 20
93.43538475027603
 30
0.0
  0
LINE
  5
2C3
330
70
100
AcDbEntity
  8
0
 62
    18
420
        0
370
    25
100
AcDbLine
 10
151.1929744052832
 20
102.6853848061762
 30
0.0
 11
143.9429746138825
 21
102.6853848061762
 31
0.0
  0
SPLINE
  5
2C4
330
70
100
AcDbEntity
  8
0
 62
    18
420
        0
370
    25
100
AcDbSpline
210
0.0
220
0.0
230
1.0
 70
     8
 71
     3
 72
     8
 73
     4
 74
     0
 42
0.0000000001
 43
0.0000000001
 40
0.0
 40
0.0
 40
0.0
 40
0.0
 40
1.0
 40
1.0
 40
1.0
 40
1.0
 10
143.6929745467831
 20
102.935384750276
 30
0.0
 10
143.6929745467831
 20
102.7973135628184
 30
0.0
 10
143.8049033593251
 20
102.6853847502762
 30
0.0
 10
143.9429745467826
 20
102.6853847502762
 30
0.0
  0
LINE
  5
2C5
330
70
100
AcDbEntity
  8
0
 62
    18
420
        0
370
    25
100
AcDbLine
 10
143.6929745728823
 20
102.935384847076
 30
0.0
 11
151.1929744052832
 21
102.935384847076
 31
0.0
  0
LINE
  5
2C6
330
70
100
AcDbEntity
  8
0
 62
    18
420
        0
370
    25
100
AcDbLine
 10
151.1929744052832
 20
102.6853848061762
 30
0.0
 11
151.1929744052832
 21
102.935384847076
 31
0.0
  0
LINE
  5
2C7
330
70
100
AcDbEntity
  8
0
 62
    18
420
        0
370
    25
100
AcDbLine
 10
151.1929744052832
 20
107.4353846533761
 30
0.0
 11
143.6929745728823
 21
107.4353846533761
 31
0.0
  0
SPLINE
  5
2C8
330
70
100
AcDbEntity
  8
0
 62
    18
420
        0
370
    25
100
AcDbSpline
210
0.0
220
0.0
230
1.0
 70
     8
 71
     3
 72
     8
 73
     4
 74
     0
 42
0.0000000001
 43
0.0000000001
 40
0.0
 40
0.0
 40
0.0
 40
0.0
 40
1.0
 40
1.0
 40
1.0
 40
1.0
 10
143.9429745467826
 20
107.685384750276
 30
0.0
 10
143.8049033593251
 20
107.685384750276
 30
0.0
 10
143.6929745467831
 20
107.5734559377337
 30
0.0
 10
143.6929745467831
 20
107.4353847502762
 30
0.0
  0
LINE
  5
2C9
330
70
100
AcDbEntity
  8
0
 62
    18
420
        0
370
    25
100
AcDbLine
 10
143.9429746138825
 20
107.685384694376
 30
0.0
 11
151.1929744052832
 21
107.685384694376
 31
0.0
  0
LINE
  5
2CA
330
70
100
AcDbEntity
  8
0
 62
    18
420
        0
370
    25
100
AcDbLine
 10
151.1929744052832
 20
107.4353846533761
 30
0.0
 11
151.1929744052832
 21
107.685384694376
 31
0.0
  0
LINE
  5
2CB
330
70
100
AcDbEntity
  8
0
 62
    18
420
        0
370
    25
100
AcDbLine
 10
151.1929744052832
 20
107.4353846533761
 30
0.0
 11
151.1929744052832
 21
102.935384847076
 31
0.0
  0
LINE
  5
2CC
330
70
100
AcDbEntity
  8
0
 62
    18
420
        0
370
    25
100
AcDbLine
 10
143.6929745728823
 20
107.4353846533761
 30
0.0
 11
143.6929745728823
 21
102.935384847076
 31
0.0
  0
LINE
  5
2CD
330
70
100
AcDbEntity
  8
0
 62
    18
420
        0
370
    25
100
AcDbLine
 10
195.7911281975832
 20
107.4353846533761
 30
0.0
 11
151.1929744052832
 21
107.4353846533761
 31
0.0
  0
LINE
  5
2CE
330
70
100
AcDbEntity
  8
0
 62
    18
420
        0
370
    25
100
AcDbLine
 10
151.1929744052832
 20
107.685384694376
 30
0.0
 11
195.6929742487825
 21
107.685384694376
 31
0.0
  0
SPLINE
  5
2CF
330
70
100
AcDbEntity
  8
0
 62
    18
420
        0
370
    25
100
AcDbSpline
210
0.0
220
0.0
230
1.0
 70
     8
 71
     3
 72
     8
 73
     4
 74
     0
 42
0.0000000001
 43
0.0000000001
 40
0.0
 40
0.0
 40
0.0
 40
0.0
 40
1.0
 40
1.0
 40
1.0
 40
1.0
 10
195.7911281976191
 20
107.4353846534213
 30
0.0
 10
195.7601347101067
 20
107.51938480916
 30
0.0
 10
195.7274097499332
 20
107.6027359273341
 30
0.0
 10
195.6929742488376
 20
107.6853846943943
 30
0.0
  0
LINE
  5
2D0
330
70
100
AcDbEntity
  8
0
 62
    18
420
        0
370
    25
100
AcDbLine
 10
195.6929742487825
 20
102.6853848061762
 30
0.0
 11
151.1929744052832
 21
102.6853848061762
 31
0.0
  0
LINE
  5
2D1
330
70
100
AcDbEntity
  8
0
 62
    18
420
        0
370
    25
100
AcDbLine
 10
151.1929744052832
 20
102.935384847076
 30
0.0
 11
195.7911281975832
 21
102.935384847076
 31
0.0
  0
SPLINE
  5
2D2
330
70
100
AcDbEntity
  8
0
 62
    18
420
        0
370
    25
100
AcDbSpline
210
0.0
220
0.0
230
1.0
 70
     8
 71
     3
 72
     8
 73
     4
 74
     0
 42
0.0000000001
 43
0.0000000001
 40
0.0
 40
0.0
 40
0.0
 40
0.0
 40
1.0
 40
1.0
 40
1.0
 40
1.0
 10
195.6929742488017
 20
102.6853848060908
 30
0.0
 10
195.7274259991031
 20
102.7680269980912
 30
0.0
 10
195.7601510921968
 20
102.8513784548168
 30
0.0
 10
195.7911281975857
 20
102.9353848470686
 30
0.0
  0
SPLINE
  5
2D3
330
70
100
AcDbEntity
  8
0
 62
    18
420
        0
370
    25
100
AcDbSpline
210
0.0
220
0.0
230
1.0
 70
     8
 71
     3
 72
     8
 73
     4
 74
     0
 42
0.0000000001
 43
0.0000000001
 40
0.0
 40
0.0
 40
0.0
 40
0.0
 40
1.0
 40
1.0
 40
1.0
 40
1.0
 10
195.7911300056075
 20
102.9353847502747
 30
0.0
 10
196.3269227271744
 20
104.3875391101948
 30
0.0
 10
196.3269227271744
 20
105.9832303903573
 30
0.0
 10
195.7911300056075
 20
107.4353847502774
 30
0.0
  0
LINE
  5
2D4
330
70
100
AcDbEntity
  8
0
 62
    18
420
        0
370
    25
100
AcDbLine
 10
140.6929745467824
 20
118.9353846757763
 30
0.0
 11
140.6929745467824
 21
91.43538482477625
 31
0.0
  0
LWPOLYLINE
  5
2D5
330
70
100
AcDbEntity
  8
0
 62
    18
420
        0
370
    25
100
AcDbPolyline
 90
        9
 70
     0
 43
0.0
 10
143.6925883068825
 20
102.1353848090762
 10
143.6926367356831
 20
102.1393629534761
 10
143.6926851643824
 20
102.1433413306761
 10
143.692733593183
 20
102.1473194750761
 10
143.6927817890828
 20
102.1512976194761
 10
143.6928302178821
 20
102.1552759966761
 10
143.6928784138834
 20
102.159254141076
 10
143.6929263769824
 20
102.1632322853762
 10
143.6929745728823
 20
102.167210662676
  0
SPLINE
  5
2D6
330
70
100
AcDbEntity
  8
0
 62
    18
420
        0
370
    25
100
AcDbSpline
210
0.0
220
0.0
230
1.0
 70
     8
 71
     3
 72
     8
 73
     4
 74
     0
 42
0.0000000001
 43
0.0000000001
 40
0.0
 40
0.0
 40
0.0
 40
0.0
 40
1.0
 40
1.0
 40
1.0
 40
1.0
 10
143.6925883068196
 20
102.1353848091455
 30
0.0
 10
143.6909906153652
 20
102.0520608218184
 30
0.0
 10
143.6907655152107
 20
101.9687161700346
 30
0.0
 10
143.6919130979535
 20
101.8853847681747
 30
0.0
  0
LINE
  5
2D7
330
70
100
AcDbEntity
  8
0
 62
    18
420
        0
370
    25
100
AcDbLine
 10
143.6929745728823
 20
101.885384768176
 30
0.0
 11
143.691913097983
 21
101.885384768176
 31
0.0
  0
LINE
  5
2D8
330
70
100
AcDbEntity
  8
0
 62
    18
420
        0
370
    25
100
AcDbLine
 10
143.6929745728823
 20
101.885384768176
 30
0.0
 11
143.6929745728823
 21
101.1853845602761
 31
0.0
  0
LINE
  5
2D9
330
70
100
AcDbEntity
  8
0
 62
    18
420
        0
370
    25
100
AcDbLine
 10
143.6929745728823
 20
109.1853849402761
 30
0.0
 11
143.6929745728823
 21
108.4853847323762
 31
0.0
  0
LINE
  5
2DA
330
70
100
AcDbEntity
  8
0
 62
    18
420
        0
370
    25
100
AcDbLine
 10
143.691913097983
 20
108.4853847323762
 30
0.0
 11
143.6929745728823
 21
108.4853847323762
 31
0.0
  0
SPLINE
  5
2DB
330
70
100
AcDbEntity
  8
0
 62
    18
420
        0
370
    25
100
AcDbSpline
210
0.0
220
0.0
230
1.0
 70
     8
 71
     3
 72
     8
 73
     4
 74
     0
 42
0.0000000001
 43
0.0000000001
 40
0.0
 40
0.0
 40
0.0
 40
0.0
 40
1.0
 40
1.0
 40
1.0
 40
1.0
 10
143.6919130980061
 20
108.4853847323951
 30
0.0
 10
143.6902668530445
 20
108.4020568365007
 30
0.0
 10
143.6904919794124
 20
108.318702479238
 30
0.0
 10
143.6925883068722
 20
108.2353846914144
 30
0.0
  0
LWPOLYLINE
  5
2DC
330
70
100
AcDbEntity
  8
0
 62
    18
420
        0
370
    25
100
AcDbPolyline
 90
        9
 70
     0
 43
0.0
 10
143.6929745728823
 20
108.2035588378762
 10
143.6929263769824
 20
108.2075372150762
 10
143.6928784138834
 20
108.2115153594761
 10
143.6928302178821
 20
108.2154935038761
 10
143.6927817890828
 20
108.2194718810761
 10
143.692733593183
 20
108.2234500254761
 10
143.6926851643824
 20
108.2274281697763
 10
143.6926367356831
 20
108.2314065469763
 10
143.6925883068825
 20
108.2353846913763
  0
LINE
  5
2DD
330
70
100
AcDbEntity
  8
0
 62
    18
420
        0
370
    25
100
AcDbLine
 10
143.6929745728823
 20
108.2035588378762
 30
0.0
 11
143.6929745728823
 21
107.4353846533761
 31
0.0
  0
LINE
  5
2DE
330
70
100
AcDbEntity
  8
0
 62
    18
420
        0
370
    25
100
AcDbLine
 10
143.6929745728823
 20
102.935384847076
 30
0.0
 11
143.6929745728823
 21
102.167210662676
 31
0.0
  0
LINE
  5
2DF
330
70
100
AcDbEntity
  8
0
 62
     8
420
  8421504
370
    25
100
AcDbLine
 10
193.6929739209833
 20
100.6853849439762
 30
0.0
 11
192.1929746063823
 21
100.6853849439762
 31
0.0
  0
LINE
  5
2E0
330
70
100
AcDbEntity
  8
0
 62
     8
420
  8421504
370
    25
100
AcDbLine
 10
185.4429758282824
 20
95.68538505577603
 30
0.0
 11
183.9429727884825
 21
95.68538505577603
 31
0.0
  0
LINE
  5
2E1
330
70
100
AcDbEntity
  8
0
 62
     8
420
  8421504
370
    25
100
AcDbLine
 10
175.6929746957829
 20
95.68538505577603
 30
0.0
 11
177.1929740103826
 21
95.68538505577603
 31
0.0
  0
LINE
  5
2E2
330
70
100
AcDbEntity
  8
0
 62
     8
420
  8421504
370
    25
100
AcDbLine
 10
167.4429747405827
 20
95.68538505577603
 30
0.0
 11
168.9429740550823
 21
95.68538505577603
 31
0.0
  0
LINE
  5
2E3
330
70
100
AcDbEntity
  8
0
 62
     8
420
  8421504
370
    25
100
AcDbLine
 10
159.1929747852823
 20
95.68538505577603
 30
0.0
 11
160.6929740997832
 21
95.68538505577603
 31
0.0
  0
LINE
  5
2E4
330
70
100
AcDbEntity
  8
0
 62
     8
420
  8421504
370
    25
100
AcDbLine
 10
150.9429748299833
 20
95.68538505577603
 30
0.0
 11
152.4429741444829
 21
95.68538505577603
 31
0.0
  0
LINE
  5
2E5
330
70
100
AcDbEntity
  8
0
 62
     8
420
  8421504
370
    25
100
AcDbLine
 10
142.8728994111832
 20
105.1853847502763
 30
0.0
 11
142.8728994111832
 21
118.9353846757763
 31
0.0
  0
LINE
  5
2E6
330
70
100
AcDbEntity
  8
0
 62
     8
420
  8421504
370
    25
100
AcDbLine
 10
142.8728994111832
 20
91.43538482477625
 30
0.0
 11
142.8728994111832
 21
105.1853847502763
 31
0.0
  0
LINE
  5
2E7
330
70
100
AcDbEntity
  8
0
 62
     8
420
  8421504
370
    25
100
AcDbLine
 10
143.3721940162825
 20
105.1853847502763
 30
0.0
 11
143.3721940162825
 21
91.90883196877619
 31
0.0
  0
LINE
  5
2E8
330
70
100
AcDbEntity
  8
0
 62
     8
420
  8421504
370
    25
100
AcDbLine
 10
143.3721940162825
 20
118.4619375316762
 30
0.0
 11
143.3721940162825
 21
105.1853847502763
 31
0.0
  0
INSERT
  5
2EB
330
70
100
AcDbEntity
  8
CAPA_BASE
100
AcDbBlockReference
  2
Block_0
 10
0.0
 20
0.0
 30
0.0
  0
INSERT
  5
2F7
330
70
100
AcDbEntity
  8
CAPA_BASE
100
AcDbBlockReference
  2
Block_1
 10
0.0
 20
0.0
 30
0.0
  0
INSERT
  5
303
330
70
100
AcDbEntity
  8
CAPA_BASE
100
AcDbBlockReference
  2
Block_2
 10
0.0
 20
0.0
 30
0.0
  0
ENDSEC
  0
SECTION
  2
OBJECTS
  0
DICTIONARY
  5
C
330
0
100
AcDbDictionary
281
     1
  3
ACAD_COLOR
350
63
  3
ACAD_DETAILVIEWSTYLE
350
6A
  3
ACAD_GROUP
350
D
  3
ACAD_LAYOUT
350
62
  3
ACAD_MATERIAL
350
10
  3
ACAD_MLEADERSTYLE
350
66
  3
ACAD_MLINESTYLE
350
5F
  3
ACAD_PLOTSETTINGS
350
61
  3
ACAD_PLOTSTYLENAME
350
E
  3
ACAD_SCALELIST
350
42
  3
ACAD_SECTIONVIEWSTYLE
350
68
  3
ACAD_TABLESTYLE
350
64
  3
ACAD_VISUALSTYLE
350
29
  3
ACDB_RECOMPOSE_DATA
350
317
  3
AcDbVariableDictionary
350
30F
  0
DICTIONARY
  5
63
102
{ACAD_REACTORS
330
C
102
}
330
C
100
AcDbDictionary
281
     1
  0
DICTIONARY
  5
6A
102
{ACAD_REACTORS
330
C
102
}
330
C
100
AcDbDictionary
281
     1
  3
Imperial24
350
6B
  0
DICTIONARY
  5
D
102
{ACAD_REACTORS
330
C
102
}
330
C
100
AcDbDictionary
281
     1
  0
DICTIONARY
  5
62
102
{ACAD_REACTORS
330
C
102
}
330
C
100
AcDbDictionary
281
     1
  3
Layout1
350
6F
  3
Layout2
350
77
  3
Model
350
73
  0
DICTIONARY
  5
10
102
{ACAD_REACTORS
330
C
102
}
330
C
100
AcDbDictionary
281
     1
  3
ByBlock
350
19
  3
ByLayer
350
11
  3
Global
350
21
  0
DICTIONARY
  5
66
102
{ACAD_REACTORS
330
C
102
}
330
C
100
AcDbDictionary
281
     1
  3
Standard
350
67
  0
DICTIONARY
  5
5F
102
{ACAD_REACTORS
330
C
102
}
330
C
100
AcDbDictionary
281
     1
  3
Standard
350
60
  0
DICTIONARY
  5
61
102
{ACAD_REACTORS
330
C
102
}
330
C
100
AcDbDictionary
281
     1
  0
ACDBDICTIONARYWDFLT
  5
E
102
{ACAD_REACTORS
330
C
102
}
330
C
100
AcDbDictionary
281
     1
  3
Normal
350
F
100
AcDbDictionaryWithDefault
340
F
  0
DICTIONARY
  5
42
102
{ACAD_REACTORS
330
C
102
}
330
C
100
AcDbDictionary
281
     1
  3
A0
350
43
  3
A1
350
44
  3
A2
350
45
  3
A3
350
46
  3
A4
350
47
  3
A5
350
48
  3
A6
350
49
  3
A7
350
4A
  3
A8
350
4B
  3
A9
350
4C
  3
B0
350
4D
  3
B1
350
4E
  3
B2
350
4F
  3
B3
350
50
  3
B4
350
51
  3
B5
350
52
  3
B6
350
53
  0
DICTIONARY
  5
68
102
{ACAD_REACTORS
330
C
102
}
330
C
100
AcDbDictionary
281
     1
  3
Imperial24
350
69
  0
DICTIONARY
  5
64
102
{ACAD_REACTORS
330
C
102
}
330
C
100
AcDbDictionary
281
     1
  3
Standard
350
65
  0
DICTIONARY
  5
29
102
{ACAD_REACTORS
330
C
102
}
330
C
100
AcDbDictionary
281
     1
  3
2dWireframe
350
2F
  3
Basic
350
2E
  3
Brighten
350
35
  3
ColorChange
350
39
  3
Conceptual
350
32
  3
Dim
350
34
  3
EdgeColorOff
350
41
  3
Facepattern
350
38
  3
Flat
350
2A
  3
FlatWithEdges
350
2B
  3
Gouraud
350
2C
  3
GouraudWithEdges
350
2D
  3
Hidden
350
31
  3
JitterOff
350
3F
  3
Linepattern
350
37
  3
OverhangOff
350
40
  3
Realistic
350
33
  3
Shaded
350
3E
  3
Shaded with edges
350
3D
  3
Shades of Gray
350
3A
  3
Sketchy
350
3B
  3
Thicken
350
36
  3
Wireframe
350
30
  3
X-Ray
350
3C
  0
XRECORD
  5
317
102
{ACAD_REACTORS
330
C
102
}
330
C
100
AcDbXrecord
280
     1
 90
        1
330
65
  0
DICTIONARY
  5
30F
102
{ACAD_REACTORS
330
C
102
}
330
C
100
AcDbDictionary
281
     1
  3
CANNOSCALE
350
314
  3
CMLEADERSTYLE
350
311
  3
CTABLESTYLE
350
310
  3
CVIEWDETAILSTYLE
350
312
  3
CVIEWSECTIONSTYLE
350
313
  0
ACDBDETAILVIEWSTYLE
  5
6B
102
{ACAD_REACTORS
330
6A
102
}
330
6A
100
AcDbModelDocViewStyle
 70
     0
  3
Imperial24
290
     1
300
Imperial24
 90
        0
100
AcDbDetailViewStyle
 70
     0
 71
     0
 90
        3
 71
     1
340
55
 62
   256
 40
0.24
340
0
 62
   256
 40
0.24
300

 40
0.36
280
     3
 71
     2
340
5D
 90
       25
 62
   256
 71
     3
340
55
 62
   256
 40
0.24
 90
        1
 40
0.75
 90
        1
300
%<\AcVar ViewType \f "%tc1">% %<\AcVar ViewDetailId>%\PSCALE %<\AcVar ViewScale \f "%sn">%
 71
     4
340
5D
 90
       25
 62
   256
340
5D
 90
       25
 62
   256
280
     0
  0
LAYOUT
  5
6F
102
{ACAD_REACTORS
330
62
102
}
330
62
100
AcDbPlotSettings
  1

  2

  4

  6

 40
0.0
 41
0.0
 42
0.0
 43
0.0
 44
0.0
 45
0.0
 46
0.0
 47
0.0
 48
0.0
 49
0.0
140
0.0
141
0.0
142
1.0
143
1.0
 70
   688
 72
     0
 73
     0
 74
     5
  7

 75
    16
147
1.0
 76
     0
 77
     2
 78
   300
148
0.0
149
0.0
100
AcDbLayout
  1
Layout1
 70
     1
 71
     1
 10
0.0
 20
0.0
 11
12.0
 21
9.0
 12
0.0
 22
0.0
 32
0.0
 14
0.0
 24
0.0
 34
0.0
 15
0.0
 25
0.0
 35
0.0
146
0.0
 13
0.0
 23
0.0
 33
0.0
 16
1.0
 26
0.0
 36
0.0
 17
0.0
 27
1.0
 37
0.0
 76
     0
330
6C
  0
LAYOUT
  5
77
102
{ACAD_REACTORS
330
62
102
}
330
62
100
AcDbPlotSettings
  1

  2

  4

  6

 40
0.0
 41
0.0
 42
0.0
 43
0.0
 44
0.0
 45
0.0
 46
0.0
 47
0.0
 48
0.0
 49
0.0
140
0.0
141
0.0
142
1.0
143
1.0
 70
   688
 72
     0
 73
     0
 74
     5
  7

 75
    16
147
1.0
 76
     0
 77
     2
 78
   300
148
0.0
149
0.0
100
AcDbLayout
  1
Layout2
 70
     1
 71
     2
 10
0.0
 20
0.0
 11
12.0
 21
9.0
 12
0.0
 22
0.0
 32
0.0
 14
0.0
 24
0.0
 34
0.0
 15
0.0
 25
0.0
 35
0.0
146
0.0
 13
0.0
 23
0.0
 33
0.0
 16
1.0
 26
0.0
 36
0.0
 17
0.0
 27
1.0
 37
0.0
 76
     0
330
74
  0
LAYOUT
  5
73
102
{ACAD_REACTORS
330
62
102
}
330
62
100
AcDbPlotSettings
  1

  2

  4

  6

 40
0.0
 41
0.0
 42
0.0
 43
0.0
 44
0.0
 45
0.0
 46
0.0
 47
0.0
 48
0.0
 49
0.0
140
0.0
141
0.0
142
1.0
143
1.0
 70
  1712
 72
     0
 73
     0
 74
     0
  7

 75
     0
147
1.0
 76
     0
 77
     2
 78
   300
148
0.0
149
0.0
100
AcDbLayout
  1
Model
 70
     1
 71
     0
 10
0.0
 20
0.0
 11
12.0
 21
9.0
 12
0.0
 22
0.0
 32
0.0
 14
0.0
 24
0.0
 34
0.0
 15
0.0
 25
0.0
 35
0.0
146
0.0
 13
0.0
 23
0.0
 33
0.0
 16
1.0
 26
0.0
 36
0.0
 17
0.0
 27
1.0
 37
0.0
 76
     0
330
70
  0
MATERIAL
  5
19
102
{ACAD_XDICTIONARY
360
1A
102
}
102
{ACAD_REACTORS
330
10
102
}
330
10
100
AcDbMaterial
  1
ByBlock
 72
     0
 43
0.0208333333333333
 43
0.0
 43
0.0
 43
0.0
 43
0.0
 43
0.0208333333333333
 43
0.0
 43
0.0
 43
0.0
 43
0.0
 43
1.0
 43
0.0
 43
0.0
 43
0.0
 43
0.0
 43
1.0
 77
     0
 47
0.0208333333333333
 47
0.0
 47
0.0
 47
0.0
 47
0.0
 47
0.0208333333333333
 47
0.0
 47
0.0
 47
0.0
 47
0.0
 47
1.0
 47
0.0
 47
0.0
 47
0.0
 47
0.0
 47
1.0
171
     0
 49
0.0208333333333333
 49
0.0
 49
0.0
 49
0.0
 49
0.0
 49
0.0208333333333333
 49
0.0
 49
0.0
 49
0.0
 49
0.0
 49
1.0
 49
0.0
 49
0.0
 49
0.0
 49
0.0
 49
1.0
175
     0
142
0.0208333333333333
142
0.0
142
0.0
142
0.0
142
0.0
142
0.0208333333333333
142
0.0
142
0.0
142
0.0
142
0.0
142
1.0
142
0.0
142
0.0
142
0.0
142
0.0
142
1.0
179
     0
144
0.0208333333333333
144
0.0
144
0.0
144
0.0
144
0.0
144
0.0208333333333333
144
0.0
144
0.0
144
0.0
144
0.0
144
1.0
144
0.0
144
0.0
144
0.0
144
0.0
144
1.0
147
0.0208333333333333
147
0.0
147
0.0
147
0.0
147
0.0
147
0.0208333333333333
147
0.0
147
0.0
147
0.0
147
0.0
147
1.0
147
0.0
147
0.0
147
0.0
147
0.0
147
1.0
  0
MATERIAL
  5
11
102
{ACAD_XDICTIONARY
360
12
102
}
102
{ACAD_REACTORS
330
10
102
}
330
10
100
AcDbMaterial
  1
ByLayer
 72
     0
 43
0.0208333333333333
 43
0.0
 43
0.0
 43
0.0
 43
0.0
 43
0.0208333333333333
 43
0.0
 43
0.0
 43
0.0
 43
0.0
 43
1.0
 43
0.0
 43
0.0
 43
0.0
 43
0.0
 43
1.0
 77
     0
 47
0.0208333333333333
 47
0.0
 47
0.0
 47
0.0
 47
0.0
 47
0.0208333333333333
 47
0.0
 47
0.0
 47
0.0
 47
0.0
 47
1.0
 47
0.0
 47
0.0
 47
0.0
 47
0.0
 47
1.0
171
     0
 49
0.0208333333333333
 49
0.0
 49
0.0
 49
0.0
 49
0.0
 49
0.0208333333333333
 49
0.0
 49
0.0
 49
0.0
 49
0.0
 49
1.0
 49
0.0
 49
0.0
 49
0.0
 49
0.0
 49
1.0
175
     0
142
0.0208333333333333
142
0.0
142
0.0
142
0.0
142
0.0
142
0.0208333333333333
142
0.0
142
0.0
142
0.0
142
0.0
142
1.0
142
0.0
142
0.0
142
0.0
142
0.0
142
1.0
179
     0
144
0.0208333333333333
144
0.0
144
0.0
144
0.0
144
0.0
144
0.0208333333333333
144
0.0
144
0.0
144
0.0
144
0.0
144
1.0
144
0.0
144
0.0
144
0.0
144
0.0
144
1.0
147
0.0208333333333333
147
0.0
147
0.0
147
0.0
147
0.0
147
0.0208333333333333
147
0.0
147
0.0
147
0.0
147
0.0
147
1.0
147
0.0
147
0.0
147
0.0
147
0.0
147
1.0
  0
MATERIAL
  5
21
102
{ACAD_XDICTIONARY
360
22
102
}
102
{ACAD_REACTORS
330
10
102
}
330
10
100
AcDbMaterial
  1
Global
 72
     0
 43
0.0208333333333333
 43
0.0
 43
0.0
 43
0.0
 43
0.0
 43
0.0208333333333333
 43
0.0
 43
0.0
 43
0.0
 43
0.0
 43
1.0
 43
0.0
 43
0.0
 43
0.0
 43
0.0
 43
1.0
 77
     0
 47
0.0208333333333333
 47
0.0
 47
0.0
 47
0.0
 47
0.0
 47
0.0208333333333333
 47
0.0
 47
0.0
 47
0.0
 47
0.0
 47
1.0
 47
0.0
 47
0.0
 47
0.0
 47
0.0
 47
1.0
171
     0
 49
0.0208333333333333
 49
0.0
 49
0.0
 49
0.0
 49
0.0
 49
0.0208333333333333
 49
0.0
 49
0.0
 49
0.0
 49
0.0
 49
1.0
 49
0.0
 49
0.0
 49
0.0
 49
0.0
 49
1.0
175
     0
142
0.0208333333333333
142
0.0
142
0.0
142
0.0
142
0.0
142
0.0208333333333333
142
0.0
142
0.0
142
0.0
142
0.0
142
1.0
142
0.0
142
0.0
142
0.0
142
0.0
142
1.0
179
     0
144
0.0208333333333333
144
0.0
144
0.0
144
0.0
144
0.0
144
0.0208333333333333
144
0.0
144
0.0
144
0.0
144
0.0
144
1.0
144
0.0
144
0.0
144
0.0
144
0.0
144
1.0
147
0.0208333333333333
147
0.0
147
0.0
147
0.0
147
0.0
147
0.0208333333333333
147
0.0
147
0.0
147
0.0
147
0.0
147
1.0
147
0.0
147
0.0
147
0.0
147
0.0
147
1.0
  0
MLEADERSTYLE
  5
67
102
{ACAD_REACTORS
330
66
102
}
330
66
100
AcDbMLeaderStyle
179
     2
170
     2
171
     1
172
     0
 90
        2
 40
0.0
 41
0.0
173
     1
 91
-1056964608
340
5B
 92
       -2
290
     1
 42
0.09
291
     1
 43
0.36
  3
Standard
 44
0.18
300

342
55
174
     1
178
     6
175
     1
176
     0
 93
-1056964608
 45
0.18
292
     0
297
     0
 46
0.18
 94
-1056964608
 47
1.0
 49
1.0
140
1.0
293
     1
141
0.0
294
     1
177
     0
142
1.0
295
     1
296
     0
143
0.125
271
     0
272
     9
273
     9
298
     1
  0
MLINESTYLE
  5
60
102
{ACAD_REACTORS
330
5F
102
}
330
5F
100
AcDbMlineStyle
  2
STANDARD
 70
     0
  3

 62
   256
 51
90.0
 52
90.0
 71
     2
 49
0.5
 62
   256
  6
BYLAYER
 49
-0.5
 62
   256
  6
BYLAYER
  0
ACDBPLACEHOLDER
  5
F
102
{ACAD_REACTORS
330
E
102
}
330
E
  0
SCALE
  5
43
102
{ACAD_REACTORS
330
42
102
}
330
42
100
AcDbScale
 70
     0
300
1:1
140
1.0
141
1.0
290
     1
  0
SCALE
  5
44
102
{ACAD_REACTORS
330
42
102
}
330
42
100
AcDbScale
 70
     0
300
1/128" = 1'-0"
140
0.0078125
141
12.0
290
     0
  0
SCALE
  5
45
102
{ACAD_REACTORS
330
42
102
}
330
42
100
AcDbScale
 70
     0
300
1/64" = 1'-0"
140
0.015625
141
12.0
290
     0
  0
SCALE
  5
46
102
{ACAD_REACTORS
330
42
102
}
330
42
100
AcDbScale
 70
     0
300
1/32" = 1'-0"
140
0.03125
141
12.0
290
     0
  0
SCALE
  5
47
102
{ACAD_REACTORS
330
42
102
}
330
42
100
AcDbScale
 70
     0
300
1/16" = 1'-0"
140
0.0625
141
12.0
290
     0
  0
SCALE
  5
48
102
{ACAD_REACTORS
330
42
102
}
330
42
100
AcDbScale
 70
     0
300
3/32" = 1'-0"
140
0.09375
141
12.0
290
     0
  0
SCALE
  5
49
102
{ACAD_REACTORS
330
42
102
}
330
42
100
AcDbScale
 70
     0
300
1/8" = 1'-0"
140
0.125
141
12.0
290
     0
  0
SCALE
  5
4A
102
{ACAD_REACTORS
330
42
102
}
330
42
100
AcDbScale
 70
     0
300
3/16" = 1'-0"
140
0.1875
141
12.0
290
     0
  0
SCALE
  5
4B
102
{ACAD_REACTORS
330
42
102
}
330
42
100
AcDbScale
 70
     0
300
1/4" = 1'-0"
140
0.25
141
12.0
290
     0
  0
SCALE
  5
4C
102
{ACAD_REACTORS
330
42
102
}
330
42
100
AcDbScale
 70
     0
300
3/8" = 1'-0"
140
0.375
141
12.0
290
     0
  0
SCALE
  5
4D
102
{ACAD_REACTORS
330
42
102
}
330
42
100
AcDbScale
 70
     0
300
1/2" = 1'-0"
140
0.5
141
12.0
290
     0
  0
SCALE
  5
4E
102
{ACAD_REACTORS
330
42
102
}
330
42
100
AcDbScale
 70
     0
300
3/4" = 1'-0"
140
0.75
141
12.0
290
     0
  0
SCALE
  5
4F
102
{ACAD_REACTORS
330
42
102
}
330
42
100
AcDbScale
 70
     0
300
1" = 1'-0"
140
1.0
141
12.0
290
     0
  0
SCALE
  5
50
102
{ACAD_REACTORS
330
42
102
}
330
42
100
AcDbScale
 70
     0
300
1-1/2" = 1'-0"
140
1.5
141
12.0
290
     0
  0
SCALE
  5
51
102
{ACAD_REACTORS
330
42
102
}
330
42
100
AcDbScale
 70
     0
300
3" = 1'-0"
140
3.0
141
12.0
290
     0
  0
SCALE
  5
52
102
{ACAD_REACTORS
330
42
102
}
330
42
100
AcDbScale
 70
     0
300
6" = 1'-0"
140
6.0
141
12.0
290
     0
  0
SCALE
  5
53
102
{ACAD_REACTORS
330
42
102
}
330
42
100
AcDbScale
 70
     0
300
1'-0" = 1'-0"
140
12.0
141
12.0
290
     0
  0
ACDBSECTIONVIEWSTYLE
  5
69
102
{ACAD_REACTORS
330
68
102
}
330
68
100
AcDbModelDocViewStyle
 70
     0
  3
Imperial24
290
     1
300
Imperial24
 90
        0
100
AcDbSectionViewStyle
 70
     0
 71
     0
 90
       78
 71
     1
340
55
 62
   256
 40
0.24
340
0
340
0
 62
   256
 40
0.24
300
I, O, Q, S, X, Z
 40
0.48
 90
        3
 40
0.18
 90
        1
 71
     2
340
5D
 90
       25
 62
   256
340
5D
 90
       50
 62
   256
 40
0.24
 40
0.0
 40
0.24
 71
     3
340
55
 62
   256
 40
0.24
 90
        1
 40
0.75
 90
        1
300
%<\AcVar ViewType \f "%tc1">% %<\AcVar ViewSectionStartId>%-%<\AcVar ViewSectionEndId>%\PSCALE %<\AcVar ViewScale \f "%sn">%
 71
     4
 62
   256
 62
   257
300
ANSI31
 40
1.0
 90
        0
290
     0
290
     0
 90
        6
 40
0.0
 40
1.570796326794896
 40
0.2617993877991494
 40
1.308996938995747
 40
-0.2617993877991494
 40
1.832595714594046
  0
TABLESTYLE
  5
65
102
{ACAD_XDICTIONARY
360
315
102
}
102
{ACAD_REACTORS
330
64
102
}
330
64
100
AcDbTableStyle
280
     0
  3
Standard
 70
     0
 71
     0
 40
0.06
 41
0.06
280
     0
281
     0
  7
Standard
140
0.18
170
     2
 62
     0
 63
     7
283
     0
 90
      512
 91
        0
  1

274
    -2
284
     1
 64
     0
275
    -2
285
     1
 65
     0
276
    -2
286
     1
 66
     0
277
    -2
287
     1
 67
     0
278
    -2
288
     1
 68
     0
279
    -2
289
     1
 69
     0
  7
Standard
140
0.25
170
     5
 62
     0
 63
     7
283
     0
 90
      512
 91
        0
  1

274
    -2
284
     1
 64
     0
275
    -2
285
     1
 65
     0
276
    -2
286
     1
 66
     0
277
    -2
287
     1
 67
     0
278
    -2
288
     1
 68
     0
279
    -2
289
     1
 69
     0
  7
Standard
140
0.18
170
     5
 62
     0
 63
     7
283
     0
 90
      512
 91
        0
  1

274
    -2
284
     1
 64
     0
275
    -2
285
     1
 65
     0
276
    -2
286
     1
 66
     0
277
    -2
287
     1
 67
     0
278
    -2
288
     1
 68
     0
279
    -2
289
     1
 69
     0
  0
VISUALSTYLE
  5
2F
102
{ACAD_REACTORS
330
29
102
}
330
29
100
AcDbVisualStyle
  2
2dWireframe
 70
     4
177
     3
291
     0
 70
    58
 90
        0
176
     1
 90
        2
176
     1
 90
        0
176
     1
 90
        0
176
     1
 40
0.6
176
     1
 40
30.0
176
     1
 62
     7
420
 16777215
176
     1
 90
        1
176
     1
 90
        4
176
     1
 62
     7
176
     1
 62
   257
176
     1
 90
        1
176
     1
 90
        1
176
     1
 40
1.0
176
     1
 90
        0
176
     1
 62
   257
176
     1
 40
1.0
176
     1
 90
        1
176
     1
 90
        6
176
     1
 90
        2
176
     1
 62
     7
176
     1
 90
        5
176
     1
 90
        0
176
     1
 90
        0
176
     1
290
     0
176
     1
 90
        1
176
     1
 40
0.0
176
     1
 90
        0
176
     1
290
     1
176
     1
290
     1
176
     1
290
     0
176
     1
290
     0
176
     1
290
     0
176
     1
290
     0
176
     1
290
     0
176
     1
290
     0
176
     1
290
     0
176
     1
 90
       50
176
     1
 40
0.0
176
     1
 40
1.0
176
     1
 90
        0
176
     1
 62
    18
420
        0
176
     1
 90
       50
176
     1
 90
        3
176
     1
 62
     5
420
      255
176
     1
290
     0
176
     1
 90
       50
176
     1
 90
       50
176
     1
 90
       50
176
     1
290
     0
176
     1
 90
       50
176
     1
 62
   256
176
     0
 40
1.0
176
     0
 90
        2
176
     1
  1
strokes_ogs.tif
176
     1
290
     0
176
     1
 40
1.0
176
     1
 40
1.0
176
     1
  0
VISUALSTYLE
  5
2E
102
{ACAD_REACTORS
330
29
102
}
330
29
100
AcDbVisualStyle
  2
Basic
 70
     7
177
     3
291
     1
 70
    58
 90
        1
176
     1
 90
        0
176
     1
 90
        1
176
     1
 90
        0
176
     1
 40
0.6
176
     1
 40
30.0
176
     1
 62
     7
420
 16777215
176
     1
 90
        0
176
     1
 90
        4
176
     1
 62
     7
176
     1
 62
   257
176
     1
 90
        1
176
     1
 90
        1
176
     1
 40
1.0
176
     1
 90
        8
176
     1
 62
     7
176
     1
 40
1.0
176
     1
 90
        1
176
     1
 90
        6
176
     1
 90
        2
176
     1
 62
     7
176
     1
 90
        5
176
     1
 90
        0
176
     1
 90
        0
176
     1
290
     0
176
     1
 90
        1
176
     1
 40
0.0
176
     1
 90
        0
176
     1
290
     0
176
     1
290
     1
176
     1
290
     1
176
     1
290
     0
176
     1
290
     0
176
     1
290
     0
176
     1
290
     0
176
     1
290
     0
176
     1
290
     0
176
     1
 90
       50
176
     1
 40
0.0
176
     1
 40
1.0
176
     1
 90
        0
176
     1
 62
    18
420
        0
176
     1
 90
       50
176
     1
 90
        3
176
     1
 62
     5
420
      255
176
     1
290
     0
176
     1
 90
       50
176
     1
 90
       50
176
     1
 90
       50
176
     1
290
     0
176
     1
 90
       50
176
     1
 62
   256
176
     0
 40
1.0
176
     0
 90
        2
176
     1
  1
strokes_ogs.tif
176
     1
290
     0
176
     1
 40
1.0
176
     1
 40
1.0
176
     1
  0
VISUALSTYLE
  5
35
102
{ACAD_REACTORS
330
29
102
}
330
29
100
AcDbVisualStyle
  2
Brighten
 70
    12
177
     3
291
     1
 70
    58
 90
        2
176
     1
 90
        2
176
     1
 90
        0
176
     1
 90
        0
176
     1
 40
0.6
176
     1
 40
30.0
176
     1
 62
     7
420
 16777215
176
     1
 90
        1
176
     1
 90
        4
176
     1
 62
     7
176
     1
 62
   257
176
     1
 90
        1
176
     1
 90
        1
176
     1
 40
1.0
176
     1
 90
        8
176
     1
 62
     7
176
     1
 40
1.0
176
     1
 90
        1
176
     1
 90
        6
176
     1
 90
        2
176
     1
 62
     7
176
     1
 90
        5
176
     1
 90
        0
176
     1
 90
        0
176
     1
290
     0
176
     1
 90
        1
176
     1
 40
50.0
176
     1
 90
        0
176
     1
290
     0
176
     1
290
     1
176
     1
290
     1
176
     1
290
     0
176
     1
290
     0
176
     1
290
     0
176
     1
290
     0
176
     1
290
     0
176
     1
290
     0
176
     1
 90
       50
176
     1
 40
0.0
176
     1
 40
1.0
176
     1
 90
        0
176
     1
 62
    18
420
        0
176
     1
 90
       50
176
     1
 90
        3
176
     1
 62
     5
420
      255
176
     1
290
     0
176
     1
 90
       50
176
     1
 90
       50
176
     1
 90
       50
176
     1
290
     0
176
     1
 90
       50
176
     1
 62
   256
176
     0
 40
1.0
176
     0
 90
        2
176
     1
  1
strokes_ogs.tif
176
     1
290
     0
176
     1
 40
1.0
176
     1
 40
1.0
176
     1
  0
VISUALSTYLE
  5
39
102
{ACAD_REACTORS
330
29
102
}
330
29
100
AcDbVisualStyle
  2
ColorChange
 70
    16
177
     3
291
     1
 70
    58
 90
        2
176
     1
 90
        2
176
     1
 90
        3
176
     1
 90
        0
176
     1
 40
0.6
176
     1
 40
30.0
176
     1
 62
     8
420
  8421504
176
     1
 90
        1
176
     1
 90
        4
176
     1
 62
     7
176
     1
 62
   257
176
     1
 90
        1
176
     1
 90
        1
176
     1
 40
1.0
176
     1
 90
        8
176
     1
 62
     8
420
  8421504
176
     1
 40
1.0
176
     1
 90
        1
176
     1
 90
        6
176
     1
 90
        2
176
     1
 62
     7
176
     1
 90
        5
176
     1
 90
        0
176
     1
 90
        0
176
     1
290
     0
176
     1
 90
        1
176
     1
 40
0.0
176
     1
 90
        0
176
     1
290
     0
176
     1
290
     1
176
     1
290
     1
176
     1
290
     0
176
     1
290
     0
176
     1
290
     0
176
     1
290
     0
176
     1
290
     0
176
     1
290
     0
176
     1
 90
       50
176
     1
 40
0.0
176
     1
 40
1.0
176
     1
 90
        0
176
     1
 62
    18
420
        0
176
     1
 90
       50
176
     1
 90
        3
176
     1
 62
     5
420
      255
176
     1
290
     0
176
     1
 90
       50
176
     1
 90
       50
176
     1
 90
       50
176
     1
290
     0
176
     1
 90
       50
176
     1
 62
   256
176
     0
 40
1.0
176
     0
 90
        2
176
     1
  1
strokes_ogs.tif
176
     1
290
     0
176
     1
 40
1.0
176
     1
 40
1.0
176
     1
  0
VISUALSTYLE
  5
32
102
{ACAD_REACTORS
330
29
102
}
330
29
100
AcDbVisualStyle
  2
Conceptual
 70
     9
177
     3
291
     0
 70
    58
 90
        3
176
     1
 90
        2
176
     1
 90
        0
176
     1
 90
        0
176
     1
 40
0.6
176
     1
 40
30.0
176
     1
 62
     7
420
 16777215
176
     1
 90
        2
176
     1
 90
        2
176
     1
 62
     7
176
     1
 62
   257
176
     1
 90
        1
176
     1
 90
        1
176
     1
 40
179.0
176
     1
 90
        8
176
     1
 62
     7
176
     1
 40
1.0
176
     1
 90
        1
176
     1
 90
        6
176
     1
 90
        2
176
     1
 62
     7
176
     1
 90
        3
176
     1
 90
        0
176
     1
 90
        0
176
     1
290
     0
176
     1
 90
        1
176
     1
 40
0.0
176
     1
 90
        0
176
     1
290
     0
176
     1
290
     1
176
     1
290
     1
176
     1
290
     0
176
     1
290
     0
176
     1
290
     0
176
     1
290
     0
176
     1
290
     0
176
     1
290
     0
176
     1
 90
       50
176
     1
 40
0.0
176
     1
 40
1.0
176
     1
 90
        0
176
     1
 62
    18
420
        0
176
     1
 90
       50
176
     1
 90
        3
176
     1
 62
     5
420
      255
176
     1
290
     0
176
     1
 90
       50
176
     1
 90
       50
176
     1
 90
       50
176
     1
290
     0
176
     1
 90
       50
176
     1
 62
   256
176
     0
 40
1.0
176
     0
 90
        2
176
     1
  1
strokes_ogs.tif
176
     1
290
     0
176
     1
 40
1.0
176
     1
 40
1.0
176
     1
  0
VISUALSTYLE
  5
34
102
{ACAD_REACTORS
330
29
102
}
330
29
100
AcDbVisualStyle
  2
Dim
 70
    11
177
     3
291
     1
 70
    58
 90
        2
176
     1
 90
        2
176
     1
 90
        0
176
     1
 90
        0
176
     1
 40
0.6
176
     1
 40
30.0
176
     1
 62
     7
420
 16777215
176
     1
 90
        1
176
     1
 90
        4
176
     1
 62
     7
176
     1
 62
   257
176
     1
 90
        1
176
     1
 90
        1
176
     1
 40
1.0
176
     1
 90
        8
176
     1
 62
     7
176
     1
 40
1.0
176
     1
 90
        1
176
     1
 90
        6
176
     1
 90
        2
176
     1
 62
     7
176
     1
 90
        5
176
     1
 90
        0
176
     1
 90
        0
176
     1
290
     0
176
     1
 90
        1
176
     1
 40
-50.0
176
     1
 90
        0
176
     1
290
     0
176
     1
290
     1
176
     1
290
     1
176
     1
290
     0
176
     1
290
     0
176
     1
290
     0
176
     1
290
     0
176
     1
290
     0
176
     1
290
     0
176
     1
 90
       50
176
     1
 40
0.0
176
     1
 40
1.0
176
     1
 90
        0
176
     1
 62
    18
420
        0
176
     1
 90
       50
176
     1
 90
        3
176
     1
 62
     5
420
      255
176
     1
290
     0
176
     1
 90
       50
176
     1
 90
       50
176
     1
 90
       50
176
     1
290
     0
176
     1
 90
       50
176
     1
 62
   256
176
     0
 40
1.0
176
     0
 90
        2
176
     1
  1
strokes_ogs.tif
176
     1
290
     0
176
     1
 40
1.0
176
     1
 40
1.0
176
     1
  0
VISUALSTYLE
  5
41
102
{ACAD_REACTORS
330
29
102
}
330
29
100
AcDbVisualStyle
  2
EdgeColorOff
 70
    22
177
     3
291
     1
 70
    58
 90
        2
176
     0
 90
        2
176
     0
 90
        0
176
     0
 90
        0
176
     0
 40
0.6
176
     0
 40
30.0
176
     0
 62
     7
420
 16777215
176
     0
 90
        1
176
     0
 90
        4
176
     0
 62
     7
176
     0
 62
   257
176
     0
 90
        1
176
     0
 90
        1
176
     0
 40
1.0
176
     0
 90
        8
176
     2
 62
     7
176
     0
 40
1.0
176
     0
 90
        1
176
     0
 90
        6
176
     0
 90
        2
176
     0
 62
     7
176
     0
 90
        5
176
     0
 90
        0
176
     0
 90
        0
176
     0
290
     0
176
     0
 90
        1
176
     0
 40
0.0
176
     0
 90
        0
176
     0
290
     0
176
     0
290
     1
176
     0
290
     1
176
     0
290
     0
176
     0
290
     0
176
     0
290
     0
176
     0
290
     0
176
     0
290
     0
176
     0
290
     0
176
     0
 90
       50
176
     0
 40
0.0
176
     0
 40
1.0
176
     0
 90
        0
176
     0
 62
    18
420
        0
176
     0
 90
       50
176
     0
 90
        3
176
     0
 62
     5
420
      255
176
     0
290
     0
176
     0
 90
       50
176
     0
 90
       50
176
     0
 90
       50
176
     0
290
     0
176
     0
 90
       50
176
     0
 62
   256
176
     0
 40
1.0
176
     0
 90
        2
176
     0
  1
strokes_ogs.tif
176
     0
290
     0
176
     0
 40
1.0
176
     0
 40
1.0
176
     0
  0
VISUALSTYLE
  5
38
102
{ACAD_REACTORS
330
29
102
}
330
29
100
AcDbVisualStyle
  2
Facepattern
 70
    15
177
     3
291
     1
 70
    58
 90
        2
176
     1
 90
        2
176
     1
 90
        0
176
     1
 90
        0
176
     1
 40
0.6
176
     1
 40
30.0
176
     1
 62
     7
420
 16777215
176
     1
 90
        1
176
     1
 90
        4
176
     1
 62
     7
176
     1
 62
   257
176
     1
 90
        1
176
     1
 90
        1
176
     1
 40
1.0
176
     1
 90
        8
176
     1
 62
     7
176
     1
 40
1.0
176
     1
 90
        1
176
     1
 90
        6
176
     1
 90
        2
176
     1
 62
     7
176
     1
 90
        5
176
     1
 90
        0
176
     1
 90
        0
176
     1
290
     0
176
     1
 90
        1
176
     1
 40
0.0
176
     1
 90
        0
176
     1
290
     0
176
     1
290
     1
176
     1
290
     1
176
     1
290
     0
176
     1
290
     0
176
     1
290
     0
176
     1
290
     0
176
     1
290
     0
176
     1
290
     0
176
     1
 90
       50
176
     1
 40
0.0
176
     1
 40
1.0
176
     1
 90
        0
176
     1
 62
    18
420
        0
176
     1
 90
       50
176
     1
 90
        3
176
     1
 62
     5
420
      255
176
     1
290
     0
176
     1
 90
       50
176
     1
 90
       50
176
     1
 90
       50
176
     1
290
     0
176
     1
 90
       50
176
     1
 62
   256
176
     0
 40
1.0
176
     0
 90
        2
176
     1
  1
strokes_ogs.tif
176
     1
290
     0
176
     1
 40
1.0
176
     1
 40
1.0
176
     1
  0
VISUALSTYLE
  5
2A
102
{ACAD_REACTORS
330
29
102
}
330
29
100
AcDbVisualStyle
  2
Flat
 70
     0
177
     3
291
     1
 70
    58
 90
        2
176
     1
 90
        1
176
     1
 90
        1
176
     1
 90
        2
176
     1
 40
0.6
176
     1
 40
30.0
176
     1
 62
     7
420
 16777215
176
     1
 90
        0
176
     1
 90
        0
176
     1
 62
     7
176
     1
 62
   257
176
     1
 90
        1
176
     1
 90
        1
176
     1
 40
1.0
176
     1
 90
        8
176
     1
 62
     7
176
     1
 40
1.0
176
     1
 90
        1
176
     1
 90
        6
176
     1
 90
        2
176
     1
 62
     7
176
     1
 90
        5
176
     1
 90
        0
176
     1
 90
        0
176
     1
290
     0
176
     1
 90
       13
176
     1
 40
0.0
176
     1
 90
        0
176
     1
290
     0
176
     1
290
     1
176
     1
290
     1
176
     1
290
     0
176
     1
290
     0
176
     1
290
     0
176
     1
290
     0
176
     1
290
     0
176
     1
290
     0
176
     1
 90
       50
176
     1
 40
0.0
176
     1
 40
1.0
176
     1
 90
        0
176
     1
 62
    18
420
        0
176
     1
 90
       50
176
     1
 90
        3
176
     1
 62
     5
420
      255
176
     1
290
     0
176
     1
 90
       50
176
     1
 90
       50
176
     1
 90
       50
176
     1
290
     0
176
     1
 90
       50
176
     1
 62
   256
176
     0
 40
1.0
176
     0
 90
        2
176
     1
  1
strokes_ogs.tif
176
     1
290
     0
176
     1
 40
1.0
176
     1
 40
1.0
176
     1
  0
VISUALSTYLE
  5
2B
102
{ACAD_REACTORS
330
29
102
}
330
29
100
AcDbVisualStyle
  2
FlatWithEdges
 70
     1
177
     3
291
     1
 70
    58
 90
        2
176
     1
 90
        1
176
     1
 90
        1
176
     1
 90
        2
176
     1
 40
0.6
176
     1
 40
30.0
176
     1
 62
     7
420
 16777215
176
     1
 90
        1
176
     1
 90
        0
176
     1
 62
     7
176
     1
 62
   257
176
     1
 90
        1
176
     1
 90
        1
176
     1
 40
1.0
176
     1
 90
        0
176
     1
 62
   257
176
     1
 40
1.0
176
     1
 90
        1
176
     1
 90
        6
176
     1
 90
        2
176
     1
 62
     7
176
     1
 90
        5
176
     1
 90
        0
176
     1
 90
        0
176
     1
290
     0
176
     1
 90
       13
176
     1
 40
0.0
176
     1
 90
        0
176
     1
290
     0
176
     1
290
     1
176
     1
290
     1
176
     1
290
     0
176
     1
290
     0
176
     1
290
     0
176
     1
290
     0
176
     1
290
     0
176
     1
290
     0
176
     1
 90
       50
176
     1
 40
0.0
176
     1
 40
1.0
176
     1
 90
        0
176
     1
 62
    18
420
        0
176
     1
 90
       50
176
     1
 90
        3
176
     1
 62
     5
420
      255
176
     1
290
     0
176
     1
 90
       50
176
     1
 90
       50
176
     1
 90
       50
176
     1
290
     0
176
     1
 90
       50
176
     1
 62
   256
176
     0
 40
1.0
176
     0
 90
        2
176
     1
  1
strokes_ogs.tif
176
     1
290
     0
176
     1
 40
1.0
176
     1
 40
1.0
176
     1
  0
VISUALSTYLE
  5
2C
102
{ACAD_REACTORS
330
29
102
}
330
29
100
AcDbVisualStyle
  2
Gouraud
 70
     2
177
     3
291
     1
 70
    58
 90
        2
176
     1
 90
        2
176
     1
 90
        1
176
     1
 90
        2
176
     1
 40
0.6
176
     1
 40
30.0
176
     1
 62
     7
420
 16777215
176
     1
 90
        0
176
     1
 90
        0
176
     1
 62
     7
176
     1
 62
   257
176
     1
 90
        1
176
     1
 90
        1
176
     1
 40
1.0
176
     1
 90
        0
176
     1
 62
     7
176
     1
 40
1.0
176
     1
 90
        1
176
     1
 90
        6
176
     1
 90
        2
176
     1
 62
     7
176
     1
 90
        5
176
     1
 90
        0
176
     1
 90
        0
176
     1
290
     0
176
     1
 90
       13
176
     1
 40
0.0
176
     1
 90
        0
176
     1
290
     0
176
     1
290
     1
176
     1
290
     1
176
     1
290
     0
176
     1
290
     0
176
     1
290
     0
176
     1
290
     0
176
     1
290
     0
176
     1
290
     0
176
     1
 90
       50
176
     1
 40
0.0
176
     1
 40
1.0
176
     1
 90
        0
176
     1
 62
    18
420
        0
176
     1
 90
       50
176
     1
 90
        3
176
     1
 62
     5
420
      255
176
     1
290
     0
176
     1
 90
       50
176
     1
 90
       50
176
     1
 90
       50
176
     1
290
     0
176
     1
 90
       50
176
     1
 62
   256
176
     0
 40
1.0
176
     0
 90
        2
176
     1
  1
strokes_ogs.tif
176
     1
290
     0
176
     1
 40
1.0
176
     1
 40
1.0
176
     1
  0
VISUALSTYLE
  5
2D
102
{ACAD_REACTORS
330
29
102
}
330
29
100
AcDbVisualStyle
  2
GouraudWithEdges
 70
     3
177
     3
291
     1
 70
    58
 90
        2
176
     1
 90
        2
176
     1
 90
        1
176
     1
 90
        2
176
     1
 40
0.6
176
     1
 40
30.0
176
     1
 62
     7
420
 16777215
176
     1
 90
        1
176
     1
 90
        0
176
     1
 62
     7
176
     1
 62
   257
176
     1
 90
        1
176
     1
 90
        1
176
     1
 40
1.0
176
     1
 90
        0
176
     1
 62
   257
176
     1
 40
1.0
176
     1
 90
        1
176
     1
 90
        6
176
     1
 90
        2
176
     1
 62
     7
176
     1
 90
        5
176
     1
 90
        0
176
     1
 90
        0
176
     1
290
     0
176
     1
 90
       13
176
     1
 40
0.0
176
     1
 90
        0
176
     1
290
     0
176
     1
290
     1
176
     1
290
     1
176
     1
290
     0
176
     1
290
     0
176
     1
290
     0
176
     1
290
     0
176
     1
290
     0
176
     1
290
     0
176
     1
 90
       50
176
     1
 40
0.0
176
     1
 40
1.0
176
     1
 90
        0
176
     1
 62
    18
420
        0
176
     1
 90
       50
176
     1
 90
        3
176
     1
 62
     5
420
      255
176
     1
290
     0
176
     1
 90
       50
176
     1
 90
       50
176
     1
 90
       50
176
     1
290
     0
176
     1
 90
       50
176
     1
 62
   256
176
     0
 40
1.0
176
     0
 90
        2
176
     1
  1
strokes_ogs.tif
176
     1
290
     0
176
     1
 40
1.0
176
     1
 40
1.0
176
     1
  0
VISUALSTYLE
  5
31
102
{ACAD_REACTORS
330
29
102
}
330
29
100
AcDbVisualStyle
  2
Hidden
 70
     6
177
     3
291
     0
 70
    58
 90
        1
176
     1
 90
        2
176
     1
 90
        2
176
     1
 90
        0
176
     1
 40
0.6
176
     1
 40
30.0
176
     1
 62
     7
420
 16777215
176
     1
 90
        2
176
     1
 90
        2
176
     1
 62
     7
176
     1
 62
   257
176
     1
 90
        2
176
     1
 90
        1
176
     1
 40
40.0
176
     1
 90
        0
176
     1
 62
   257
176
     1
 40
1.0
176
     1
 90
        1
176
     1
 90
        6
176
     1
 90
        2
176
     1
 62
     7
176
     1
 90
        3
176
     1
 90
        0
176
     1
 90
        0
176
     1
290
     0
176
     1
 90
        1
176
     1
 40
0.0
176
     1
 90
        0
176
     1
290
     0
176
     1
290
     1
176
     1
290
     1
176
     1
290
     0
176
     1
290
     0
176
     1
290
     0
176
     1
290
     0
176
     1
290
     0
176
     1
290
     0
176
     1
 90
       50
176
     1
 40
0.0
176
     1
 40
1.0
176
     1
 90
        0
176
     1
 62
    18
420
        0
176
     1
 90
       50
176
     1
 90
        3
176
     1
 62
     5
420
      255
176
     1
290
     0
176
     1
 90
       50
176
     1
 90
       50
176
     1
 90
       50
176
     1
290
     0
176
     1
 90
       50
176
     1
 62
   256
176
     0
 40
1.0
176
     0
 90
        2
176
     1
  1
strokes_ogs.tif
176
     1
290
     0
176
     1
 40
1.0
176
     1
 40
1.0
176
     1
  0
VISUALSTYLE
  5
3F
102
{ACAD_REACTORS
330
29
102
}
330
29
100
AcDbVisualStyle
  2
JitterOff
 70
    20
177
     3
291
     1
 70
    58
 90
        2
176
     0
 90
        2
176
     0
 90
        0
176
     0
 90
        0
176
     0
 40
0.6
176
     0
 40
30.0
176
     0
 62
     7
420
 16777215
176
     0
 90
        1
176
     0
 90
        4
176
     0
 62
     7
176
     0
 62
   257
176
     0
 90
        1
176
     0
 90
        1
176
     0
 40
1.0
176
     0
 90
       10
176
     2
 62
     7
176
     0
 40
1.0
176
     0
 90
        1
176
     0
 90
        6
176
     0
 90
        2
176
     0
 62
     7
176
     0
 90
        5
176
     0
 90
        0
176
     0
 90
        0
176
     0
290
     0
176
     0
 90
        1
176
     0
 40
0.0
176
     0
 90
        0
176
     0
290
     0
176
     0
290
     1
176
     0
290
     1
176
     0
290
     0
176
     0
290
     0
176
     0
290
     0
176
     0
290
     0
176
     0
290
     0
176
     0
290
     0
176
     0
 90
       50
176
     0
 40
0.0
176
     0
 40
1.0
176
     0
 90
        0
176
     0
 62
    18
420
        0
176
     0
 90
       50
176
     0
 90
        3
176
     0
 62
     5
420
      255
176
     0
290
     0
176
     0
 90
       50
176
     0
 90
       50
176
     0
 90
       50
176
     0
290
     0
176
     0
 90
       50
176
     0
 62
   256
176
     0
 40
1.0
176
     0
 90
        2
176
     0
  1
strokes_ogs.tif
176
     0
290
     0
176
     0
 40
1.0
176
     0
 40
1.0
176
     0
  0
VISUALSTYLE
  5
37
102
{ACAD_REACTORS
330
29
102
}
330
29
100
AcDbVisualStyle
  2
Linepattern
 70
    14
177
     3
291
     1
 70
    58
 90
        2
176
     1
 90
        2
176
     1
 90
        0
176
     1
 90
        0
176
     1
 40
0.6
176
     1
 40
30.0
176
     1
 62
     7
420
 16777215
176
     1
 90
        1
176
     1
 90
        4
176
     1
 62
     7
176
     1
 62
   257
176
     1
 90
        7
176
     1
 90
        7
176
     1
 40
1.0
176
     1
 90
        8
176
     1
 62
     7
176
     1
 40
1.0
176
     1
 90
        1
176
     1
 90
        6
176
     1
 90
        2
176
     1
 62
     7
176
     1
 90
        5
176
     1
 90
        0
176
     1
 90
        0
176
     1
290
     0
176
     1
 90
        1
176
     1
 40
0.0
176
     1
 90
        0
176
     1
290
     0
176
     1
290
     1
176
     1
290
     1
176
     1
290
     0
176
     1
290
     0
176
     1
290
     0
176
     1
290
     0
176
     1
290
     0
176
     1
290
     0
176
     1
 90
       50
176
     1
 40
0.0
176
     1
 40
1.0
176
     1
 90
        0
176
     1
 62
    18
420
        0
176
     1
 90
       50
176
     1
 90
        3
176
     1
 62
     5
420
      255
176
     1
290
     0
176
     1
 90
       50
176
     1
 90
       50
176
     1
 90
       50
176
     1
290
     0
176
     1
 90
       50
176
     1
 62
   256
176
     0
 40
1.0
176
     0
 90
        2
176
     1
  1
strokes_ogs.tif
176
     1
290
     0
176
     1
 40
1.0
176
     1
 40
1.0
176
     1
  0
VISUALSTYLE
  5
40
102
{ACAD_REACTORS
330
29
102
}
330
29
100
AcDbVisualStyle
  2
OverhangOff
 70
    21
177
     3
291
     1
 70
    58
 90
        2
176
     0
 90
        2
176
     0
 90
        0
176
     0
 90
        0
176
     0
 40
0.6
176
     0
 40
30.0
176
     0
 62
     7
420
 16777215
176
     0
 90
        1
176
     0
 90
        4
176
     0
 62
     7
176
     0
 62
   257
176
     0
 90
        1
176
     0
 90
        1
176
     0
 40
1.0
176
     0
 90
        9
176
     2
 62
     7
176
     0
 40
1.0
176
     0
 90
        1
176
     0
 90
        6
176
     0
 90
        2
176
     0
 62
     7
176
     0
 90
        5
176
     0
 90
        0
176
     0
 90
        0
176
     0
290
     0
176
     0
 90
        1
176
     0
 40
0.0
176
     0
 90
        0
176
     0
290
     0
176
     0
290
     1
176
     0
290
     1
176
     0
290
     0
176
     0
290
     0
176
     0
290
     0
176
     0
290
     0
176
     0
290
     0
176
     0
290
     0
176
     0
 90
       50
176
     0
 40
0.0
176
     0
 40
1.0
176
     0
 90
        0
176
     0
 62
    18
420
        0
176
     0
 90
       50
176
     0
 90
        3
176
     0
 62
     5
420
      255
176
     0
290
     0
176
     0
 90
       50
176
     0
 90
       50
176
     0
 90
       50
176
     0
290
     0
176
     0
 90
       50
176
     0
 62
   256
176
     0
 40
1.0
176
     0
 90
        2
176
     0
  1
strokes_ogs.tif
176
     0
290
     0
176
     0
 40
1.0
176
     0
 40
1.0
176
     0
  0
VISUALSTYLE
  5
33
102
{ACAD_REACTORS
330
29
102
}
330
29
100
AcDbVisualStyle
  2
Realistic
 70
     8
177
     3
291
     0
 70
    58
 90
        2
176
     1
 90
        3
176
     1
 90
        0
176
     1
 90
        2
176
     1
 40
0.6
176
     1
 40
30.0
176
     1
 62
     7
420
 16777215
176
     1
 90
        0
176
     1
 90
        0
176
     1
 62
     7
176
     1
 62
   257
176
     1
 90
        1
176
     1
 90
        1
176
     1
 40
1.0
176
     1
 90
        8
176
     1
 62
   257
176
     1
 40
1.0
176
     1
 90
        1
176
     1
 90
        6
176
     1
 90
        2
176
     1
 62
     7
176
     1
 90
        3
176
     1
 90
        0
176
     1
 90
        0
176
     1
290
     0
176
     1
 90
       13
176
     1
 40
0.0
176
     1
 90
        0
176
     1
290
     0
176
     1
290
     1
176
     1
290
     1
176
     1
290
     0
176
     1
290
     0
176
     1
290
     0
176
     1
290
     0
176
     1
290
     0
176
     1
290
     0
176
     1
 90
       50
176
     1
 40
0.0
176
     1
 40
1.0
176
     1
 90
        0
176
     1
 62
    18
420
        0
176
     1
 90
       50
176
     1
 90
        3
176
     1
 62
     5
420
      255
176
     1
290
     0
176
     1
 90
       50
176
     1
 90
       50
176
     1
 90
       50
176
     1
290
     0
176
     1
 90
       50
176
     1
 62
   256
176
     0
 40
1.0
176
     0
 90
        2
176
     1
  1
strokes_ogs.tif
176
     1
290
     0
176
     1
 40
1.0
176
     1
 40
1.0
176
     1
  0
VISUALSTYLE
  5
3E
102
{ACAD_REACTORS
330
29
102
}
330
29
100
AcDbVisualStyle
  2
Shaded
 70
    27
177
     3
291
     0
 70
    58
 90
        2
176
     1
 90
        2
176
     1
 90
        1
176
     1
 90
        2
176
     1
 40
0.6
176
     1
 40
30.0
176
     1
 62
     7
420
 16777215
176
     1
 90
        0
176
     1
 90
        4
176
     1
 62
     7
176
     1
 62
   257
176
     1
 90
        1
176
     1
 90
        1
176
     1
 40
1.0
176
     1
 90
        8
176
     1
 62
   257
176
     1
 40
1.0
176
     1
 90
        1
176
     1
 90
        6
176
     1
 90
        2
176
     1
 62
     8
420
  7895160
176
     1
 90
        3
176
     1
 90
        0
176
     1
 90
        0
176
     1
290
     0
176
     1
 90
        5
176
     1
 40
0.0
176
     1
 90
        0
176
     1
290
     0
176
     1
290
     1
176
     1
290
     1
176
     1
290
     0
176
     1
290
     0
176
     1
290
     0
176
     1
290
     0
176
     1
290
     0
176
     1
290
     0
176
     1
 90
       50
176
     1
 40
0.0
176
     1
 40
1.0
176
     1
 90
        0
176
     1
 62
    18
420
        0
176
     1
 90
       50
176
     1
 90
        3
176
     1
 62
     5
420
      255
176
     1
290
     0
176
     1
 90
       50
176
     1
 90
       50
176
     1
 90
       50
176
     1
290
     0
176
     1
 90
       50
176
     1
 62
   256
176
     0
 40
1.0
176
     0
 90
        2
176
     1
  1
strokes_ogs.tif
176
     1
290
     0
176
     1
 40
1.0
176
     1
 40
1.0
176
     1
  0
VISUALSTYLE
  5
3D
102
{ACAD_REACTORS
330
29
102
}
330
29
100
AcDbVisualStyle
  2
Shaded with edges
 70
    26
177
     3
291
     0
 70
    58
 90
        2
176
     1
 90
        2
176
     1
 90
        1
176
     1
 90
        2
176
     1
 40
0.6
176
     1
 40
30.0
176
     1
 62
     7
420
 16777215
176
     1
 90
        1
176
     1
 90
        2
176
     1
 62
     7
176
     1
 62
   257
176
     1
 90
        2
176
     1
 90
        1
176
     1
 40
1.0
176
     1
 90
        8
176
     1
 62
   257
176
     1
 40
1.0
176
     1
 90
        1
176
     1
 90
        6
176
     1
 90
        2
176
     1
 62
     7
176
     1
 90
        3
176
     1
 90
        0
176
     1
 90
        0
176
     1
290
     0
176
     1
 90
        5
176
     1
 40
0.0
176
     1
 90
        0
176
     1
290
     0
176
     1
290
     1
176
     1
290
     1
176
     1
290
     0
176
     1
290
     0
176
     1
290
     0
176
     1
290
     0
176
     1
290
     0
176
     1
290
     0
176
     1
 90
       50
176
     1
 40
0.0
176
     1
 40
1.0
176
     1
 90
        0
176
     1
 62
    18
420
        0
176
     1
 90
       50
176
     1
 90
        3
176
     1
 62
     5
420
      255
176
     1
290
     0
176
     1
 90
       50
176
     1
 90
       50
176
     1
 90
       50
176
     1
290
     0
176
     1
 90
       50
176
     1
 62
   256
176
     0
 40
1.0
176
     0
 90
        2
176
     1
  1
strokes_ogs.tif
176
     1
290
     0
176
     1
 40
1.0
176
     1
 40
1.0
176
     1
  0
VISUALSTYLE
  5
3A
102
{ACAD_REACTORS
330
29
102
}
330
29
100
AcDbVisualStyle
  2
Shades of Gray
 70
    23
177
     3
291
     0
 70
    58
 90
        2
176
     1
 90
        2
176
     1
 90
        3
176
     1
 90
        0
176
     1
 40
0.6
176
     1
 40
30.0
176
     1
 62
     7
420
 16777215
176
     1
 90
        2
176
     1
 90
        2
176
     1
 62
     7
176
     1
 62
     7
176
     1
 90
        1
176
     1
 90
        1
176
     1
 40
40.0
176
     1
 90
        8
176
     1
 62
     7
176
     1
 40
1.0
176
     1
 90
        1
176
     1
 90
        6
176
     1
 90
        2
176
     1
 62
     7
176
     1
 90
        3
176
     1
 90
        0
176
     1
 90
        0
176
     1
290
     0
176
     1
 90
        1
176
     1
 40
0.0
176
     1
 90
        0
176
     1
290
     0
176
     1
290
     1
176
     1
290
     1
176
     1
290
     0
176
     1
290
     0
176
     1
290
     0
176
     1
290
     0
176
     1
290
     0
176
     1
290
     0
176
     1
 90
       50
176
     1
 40
0.0
176
     1
 40
1.0
176
     1
 90
        0
176
     1
 62
    18
420
        0
176
     1
 90
       50
176
     1
 90
        3
176
     1
 62
     5
420
      255
176
     1
290
     0
176
     1
 90
       50
176
     1
 90
       50
176
     1
 90
       50
176
     1
290
     0
176
     1
 90
       50
176
     1
 62
   256
176
     0
 40
1.0
176
     0
 90
        2
176
     1
  1
strokes_ogs.tif
176
     1
290
     0
176
     1
 40
1.0
176
     1
 40
1.0
176
     1
  0
VISUALSTYLE
  5
3B
102
{ACAD_REACTORS
330
29
102
}
330
29
100
AcDbVisualStyle
  2
Sketchy
 70
    24
177
     3
291
     0
 70
    58
 90
        1
176
     1
 90
        2
176
     1
 90
        2
176
     1
 90
        0
176
     1
 40
0.6
176
     1
 40
30.0
176
     1
 62
     7
420
 16777215
176
     1
 90
        2
176
     1
 90
        2
176
     1
 62
     7
176
     1
 62
     7
176
     1
 90
        1
176
     1
 90
        1
176
     1
 40
40.0
176
     1
 90
       11
176
     1
 62
     7
176
     1
 40
1.0
176
     1
 90
        1
176
     1
 90
        6
176
     1
 90
        2
176
     1
 62
     7
176
     1
 90
        6
176
     1
 90
        0
176
     1
 90
        0
176
     1
290
     0
176
     1
 90
        1
176
     1
 40
0.0
176
     1
 90
        0
176
     1
290
     0
176
     1
290
     1
176
     1
290
     1
176
     1
290
     0
176
     1
290
     0
176
     1
290
     0
176
     1
290
     0
176
     1
290
     0
176
     1
290
     0
176
     1
 90
       50
176
     1
 40
0.0
176
     1
 40
1.0
176
     1
 90
        0
176
     1
 62
    18
420
        0
176
     1
 90
       50
176
     1
 90
        3
176
     1
 62
     5
420
      255
176
     1
290
     0
176
     1
 90
       50
176
     1
 90
       50
176
     1
 90
       50
176
     1
290
     0
176
     1
 90
       50
176
     1
 62
   256
176
     0
 40
1.0
176
     0
 90
        2
176
     1
  1
strokes_ogs.tif
176
     1
290
     0
176
     1
 40
1.0
176
     1
 40
1.0
176
     1
  0
VISUALSTYLE
  5
36
102
{ACAD_REACTORS
330
29
102
}
330
29
100
AcDbVisualStyle
  2
Thicken
 70
    13
177
     3
291
     1
 70
    58
 90
        2
176
     1
 90
        2
176
     1
 90
        0
176
     1
 90
        0
176
     1
 40
0.6
176
     1
 40
30.0
176
     1
 62
     7
420
 16777215
176
     1
 90
        1
176
     1
 90
        4
176
     1
 62
     7
176
     1
 62
   257
176
     1
 90
        1
176
     1
 90
        1
176
     1
 40
1.0
176
     1
 90
       12
176
     1
 62
     7
176
     1
 40
1.0
176
     1
 90
        1
176
     1
 90
        6
176
     1
 90
        2
176
     1
 62
     7
176
     1
 90
        5
176
     1
 90
        0
176
     1
 90
        0
176
     1
290
     0
176
     1
 90
        1
176
     1
 40
0.0
176
     1
 90
        0
176
     1
290
     0
176
     1
290
     1
176
     1
290
     1
176
     1
290
     0
176
     1
290
     0
176
     1
290
     0
176
     1
290
     0
176
     1
290
     0
176
     1
290
     0
176
     1
 90
       50
176
     1
 40
0.0
176
     1
 40
1.0
176
     1
 90
        0
176
     1
 62
    18
420
        0
176
     1
 90
       50
176
     1
 90
        3
176
     1
 62
     5
420
      255
176
     1
290
     0
176
     1
 90
       50
176
     1
 90
       50
176
     1
 90
       50
176
     1
290
     0
176
     1
 90
       50
176
     1
 62
   256
176
     0
 40
1.0
176
     0
 90
        2
176
     1
  1
strokes_ogs.tif
176
     1
290
     0
176
     1
 40
1.0
176
     1
 40
1.0
176
     1
  0
VISUALSTYLE
  5
30
102
{ACAD_REACTORS
330
29
102
}
330
29
100
AcDbVisualStyle
  2
Wireframe
 70
     5
177
     3
291
     0
 70
    58
 90
        0
176
     1
 90
        2
176
     1
 90
        0
176
     1
 90
        0
176
     1
 40
0.6
176
     1
 40
30.0
176
     1
 62
     7
420
 16777215
176
     1
 90
        1
176
     1
 90
        4
176
     1
 62
     7
176
     1
 62
   257
176
     1
 90
        1
176
     1
 90
        1
176
     1
 40
1.0
176
     1
 90
        0
176
     1
 62
   257
176
     1
 40
1.0
176
     1
 90
        1
176
     1
 90
        6
176
     1
 90
        2
176
     1
 62
     7
176
     1
 90
        3
176
     1
 90
        0
176
     1
 90
        0
176
     1
290
     0
176
     1
 90
        1
176
     1
 40
0.0
176
     1
 90
        0
176
     1
290
     0
176
     1
290
     1
176
     1
290
     1
176
     1
290
     0
176
     1
290
     0
176
     1
290
     0
176
     1
290
     0
176
     1
290
     0
176
     1
290
     0
176
     1
 90
       50
176
     1
 40
0.0
176
     1
 40
1.0
176
     1
 90
        0
176
     1
 62
    18
420
        0
176
     1
 90
       50
176
     1
 90
        3
176
     1
 62
     5
420
      255
176
     1
290
     0
176
     1
 90
       50
176
     1
 90
       50
176
     1
 90
       50
176
     1
290
     0
176
     1
 90
       50
176
     1
 62
   256
176
     0
 40
1.0
176
     0
 90
        2
176
     1
  1
strokes_ogs.tif
176
     1
290
     0
176
     1
 40
1.0
176
     1
 40
1.0
176
     1
  0
VISUALSTYLE
  5
3C
102
{ACAD_REACTORS
330
29
102
}
330
29
100
AcDbVisualStyle
  2
X-Ray
 70
    25
177
     3
291
     0
 70
    58
 90
        2
176
     1
 90
        2
176
     1
 90
        1
176
     1
 90
        1
176
     1
 40
0.5
176
     1
 40
30.0
176
     1
 62
     7
420
 16777215
176
     1
 90
        1
176
     1
 90
        0
176
     1
 62
     7
176
     1
 62
   257
176
     1
 90
        1
176
     1
 90
        1
176
     1
 40
1.0
176
     1
 90
        8
176
     1
 62
     7
176
     1
 40
1.0
176
     1
 90
        1
176
     1
 90
        6
176
     1
 90
        2
176
     1
 62
     7
176
     1
 90
        3
176
     1
 90
        0
176
     1
 90
        0
176
     1
290
     0
176
     1
 90
       13
176
     1
 40
0.0
176
     1
 90
        0
176
     1
290
     0
176
     1
290
     1
176
     1
290
     1
176
     1
290
     0
176
     1
290
     0
176
     1
290
     0
176
     1
290
     0
176
     1
290
     0
176
     1
290
     0
176
     1
 90
       50
176
     1
 40
0.0
176
     1
 40
1.0
176
     1
 90
        0
176
     1
 62
    18
420
        0
176
     1
 90
       50
176
     1
 90
        3
176
     1
 62
     5
420
      255
176
     1
290
     0
176
     1
 90
       50
176
     1
 90
       50
176
     1
 90
       50
176
     1
290
     0
176
     1
 90
       50
176
     1
 62
   256
176
     0
 40
1.0
176
     0
 90
        2
176
     1
  1
strokes_ogs.tif
176
     1
290
     0
176
     1
 40
1.0
176
     1
 40
1.0
176
     1
  0
DICTIONARYVAR
  5
314
102
{ACAD_REACTORS
330
30F
102
}
330
30F
100
DictionaryVariables
280
     0
  1
1:1
  0
DICTIONARYVAR
  5
311
102
{ACAD_REACTORS
330
30F
102
}
330
30F
100
DictionaryVariables
280
     0
  1
STANDARD
  0
DICTIONARYVAR
  5
310
102
{ACAD_REACTORS
330
30F
102
}
330
30F
100
DictionaryVariables
280
     0
  1
STANDARD
  0
DICTIONARYVAR
  5
312
102
{ACAD_REACTORS
330
30F
102
}
330
30F
100
DictionaryVariables
280
     0
  1
Imperial24
  0
DICTIONARYVAR
  5
313
102
{ACAD_REACTORS
330
30F
102
}
330
30F
100
DictionaryVariables
280
     0
  1
Imperial24
  0
DICTIONARY
  5
1A
330
19
100
AcDbDictionary
280
     1
281
     1
  3
BUMPTILE
360
1C
  3
DIFFUSETILE
360
1B
  3
OPACITYTILE
360
1F
  3
REFLECTIONTILE
360
1E
  3
REFRACTIONTILE
360
20
  3
SPECULARTILE
360
1D
  0
DICTIONARY
  5
12
330
11
100
AcDbDictionary
280
     1
281
     1
  3
BUMPTILE
360
14
  3
DIFFUSETILE
360
13
  3
OPACITYTILE
360
17
  3
REFLECTIONTILE
360
16
  3
REFRACTIONTILE
360
18
  3
SPECULARTILE
360
15
  0
DICTIONARY
  5
22
330
21
100
AcDbDictionary
280
     1
281
     1
  3
BUMPTILE
360
24
  3
DIFFUSETILE
360
23
  3
OPACITYTILE
360
27
  3
REFLECTIONTILE
360
26
  3
REFRACTIONTILE
360
28
  3
SPECULARTILE
360
25
  0
DICTIONARY
  5
315
330
65
100
AcDbDictionary
280
     1
281
     1
  3
ACAD_ROUNDTRIP_2008_TABLESTYLE_CELLSTYLEMAP
360
316
  0
XRECORD
  5
1C
102
{ACAD_REACTORS
330
1A
102
}
330
1A
100
AcDbXrecord
280
     1
270
     1
271
     1
  0
XRECORD
  5
1B
102
{ACAD_REACTORS
330
1A
102
}
330
1A
100
AcDbXrecord
280
     1
270
     1
271
     1
  0
XRECORD
  5
1F
102
{ACAD_REACTORS
330
1A
102
}
330
1A
100
AcDbXrecord
280
     1
270
     1
271
     1
  0
XRECORD
  5
1E
102
{ACAD_REACTORS
330
1A
102
}
330
1A
100
AcDbXrecord
280
     1
270
     1
271
     1
  0
XRECORD
  5
20
102
{ACAD_REACTORS
330
1A
102
}
330
1A
100
AcDbXrecord
280
     1
270
     1
271
     1
  0
XRECORD
  5
1D
102
{ACAD_REACTORS
330
1A
102
}
330
1A
100
AcDbXrecord
280
     1
270
     1
271
     1
  0
XRECORD
  5
14
102
{ACAD_REACTORS
330
12
102
}
330
12
100
AcDbXrecord
280
     1
270
     1
271
     1
  0
XRECORD
  5
13
102
{ACAD_REACTORS
330
12
102
}
330
12
100
AcDbXrecord
280
     1
270
     1
271
     1
  0
XRECORD
  5
17
102
{ACAD_REACTORS
330
12
102
}
330
12
100
AcDbXrecord
280
     1
270
     1
271
     1
  0
XRECORD
  5
16
102
{ACAD_REACTORS
330
12
102
}
330
12
100
AcDbXrecord
280
     1
270
     1
271
     1
  0
XRECORD
  5
18
102
{ACAD_REACTORS
330
12
102
}
330
12
100
AcDbXrecord
280
     1
270
     1
271
     1
  0
XRECORD
  5
15
102
{ACAD_REACTORS
330
12
102
}
330
12
100
AcDbXrecord
280
     1
270
     1
271
     1
  0
XRECORD
  5
24
102
{ACAD_REACTORS
330
22
102
}
330
22
100
AcDbXrecord
280
     1
270
     1
271
     1
  0
XRECORD
  5
23
102
{ACAD_REACTORS
330
22
102
}
330
22
100
AcDbXrecord
280
     1
270
     1
271
     1
  0
XRECORD
  5
27
102
{ACAD_REACTORS
330
22
102
}
330
22
100
AcDbXrecord
280
     1
270
     1
271
     1
  0
XRECORD
  5
26
102
{ACAD_REACTORS
330
22
102
}
330
22
100
AcDbXrecord
280
     1
270
     1
271
     1
  0
XRECORD
  5
28
102
{ACAD_REACTORS
330
22
102
}
330
22
100
AcDbXrecord
280
     1
270
     1
271
     1
  0
XRECORD
  5
25
102
{ACAD_REACTORS
330
22
102
}
330
22
100
AcDbXrecord
280
     1
270
     1
271
     1
  0
CELLSTYLEMAP
  5
316
102
{ACAD_REACTORS
330
315
102
}
330
315
100
AcDbCellStyleMap
 90
        3
300
CELLSTYLE
  1
TABLEFORMAT_BEGIN
 90
        5
170
     1
 91
        0
 92
    32768
 62
   257
 93
        1
300
CONTENTFORMAT
  1
CONTENTFORMAT_BEGIN
 90
        0
 91
        0
 92
      512
 93
        0
300

 40
0.0
140
1.0
 94
        5
 62
     0
340
55
144
0.25
309
CONTENTFORMAT_END
171
     0
 94
        0
309
TABLEFORMAT_END
  1
CELLSTYLE_BEGIN
 90
        1
 91
        1
300
_TITLE
309
CELLSTYLE_END
300
CELLSTYLE
  1
TABLEFORMAT_BEGIN
 90
        5
170
     1
 91
        0
 92
        0
 62
   257
 93
        1
300
CONTENTFORMAT
  1
CONTENTFORMAT_BEGIN
 90
        0
 91
        0
 92
      512
 93
        0
300

 40
0.0
140
1.0
 94
        5
 62
     0
340
55
144
0.18
309
CONTENTFORMAT_END
171
     0
 94
        0
309
TABLEFORMAT_END
  1
CELLSTYLE_BEGIN
 90
        2
 91
        1
300
_HEADER
309
CELLSTYLE_END
300
CELLSTYLE
  1
TABLEFORMAT_BEGIN
 90
        5
170
     1
 91
        0
 92
        0
 62
   257
 93
        1
300
CONTENTFORMAT
  1
CONTENTFORMAT_BEGIN
 90
        0
 91
        0
 92
      512
 93
        0
300

 40
0.0
140
1.0
 94
        2
 62
     0
340
55
144
0.18
309
CONTENTFORMAT_END
171
     0
 94
        0
309
TABLEFORMAT_END
  1
CELLSTYLE_BEGIN
 90
        3
 91
        2
300
_DATA
309
CELLSTYLE_END
  0
ENDSEC
  0
EOF
